  0
SECTION
  2
HEADER
  9
$ACADVER
  1
AC1015
  9
$ACADMAINTVER
 70
    20
  9
$DWGCODEPAGE
  3
ANSI_932
  9
$INSBASE
 10
0.0
 20
0.0
 30
0.0
  9
$EXTMIN
 10
-194.25
 20
-133.5
 30
0.0
  9
$EXTMAX
 10
194.80000305
 20
132.6000061
 30
0.0
  9
$LIMMIN
 10
-210.0
 20
-148.5
  9
$LIMMAX
 10
210.0
 20
148.5
  9
$ORTHOMODE
 70
     0
  9
$REGENMODE
 70
     1
  9
$FILLMODE
 70
     1
  9
$QTEXTMODE
 70
     0
  9
$MIRRTEXT
 70
     1
  9
$LTSCALE
 40
1.0
  9
$ATTMODE
 70
     1
  9
$TEXTSIZE
 40
3.200000049999999
  9
$TRACEWID
 40
0.05
  9
$TEXTSTYLE
  7
MX_NOTE_STANDARD
  9
$CLAYER
  8
0
  9
$CELTYPE
  6
CONTINUOUS
  9
$CECOLOR
 62
   256
  9
$CELTSCALE
 40
1.0
  9
$DISPSILH
 70
     0
  9
$DIMSCALE
 40
1.0
  9
$DIMASZ
 40
2.5
  9
$DIMEXO
 40
1.5
  9
$DIMDLI
 40
3.75
  9
$DIMRND
 40
0.0
  9
$DIMDLE
 40
0.0
  9
$DIMEXE
 40
1.5
  9
$DIMTP
 40
0.0
  9
$DIMTM
 40
0.0
  9
$DIMTXT
 40
3.200000049999999
  9
$DIMCEN
 40
2.5
  9
$DIMTSZ
 40
0.0
  9
$DIMTOL
 70
     0
  9
$DIMLIM
 70
     0
  9
$DIMTIH
 70
     0
  9
$DIMTOH
 70
     0
  9
$DIMSE1
 70
     0
  9
$DIMSE2
 70
     0
  9
$DIMTAD
 70
     1
  9
$DIMZIN
 70
     8
  9
$DIMBLK
  1

  9
$DIMASO
 70
     1
  9
$DIMSHO
 70
     1
  9
$DIMPOST
  1

  9
$DIMAPOST
  1

  9
$DIMALT
 70
     0
  9
$DIMALTD
 70
     4
  9
$DIMALTF
 40
0.03937008
  9
$DIMLFAC
 40
1.0
  9
$DIMTOFL
 70
     1
  9
$DIMTVP
 40
0.0
  9
$DIMTIX
 70
     0
  9
$DIMSOXD
 70
     0
  9
$DIMSAH
 70
     1
  9
$DIMBLK1
  1
OPEN30
  9
$DIMBLK2
  1
OPEN30
  9
$DIMSTYLE
  2
MXDIMSTYLE
  9
$DIMCLRD
 70
     0
  9
$DIMCLRE
 70
     0
  9
$DIMCLRT
 70
     0
  9
$DIMTFAC
 40
1.0
  9
$DIMGAP
 40
1.0
  9
$DIMJUST
 70
     0
  9
$DIMSD1
 70
     0
  9
$DIMSD2
 70
     0
  9
$DIMTOLJ
 70
     1
  9
$DIMTZIN
 70
     0
  9
$DIMALTZ
 70
     0
  9
$DIMALTTZ
 70
     0
  9
$DIMUPT
 70
     0
  9
$DIMDEC
 70
     4
  9
$DIMTDEC
 70
     4
  9
$DIMALTU
 70
     2
  9
$DIMALTTD
 70
     2
  9
$DIMTXSTY
  7
Standard
  9
$DIMAUNIT
 70
     0
  9
$DIMADEC
 70
     0
  9
$DIMALTRND
 40
0.0
  9
$DIMAZIN
 70
     0
  9
$DIMDSEP
 70
    46
  9
$DIMATFIT
 70
     3
  9
$DIMFRAC
 70
     0
  9
$DIMLDRBLK
  1
OPEN30
  9
$DIMLUNIT
 70
     2
  9
$DIMLWD
 70
    -2
  9
$DIMLWE
 70
    -2
  9
$DIMTMOVE
 70
     0
  9
$LUNITS
 70
     2
  9
$LUPREC
 70
     4
  9
$SKETCHINC
 40
0.1
  9
$FILLETRAD
 40
0.0
  9
$AUNITS
 70
     0
  9
$AUPREC
 70
     0
  9
$MENU
  1
acad
  9
$ELEVATION
 40
0.0
  9
$PELEVATION
 40
0.0
  9
$THICKNESS
 40
0.0
  9
$LIMCHECK
 70
     0
  9
$CHAMFERA
 40
0.0
  9
$CHAMFERB
 40
0.0
  9
$CHAMFERC
 40
0.0
  9
$CHAMFERD
 40
0.0
  9
$SKPOLY
 70
     0
  9
$TDCREATE
 40
2454068.406724537
  9
$TDUCREATE
 40
2454068.031724538
  9
$TDUPDATE
 40
2454250.442331551
  9
$TDUUPDATE
 40
2454250.067331551
  9
$TDINDWG
 40
0.0041248958
  9
$TDUSRTIMER
 40
0.0041247106
  9
$USRTIMER
 70
     1
  9
$ANGBASE
 50
0.0
  9
$ANGDIR
 70
     0
  9
$PDMODE
 70
     0
  9
$PDSIZE
 40
0.0
  9
$PLINEWID
 40
0.0
  9
$SPLFRAME
 70
     0
  9
$SPLINETYPE
 70
     6
  9
$SPLINESEGS
 70
     8
  9
$HANDSEED
  5
24E
  9
$SURFTAB1
 70
     6
  9
$SURFTAB2
 70
     6
  9
$SURFTYPE
 70
     6
  9
$SURFU
 70
     6
  9
$SURFV
 70
     6
  9
$UCSBASE
  2

  9
$UCSNAME
  2

  9
$UCSORG
 10
0.0
 20
0.0
 30
0.0
  9
$UCSXDIR
 10
1.0
 20
0.0
 30
0.0
  9
$UCSYDIR
 10
0.0
 20
1.0
 30
0.0
  9
$UCSORTHOREF
  2

  9
$UCSORTHOVIEW
 70
     0
  9
$UCSORGTOP
 10
0.0
 20
0.0
 30
0.0
  9
$UCSORGBOTTOM
 10
0.0
 20
0.0
 30
0.0
  9
$UCSORGLEFT
 10
0.0
 20
0.0
 30
0.0
  9
$UCSORGRIGHT
 10
0.0
 20
0.0
 30
0.0
  9
$UCSORGFRONT
 10
0.0
 20
0.0
 30
0.0
  9
$UCSORGBACK
 10
0.0
 20
0.0
 30
0.0
  9
$PUCSBASE
  2

  9
$PUCSNAME
  2

  9
$PUCSORG
 10
0.0
 20
0.0
 30
0.0
  9
$PUCSXDIR
 10
1.0
 20
0.0
 30
0.0
  9
$PUCSYDIR
 10
0.0
 20
1.0
 30
0.0
  9
$PUCSORTHOREF
  2

  9
$PUCSORTHOVIEW
 70
     0
  9
$PUCSORGTOP
 10
0.0
 20
0.0
 30
0.0
  9
$PUCSORGBOTTOM
 10
0.0
 20
0.0
 30
0.0
  9
$PUCSORGLEFT
 10
0.0
 20
0.0
 30
0.0
  9
$PUCSORGRIGHT
 10
0.0
 20
0.0
 30
0.0
  9
$PUCSORGFRONT
 10
0.0
 20
0.0
 30
0.0
  9
$PUCSORGBACK
 10
0.0
 20
0.0
 30
0.0
  9
$USERI1
 70
     0
  9
$USERI2
 70
     0
  9
$USERI3
 70
     0
  9
$USERI4
 70
     0
  9
$USERI5
 70
     0
  9
$USERR1
 40
0.0
  9
$USERR2
 40
0.0
  9
$USERR3
 40
0.0
  9
$USERR4
 40
0.0
  9
$USERR5
 40
0.0
  9
$WORLDVIEW
 70
     1
  9
$SHADEDGE
 70
     3
  9
$SHADEDIF
 70
    70
  9
$TILEMODE
 70
     1
  9
$MAXACTVP
 70
    16
  9
$PINSBASE
 10
0.0
 20
0.0
 30
0.0
  9
$PLIMCHECK
 70
     0
  9
$PEXTMIN
 10
1.000000000000000E+20
 20
1.000000000000000E+20
 30
1.000000000000000E+20
  9
$PEXTMAX
 10
-1.000000000000000E+20
 20
-1.000000000000000E+20
 30
-1.000000000000000E+20
  9
$PLIMMIN
 10
0.0
 20
0.0
  9
$PLIMMAX
 10
12.0
 20
9.0
  9
$UNITMODE
 70
     0
  9
$VISRETAIN
 70
     0
  9
$PLINEGEN
 70
     1
  9
$PSLTSCALE
 70
     0
  9
$TREEDEPTH
 70
  3020
  9
$CMLSTYLE
  2
Standard
  9
$CMLJUST
 70
     0
  9
$CMLSCALE
 40
1.0
  9
$PROXYGRAPHICS
 70
     1
  9
$MEASUREMENT
 70
     0
  9
$CELWEIGHT
370
    -1
  9
$ENDCAPS
280
     0
  9
$JOINSTYLE
280
     0
  9
$LWDISPLAY
290
     0
  9
$INSUNITS
 70
     0
  9
$HYPERLINKBASE
  1

  9
$STYLESHEET
  1

  9
$XEDIT
290
     1
  9
$CEPSNTYPE
380
     0
  9
$PSTYLEMODE
290
     1
  9
$FINGERPRINTGUID
  2
{D54FFB81-7924-417C-9934-17A0EC309BD0}
  9
$VERSIONGUID
  2
{DACB02B3-3692-49CC-85FE-843AAEFAFF7A}
  9
$EXTNAMES
290
     1
  9
$PSVPSCALE
 40
0.0
  9
$OLESTARTUP
290
     0
  0
ENDSEC
  0
SECTION
  2
CLASSES
  0
CLASS
  1
ACDBDICTIONARYWDFLT
  2
AcDbDictionaryWithDefault
  3
ObjectDBX Classes
 90
        0
280
     0
281
     0
  0
CLASS
  1
TABLESTYLE
  2
AcDbTableStyle
  3
ObjectDBX Classes
 90
     2047
280
     0
281
     0
  0
CLASS
  1
DICTIONARYVAR
  2
AcDbDictionaryVar
  3
ObjectDBX Classes
 90
        0
280
     0
281
     0
  0
CLASS
  1
ACDBPLACEHOLDER
  2
AcDbPlaceHolder
  3
ObjectDBX Classes
 90
        0
280
     0
281
     0
  0
CLASS
  1
LAYOUT
  2
AcDbLayout
  3
ObjectDBX Classes
 90
        0
280
     0
281
     0
  0
ENDSEC
  0
SECTION
  2
TABLES
  0
TABLE
  2
VPORT
  5
21D
330
0
100
AcDbSymbolTable
 70
     2
  0
VPORT
  5
247
330
21D
100
AcDbSymbolTableRecord
100
AcDbViewportTableRecord
  2
*Active
 70
     0
 10
0.0
 20
0.0
 11
1.0
 21
1.0
 12
1.671299011783787
 22
28.24783058485122
 13
0.0
 23
0.0
 14
1.0
 24
1.0
 15
0.0
 25
0.0
 16
0.0
 26
0.0
 36
1.0
 17
0.0
 27
0.0
 37
0.0
 40
344.734504784309
 41
1.481971153846153
 42
50.0
 43
0.0
 44
0.0
 50
0.0
 51
0.0
 71
     0
 72
   100
 73
     1
 74
     1
 75
     0
 76
     0
 77
     0
 78
     0
281
     0
 65
     1
110
0.0
120
0.0
130
0.0
111
1.0
121
0.0
131
0.0
112
0.0
122
1.0
132
0.0
 79
     0
146
0.0
  0
ENDTAB
  0
TABLE
  2
LTYPE
  5
21A
330
0
100
AcDbSymbolTable
 70
     1
  0
LTYPE
  5
228
330
21A
100
AcDbSymbolTableRecord
100
AcDbLinetypeTableRecord
  2
ByBlock
 70
     0
  3

 72
    65
 73
     0
 40
0.0
  0
LTYPE
  5
229
330
21A
100
AcDbSymbolTableRecord
100
AcDbLinetypeTableRecord
  2
ByLayer
 70
     0
  3

 72
    65
 73
     0
 40
0.0
  0
LTYPE
  5
22A
330
21A
100
AcDbSymbolTableRecord
100
AcDbLinetypeTableRecord
  2
CONTINUOUS
 70
     0
  3
Solid line
 72
    65
 73
     0
 40
0.0
  0
ENDTAB
  0
TABLE
  2
LAYER
  5
217
330
0
100
AcDbSymbolTable
 70
     2
  0
LAYER
  5
225
330
217
100
AcDbSymbolTableRecord
100
AcDbLayerTableRecord
  2
0
 70
     0
 62
     7
  6
CONTINUOUS
370
    -3
390
224
  0
LAYER
  5
23D
330
217
100
AcDbSymbolTableRecord
100
AcDbLayerTableRecord
  2
DEFPOINTS
 70
     0
 62
     7
  6
CONTINUOUS
290
     0
370
    -3
390
224
  0
ENDTAB
  0
TABLE
  2
STYLE
  5
218
330
0
100
AcDbSymbolTable
 70
     2
  0
STYLE
  5
226
330
218
100
AcDbSymbolTableRecord
100
AcDbTextStyleTableRecord
  2
Standard
 70
     0
 40
0.0
 41
1.0
 50
0.0
 71
     0
 42
0.2
  3
txt
  4

  0
STYLE
  5
23B
330
218
100
AcDbSymbolTableRecord
100
AcDbTextStyleTableRecord
  2
MX_NOTE_STANDARD
 70
     0
 40
0.0
 41
1.0
 50
0.0
 71
     0
 42
3.200000049999999
  3
txt.shx
  4
extfont.shx
  0
ENDTAB
  0
TABLE
  2
VIEW
  5
21B
330
0
100
AcDbSymbolTable
 70
     0
  0
ENDTAB
  0
TABLE
  2
UCS
  5
21C
330
0
100
AcDbSymbolTable
 70
     0
  0
ENDTAB
  0
TABLE
  2
APPID
  5
21E
330
0
100
AcDbSymbolTable
 70
     1
  0
APPID
  5
227
330
21E
100
AcDbSymbolTableRecord
100
AcDbRegAppTableRecord
  2
ACAD
 70
     0
  0
ENDTAB
  0
TABLE
  2
DIMSTYLE
  5
21F
330
0
100
AcDbSymbolTable
 70
     1
100
AcDbDimStyleTable
 71
     0
  0
DIMSTYLE
105
23E
330
21F
100
AcDbSymbolTableRecord
100
AcDbDimStyleTableRecord
  2
MXDIMSTYLE
 70
     0
 41
2.5
 42
1.5
 43
3.75
 44
1.5
 73
     0
 74
     0
 77
     1
 78
     8
140
3.200000049999999
141
2.5
143
0.03937008
147
1.0
171
     4
172
     1
173
     1
274
     4
279
     2
284
     8
285
     8
286
     8
340
23B
  0
ENDTAB
  0
TABLE
  2
BLOCK_RECORD
  5
216
330
0
100
AcDbSymbolTable
 70
     1
  0
BLOCK_RECORD
  5
237
330
216
100
AcDbSymbolTableRecord
100
AcDbBlockTableRecord
  2
*Model_Space
340
23A
  0
BLOCK_RECORD
  5
233
330
216
100
AcDbSymbolTableRecord
100
AcDbBlockTableRecord
  2
*Paper_Space
340
236
  0
BLOCK_RECORD
  5
241
330
216
100
AcDbSymbolTableRecord
100
AcDbBlockTableRecord
  2
_OPEN30
340
0
  0
ENDTAB
  0
ENDSEC
  0
SECTION
  2
BLOCKS
  0
BLOCK
  5
238
330
237
100
AcDbEntity
  8
0
100
AcDbBlockBegin
  2
*Model_Space
 70
     0
 10
0.0
 20
0.0
 30
0.0
  3
*Model_Space
  1

  0
ENDBLK
  5
239
330
237
100
AcDbEntity
  8
0
100
AcDbBlockEnd
  0
BLOCK
  5
234
330
233
100
AcDbEntity
 67
     1
  8
0
100
AcDbBlockBegin
  2
*Paper_Space
 70
     0
 10
0.0
 20
0.0
 30
0.0
  3
*Paper_Space
  1

  0
ENDBLK
  5
235
330
233
100
AcDbEntity
 67
     1
  8
0
100
AcDbBlockEnd
  0
BLOCK
  5
1F
330
241
100
AcDbEntity
  8
0
  6
ByBlock
 62
     0
100
AcDbBlockBegin
  2
_OPEN30
 70
     2
 10
0.0
 20
0.0
 30
0.0
  3
_OPEN30
  1

  0
LINE
  5
20
330
241
100
AcDbEntity
  8
0
  6
ByBlock
 62
     0
100
AcDbLine
 10
-1.0
 20
0.267949
 30
0.0
 11
0.0
 21
0.0
 31
0.0
  0
LINE
  5
21
330
241
100
AcDbEntity
  8
0
  6
ByBlock
 62
     0
100
AcDbLine
 10
0.0
 20
0.0
 30
0.0
 11
-1.0
 21
-0.267949
 31
0.0
  0
LINE
  5
22
330
241
100
AcDbEntity
  8
0
  6
ByBlock
 62
     0
100
AcDbLine
 10
0.0
 20
0.0
 30
0.0
 11
-1.0
 21
0.0
 31
0.0
  0
ENDBLK
  5
23
330
241
100
AcDbEntity
  8
0
  6
ByBlock
 62
     0
100
AcDbBlockEnd
  0
ENDSEC
  0
SECTION
  2
ENTITIES
  0
LINE
  5
24
330
237
100
AcDbEntity
  8
0
  6
Continuous
 62
     7
100
AcDbLine
 10
33.5
 20
23.45582953
 30
0.0
 11
44.0
 21
23.45582953
 31
0.0
  0
LINE
  5
25
330
237
100
AcDbEntity
  8
0
  6
Continuous
 62
     7
100
AcDbLine
 10
-16.0
 20
24.45582953
 30
0.0
 11
-16.0
 21
82.45582953000001
 31
0.0
  0
ARC
  5
26
330
237
100
AcDbEntity
  8
0
  6
Continuous
 62
     7
100
AcDbCircle
 10
108.70070785
 20
41.45582953
 30
0.0
 40
16.0
100
AcDbArc
 50
41.81031489999999
 51
318.1896851
  0
LINE
  5
27
330
237
100
AcDbEntity
  8
0
  6
Continuous
 62
     7
100
AcDbLine
 10
-75.61737819
 20
-5.544170679999999
 30
0.0
 11
-75.61737819
 21
3.455829319999999
 31
0.0
  0
LINE
  5
28
330
237
100
AcDbEntity
  8
0
  6
Continuous
 62
     7
100
AcDbLine
 10
-129.11737822
 20
94.45582932
 30
0.0
 11
-112.11737822
 21
94.45582932
 31
0.0
  0
LINE
  5
29
330
237
100
AcDbEntity
  8
0
  6
Continuous
 62
     7
100
AcDbLine
 10
-165.61737822
 20
-5.544170679999999
 30
0.0
 11
-165.61737822
 21
3.455829319999999
 31
0.0
  0
LINE
  5
2A
330
237
100
AcDbEntity
  8
0
  6
Continuous
 62
     7
100
AcDbLine
 10
-164.61737822
 20
4.45582932
 30
0.0
 11
-135.56862744
 21
4.45582932
 31
0.0
  0
LINE
  5
2B
330
237
100
AcDbEntity
  8
0
  6
Continuous
 62
     2
100
AcDbLine
 10
-136.61737822
 20
23.3433224
 30
0.0
 11
-136.61737822
 21
73.80586366999999
 31
0.0
  0
LINE
  5
2C
330
237
100
AcDbEntity
  8
0
  6
Continuous
 62
     2
100
AcDbLine
 10
-104.61737822
 20
23.3433224
 30
0.0
 11
-104.61737822
 21
73.87971641
 31
0.0
  0
LINE
  5
2D
330
237
100
AcDbEntity
  8
0
  6
Continuous
 62
     2
100
AcDbLine
 10
-129.7942508
 20
9.455829319999999
 30
0.0
 11
-110.61321541
 21
9.455829319999999
 31
0.0
  0
CIRCLE
  5
2E
330
237
100
AcDbEntity
  8
0
  6
Continuous
 62
     7
100
AcDbCircle
 10
-120.61737822
 20
9.455829319999999
 30
0.0
 40
5.5
  0
CIRCLE
  5
2F
330
237
100
AcDbEntity
  8
0
  6
Continuous
 62
     7
100
AcDbCircle
 10
-120.61737822
 20
9.455829319999999
 30
0.0
 40
6.5
  0
LINE
  5
30
330
237
100
AcDbEntity
  8
0
  6
Continuous
 62
     2
100
AcDbLine
 10
-145.73616434
 20
62.45582932
 30
0.0
 11
-127.71609477
 21
62.45582932
 31
0.0
  0
LINE
  5
31
330
237
100
AcDbEntity
  8
0
  6
Continuous
 62
     7
100
AcDbLine
 10
-136.61737822
 20
72.45582932000001
 30
0.0
 11
-132.44953779
 21
72.45582932000001
 31
0.0
  0
LINE
  5
32
330
237
100
AcDbEntity
  8
0
  6
Continuous
 62
     7
100
AcDbLine
 10
-161.61737822
 20
41.45582931999999
 30
0.0
 11
-161.61737822
 21
4.45582932
 31
0.0
  0
LINE
  5
33
330
237
100
AcDbEntity
  8
0
  6
Continuous
 62
     7
100
AcDbLine
 10
-79.61737822
 20
41.45582931999999
 30
0.0
 11
-79.61737822
 21
4.45582932
 31
0.0
  0
LINE
  5
34
330
237
100
AcDbEntity
  8
0
  6
Continuous
 62
     7
100
AcDbLine
 10
-161.61737822
 20
24.45582932
 30
0.0
 11
-79.61737822
 21
24.45582932
 31
0.0
  0
LINE
  5
35
330
237
100
AcDbEntity
  8
0
  6
Continuous
 62
     7
100
AcDbLine
 10
-106.66488134
 20
5.405891699999999
 30
0.0
 11
-107.32986263
 21
18.7055174
 31
0.0
  0
LINE
  5
36
330
237
100
AcDbEntity
  8
0
  6
Continuous
 62
     7
100
AcDbLine
 10
-134.56987511
 20
5.405891699999999
 30
0.0
 11
-133.90489382
 21
18.7055174
 31
0.0
  0
LINE
  5
37
330
237
100
AcDbEntity
  8
0
  6
Continuous
 62
     7
100
AcDbLine
 10
-128.91113213
 20
23.45582932
 30
0.0
 11
-112.32362432
 21
23.45582932
 31
0.0
  0
ARC
  5
38
330
237
100
AcDbEntity
  8
0
  6
Continuous
 62
     7
100
AcDbCircle
 10
-128.91113213
 20
18.45582932
 30
0.0
 40
5.0
100
AcDbArc
 50
90.0
 51
177.13759477
  0
ARC
  5
39
330
237
100
AcDbEntity
  8
0
  6
Continuous
 62
     7
100
AcDbCircle
 10
-112.32362432
 20
18.45582932
 30
0.0
 40
5.0
100
AcDbArc
 50
2.862405229999999
 51
90.0
  0
LINE
  5
3A
330
237
100
AcDbEntity
  8
0
  6
Continuous
 62
     7
100
AcDbLine
 10
-105.666129
 20
4.45582932
 30
0.0
 11
-76.61737822
 21
4.45582932
 31
0.0
  0
ARC
  5
3B
330
237
100
AcDbEntity
  8
0
  6
Continuous
 62
     7
100
AcDbCircle
 10
-164.61737822
 20
3.455829319999999
 30
0.0
 40
1.0
100
AcDbArc
 50
90.0
 51
180.0
  0
ARC
  5
3C
330
237
100
AcDbEntity
  8
0
  6
Continuous
 62
     7
100
AcDbCircle
 10
-105.666129
 20
5.45582932
 30
0.0
 40
1.0
100
AcDbArc
 50
182.86240523
 51
270.0
  0
ARC
  5
3D
330
237
100
AcDbEntity
  8
0
  6
Continuous
 62
     7
100
AcDbCircle
 10
-135.56862744
 20
5.45582932
 30
0.0
 40
1.0
100
AcDbArc
 50
270.0
 51
357.1375947700001
  0
LINE
  5
3E
330
237
100
AcDbEntity
  8
0
  6
Continuous
 62
     7
100
AcDbLine
 10
-161.61737822
 20
41.45582931999999
 30
0.0
 11
-152.61737822
 21
41.45582931999999
 31
0.0
  0
LINE
  5
3F
330
237
100
AcDbEntity
  8
0
  6
Continuous
 62
     7
100
AcDbLine
 10
-123.20097036
 20
31.45582932
 30
0.0
 11
-118.03378609
 21
31.45582932
 31
0.0
  0
LINE
  5
40
330
237
100
AcDbEntity
  8
0
  6
Continuous
 62
     7
100
AcDbLine
 10
-147.61737822
 20
53.07477936
 30
0.0
 11
-147.61737822
 21
86.45582932000001
 31
0.0
  0
LINE
  5
41
330
237
100
AcDbEntity
  8
0
  6
Continuous
 62
     7
100
AcDbLine
 10
-93.61737822
 20
53.07477936
 30
0.0
 11
-93.61737822
 21
86.45582932000001
 31
0.0
  0
LINE
  5
42
330
237
100
AcDbEntity
  8
0
  6
Continuous
 62
     7
100
AcDbLine
 10
-88.61737822
 20
41.45582931999999
 30
0.0
 11
-79.61737822
 21
41.45582931999999
 31
0.0
  0
ARC
  5
43
330
237
100
AcDbEntity
  8
0
  6
Continuous
 62
     7
100
AcDbCircle
 10
-136.61737822
 20
62.45582932
 30
0.0
 40
10.0
100
AcDbArc
 50
90.0
 51
180.0
  0
ARC
  5
44
330
237
100
AcDbEntity
  8
0
  6
Continuous
 62
     7
100
AcDbCircle
 10
-104.61737822
 20
62.45582932
 30
0.0
 40
10.0
100
AcDbArc
 50
0.0
 51
90.0
  0
LINE
  5
45
330
237
100
AcDbEntity
  8
0
  6
Continuous
 62
     7
100
AcDbLine
 10
-146.61737822
 20
54.87223718
 30
0.0
 11
-146.61737822
 21
62.45582932
 31
0.0
  0
LINE
  5
46
330
237
100
AcDbEntity
  8
0
  6
Continuous
 62
     7
100
AcDbLine
 10
-94.61737822000001
 20
54.87223718
 30
0.0
 11
-94.61737822000001
 21
62.45582932
 31
0.0
  0
ARC
  5
47
330
237
100
AcDbEntity
  8
0
  6
Continuous
 62
     7
100
AcDbCircle
 10
-120.61737822
 20
72.45582932000001
 30
0.0
 40
10.0
100
AcDbArc
 50
9.594068229999999
 51
170.40593177
  0
LINE
  5
48
330
237
100
AcDbEntity
  8
0
  6
Continuous
 62
     2
100
AcDbLine
 10
-127.73054346
 20
72.45582932000001
 30
0.0
 11
-113.56147849
 21
72.45582932000001
 31
0.0
  0
LINE
  5
49
330
237
100
AcDbEntity
  8
0
  6
Continuous
 62
     7
100
AcDbLine
 10
-108.78521866
 20
72.45582932000001
 30
0.0
 11
-104.61737822
 21
72.45582932000001
 31
0.0
  0
ARC
  5
4A
330
237
100
AcDbEntity
  8
0
  6
Continuous
 62
     7
100
AcDbCircle
 10
-108.78521866
 20
74.45582932
 30
0.0
 40
2.0
100
AcDbArc
 50
189.59406823
 51
270.0
  0
ARC
  5
4B
330
237
100
AcDbEntity
  8
0
  6
Continuous
 62
     7
100
AcDbCircle
 10
-132.44953779
 20
74.45582932
 30
0.0
 40
2.0
100
AcDbArc
 50
270.0
 51
350.4059317700001
  0
ARC
  5
4C
330
237
100
AcDbEntity
  8
0
  6
Continuous
 62
     7
100
AcDbCircle
 10
-92.61737822
 20
54.87223718
 30
0.0
 40
2.0
100
AcDbArc
 50
180.0
 51
228.1896851
  0
ARC
  5
4D
330
237
100
AcDbEntity
  8
0
  6
Continuous
 62
     7
100
AcDbCircle
 10
-148.61737822
 20
54.87223718
 30
0.0
 40
2.0
100
AcDbArc
 50
311.8103149
 51
0.0
  0
ARC
  5
4E
330
237
100
AcDbEntity
  8
0
  6
Continuous
 62
     7
100
AcDbCircle
 10
-123.20097036
 20
29.45582932
 30
0.0
 40
2.0
100
AcDbArc
 50
90.0
 51
138.1896851
  0
ARC
  5
4F
330
237
100
AcDbEntity
  8
0
  6
Continuous
 62
     7
100
AcDbCircle
 10
-118.03378609
 20
29.45582932
 30
0.0
 40
2.0
100
AcDbArc
 50
41.81031489999999
 51
90.0
  0
ARC
  5
50
330
237
100
AcDbEntity
  8
0
  6
Continuous
 62
     7
100
AcDbCircle
 10
-120.61737822
 20
72.45582932000001
 30
0.0
 40
10.0
100
AcDbArc
 50
250.1768192
 51
289.8231808000001
  0
ARC
  5
51
330
237
100
AcDbEntity
  8
0
  6
Continuous
 62
     7
100
AcDbCircle
 10
-104.61737822
 20
62.45582932
 30
0.0
 40
10.0
100
AcDbArc
 50
186.16605278
 51
211.1886223299999
  0
ARC
  5
52
330
237
100
AcDbEntity
  8
0
  6
Continuous
 62
     7
100
AcDbCircle
 10
-136.61737822
 20
62.45582932
 30
0.0
 40
10.0
100
AcDbArc
 50
328.81137767
 51
353.8339472200001
  0
ARC
  5
53
330
237
100
AcDbEntity
  8
0
  6
Continuous
 62
     7
100
AcDbCircle
 10
-136.61737822
 20
41.45582931999999
 30
0.0
 40
16.0
100
AcDbArc
 50
27.26604445
 51
55.22805597000001
  0
ARC
  5
54
330
237
100
AcDbEntity
  8
0
  6
Continuous
 62
     7
100
AcDbCircle
 10
-136.61737822
 20
41.45582931999999
 30
0.0
 40
16.0
100
AcDbArc
 50
131.8103149
 51
318.1896851
  0
ARC
  5
55
330
237
100
AcDbEntity
  8
0
  6
Continuous
 62
     7
100
AcDbCircle
 10
-104.61737822
 20
41.45582931999999
 30
0.0
 40
16.0
100
AcDbArc
 50
124.77194403
 51
152.73395555
  0
ARC
  5
56
330
237
100
AcDbEntity
  8
0
  6
Continuous
 62
     7
100
AcDbCircle
 10
-104.61737822
 20
41.45582931999999
 30
0.0
 40
16.0
100
AcDbArc
 50
221.8103149
 51
48.1896851
  0
ARC
  5
57
330
237
100
AcDbEntity
  8
0
  6
Continuous
 62
     7
100
AcDbCircle
 10
-124.68680089
 20
61.16690558
 30
0.0
 40
2.0
100
AcDbArc
 50
70.1768192
 51
173.83394722
  0
ARC
  5
58
330
237
100
AcDbEntity
  8
0
  6
Continuous
 62
     7
100
AcDbCircle
 10
-116.54795556
 20
61.16690558
 30
0.0
 40
2.0
100
AcDbArc
 50
6.16605278
 51
109.8231808
  0
ARC
  5
59
330
237
100
AcDbEntity
  8
0
  6
Continuous
 62
     7
100
AcDbCircle
 10
-126.35177288
 20
56.2415436
 30
0.0
 40
2.0
100
AcDbArc
 50
148.81137767
 51
235.22805597
  0
ARC
  5
5A
330
237
100
AcDbEntity
  8
0
  6
Continuous
 62
     7
100
AcDbCircle
 10
-114.88298357
 20
56.2415436
 30
0.0
 40
2.0
100
AcDbArc
 50
304.77194403
 51
31.18862233
  0
ARC
  5
5B
330
237
100
AcDbEntity
  8
0
  6
Continuous
 62
     7
100
AcDbCircle
 10
-120.61737822
 20
49.70204057
 30
0.0
 40
2.0
100
AcDbArc
 50
207.26604445
 51
332.73395555
  0
CIRCLE
  5
5C
330
237
100
AcDbEntity
  8
0
  6
Continuous
 62
     7
100
AcDbCircle
 10
-136.61737822
 20
41.45582931999999
 30
0.0
 40
12.0
  0
CIRCLE
  5
5D
330
237
100
AcDbEntity
  8
0
  6
Continuous
 62
     7
100
AcDbCircle
 10
-104.61737822
 20
41.45582931999999
 30
0.0
 40
12.0
  0
CIRCLE
  5
5E
330
237
100
AcDbEntity
  8
0
  6
Continuous
 62
     7
100
AcDbCircle
 10
-120.61737822
 20
72.45582932000001
 30
0.0
 40
5.5
  0
CIRCLE
  5
5F
330
237
100
AcDbEntity
  8
0
  6
Continuous
 62
     2
100
AcDbCircle
 10
-120.61737822
 20
72.45582932000001
 30
0.0
 40
6.5
  0
LINE
  5
60
330
237
100
AcDbEntity
  8
0
  6
Continuous
 62
     7
100
AcDbLine
 10
-147.61737826
 20
82.45582932000001
 30
0.0
 11
-93.61737826
 21
82.45582932000001
 31
0.0
  0
LINE
  5
61
330
237
100
AcDbEntity
  8
0
  6
Continuous
 62
     7
100
AcDbLine
 10
-147.61737826
 20
86.45582932000001
 30
0.0
 11
-93.61737826
 21
86.45582932000001
 31
0.0
  0
LINE
  5
62
330
237
100
AcDbEntity
  8
0
  6
Continuous
 62
     7
100
AcDbLine
 10
-129.11737822
 20
86.45582932000001
 30
0.0
 11
-129.11737822
 21
94.45582932
 31
0.0
  0
LINE
  5
63
330
237
100
AcDbEntity
  8
0
  6
Continuous
 62
     7
100
AcDbLine
 10
-112.11737822
 20
86.45582932000001
 30
0.0
 11
-112.11737822
 21
94.45582932
 31
0.0
  0
LINE
  5
64
330
237
100
AcDbEntity
  8
0
  6
Continuous
 62
     2
100
AcDbLine
 10
-142.61737822
 20
79.8683051
 30
0.0
 11
-142.61737822
 21
94.36733649
 31
0.0
  0
LINE
  5
65
330
237
100
AcDbEntity
  8
0
  6
Continuous
 62
     2
100
AcDbLine
 10
-98.61737822000002
 20
79.8683051
 30
0.0
 11
-98.61737822000002
 21
94.36733649
 31
0.0
  0
LINE
  5
66
330
237
100
AcDbEntity
  8
0
  6
Continuous
 62
     7
100
AcDbLine
 10
-102.11737822
 20
86.45582932000001
 30
0.0
 11
-102.11737822
 21
87.45582932000001
 31
0.0
  0
LINE
  5
67
330
237
100
AcDbEntity
  8
0
  6
Continuous
 62
     7
100
AcDbLine
 10
-95.11737822
 20
86.45582932000001
 30
0.0
 11
-95.11737822
 21
87.45582932000001
 31
0.0
  0
LINE
  5
68
330
237
100
AcDbEntity
  8
0
  6
Continuous
 62
     7
100
AcDbLine
 10
-98.61737821
 20
90.05582934000001
 30
0.0
 11
-100.10010586
 21
88.57310169999999
 31
0.0
  0
LINE
  5
69
330
237
100
AcDbEntity
  8
0
  6
Continuous
 62
     7
100
AcDbLine
 10
-98.61737824
 20
90.05582934000001
 30
0.0
 11
-97.13465059
 21
88.57310169999999
 31
0.0
  0
ARC
  5
6A
330
237
100
AcDbEntity
  8
0
  6
Continuous
 62
     7
100
AcDbCircle
 10
-97.71737822
 20
87.45582932000001
 30
0.0
 40
2.6
100
AcDbArc
 50
0.0
 51
90.0
  0
ARC
  5
6B
330
237
100
AcDbEntity
  8
0
  6
Continuous
 62
     7
100
AcDbCircle
 10
-99.51737822
 20
87.45582932000001
 30
0.0
 40
2.6
100
AcDbArc
 50
90.0
 51
180.0
  0
LINE
  5
6C
330
237
100
AcDbEntity
  8
0
  6
Continuous
 62
     7
100
AcDbLine
 10
-99.51737822
 20
90.05582932000001
 30
0.0
 11
-97.71737822
 21
90.05582932000001
 31
0.0
  0
LINE
  5
6D
330
237
100
AcDbEntity
  8
0
  6
Continuous
 62
     7
100
AcDbLine
 10
-102.11737822
 20
87.45582932000001
 30
0.0
 11
-95.11737822
 21
87.45582932000001
 31
0.0
  0
LINE
  5
6E
330
237
100
AcDbEntity
  8
0
  6
Continuous
 62
     7
100
AcDbLine
 10
-146.11737822
 20
86.45582932000001
 30
0.0
 11
-146.11737822
 21
87.45582932000001
 31
0.0
  0
LINE
  5
6F
330
237
100
AcDbEntity
  8
0
  6
Continuous
 62
     7
100
AcDbLine
 10
-139.11737822
 20
86.45582932000001
 30
0.0
 11
-139.11737822
 21
87.45582932000001
 31
0.0
  0
LINE
  5
70
330
237
100
AcDbEntity
  8
0
  6
Continuous
 62
     7
100
AcDbLine
 10
-142.61737821
 20
90.05582934000001
 30
0.0
 11
-144.10010586
 21
88.57310169999999
 31
0.0
  0
LINE
  5
71
330
237
100
AcDbEntity
  8
0
  6
Continuous
 62
     7
100
AcDbLine
 10
-142.61737824
 20
90.05582934000001
 30
0.0
 11
-141.13465059
 21
88.57310169999999
 31
0.0
  0
ARC
  5
72
330
237
100
AcDbEntity
  8
0
  6
Continuous
 62
     7
100
AcDbCircle
 10
-141.71737822
 20
87.45582932000001
 30
0.0
 40
2.6
100
AcDbArc
 50
0.0
 51
90.0
  0
ARC
  5
73
330
237
100
AcDbEntity
  8
0
  6
Continuous
 62
     7
100
AcDbCircle
 10
-143.51737822
 20
87.45582932000001
 30
0.0
 40
2.6
100
AcDbArc
 50
90.0
 51
180.0
  0
LINE
  5
74
330
237
100
AcDbEntity
  8
0
  6
Continuous
 62
     7
100
AcDbLine
 10
-143.51737822
 20
90.05582932000001
 30
0.0
 11
-141.71737822
 21
90.05582932000001
 31
0.0
  0
LINE
  5
75
330
237
100
AcDbEntity
  8
0
  6
Continuous
 62
     7
100
AcDbLine
 10
-146.11737822
 20
87.45582932000001
 30
0.0
 11
-139.11737822
 21
87.45582932000001
 31
0.0
  0
LINE
  5
76
330
237
100
AcDbEntity
  8
0
  6
Continuous
 62
     7
100
AcDbLine
 10
-143.61737822
 20
58.41437743
 30
0.0
 11
-136.61737822
 21
54.37292554999999
 31
0.0
  0
LINE
  5
77
330
237
100
AcDbEntity
  8
0
  6
Continuous
 62
     7
100
AcDbLine
 10
-136.61737822
 20
54.37292554999999
 30
0.0
 11
-129.61737822
 21
58.41437743
 31
0.0
  0
LINE
  5
78
330
237
100
AcDbEntity
  8
0
  6
Continuous
 62
     7
100
AcDbLine
 10
-129.61737822
 20
58.41437743
 30
0.0
 11
-129.61737822
 21
66.4972812
 31
0.0
  0
LINE
  5
79
330
237
100
AcDbEntity
  8
0
  6
Continuous
 62
     7
100
AcDbLine
 10
-136.61737822
 20
70.53873309
 30
0.0
 11
-143.61737822
 21
66.4972812
 31
0.0
  0
LINE
  5
7A
330
237
100
AcDbEntity
  8
0
  6
Continuous
 62
     7
100
AcDbLine
 10
-143.61737822
 20
66.4972812
 30
0.0
 11
-143.61737822
 21
58.41437743
 31
0.0
  0
LINE
  5
7B
330
237
100
AcDbEntity
  8
0
  6
Continuous
 62
     7
100
AcDbLine
 10
-136.61737822
 20
70.53873309
 30
0.0
 11
-129.61737822
 21
66.4972812
 31
0.0
  0
CIRCLE
  5
7C
330
237
100
AcDbEntity
  8
0
  6
Continuous
 62
     7
100
AcDbCircle
 10
-136.61737822
 20
62.45582932
 30
0.0
 40
7.0
  0
LINE
  5
7D
330
237
100
AcDbEntity
  8
0
  6
Continuous
 62
     7
100
AcDbLine
 10
-104.61737822
 20
70.53873309
 30
0.0
 11
-97.61737822
 21
66.4972812
 31
0.0
  0
CIRCLE
  5
7E
330
237
100
AcDbEntity
  8
0
  6
Continuous
 62
     7
100
AcDbCircle
 10
-104.61737822
 20
62.45582932
 30
0.0
 40
7.0
  0
LINE
  5
7F
330
237
100
AcDbEntity
  8
0
  6
Continuous
 62
     7
100
AcDbLine
 10
-111.61737822
 20
58.41437743
 30
0.0
 11
-111.61737822
 21
66.4972812
 31
0.0
  0
LINE
  5
80
330
237
100
AcDbEntity
  8
0
  6
Continuous
 62
     7
100
AcDbLine
 10
-104.61737822
 20
70.53873309
 30
0.0
 11
-111.61737822
 21
66.4972812
 31
0.0
  0
LINE
  5
81
330
237
100
AcDbEntity
  8
0
  6
Continuous
 62
     7
100
AcDbLine
 10
-104.61737822
 20
54.37292554999999
 30
0.0
 11
-111.61737822
 21
58.41437743
 31
0.0
  0
LINE
  5
82
330
237
100
AcDbEntity
  8
0
  6
Continuous
 62
     7
100
AcDbLine
 10
-97.61737822
 20
58.41437743
 30
0.0
 11
-104.61737822
 21
54.37292554999999
 31
0.0
  0
LINE
  5
83
330
237
100
AcDbEntity
  8
0
  6
Continuous
 62
     7
100
AcDbLine
 10
-97.61737822
 20
66.4972812
 30
0.0
 11
-97.61737822
 21
58.41437743
 31
0.0
  0
LINE
  5
84
330
237
100
AcDbEntity
  8
0
  6
Continuous
 62
     2
100
AcDbLine
 10
-112.79784046
 20
62.45582932
 30
0.0
 11
-96.10712029
 21
62.45582932
 31
0.0
  0
CIRCLE
  5
85
330
237
100
AcDbEntity
  8
0
  6
Continuous
 62
     7
100
AcDbCircle
 10
-136.61737822
 20
41.45582931999999
 30
0.0
 40
6.18578644
  0
ARC
  5
86
330
237
100
AcDbEntity
  8
0
  6
Continuous
 62
     7
100
AcDbCircle
 10
-136.61737822
 20
41.95582931999999
 30
0.0
 40
11.0
100
AcDbArc
 50
304.41103893
 51
235.58896107
  0
ARC
  5
87
330
237
100
AcDbEntity
  8
0
  6
Continuous
 62
     7
100
AcDbCircle
 10
-132.61737822
 20
31.70887855
 30
0.0
 40
2.0
100
AcDbArc
 50
39.32813926
 51
196.10777769
  0
LINE
  5
88
330
237
100
AcDbEntity
  8
0
  6
Continuous
 62
     7
100
AcDbLine
 10
-134.24406212
 20
29.69286325
 30
0.0
 11
-134.53886123
 21
31.15398841
 31
0.0
  0
ARC
  5
89
330
237
100
AcDbEntity
  8
0
  6
Continuous
 62
     7
100
AcDbCircle
 10
-130.6835556
 20
33.29328067
 30
0.0
 40
0.5
100
AcDbArc
 50
219.32813926
 51
304.41103893
  0
CIRCLE
  5
8A
330
237
100
AcDbEntity
  8
0
  6
Continuous
 62
     7
100
AcDbCircle
 10
-132.61737822
 20
31.70887855
 30
0.0
 40
1.0
  0
ARC
  5
8B
330
237
100
AcDbEntity
  8
0
  6
Continuous
 62
     7
100
AcDbCircle
 10
-140.61737822
 20
31.70887855
 30
0.0
 40
2.0
100
AcDbArc
 50
343.89222231
 51
140.67186074
  0
ARC
  5
8C
330
237
100
AcDbEntity
  8
0
  6
Continuous
 62
     7
100
AcDbCircle
 10
-142.55120085
 20
33.29328067
 30
0.0
 40
0.5
100
AcDbArc
 50
235.58896107
 51
320.67186074
  0
LINE
  5
8D
330
237
100
AcDbEntity
  8
0
  6
Continuous
 62
     7
100
AcDbLine
 10
-138.99069433
 20
29.69286325
 30
0.0
 11
-138.69589522
 21
31.15398841
 31
0.0
  0
CIRCLE
  5
8E
330
237
100
AcDbEntity
  8
0
  6
Continuous
 62
     7
100
AcDbCircle
 10
-140.61737822
 20
31.70887855
 30
0.0
 40
1.0
  0
CIRCLE
  5
8F
330
237
100
AcDbEntity
  8
0
  6
Continuous
 62
     7
100
AcDbCircle
 10
-104.61737822
 20
41.45582931999999
 30
0.0
 40
6.18578644
  0
ARC
  5
90
330
237
100
AcDbEntity
  8
0
  6
Continuous
 62
     7
100
AcDbCircle
 10
-104.61737822
 20
41.95582931999999
 30
0.0
 40
11.0
100
AcDbArc
 50
304.41103893
 51
235.58896107
  0
ARC
  5
91
330
237
100
AcDbEntity
  8
0
  6
Continuous
 62
     7
100
AcDbCircle
 10
-108.61737822
 20
31.70887855
 30
0.0
 40
2.0
100
AcDbArc
 50
343.89222231
 51
140.67186074
  0
CIRCLE
  5
92
330
237
100
AcDbEntity
  8
0
  6
Continuous
 62
     7
100
AcDbCircle
 10
-108.61737822
 20
31.70887855
 30
0.0
 40
1.0
  0
LINE
  5
93
330
237
100
AcDbEntity
  8
0
  6
Continuous
 62
     7
100
AcDbLine
 10
-106.99069433
 20
29.69286325
 30
0.0
 11
-106.69589522
 21
31.15398841
 31
0.0
  0
ARC
  5
94
330
237
100
AcDbEntity
  8
0
  6
Continuous
 62
     7
100
AcDbCircle
 10
-100.61737822
 20
31.70887855
 30
0.0
 40
2.0
100
AcDbArc
 50
39.32813926
 51
196.10777769
  0
ARC
  5
95
330
237
100
AcDbEntity
  8
0
  6
Continuous
 62
     7
100
AcDbCircle
 10
-98.68355559999999
 20
33.29328067
 30
0.0
 40
0.5
100
AcDbArc
 50
219.32813926
 51
304.41103893
  0
CIRCLE
  5
96
330
237
100
AcDbEntity
  8
0
  6
Continuous
 62
     7
100
AcDbCircle
 10
-100.61737822
 20
31.70887855
 30
0.0
 40
1.0
  0
ARC
  5
97
330
237
100
AcDbEntity
  8
0
  6
Continuous
 62
     7
100
AcDbCircle
 10
-110.55120085
 20
33.29328067
 30
0.0
 40
0.5
100
AcDbArc
 50
235.58896107
 51
320.67186074
  0
LINE
  5
98
330
237
100
AcDbEntity
  8
0
  6
Continuous
 62
     7
100
AcDbLine
 10
-102.24406212
 20
29.69286325
 30
0.0
 11
-102.53886123
 21
31.15398841
 31
0.0
  0
LINE
  5
99
330
237
100
AcDbEntity
  8
0
  6
Continuous
 62
     2
100
AcDbLine
 10
-86.61737822
 20
38.53874296
 30
0.0
 11
-86.61737822
 21
48.90460962
 31
0.0
  0
LINE
  5
9A
330
237
100
AcDbEntity
  8
0
  6
Continuous
 62
     7
100
AcDbLine
 10
-88.6878459
 20
42.95582932
 30
0.0
 11
-80.51737821999999
 21
42.95582932
 31
0.0
  0
LINE
  5
9B
330
237
100
AcDbEntity
  8
0
  6
Continuous
 62
     7
100
AcDbLine
 10
-87.96737822
 20
46.85582931999999
 30
0.0
 11
-85.26737821999999
 21
46.85582931999999
 31
0.0
  0
ARC
  5
9C
330
237
100
AcDbEntity
  8
0
  6
Continuous
 62
     7
100
AcDbCircle
 10
-85.26737821999999
 20
42.95582932
 30
0.0
 40
3.9
100
AcDbArc
 50
0.0
 51
90.0
  0
ARC
  5
9D
330
237
100
AcDbEntity
  8
0
  6
Continuous
 62
     7
100
AcDbCircle
 10
-87.96737822
 20
42.95582932
 30
0.0
 40
3.9
100
AcDbArc
 50
90.0
 51
112.40463731
  0
LINE
  5
9E
330
237
100
AcDbEntity
  8
0
  6
Continuous
 62
     7
100
AcDbLine
 10
-80.51737821999999
 20
41.45582931999999
 30
0.0
 11
-80.51737821999999
 21
42.95582932
 31
0.0
  0
LINE
  5
9F
330
237
100
AcDbEntity
  8
0
  6
Continuous
 62
     7
100
AcDbLine
 10
-86.61737814
 20
46.85582905999999
 30
0.0
 11
-84.76751056000001
 21
45.00596148
 31
0.0
  0
LINE
  5
A0
330
237
100
AcDbEntity
  8
0
  6
Continuous
 62
     7
100
AcDbLine
 10
-86.61737831000001
 20
46.85582905999999
 30
0.0
 11
-88.46724589
 21
45.00596148
 31
0.0
  0
ARC
  5
A1
330
237
100
AcDbEntity
  8
0
  6
Continuous
 62
     7
100
AcDbCircle
 10
-153.26737822
 20
42.95582932
 30
0.0
 40
3.9
100
AcDbArc
 50
67.59536269
 51
90.0
  0
LINE
  5
A2
330
237
100
AcDbEntity
  8
0
  6
Continuous
 62
     7
100
AcDbLine
 10
-153.26737822
 20
46.85582931999999
 30
0.0
 11
-155.96737822
 21
46.85582931999999
 31
0.0
  0
LINE
  5
A3
330
237
100
AcDbEntity
  8
0
  6
Continuous
 62
     7
100
AcDbLine
 10
-154.61737814
 20
46.85582905999999
 30
0.0
 11
-152.76751056
 21
45.00596148
 31
0.0
  0
LINE
  5
A4
330
237
100
AcDbEntity
  8
0
  6
Continuous
 62
     7
100
AcDbLine
 10
-154.61737831
 20
46.85582905999999
 30
0.0
 11
-156.46724589
 21
45.00596148
 31
0.0
  0
ARC
  5
A5
330
237
100
AcDbEntity
  8
0
  6
Continuous
 62
     7
100
AcDbCircle
 10
-155.96737822
 20
42.95582932
 30
0.0
 40
3.9
100
AcDbArc
 50
90.0
 51
180.0
  0
LINE
  5
A6
330
237
100
AcDbEntity
  8
0
  6
Continuous
 62
     7
100
AcDbLine
 10
-152.54691055
 20
42.95582932
 30
0.0
 11
-160.71737822
 21
42.95582932
 31
0.0
  0
LINE
  5
A7
330
237
100
AcDbEntity
  8
0
  6
Continuous
 62
     7
100
AcDbLine
 10
-160.71737822
 20
41.45582931999999
 30
0.0
 11
-160.71737822
 21
42.95582932
 31
0.0
  0
LINE
  5
A8
330
237
100
AcDbEntity
  8
0
  6
Continuous
 62
     2
100
AcDbLine
 10
-154.61737822
 20
38.53874296
 30
0.0
 11
-154.61737822
 21
48.90460962
 31
0.0
  0
LINE
  5
A9
330
237
100
AcDbEntity
  8
0
  6
Continuous
 62
     2
100
AcDbLine
 10
-157.61737822
 20
41.45582931999999
 30
0.0
 11
-83.61737822
 21
41.45582931999999
 31
0.0
  0
ARC
  5
AA
330
237
100
AcDbEntity
  8
0
  6
Continuous
 62
     7
100
AcDbCircle
 10
-76.61737822
 20
3.455829319999999
 30
0.0
 40
1.0
100
AcDbArc
 50
0.0
 51
90.0
  0
LINE
  5
AB
330
237
100
AcDbEntity
  8
0
  6
Continuous
 62
     2
100
AcDbLine
 10
-120.61737822
 20
-10.54417068
 30
0.0
 11
-120.61737822
 21
99.45582932
 31
0.0
  0
LINE
  5
AC
330
237
100
AcDbEntity
  8
0
  6
Continuous
 62
     7
100
AcDbLine
 10
-165.61737826
 20
-5.544170679999999
 30
0.0
 11
-75.61737822000001
 21
-5.544170679999999
 31
0.0
  0
CIRCLE
  5
AD
330
237
100
AcDbEntity
  8
0
  6
Continuous
 62
     2
100
AcDbCircle
 10
10.0
 20
-46.0
 30
0.0
 40
3.5
  0
LINE
  5
AE
330
237
100
AcDbEntity
  8
0
  6
Continuous
 62
     2
100
AcDbLine
 10
48.17635025
 20
-80.0
 30
0.0
 11
-30.54313832
 21
-80.0
 31
0.0
  0
LINE
  5
AF
330
237
100
AcDbEntity
  8
0
  6
Continuous
 62
     7
100
AcDbLine
 10
30.0
 20
-35.0
 30
0.0
 11
-10.0
 21
-35.0
 31
0.0
  0
LINE
  5
B0
330
237
100
AcDbEntity
  8
0
  6
Continuous
 62
     2
100
AcDbLine
 10
31.0
 20
-42.0
 30
0.0
 11
19.0
 21
-42.0
 31
0.0
  0
LINE
  5
B1
330
237
100
AcDbEntity
  8
0
  6
Continuous
 62
     7
100
AcDbLine
 10
45.0
 20
-46.0
 30
0.0
 11
32.0
 21
-46.0
 31
0.0
  0
CIRCLE
  5
B2
330
237
100
AcDbEntity
  8
0
  6
Continuous
 62
     7
100
AcDbCircle
 10
25.0
 20
-42.0
 30
0.0
 40
3.5
  0
CIRCLE
  5
B3
330
237
100
AcDbEntity
  8
0
  6
Continuous
 62
     7
100
AcDbCircle
 10
-5.0
 20
-42.0
 30
0.0
 40
3.5
  0
CIRCLE
  5
B4
330
237
100
AcDbEntity
  8
0
  6
Continuous
 62
     7
100
AcDbCircle
 10
10.0
 20
-46.0
 30
0.0
 40
2.399999999999999
  0
ARC
  5
B5
330
237
100
AcDbEntity
  8
0
  6
Continuous
 62
     7
100
AcDbCircle
 10
-10.0
 20
-37.0
 30
0.0
 40
2.0
100
AcDbArc
 50
90.0
 51
180.0
  0
ARC
  5
B6
330
237
100
AcDbEntity
  8
0
  6
Continuous
 62
     7
100
AcDbCircle
 10
30.0
 20
-37.0
 30
0.0
 40
2.0
100
AcDbArc
 50
0.0
 51
90.0
  0
LINE
  5
B7
330
237
100
AcDbEntity
  8
0
  6
Continuous
 62
     2
100
AcDbLine
 10
-5.0
 20
-48.0
 30
0.0
 11
-5.0
 21
-36.0
 31
0.0
  0
LINE
  5
B8
330
237
100
AcDbEntity
  8
0
  6
Continuous
 62
     2
100
AcDbLine
 10
25.0
 20
-48.0
 30
0.0
 11
25.0
 21
-36.0
 31
0.0
  0
LINE
  5
B9
330
237
100
AcDbEntity
  8
0
  6
Continuous
 62
     2
100
AcDbLine
 10
1.0
 20
-42.0
 30
0.0
 11
-11.0
 21
-42.0
 31
0.0
  0
LINE
  5
BA
330
237
100
AcDbEntity
  8
0
  6
Continuous
 62
     7
100
AcDbLine
 10
-12.0
 20
-66.0
 30
0.0
 11
-12.0
 21
-37.0
 31
0.0
  0
LINE
  5
BB
330
237
100
AcDbEntity
  8
0
  6
Continuous
 62
     7
100
AcDbLine
 10
32.0
 20
-46.0
 30
0.0
 11
32.0
 21
-37.0
 31
0.0
  0
LINE
  5
BC
330
237
100
AcDbEntity
  8
0
  6
Continuous
 62
     2
100
AcDbLine
 10
16.0
 20
-46.0
 30
0.0
 11
4.0
 21
-46.0
 31
0.0
  0
ARC
  5
BD
330
237
100
AcDbEntity
  8
0
  6
Continuous
 62
     7
100
AcDbCircle
 10
45.0
 20
-47.0
 30
0.0
 40
1.0
100
AcDbArc
 50
0.0
 51
90.0
  0
LINE
  5
BE
330
237
100
AcDbEntity
  8
0
  6
Continuous
 62
     7
100
AcDbLine
 10
45.0
 20
-74.0
 30
0.0
 11
43.5
 21
-74.0
 31
0.0
  0
LINE
  5
BF
330
237
100
AcDbEntity
  8
0
  6
Continuous
 62
     7
100
AcDbLine
 10
46.0
 20
-73.0
 30
0.0
 11
46.0
 21
-47.0
 31
0.0
  0
ARC
  5
C0
330
237
100
AcDbEntity
  8
0
  6
Continuous
 62
     7
100
AcDbCircle
 10
43.5
 20
-75.0
 30
0.0
 40
1.0
100
AcDbArc
 50
90.0
 51
180.0
  0
ARC
  5
C1
330
237
100
AcDbEntity
  8
0
  6
Continuous
 62
     7
100
AcDbCircle
 10
45.0
 20
-73.0
 30
0.0
 40
1.0
100
AcDbArc
 50
270.0
 51
0.0
  0
LINE
  5
C2
330
237
100
AcDbEntity
  8
0
  6
Continuous
 62
     7
100
AcDbLine
 10
-12.0
 20
-66.0
 30
0.0
 11
-25.0
 21
-66.0
 31
0.0
  0
ARC
  5
C3
330
237
100
AcDbEntity
  8
0
  6
Continuous
 62
     7
100
AcDbCircle
 10
-25.0
 20
-67.0
 30
0.0
 40
1.0
100
AcDbArc
 50
90.0
 51
180.0
  0
LINE
  5
C4
330
237
100
AcDbEntity
  8
0
  6
Continuous
 62
     7
100
AcDbLine
 10
42.5
 20
-69.41742431
 30
0.0
 11
42.5
 21
-53.37298334999999
 31
0.0
  0
LINE
  5
C5
330
237
100
AcDbEntity
  8
0
  6
Continuous
 62
     7
100
AcDbLine
 10
38.62701665
 20
-49.5
 30
0.0
 11
25.0
 21
-49.5
 31
0.0
  0
LINE
  5
C6
330
237
100
AcDbEntity
  8
0
  6
Continuous
 62
     7
100
AcDbLine
 10
16.5
 20
-38.5
 30
0.0
 11
3.5
 21
-38.5
 31
0.0
  0
LINE
  5
C7
330
237
100
AcDbEntity
  8
0
  6
Continuous
 62
     7
100
AcDbLine
 10
-11.5
 20
-69.5
 30
0.0
 11
-18.62701665
 21
-69.5
 31
0.0
  0
ARC
  5
C8
330
237
100
AcDbEntity
  8
0
  6
Continuous
 62
     7
100
AcDbCircle
 10
42.5
 20
-49.5
 30
0.0
 40
3.0
100
AcDbArc
 50
194.47751219
 51
255.52248781
  0
ARC
  5
C9
330
237
100
AcDbEntity
  8
0
  6
Continuous
 62
     7
100
AcDbCircle
 10
38.62701665
 20
-50.5
 30
0.0
 40
1.0
100
AcDbArc
 50
14.47751219
 51
90.0
  0
ARC
  5
CA
330
237
100
AcDbEntity
  8
0
  6
Continuous
 62
     7
100
AcDbCircle
 10
41.5
 20
-53.37298334999999
 30
0.0
 40
1.0
100
AcDbArc
 50
0.0
 51
75.52248781
  0
ARC
  5
CB
330
237
100
AcDbEntity
  8
0
  6
Continuous
 62
     7
100
AcDbCircle
 10
-22.5
 20
-69.5
 30
0.0
 40
3.0
100
AcDbArc
 50
284.47751219
 51
345.52248781
  0
ARC
  5
CC
330
237
100
AcDbEntity
  8
0
  6
Continuous
 62
     7
100
AcDbCircle
 10
-18.62701665
 20
-70.5
 30
0.0
 40
1.0
100
AcDbArc
 50
90.0
 51
165.52248781
  0
ARC
  5
CD
330
237
100
AcDbEntity
  8
0
  6
Continuous
 62
     7
100
AcDbCircle
 10
-21.5
 20
-73.37298334999999
 30
0.0
 40
1.0
100
AcDbArc
 50
104.47751219
 51
180.0
  0
ARC
  5
CE
330
237
100
AcDbEntity
  8
0
  6
Continuous
 62
     7
100
AcDbCircle
 10
25.0
 20
-42.0
 30
0.0
 40
7.5
100
AcDbArc
 50
180.0
 51
270.0
  0
ARC
  5
CF
330
237
100
AcDbEntity
  8
0
  6
Continuous
 62
     7
100
AcDbCircle
 10
-5.0
 20
-42.0
 30
0.0
 40
7.5
100
AcDbArc
 50
270.0
 51
0.0
  0
LINE
  5
D0
330
237
100
AcDbEntity
  8
0
  6
Continuous
 62
     7
100
AcDbLine
 10
17.5
 20
-42.0
 30
0.0
 11
17.5
 21
-39.5
 31
0.0
  0
ARC
  5
D1
330
237
100
AcDbEntity
  8
0
  6
Continuous
 62
     7
100
AcDbCircle
 10
16.5
 20
-39.5
 30
0.0
 40
1.0
100
AcDbArc
 50
0.0
 51
90.0
  0
LINE
  5
D2
330
237
100
AcDbEntity
  8
0
  6
Continuous
 62
     7
100
AcDbLine
 10
2.5
 20
-42.0
 30
0.0
 11
2.5
 21
-39.5
 31
0.0
  0
LINE
  5
D3
330
237
100
AcDbEntity
  8
0
  6
Continuous
 62
     7
100
AcDbLine
 10
-5.0
 20
-49.5
 30
0.0
 11
-7.5
 21
-49.5
 31
0.0
  0
ARC
  5
D4
330
237
100
AcDbEntity
  8
0
  6
Continuous
 62
     7
100
AcDbCircle
 10
3.5
 20
-39.5
 30
0.0
 40
1.0
100
AcDbArc
 50
90.0
 51
180.0
  0
ARC
  5
D5
330
237
100
AcDbEntity
  8
0
  6
Continuous
 62
     7
100
AcDbCircle
 10
-7.5
 20
-50.5
 30
0.0
 40
1.0
100
AcDbArc
 50
90.0
 51
180.0
  0
ARC
  5
D6
330
237
100
AcDbEntity
  8
0
  6
Continuous
 62
     7
100
AcDbCircle
 10
-11.5
 20
-66.5
 30
0.0
 40
3.0
100
AcDbArc
 50
270.0
 51
0.0
  0
LINE
  5
D7
330
237
100
AcDbEntity
  8
0
  6
Continuous
 62
     7
100
AcDbLine
 10
11.0
 20
-72.0
 30
0.0
 11
11.0
 21
-49.87298335
 31
0.0
  0
LINE
  5
D8
330
237
100
AcDbEntity
  8
0
  6
Continuous
 62
     7
100
AcDbLine
 10
9.0
 20
-70.0
 30
0.0
 11
-5.033037389999999
 21
-70.0
 31
0.0
  0
ARC
  5
D9
330
237
100
AcDbEntity
  8
0
  6
Continuous
 62
     7
100
AcDbCircle
 10
10.0
 20
-46.0
 30
0.0
 40
4.0
100
AcDbArc
 50
284.47751219
 51
149.95904458
  0
LINE
  5
DA
330
237
100
AcDbEntity
  8
0
  6
Continuous
 62
     7
100
AcDbLine
 10
-8.5
 20
-70.0
 30
0.0
 11
6.537328879999999
 21
-43.99752434999999
 31
0.0
  0
LINE
  5
DB
330
237
100
AcDbEntity
  8
0
  6
Continuous
 62
     7
100
AcDbLine
 10
18.0
 20
-74.0
 30
0.0
 11
13.0
 21
-74.0
 31
0.0
  0
ARC
  5
DC
330
237
100
AcDbEntity
  8
0
  6
Continuous
 62
     7
100
AcDbCircle
 10
-5.033037389999999
 20
-68.0
 30
0.0
 40
2.0
100
AcDbArc
 50
149.95904458
 51
270.0
  0
LINE
  5
DD
330
237
100
AcDbEntity
  8
0
  6
Continuous
 62
     7
100
AcDbLine
 10
18.0
 20
-66.0
 30
0.0
 11
13.0
 21
-66.0
 31
0.0
  0
ARC
  5
DE
330
237
100
AcDbEntity
  8
0
  6
Continuous
 62
     7
100
AcDbCircle
 10
9.0
 20
-68.0
 30
0.0
 40
2.0
100
AcDbArc
 50
270.0
 51
0.0
  0
LINE
  5
DF
330
237
100
AcDbEntity
  8
0
  6
Continuous
 62
     7
100
AcDbLine
 10
28.0
 20
-72.0
 30
0.0
 11
28.0
 21
-51.5
 31
0.0
  0
LINE
  5
E0
330
237
100
AcDbEntity
  8
0
  6
Continuous
 62
     7
100
AcDbLine
 10
26.0
 20
-70.0
 30
0.0
 11
20.0
 21
-70.0
 31
0.0
  0
ARC
  5
E1
330
237
100
AcDbEntity
  8
0
  6
Continuous
 62
     7
100
AcDbCircle
 10
42.5
 20
-74.0
 30
0.0
 40
3.0
100
AcDbArc
 50
113.57817848
 51
180.0
  0
LINE
  5
E2
330
237
100
AcDbEntity
  8
0
  6
Continuous
 62
     7
100
AcDbLine
 10
39.5
 20
-74.0
 30
0.0
 11
39.5
 21
-74.08392022
 31
0.0
  0
ARC
  5
E3
330
237
100
AcDbEntity
  8
0
  6
Continuous
 62
     7
100
AcDbCircle
 10
40.49999999999999
 20
-69.41742431
 30
0.0
 40
2.0
100
AcDbArc
 50
293.57817848
 51
0.0
  0
ARC
  5
E4
330
237
100
AcDbEntity
  8
0
  6
Continuous
 62
     7
100
AcDbCircle
 10
37.0
 20
-74.08392022
 30
0.0
 40
2.5
100
AcDbArc
 50
279.59406823
 51
0.0
  0
LINE
  5
E5
330
237
100
AcDbEntity
  8
0
  6
Continuous
 62
     7
100
AcDbLine
 10
26.0
 20
-54.0
 30
0.0
 11
13.0
 21
-54.0
 31
0.0
  0
ARC
  5
E6
330
237
100
AcDbEntity
  8
0
  6
Continuous
 62
     7
100
AcDbCircle
 10
26.0
 20
-51.5
 30
0.0
 40
2.0
100
AcDbArc
 50
0.0
 51
90.0
  0
ARC
  5
E7
330
237
100
AcDbEntity
  8
0
  6
Continuous
 62
     7
100
AcDbCircle
 10
26.0
 20
-52.0
 30
0.0
 40
2.0
100
AcDbArc
 50
270.0
 51
0.0
  0
ARC
  5
E8
330
237
100
AcDbEntity
  8
0
  6
Continuous
 62
     7
100
AcDbCircle
 10
13.0
 20
-56.0
 30
0.0
 40
2.0
100
AcDbArc
 50
90.0
 51
180.0
  0
ARC
  5
E9
330
237
100
AcDbEntity
  8
0
  6
Continuous
 62
     7
100
AcDbCircle
 10
13.0
 20
-64.0
 30
0.0
 40
2.0
100
AcDbArc
 50
180.0
 51
270.0
  0
ARC
  5
EA
330
237
100
AcDbEntity
  8
0
  6
Continuous
 62
     7
100
AcDbCircle
 10
13.0
 20
-72.0
 30
0.0
 40
2.0
100
AcDbArc
 50
180.0
 51
270.0
  0
ARC
  5
EB
330
237
100
AcDbEntity
  8
0
  6
Continuous
 62
     7
100
AcDbCircle
 10
20.0
 20
-72.0
 30
0.0
 40
2.0
100
AcDbArc
 50
90.0
 51
180.0
  0
LINE
  5
EC
330
237
100
AcDbEntity
  8
0
  6
Continuous
 62
     7
100
AcDbLine
 10
38.18777011
 20
-74.0
 30
0.0
 11
30.0
 21
-74.0
 31
0.0
  0
ARC
  5
ED
330
237
100
AcDbEntity
  8
0
  6
Continuous
 62
     7
100
AcDbCircle
 10
26.0
 20
-72.0
 30
0.0
 40
2.0
100
AcDbArc
 50
0.0
 51
90.0
  0
ARC
  5
EE
330
237
100
AcDbEntity
  8
0
  6
Continuous
 62
     7
100
AcDbCircle
 10
30.0
 20
-72.0
 30
0.0
 40
2.0
100
AcDbArc
 50
180.0
 51
270.0
  0
ARC
  5
EF
330
237
100
AcDbEntity
  8
0
  6
Continuous
 62
     7
100
AcDbCircle
 10
38.18777011
 20
-75.0
 30
0.0
 40
1.0
100
AcDbArc
 50
322.35842858
 51
90.0
  0
ARC
  5
F0
330
237
100
AcDbEntity
  8
0
  6
Continuous
 62
     7
100
AcDbCircle
 10
38.18777011
 20
-85.0
 30
0.0
 40
1.0
100
AcDbArc
 50
270.0
 51
37.64157142
  0
ARC
  5
F1
330
237
100
AcDbEntity
  8
0
  6
Continuous
 62
     7
100
AcDbCircle
 10
30.0
 20
-88.0
 30
0.0
 40
2.0
100
AcDbArc
 50
90.0
 51
180.0
  0
ARC
  5
F2
330
237
100
AcDbEntity
  8
0
  6
Continuous
 62
     7
100
AcDbCircle
 10
26.0
 20
-88.0
 30
0.0
 40
2.0
100
AcDbArc
 50
270.0
 51
0.0
  0
LINE
  5
F3
330
237
100
AcDbEntity
  8
0
  6
Continuous
 62
     7
100
AcDbLine
 10
38.18777011
 20
-86.0
 30
0.0
 11
30.0
 21
-86.0
 31
0.0
  0
ARC
  5
F4
330
237
100
AcDbEntity
  8
0
  6
Continuous
 62
     7
100
AcDbCircle
 10
20.0
 20
-88.0
 30
0.0
 40
2.0
100
AcDbArc
 50
180.0
 51
270.0
  0
ARC
  5
F5
330
237
100
AcDbEntity
  8
0
  6
Continuous
 62
     7
100
AcDbCircle
 10
13.0
 20
-88.0
 30
0.0
 40
2.0
100
AcDbArc
 50
90.0
 51
180.0
  0
ARC
  5
F6
330
237
100
AcDbEntity
  8
0
  6
Continuous
 62
     7
100
AcDbCircle
 10
13.0
 20
-96.0
 30
0.0
 40
2.0
100
AcDbArc
 50
90.0
 51
180.0
  0
ARC
  5
F7
330
237
100
AcDbEntity
  8
0
  6
Continuous
 62
     7
100
AcDbCircle
 10
13.0
 20
-104.0
 30
0.0
 40
2.0
100
AcDbArc
 50
180.0
 51
270.0
  0
ARC
  5
F8
330
237
100
AcDbEntity
  8
0
  6
Continuous
 62
     7
100
AcDbCircle
 10
26.0
 20
-108.0
 30
0.0
 40
2.0
100
AcDbArc
 50
0.0
 51
90.0
  0
ARC
  5
F9
330
237
100
AcDbEntity
  8
0
  6
Continuous
 62
     7
100
AcDbCircle
 10
26.0
 20
-108.5
 30
0.0
 40
2.0
100
AcDbArc
 50
270.0
 51
0.0
  0
LINE
  5
FA
330
237
100
AcDbEntity
  8
0
  6
Continuous
 62
     7
100
AcDbLine
 10
26.0
 20
-106.0
 30
0.0
 11
13.0
 21
-106.0
 31
0.0
  0
ARC
  5
FB
330
237
100
AcDbEntity
  8
0
  6
Continuous
 62
     7
100
AcDbCircle
 10
37.0
 20
-85.91607978
 30
0.0
 40
2.5
100
AcDbArc
 50
0.0
 51
80.40593176999999
  0
ARC
  5
FC
330
237
100
AcDbEntity
  8
0
  6
Continuous
 62
     7
100
AcDbCircle
 10
40.49999999999999
 20
-90.58257569
 30
0.0
 40
2.0
100
AcDbArc
 50
0.0
 51
66.42182152
  0
LINE
  5
FD
330
237
100
AcDbEntity
  8
0
  6
Continuous
 62
     7
100
AcDbLine
 10
39.5
 20
-86.0
 30
0.0
 11
39.5
 21
-85.91607978
 31
0.0
  0
ARC
  5
FE
330
237
100
AcDbEntity
  8
0
  6
Continuous
 62
     7
100
AcDbCircle
 10
42.5
 20
-86.0
 30
0.0
 40
3.0
100
AcDbArc
 50
180.0
 51
246.42182152
  0
ARC
  5
FF
330
237
100
AcDbEntity
  8
0
  6
Continuous
 62
     7
100
AcDbCircle
 10
38.0
 20
-80.0
 30
0.0
 40
3.5
100
AcDbArc
 50
99.59406823000001
 51
260.40593177
  0
LINE
  5
100
330
237
100
AcDbEntity
  8
0
  6
Continuous
 62
     7
100
AcDbLine
 10
26.0
 20
-90.0
 30
0.0
 11
20.0
 21
-90.0
 31
0.0
  0
LINE
  5
101
330
237
100
AcDbEntity
  8
0
  6
Continuous
 62
     7
100
AcDbLine
 10
28.0
 20
-88.0
 30
0.0
 11
28.0
 21
-108.5
 31
0.0
  0
ARC
  5
102
330
237
100
AcDbEntity
  8
0
  6
Continuous
 62
     7
100
AcDbCircle
 10
9.0
 20
-92.0
 30
0.0
 40
2.0
100
AcDbArc
 50
0.0
 51
90.0
  0
LINE
  5
103
330
237
100
AcDbEntity
  8
0
  6
Continuous
 62
     7
100
AcDbLine
 10
18.0
 20
-94.0
 30
0.0
 11
13.0
 21
-94.0
 31
0.0
  0
LINE
  5
104
330
237
100
AcDbEntity
  8
0
  6
Continuous
 62
     7
100
AcDbLine
 10
18.0
 20
-94.0
 30
0.0
 11
18.0
 21
-66.0
 31
0.0
  0
ARC
  5
105
330
237
100
AcDbEntity
  8
0
  6
Continuous
 62
     7
100
AcDbCircle
 10
-5.033037389999999
 20
-92.0
 30
0.0
 40
2.0
100
AcDbArc
 50
90.0
 51
210.04095542
  0
LINE
  5
106
330
237
100
AcDbEntity
  8
0
  6
Continuous
 62
     7
100
AcDbLine
 10
18.0
 20
-86.0
 30
0.0
 11
13.0
 21
-86.0
 31
0.0
  0
LINE
  5
107
330
237
100
AcDbEntity
  8
0
  6
Continuous
 62
     7
100
AcDbLine
 10
-8.5
 20
-90.0
 30
0.0
 11
6.537328879999999
 21
-116.00247565
 31
0.0
  0
ARC
  5
108
330
237
100
AcDbEntity
  8
0
  6
Continuous
 62
     7
100
AcDbCircle
 10
10.0
 20
-114.0
 30
0.0
 40
4.0
100
AcDbArc
 50
210.04095542
 51
75.52248781
  0
LINE
  5
109
330
237
100
AcDbEntity
  8
0
  6
Continuous
 62
     7
100
AcDbLine
 10
9.0
 20
-90.0
 30
0.0
 11
-5.033037389999999
 21
-90.0
 31
0.0
  0
LINE
  5
10A
330
237
100
AcDbEntity
  8
0
  6
Continuous
 62
     7
100
AcDbLine
 10
11.0
 20
-88.0
 30
0.0
 11
11.0
 21
-110.12701665
 31
0.0
  0
ARC
  5
10B
330
237
100
AcDbEntity
  8
0
  6
Continuous
 62
     7
100
AcDbCircle
 10
-11.5
 20
-93.49999999999999
 30
0.0
 40
3.0
100
AcDbArc
 50
0.0
 51
90.0
  0
ARC
  5
10C
330
237
100
AcDbEntity
  8
0
  6
Continuous
 62
     7
100
AcDbCircle
 10
-7.5
 20
-109.5
 30
0.0
 40
1.0
100
AcDbArc
 50
180.0
 51
270.0
  0
ARC
  5
10D
330
237
100
AcDbEntity
  8
0
  6
Continuous
 62
     7
100
AcDbCircle
 10
3.5
 20
-120.5
 30
0.0
 40
1.0
100
AcDbArc
 50
180.0
 51
270.0
  0
LINE
  5
10E
330
237
100
AcDbEntity
  8
0
  6
Continuous
 62
     7
100
AcDbLine
 10
-5.0
 20
-110.5
 30
0.0
 11
-7.5
 21
-110.5
 31
0.0
  0
LINE
  5
10F
330
237
100
AcDbEntity
  8
0
  6
Continuous
 62
     7
100
AcDbLine
 10
2.5
 20
-118.0
 30
0.0
 11
2.5
 21
-120.5
 31
0.0
  0
ARC
  5
110
330
237
100
AcDbEntity
  8
0
  6
Continuous
 62
     7
100
AcDbCircle
 10
16.5
 20
-120.5
 30
0.0
 40
1.0
100
AcDbArc
 50
270.0
 51
0.0
  0
LINE
  5
111
330
237
100
AcDbEntity
  8
0
  6
Continuous
 62
     7
100
AcDbLine
 10
17.5
 20
-118.0
 30
0.0
 11
17.5
 21
-120.5
 31
0.0
  0
ARC
  5
112
330
237
100
AcDbEntity
  8
0
  6
Continuous
 62
     7
100
AcDbCircle
 10
-5.0
 20
-118.0
 30
0.0
 40
7.5
100
AcDbArc
 50
0.0
 51
90.0
  0
ARC
  5
113
330
237
100
AcDbEntity
  8
0
  6
Continuous
 62
     7
100
AcDbCircle
 10
25.0
 20
-118.0
 30
0.0
 40
7.5
100
AcDbArc
 50
90.0
 51
180.0
  0
ARC
  5
114
330
237
100
AcDbEntity
  8
0
  6
Continuous
 62
     7
100
AcDbCircle
 10
-21.5
 20
-86.62701665
 30
0.0
 40
1.0
100
AcDbArc
 50
180.0
 51
255.52248781
  0
ARC
  5
115
330
237
100
AcDbEntity
  8
0
  6
Continuous
 62
     7
100
AcDbCircle
 10
-18.62701665
 20
-89.50000000000001
 30
0.0
 40
1.0
100
AcDbArc
 50
194.47751219
 51
270.0
  0
ARC
  5
116
330
237
100
AcDbEntity
  8
0
  6
Continuous
 62
     7
100
AcDbCircle
 10
-22.5
 20
-90.5
 30
0.0
 40
3.0
100
AcDbArc
 50
14.47751219
 51
75.52248781
  0
ARC
  5
117
330
237
100
AcDbEntity
  8
0
  6
Continuous
 62
     7
100
AcDbCircle
 10
41.5
 20
-106.62701665
 30
0.0
 40
1.0
100
AcDbArc
 50
284.47751219
 51
0.0
  0
ARC
  5
118
330
237
100
AcDbEntity
  8
0
  6
Continuous
 62
     7
100
AcDbCircle
 10
38.62701665
 20
-109.5
 30
0.0
 40
1.0
100
AcDbArc
 50
270.0
 51
345.52248781
  0
ARC
  5
119
330
237
100
AcDbEntity
  8
0
  6
Continuous
 62
     7
100
AcDbCircle
 10
42.5
 20
-110.5
 30
0.0
 40
3.0
100
AcDbArc
 50
104.47751219
 51
165.52248781
  0
LINE
  5
11A
330
237
100
AcDbEntity
  8
0
  6
Continuous
 62
     7
100
AcDbLine
 10
-8.5
 20
-109.5
 30
0.0
 11
-8.5
 21
-50.5
 31
0.0
  0
LINE
  5
11B
330
237
100
AcDbEntity
  8
0
  6
Continuous
 62
     7
100
AcDbLine
 10
-11.5
 20
-90.5
 30
0.0
 11
-18.62701665
 21
-90.5
 31
0.0
  0
LINE
  5
11C
330
237
100
AcDbEntity
  8
0
  6
Continuous
 62
     7
100
AcDbLine
 10
-22.5
 20
-86.62701665
 30
0.0
 11
-22.5
 21
-73.37298334999999
 31
0.0
  0
LINE
  5
11D
330
237
100
AcDbEntity
  8
0
  6
Continuous
 62
     7
100
AcDbLine
 10
16.5
 20
-121.5
 30
0.0
 11
3.5
 21
-121.5
 31
0.0
  0
LINE
  5
11E
330
237
100
AcDbEntity
  8
0
  6
Continuous
 62
     7
100
AcDbLine
 10
38.62701665
 20
-110.5
 30
0.0
 11
25.0
 21
-110.5
 31
0.0
  0
LINE
  5
11F
330
237
100
AcDbEntity
  8
0
  6
Continuous
 62
     7
100
AcDbLine
 10
42.5
 20
-90.58257569
 30
0.0
 11
42.5
 21
-106.62701665
 31
0.0
  0
ARC
  5
120
330
237
100
AcDbEntity
  8
0
  6
Continuous
 62
     7
100
AcDbCircle
 10
-25.0
 20
-93.0
 30
0.0
 40
1.0
100
AcDbArc
 50
180.0
 51
270.0
  0
LINE
  5
121
330
237
100
AcDbEntity
  8
0
  6
Continuous
 62
     7
100
AcDbLine
 10
-12.0
 20
-94.0
 30
0.0
 11
-25.0
 21
-94.0
 31
0.0
  0
ARC
  5
122
330
237
100
AcDbEntity
  8
0
  6
Continuous
 62
     7
100
AcDbCircle
 10
45.0
 20
-87.0
 30
0.0
 40
1.0
100
AcDbArc
 50
0.0
 51
90.0
  0
ARC
  5
123
330
237
100
AcDbEntity
  8
0
  6
Continuous
 62
     7
100
AcDbCircle
 10
43.5
 20
-85.0
 30
0.0
 40
1.0
100
AcDbArc
 50
180.0
 51
270.0
  0
LINE
  5
124
330
237
100
AcDbEntity
  8
0
  6
Continuous
 62
     7
100
AcDbLine
 10
46.0
 20
-87.0
 30
0.0
 11
46.0
 21
-113.0
 31
0.0
  0
LINE
  5
125
330
237
100
AcDbEntity
  8
0
  6
Continuous
 62
     7
100
AcDbLine
 10
45.0
 20
-86.0
 30
0.0
 11
43.5
 21
-86.0
 31
0.0
  0
LINE
  5
126
330
237
100
AcDbEntity
  8
0
  6
Continuous
 62
     7
100
AcDbLine
 10
42.5
 20
-85.0
 30
0.0
 11
42.5
 21
-75.0
 31
0.0
  0
ARC
  5
127
330
237
100
AcDbEntity
  8
0
  6
Continuous
 62
     7
100
AcDbCircle
 10
45.0
 20
-113.0
 30
0.0
 40
1.0
100
AcDbArc
 50
270.0
 51
0.0
  0
LINE
  5
128
330
237
100
AcDbEntity
  8
0
  6
Continuous
 62
     2
100
AcDbLine
 10
16.0
 20
-114.0
 30
0.0
 11
-2.0
 21
-114.0
 31
0.0
  0
LINE
  5
129
330
237
100
AcDbEntity
  8
0
  6
Continuous
 62
     7
100
AcDbLine
 10
32.0
 20
-114.0
 30
0.0
 11
32.0
 21
-123.0
 31
0.0
  0
LINE
  5
12A
330
237
100
AcDbEntity
  8
0
  6
Continuous
 62
     7
100
AcDbLine
 10
-12.0
 20
-94.0
 30
0.0
 11
-12.0
 21
-123.0
 31
0.0
  0
LINE
  5
12B
330
237
100
AcDbEntity
  8
0
  6
Continuous
 62
     2
100
AcDbLine
 10
1.0
 20
-118.0
 30
0.0
 11
-11.0
 21
-118.0
 31
0.0
  0
ARC
  5
12C
330
237
100
AcDbEntity
  8
0
  6
Continuous
 62
     7
100
AcDbCircle
 10
30.0
 20
-123.0
 30
0.0
 40
2.0
100
AcDbArc
 50
270.0
 51
0.0
  0
ARC
  5
12D
330
237
100
AcDbEntity
  8
0
  6
Continuous
 62
     7
100
AcDbCircle
 10
-10.0
 20
-123.0
 30
0.0
 40
2.0
100
AcDbArc
 50
180.0
 51
270.0
  0
CIRCLE
  5
12E
330
237
100
AcDbEntity
  8
0
  6
Continuous
 62
     7
100
AcDbCircle
 10
10.0
 20
-114.0
 30
0.0
 40
2.399999999999999
  0
CIRCLE
  5
12F
330
237
100
AcDbEntity
  8
0
  6
Continuous
 62
     7
100
AcDbCircle
 10
-5.0
 20
-118.0
 30
0.0
 40
3.5
  0
CIRCLE
  5
130
330
237
100
AcDbEntity
  8
0
  6
Continuous
 62
     7
100
AcDbCircle
 10
25.0
 20
-118.0
 30
0.0
 40
3.5
  0
LINE
  5
131
330
237
100
AcDbEntity
  8
0
  6
Continuous
 62
     7
100
AcDbLine
 10
45.0
 20
-114.0
 30
0.0
 11
32.0
 21
-114.0
 31
0.0
  0
LINE
  5
132
330
237
100
AcDbEntity
  8
0
  6
Continuous
 62
     2
100
AcDbLine
 10
31.0
 20
-118.0
 30
0.0
 11
19.0
 21
-118.0
 31
0.0
  0
LINE
  5
133
330
237
100
AcDbEntity
  8
0
  6
Continuous
 62
     7
100
AcDbLine
 10
-26.0
 20
-93.0
 30
0.0
 11
-26.0
 21
-67.0
 31
0.0
  0
LINE
  5
134
330
237
100
AcDbEntity
  8
0
  6
Continuous
 62
     7
100
AcDbLine
 10
30.0
 20
-125.0
 30
0.0
 11
-10.0
 21
-125.0
 31
0.0
  0
CIRCLE
  5
135
330
237
100
AcDbEntity
  8
0
  6
Continuous
 62
     2
100
AcDbCircle
 10
10.0
 20
-114.0
 30
0.0
 40
3.5
  0
LINE
  5
136
330
237
100
AcDbEntity
  8
0
  6
Continuous
 62
     7
100
AcDbLine
 10
-25.0
 20
-112.0
 30
0.0
 11
-25.0
 21
-94.0
 31
0.0
  0
LINE
  5
137
330
237
100
AcDbEntity
  8
0
  6
Continuous
 62
     7
100
AcDbLine
 10
-12.0
 20
-50.25
 30
0.0
 11
-15.09526249
 21
-50.25
 31
0.0
  0
LINE
  5
138
330
237
100
AcDbEntity
  8
0
  6
Continuous
 62
     7
100
AcDbLine
 10
-16.06350833
 20
-66.0
 30
0.0
 11
-16.06350833
 21
-49.5
 31
0.0
  0
ARC
  5
139
330
237
100
AcDbEntity
  8
0
  6
Continuous
 62
     7
100
AcDbCircle
 10
-18.0
 20
-50.0
 30
0.0
 40
2.0
100
AcDbArc
 50
14.47751219
 51
90.0
  0
ARC
  5
13A
330
237
100
AcDbEntity
  8
0
  6
Continuous
 62
     7
100
AcDbCircle
 10
-15.09526249
 20
-49.25
 30
0.0
 40
1.0
100
AcDbArc
 50
194.47751219
 51
270.0
  0
LINE
  5
13B
330
237
100
AcDbEntity
  8
0
  6
Continuous
 62
     7
100
AcDbLine
 10
-18.0
 20
-48.0
 30
0.0
 11
-25.0
 21
-48.0
 31
0.0
  0
LINE
  5
13C
330
237
100
AcDbEntity
  8
0
  6
Continuous
 62
     7
100
AcDbLine
 10
-12.0
 20
-109.75
 30
0.0
 11
-15.09526249
 21
-109.75
 31
0.0
  0
LINE
  5
13D
330
237
100
AcDbEntity
  8
0
  6
Continuous
 62
     7
100
AcDbLine
 10
-16.06350833
 20
-110.5
 30
0.0
 11
-16.06350833
 21
-94.0
 31
0.0
  0
ARC
  5
13E
330
237
100
AcDbEntity
  8
0
  6
Continuous
 62
     7
100
AcDbCircle
 10
-18.0
 20
-110.0
 30
0.0
 40
2.0
100
AcDbArc
 50
270.0
 51
345.52248781
  0
ARC
  5
13F
330
237
100
AcDbEntity
  8
0
  6
Continuous
 62
     7
100
AcDbCircle
 10
-15.09526249
 20
-110.75
 30
0.0
 40
1.0
100
AcDbArc
 50
90.0
 51
165.52248781
  0
LINE
  5
140
330
237
100
AcDbEntity
  8
0
  6
Continuous
 62
     7
100
AcDbLine
 10
-18.0
 20
-112.0
 30
0.0
 11
-25.0
 21
-112.0
 31
0.0
  0
LINE
  5
141
330
237
100
AcDbEntity
  8
0
  6
Continuous
 62
     7
100
AcDbLine
 10
-25.0
 20
-66.0
 30
0.0
 11
-25.0
 21
-48.0
 31
0.0
  0
LINE
  5
142
330
237
100
AcDbEntity
  8
0
  6
Continuous
 62
     2
100
AcDbLine
 10
51.0
 20
-60.0
 30
0.0
 11
36.5
 21
-60.0
 31
0.0
  0
LINE
  5
143
330
237
100
AcDbEntity
  8
0
  6
Continuous
 62
     2
100
AcDbLine
 10
51.0
 20
-100.0
 30
0.0
 11
36.5
 21
-100.0
 31
0.0
  0
LINE
  5
144
330
237
100
AcDbEntity
  8
0
  6
Continuous
 62
     2
100
AcDbLine
 10
-5.0
 20
-112.0
 30
0.0
 11
-5.0
 21
-124.0
 31
0.0
  0
LINE
  5
145
330
237
100
AcDbEntity
  8
0
  6
Continuous
 62
     2
100
AcDbLine
 10
25.0
 20
-112.0
 30
0.0
 11
25.0
 21
-124.0
 31
0.0
  0
LINE
  5
146
330
237
100
AcDbEntity
  8
0
  6
Continuous
 62
     7
100
AcDbLine
 10
79.70070782
 20
-5.54417047
 30
0.0
 11
169.70070785
 21
-5.54417047
 31
0.0
  0
LINE
  5
147
330
237
100
AcDbEntity
  8
0
  6
Continuous
 62
     7
100
AcDbLine
 10
116.20070785
 20
94.45582953
 30
0.0
 11
133.20070785
 21
94.45582953
 31
0.0
  0
LINE
  5
148
330
237
100
AcDbEntity
  8
0
  6
Continuous
 62
     7
100
AcDbLine
 10
-26.0
 20
-5.54417047
 30
0.0
 11
45.99999999
 21
-5.54417047
 31
0.0
  0
LINE
  5
149
330
237
100
AcDbEntity
  8
0
  6
Continuous
 62
     7
100
AcDbLine
 10
-26.0
 20
-5.54417047
 30
0.0
 11
-26.0
 21
21.45582953
 31
0.0
  0
LINE
  5
14A
330
237
100
AcDbEntity
  8
0
  6
Continuous
 62
     2
100
AcDbLine
 10
10.0
 20
-10.54417047
 30
0.0
 11
10.0
 21
99.33050519
 31
0.0
  0
LINE
  5
14B
330
237
100
AcDbEntity
  8
0
  6
Continuous
 62
     7
100
AcDbLine
 10
46.0
 20
-5.54417047
 30
0.0
 11
46.0
 21
21.45582953
 31
0.0
  0
LINE
  5
14C
330
237
100
AcDbEntity
  8
0
  6
Continuous
 62
     2
100
AcDbLine
 10
124.70070785
 20
-10.54417047
 30
0.0
 11
124.70070785
 21
99.33050519
 31
0.0
  0
LINE
  5
14D
330
237
100
AcDbEntity
  8
0
  6
Continuous
 62
     7
100
AcDbLine
 10
79.70070785
 20
-5.54417047
 30
0.0
 11
79.70070785
 21
3.455829529999999
 31
0.0
  0
LINE
  5
14E
330
237
100
AcDbEntity
  8
0
  6
Continuous
 62
     7
100
AcDbLine
 10
169.70070785
 20
-5.54417047
 30
0.0
 11
169.70070785
 21
3.455829529999999
 31
0.0
  0
LINE
  5
14F
330
237
100
AcDbEntity
  8
0
  6
Continuous
 62
     7
100
AcDbLine
 10
80.70070785
 20
4.455829529999999
 30
0.0
 11
90.70070785
 21
4.455829529999999
 31
0.0
  0
LINE
  5
150
330
237
100
AcDbEntity
  8
0
  6
Continuous
 62
     2
100
AcDbLine
 10
108.70070785
 20
23.34332261
 30
0.0
 11
108.70070785
 21
59.96094709
 31
0.0
  0
LINE
  5
151
330
237
100
AcDbEntity
  8
0
  6
Continuous
 62
     2
100
AcDbLine
 10
140.70070785
 20
23.34332261
 30
0.0
 11
140.70070785
 21
59.96094709
 31
0.0
  0
LINE
  5
152
330
237
100
AcDbEntity
  8
0
  6
Continuous
 62
     7
100
AcDbLine
 10
83.70070785000001
 20
41.45582953
 30
0.0
 11
83.70070785000001
 21
4.455829529999999
 31
0.0
  0
LINE
  5
153
330
237
100
AcDbEntity
  8
0
  6
Continuous
 62
     7
100
AcDbLine
 10
165.70070785
 20
41.45582953
 30
0.0
 11
165.70070785
 21
4.455829529999999
 31
0.0
  0
LINE
  5
154
330
237
100
AcDbEntity
  8
0
  6
Continuous
 62
     7
100
AcDbLine
 10
83.70070785000001
 20
24.45582953
 30
0.0
 11
165.70070785
 21
24.45582953
 31
0.0
  0
LINE
  5
155
330
237
100
AcDbEntity
  8
0
  6
Continuous
 62
     7
100
AcDbLine
 10
158.70070785
 20
4.455829529999999
 30
0.0
 11
168.70070785
 21
4.455829529999999
 31
0.0
  0
ARC
  5
156
330
237
100
AcDbEntity
  8
0
  6
Continuous
 62
     7
100
AcDbCircle
 10
80.70070785
 20
3.455829529999999
 30
0.0
 40
1.0
100
AcDbArc
 50
90.0
 51
180.0
  0
ARC
  5
157
330
237
100
AcDbEntity
  8
0
  6
Continuous
 62
     7
100
AcDbCircle
 10
168.70070785
 20
3.455829529999999
 30
0.0
 40
1.0
100
AcDbArc
 50
0.0
 51
90.0
  0
LINE
  5
158
330
237
100
AcDbEntity
  8
0
  6
Continuous
 62
     7
100
AcDbLine
 10
83.70070785000001
 20
41.45582953
 30
0.0
 11
92.70070784999999
 21
41.45582953
 31
0.0
  0
LINE
  5
159
330
237
100
AcDbEntity
  8
0
  6
Continuous
 62
     7
100
AcDbLine
 10
122.11711572
 20
31.45582953
 30
0.0
 11
127.28429999
 21
31.45582953
 31
0.0
  0
LINE
  5
15A
330
237
100
AcDbEntity
  8
0
  6
Continuous
 62
     7
100
AcDbLine
 10
97.70070785000001
 20
53.07477956999999
 30
0.0
 11
97.70070785000001
 21
86.45582952999999
 31
0.0
  0
LINE
  5
15B
330
237
100
AcDbEntity
  8
0
  6
Continuous
 62
     7
100
AcDbLine
 10
151.70070785
 20
53.07477956999999
 30
0.0
 11
151.70070785
 21
86.45582952999999
 31
0.0
  0
LINE
  5
15C
330
237
100
AcDbEntity
  8
0
  6
Continuous
 62
     7
100
AcDbLine
 10
156.70070785
 20
41.45582953
 30
0.0
 11
165.70070785
 21
41.45582953
 31
0.0
  0
LINE
  5
15D
330
237
100
AcDbEntity
  8
0
  6
Continuous
 62
     2
100
AcDbLine
 10
89.46481306
 20
41.45582953
 30
0.0
 11
161.10867948
 21
41.45582953
 31
0.0
  0
ARC
  5
15E
330
237
100
AcDbEntity
  8
0
  6
Continuous
 62
     7
100
AcDbCircle
 10
122.11711572
 20
29.45582953
 30
0.0
 40
2.0
100
AcDbArc
 50
90.0
 51
138.1896851
  0
ARC
  5
15F
330
237
100
AcDbEntity
  8
0
  6
Continuous
 62
     7
100
AcDbCircle
 10
127.28429999
 20
29.45582953
 30
0.0
 40
2.0
100
AcDbArc
 50
41.81031489999999
 51
90.0
  0
ARC
  5
160
330
237
100
AcDbEntity
  8
0
  6
Continuous
 62
     7
100
AcDbCircle
 10
140.70070785
 20
41.45582953
 30
0.0
 40
16.0
100
AcDbArc
 50
221.8103149
 51
138.1896851
  0
CIRCLE
  5
161
330
237
100
AcDbEntity
  8
0
  6
Continuous
 62
     7
100
AcDbCircle
 10
108.70070785
 20
41.45582953
 30
0.0
 40
12.0
  0
CIRCLE
  5
162
330
237
100
AcDbEntity
  8
0
  6
Continuous
 62
     7
100
AcDbCircle
 10
140.70070785
 20
41.45582953
 30
0.0
 40
12.0
  0
LINE
  5
163
330
237
100
AcDbEntity
  8
0
  6
Continuous
 62
     7
100
AcDbLine
 10
-22.0
 20
24.45582953
 30
0.0
 11
42.0
 21
24.45582953
 31
0.0
  0
LINE
  5
164
330
237
100
AcDbEntity
  8
0
  6
Continuous
 62
     2
100
AcDbLine
 10
-31.0
 20
9.45582953
 30
0.0
 11
51.0
 21
9.45582953
 31
0.0
  0
LINE
  5
165
330
237
100
AcDbEntity
  8
0
  6
Continuous
 62
     7
100
AcDbLine
 10
-25.0
 20
25.45582953
 30
0.0
 11
-25.0
 21
82.45582953000001
 31
0.0
  0
LINE
  5
166
330
237
100
AcDbEntity
  8
0
  6
Continuous
 62
     7
100
AcDbLine
 10
45.0
 20
25.45582953
 30
0.0
 11
45.0
 21
57.45582953
 31
0.0
  0
LINE
  5
167
330
237
100
AcDbEntity
  8
0
  6
Continuous
 62
     7
100
AcDbLine
 10
-25.0
 20
82.45582953000001
 30
0.0
 11
38.0
 21
82.45582953000001
 31
0.0
  0
LINE
  5
168
330
237
100
AcDbEntity
  8
0
  6
Continuous
 62
     7
100
AcDbLine
 10
38.0
 20
53.45582953
 30
0.0
 11
38.0
 21
86.45582952999999
 31
0.0
  0
LINE
  5
169
330
237
100
AcDbEntity
  8
0
  6
Continuous
 62
     7
100
AcDbLine
 10
40.0
 20
51.45582953
 30
0.0
 11
45.0
 21
51.45582953
 31
0.0
  0
LINE
  5
16A
330
237
100
AcDbEntity
  8
0
  6
Continuous
 62
     7
100
AcDbLine
 10
38.0
 20
57.45582953
 30
0.0
 11
45.0
 21
57.45582953
 31
0.0
  0
ARC
  5
16B
330
237
100
AcDbEntity
  8
0
  6
Continuous
 62
     7
100
AcDbCircle
 10
40.0
 20
53.45582953
 30
0.0
 40
2.0
100
AcDbArc
 50
180.0
 51
270.0
  0
LINE
  5
16C
330
237
100
AcDbEntity
  8
0
  6
Continuous
 62
     7
100
AcDbLine
 10
0.0
 20
94.45582953
 30
0.0
 11
-1.0
 21
93.45582953
 31
0.0
  0
LINE
  5
16D
330
237
100
AcDbEntity
  8
0
  6
Continuous
 62
     7
100
AcDbLine
 10
0.0
 20
94.45582953
 30
0.0
 11
20.0
 21
94.45582953
 31
0.0
  0
LINE
  5
16E
330
237
100
AcDbEntity
  8
0
  6
Continuous
 62
     2
100
AcDbLine
 10
-27.93927749
 20
72.45582953
 30
0.0
 11
-11.27175888
 21
72.45582953
 31
0.0
  0
LINE
  5
16F
330
237
100
AcDbEntity
  8
0
  6
Continuous
 62
     7
100
AcDbLine
 10
-25.0
 20
31.45582953
 30
0.0
 11
-24.0
 21
31.45582953
 31
0.0
  0
LINE
  5
170
330
237
100
AcDbEntity
  8
0
  6
Continuous
 62
     7
100
AcDbLine
 10
-25.0
 20
25.45582953
 30
0.0
 11
-22.0
 21
25.45582953
 31
0.0
  0
LINE
  5
171
330
237
100
AcDbEntity
  8
0
  6
Continuous
 62
     7
100
AcDbLine
 10
-22.0
 20
24.45582953
 30
0.0
 11
-22.0
 21
29.45582953
 31
0.0
  0
ARC
  5
172
330
237
100
AcDbEntity
  8
0
  6
Continuous
 62
     7
100
AcDbCircle
 10
-24.0
 20
29.45582953
 30
0.0
 40
2.0
100
AcDbArc
 50
0.0
 51
90.0
  0
LINE
  5
173
330
237
100
AcDbEntity
  8
0
  6
Continuous
 62
     7
100
AcDbLine
 10
42.0
 20
25.45582953
 30
0.0
 11
45.0
 21
25.45582953
 31
0.0
  0
LINE
  5
174
330
237
100
AcDbEntity
  8
0
  6
Continuous
 62
     7
100
AcDbLine
 10
42.0
 20
24.45582953
 30
0.0
 11
42.0
 21
29.45582953
 31
0.0
  0
ARC
  5
175
330
237
100
AcDbEntity
  8
0
  6
Continuous
 62
     7
100
AcDbCircle
 10
44.0
 20
29.45582953
 30
0.0
 40
2.0
100
AcDbArc
 50
90.0
 51
180.0
  0
LINE
  5
176
330
237
100
AcDbEntity
  8
0
  6
Continuous
 62
     7
100
AcDbLine
 10
44.0
 20
31.45582953
 30
0.0
 11
45.0
 21
31.45582953
 31
0.0
  0
LINE
  5
177
330
237
100
AcDbEntity
  8
0
  6
Continuous
 62
     7
100
AcDbLine
 10
-17.0
 20
86.45582952999999
 30
0.0
 11
38.0
 21
86.45582952999999
 31
0.0
  0
LINE
  5
178
330
237
100
AcDbEntity
  8
0
  6
Continuous
 62
     2
100
AcDbLine
 10
-12.0
 20
84.24049307999998
 30
0.0
 11
-12.0
 21
91.79558931
 31
0.0
  0
LINE
  5
179
330
237
100
AcDbEntity
  8
0
  6
Continuous
 62
     7
100
AcDbLine
 10
-15.5
 20
87.45582953000001
 30
0.0
 11
-8.5
 21
87.45582953000001
 31
0.0
  0
LINE
  5
17A
330
237
100
AcDbEntity
  8
0
  6
Continuous
 62
     7
100
AcDbLine
 10
-12.9
 20
90.05582952999999
 30
0.0
 11
-11.1
 21
90.05582952999999
 31
0.0
  0
LINE
  5
17B
330
237
100
AcDbEntity
  8
0
  6
Continuous
 62
     7
100
AcDbLine
 10
-15.5
 20
86.45582952999999
 30
0.0
 11
-15.5
 21
87.45582953000001
 31
0.0
  0
LINE
  5
17C
330
237
100
AcDbEntity
  8
0
  6
Continuous
 62
     7
100
AcDbLine
 10
-8.5
 20
86.45582952999999
 30
0.0
 11
-8.5
 21
87.45582953000001
 31
0.0
  0
ARC
  5
17D
330
237
100
AcDbEntity
  8
0
  6
Continuous
 62
     7
100
AcDbCircle
 10
-12.9
 20
87.45582953000001
 30
0.0
 40
2.6
100
AcDbArc
 50
90.0
 51
180.0
  0
ARC
  5
17E
330
237
100
AcDbEntity
  8
0
  6
Continuous
 62
     7
100
AcDbCircle
 10
-11.1
 20
87.45582953000001
 30
0.0
 40
2.6
100
AcDbArc
 50
0.0
 51
90.0
  0
LINE
  5
17F
330
237
100
AcDbEntity
  8
0
  6
Continuous
 62
     7
100
AcDbLine
 10
-12.00000001
 20
90.05582956000001
 30
0.0
 11
-10.51727237
 21
88.57310191000001
 31
0.0
  0
LINE
  5
180
330
237
100
AcDbEntity
  8
0
  6
Continuous
 62
     7
100
AcDbLine
 10
-11.99999999
 20
90.05582956000001
 30
0.0
 11
-13.48272763
 21
88.57310191000001
 31
0.0
  0
LINE
  5
181
330
237
100
AcDbEntity
  8
0
  6
Continuous
 62
     7
100
AcDbLine
 10
20.0
 20
94.45582953
 30
0.0
 11
21.0
 21
93.45582953
 31
0.0
  0
LINE
  5
182
330
237
100
AcDbEntity
  8
0
  6
Continuous
 62
     7
100
AcDbLine
 10
97.70070782000001
 20
82.45582953000001
 30
0.0
 11
151.70070782
 21
82.45582953000001
 31
0.0
  0
LINE
  5
183
330
237
100
AcDbEntity
  8
0
  6
Continuous
 62
     7
100
AcDbLine
 10
97.70070782000001
 20
86.45582952999999
 30
0.0
 11
151.70070782
 21
86.45582952999999
 31
0.0
  0
LINE
  5
184
330
237
100
AcDbEntity
  8
0
  6
Continuous
 62
     7
100
AcDbLine
 10
116.20070785
 20
86.45582952999999
 30
0.0
 11
116.20070785
 21
94.45582953
 31
0.0
  0
LINE
  5
185
330
237
100
AcDbEntity
  8
0
  6
Continuous
 62
     7
100
AcDbLine
 10
133.20070785
 20
86.45582952999999
 30
0.0
 11
133.20070785
 21
94.45582953
 31
0.0
  0
LINE
  5
186
330
237
100
AcDbEntity
  8
0
  6
Continuous
 62
     2
100
AcDbLine
 10
102.70070785
 20
79.86830530999999
 30
0.0
 11
102.70070785
 21
94.3673367
 31
0.0
  0
LINE
  5
187
330
237
100
AcDbEntity
  8
0
  6
Continuous
 62
     2
100
AcDbLine
 10
146.70070785
 20
79.86830530999999
 30
0.0
 11
146.70070785
 21
94.3673367
 31
0.0
  0
LINE
  5
188
330
237
100
AcDbEntity
  8
0
  6
Continuous
 62
     7
100
AcDbLine
 10
-17.0
 20
82.45582953000001
 30
0.0
 11
-17.0
 21
86.45582952999999
 31
0.0
  0
LINE
  5
189
330
237
100
AcDbEntity
  8
0
  6
Continuous
 62
     7
100
AcDbLine
 10
143.20070785
 20
86.45582952999999
 30
0.0
 11
143.20070785
 21
87.45582953000001
 31
0.0
  0
LINE
  5
18A
330
237
100
AcDbEntity
  8
0
  6
Continuous
 62
     7
100
AcDbLine
 10
150.20070785
 20
86.45582952999999
 30
0.0
 11
150.20070785
 21
87.45582953000001
 31
0.0
  0
LINE
  5
18B
330
237
100
AcDbEntity
  8
0
  6
Continuous
 62
     7
100
AcDbLine
 10
146.70070787
 20
90.05582956000001
 30
0.0
 11
145.21798022
 21
88.57310191000001
 31
0.0
  0
LINE
  5
18C
330
237
100
AcDbEntity
  8
0
  6
Continuous
 62
     7
100
AcDbLine
 10
146.70070784
 20
90.05582956000001
 30
0.0
 11
148.18343549
 21
88.57310191000001
 31
0.0
  0
ARC
  5
18D
330
237
100
AcDbEntity
  8
0
  6
Continuous
 62
     7
100
AcDbCircle
 10
147.60070785
 20
87.45582953000001
 30
0.0
 40
2.6
100
AcDbArc
 50
0.0
 51
90.0
  0
ARC
  5
18E
330
237
100
AcDbEntity
  8
0
  6
Continuous
 62
     7
100
AcDbCircle
 10
145.80070785
 20
87.45582953000001
 30
0.0
 40
2.6
100
AcDbArc
 50
90.0
 51
180.0
  0
LINE
  5
18F
330
237
100
AcDbEntity
  8
0
  6
Continuous
 62
     7
100
AcDbLine
 10
145.80070785
 20
90.05582952999999
 30
0.0
 11
147.60070785
 21
90.05582952999999
 31
0.0
  0
LINE
  5
190
330
237
100
AcDbEntity
  8
0
  6
Continuous
 62
     7
100
AcDbLine
 10
143.20070785
 20
87.45582953000001
 30
0.0
 11
150.20070785
 21
87.45582953000001
 31
0.0
  0
LINE
  5
191
330
237
100
AcDbEntity
  8
0
  6
Continuous
 62
     7
100
AcDbLine
 10
99.20070785
 20
86.45582952999999
 30
0.0
 11
99.20070785
 21
87.45582953000001
 31
0.0
  0
LINE
  5
192
330
237
100
AcDbEntity
  8
0
  6
Continuous
 62
     7
100
AcDbLine
 10
106.20070785
 20
86.45582952999999
 30
0.0
 11
106.20070785
 21
87.45582953000001
 31
0.0
  0
LINE
  5
193
330
237
100
AcDbEntity
  8
0
  6
Continuous
 62
     7
100
AcDbLine
 10
102.70070787
 20
90.05582956000001
 30
0.0
 11
101.21798022
 21
88.57310191000001
 31
0.0
  0
LINE
  5
194
330
237
100
AcDbEntity
  8
0
  6
Continuous
 62
     7
100
AcDbLine
 10
102.70070784
 20
90.05582956000001
 30
0.0
 11
104.18343549
 21
88.57310191000001
 31
0.0
  0
ARC
  5
195
330
237
100
AcDbEntity
  8
0
  6
Continuous
 62
     7
100
AcDbCircle
 10
103.60070785
 20
87.45582953000001
 30
0.0
 40
2.6
100
AcDbArc
 50
0.0
 51
90.0
  0
ARC
  5
196
330
237
100
AcDbEntity
  8
0
  6
Continuous
 62
     7
100
AcDbCircle
 10
101.80070785
 20
87.45582953000001
 30
0.0
 40
2.6
100
AcDbArc
 50
90.0
 51
180.0
  0
LINE
  5
197
330
237
100
AcDbEntity
  8
0
  6
Continuous
 62
     7
100
AcDbLine
 10
101.80070785
 20
90.05582952999999
 30
0.0
 11
103.60070785
 21
90.05582952999999
 31
0.0
  0
LINE
  5
198
330
237
100
AcDbEntity
  8
0
  6
Continuous
 62
     7
100
AcDbLine
 10
99.20070785
 20
87.45582953000001
 30
0.0
 11
106.20070785
 21
87.45582953000001
 31
0.0
  0
CIRCLE
  5
199
330
237
100
AcDbEntity
  8
0
  6
Continuous
 62
     7
100
AcDbCircle
 10
108.78649429
 20
41.45582953
 30
0.0
 40
6.18578644
  0
ARC
  5
19A
330
237
100
AcDbEntity
  8
0
  6
Continuous
 62
     7
100
AcDbCircle
 10
108.70070785
 20
41.95582953
 30
0.0
 40
11.0
100
AcDbArc
 50
304.41103893
 51
235.58896107
  0
ARC
  5
19B
330
237
100
AcDbEntity
  8
0
  6
Continuous
 62
     7
100
AcDbCircle
 10
112.70070785
 20
31.70887876
 30
0.0
 40
2.0
100
AcDbArc
 50
39.32813926
 51
196.10777769
  0
LINE
  5
19C
330
237
100
AcDbEntity
  8
0
  6
Continuous
 62
     7
100
AcDbLine
 10
111.07402396
 20
29.69286346
 30
0.0
 11
110.71439155
 21
31.47532465
 31
0.0
  0
ARC
  5
19D
330
237
100
AcDbEntity
  8
0
  6
Continuous
 62
     7
100
AcDbCircle
 10
114.63453048
 20
33.29328088
 30
0.0
 40
0.5
100
AcDbArc
 50
219.32813926
 51
304.41103893
  0
CIRCLE
  5
19E
330
237
100
AcDbEntity
  8
0
  6
Continuous
 62
     7
100
AcDbCircle
 10
112.70070785
 20
31.70887876
 30
0.0
 40
1.0
  0
ARC
  5
19F
330
237
100
AcDbEntity
  8
0
  6
Continuous
 62
     7
100
AcDbCircle
 10
104.70070785
 20
31.70887876
 30
0.0
 40
2.0
100
AcDbArc
 50
343.89222231
 51
140.67186074
  0
ARC
  5
1A0
330
237
100
AcDbEntity
  8
0
  6
Continuous
 62
     7
100
AcDbCircle
 10
102.76688523
 20
33.29328088
 30
0.0
 40
0.5
100
AcDbArc
 50
235.58896107
 51
320.67186074
  0
LINE
  5
1A1
330
237
100
AcDbEntity
  8
0
  6
Continuous
 62
     7
100
AcDbLine
 10
106.32739175
 20
29.69286346
 30
0.0
 11
106.68702416
 21
31.47532465
 31
0.0
  0
CIRCLE
  5
1A2
330
237
100
AcDbEntity
  8
0
  6
Continuous
 62
     7
100
AcDbCircle
 10
104.70070785
 20
31.70887876
 30
0.0
 40
1.0
  0
CIRCLE
  5
1A3
330
237
100
AcDbEntity
  8
0
  6
Continuous
 62
     7
100
AcDbCircle
 10
140.61492142
 20
41.45582953
 30
0.0
 40
6.18578644
  0
ARC
  5
1A4
330
237
100
AcDbEntity
  8
0
  6
Continuous
 62
     7
100
AcDbCircle
 10
140.70070785
 20
41.95582953
 30
0.0
 40
11.0
100
AcDbArc
 50
304.41103893
 51
235.58896107
  0
ARC
  5
1A5
330
237
100
AcDbEntity
  8
0
  6
Continuous
 62
     7
100
AcDbCircle
 10
136.70070785
 20
31.70887876
 30
0.0
 40
2.0
100
AcDbArc
 50
343.89222231
 51
140.67186074
  0
CIRCLE
  5
1A6
330
237
100
AcDbEntity
  8
0
  6
Continuous
 62
     7
100
AcDbCircle
 10
136.70070785
 20
31.70887876
 30
0.0
 40
1.0
  0
LINE
  5
1A7
330
237
100
AcDbEntity
  8
0
  6
Continuous
 62
     7
100
AcDbLine
 10
138.32739175
 20
29.69286346
 30
0.0
 11
138.68702416
 21
31.47532465
 31
0.0
  0
ARC
  5
1A8
330
237
100
AcDbEntity
  8
0
  6
Continuous
 62
     7
100
AcDbCircle
 10
144.70070785
 20
31.70887876
 30
0.0
 40
2.0
100
AcDbArc
 50
39.32813926
 51
196.10777769
  0
ARC
  5
1A9
330
237
100
AcDbEntity
  8
0
  6
Continuous
 62
     7
100
AcDbCircle
 10
146.63453048
 20
33.29328088
 30
0.0
 40
0.5
100
AcDbArc
 50
219.32813926
 51
304.41103893
  0
CIRCLE
  5
1AA
330
237
100
AcDbEntity
  8
0
  6
Continuous
 62
     7
100
AcDbCircle
 10
144.70070785
 20
31.70887876
 30
0.0
 40
1.0
  0
ARC
  5
1AB
330
237
100
AcDbEntity
  8
0
  6
Continuous
 62
     7
100
AcDbCircle
 10
134.76688523
 20
33.29328088
 30
0.0
 40
0.5
100
AcDbArc
 50
235.58896107
 51
320.67186074
  0
LINE
  5
1AC
330
237
100
AcDbEntity
  8
0
  6
Continuous
 62
     7
100
AcDbLine
 10
143.07402396
 20
29.69286346
 30
0.0
 11
142.71439155
 21
31.47532465
 31
0.0
  0
LINE
  5
1AD
330
237
100
AcDbEntity
  8
0
  6
Continuous
 62
     2
100
AcDbLine
 10
158.70070785
 20
38.53874317
 30
0.0
 11
158.70070785
 21
48.90460983
 31
0.0
  0
LINE
  5
1AE
330
237
100
AcDbEntity
  8
0
  6
Continuous
 62
     7
100
AcDbLine
 10
156.6302401799999
 20
42.95582953
 30
0.0
 11
164.80070785
 21
42.95582953
 31
0.0
  0
LINE
  5
1AF
330
237
100
AcDbEntity
  8
0
  6
Continuous
 62
     7
100
AcDbLine
 10
157.35070785
 20
46.85582952999999
 30
0.0
 11
160.05070785
 21
46.85582952999999
 31
0.0
  0
ARC
  5
1B0
330
237
100
AcDbEntity
  8
0
  6
Continuous
 62
     7
100
AcDbCircle
 10
160.05070785
 20
42.95582953
 30
0.0
 40
3.9
100
AcDbArc
 50
0.0
 51
90.0
  0
ARC
  5
1B1
330
237
100
AcDbEntity
  8
0
  6
Continuous
 62
     7
100
AcDbCircle
 10
157.35070785
 20
42.95582953
 30
0.0
 40
3.9
100
AcDbArc
 50
90.0
 51
112.40463731
  0
LINE
  5
1B2
330
237
100
AcDbEntity
  8
0
  6
Continuous
 62
     7
100
AcDbLine
 10
164.80070785
 20
41.45582953
 30
0.0
 11
164.80070785
 21
42.95582953
 31
0.0
  0
LINE
  5
1B3
330
237
100
AcDbEntity
  8
0
  6
Continuous
 62
     7
100
AcDbLine
 10
158.70070794
 20
46.85582927
 30
0.0
 11
160.55057552
 21
45.00596169
 31
0.0
  0
LINE
  5
1B4
330
237
100
AcDbEntity
  8
0
  6
Continuous
 62
     7
100
AcDbLine
 10
158.70070777
 20
46.85582927
 30
0.0
 11
156.85084019
 21
45.00596169
 31
0.0
  0
ARC
  5
1B5
330
237
100
AcDbEntity
  8
0
  6
Continuous
 62
     7
100
AcDbCircle
 10
92.05070785
 20
42.95582953
 30
0.0
 40
3.9
100
AcDbArc
 50
67.59536269
 51
90.0
  0
LINE
  5
1B6
330
237
100
AcDbEntity
  8
0
  6
Continuous
 62
     7
100
AcDbLine
 10
92.05070785
 20
46.85582952999999
 30
0.0
 11
89.35070785
 21
46.85582952999999
 31
0.0
  0
LINE
  5
1B7
330
237
100
AcDbEntity
  8
0
  6
Continuous
 62
     7
100
AcDbLine
 10
90.70070794000001
 20
46.85582927
 30
0.0
 11
92.55057552
 21
45.00596169
 31
0.0
  0
LINE
  5
1B8
330
237
100
AcDbEntity
  8
0
  6
Continuous
 62
     7
100
AcDbLine
 10
90.70070776999999
 20
46.85582927
 30
0.0
 11
88.85084019
 21
45.00596169
 31
0.0
  0
ARC
  5
1B9
330
237
100
AcDbEntity
  8
0
  6
Continuous
 62
     7
100
AcDbCircle
 10
89.35070785
 20
42.95582953
 30
0.0
 40
3.9
100
AcDbArc
 50
90.0
 51
180.0
  0
LINE
  5
1BA
330
237
100
AcDbEntity
  8
0
  6
Continuous
 62
     7
100
AcDbLine
 10
92.77117553
 20
42.95582953
 30
0.0
 11
84.60070785
 21
42.95582953
 31
0.0
  0
LINE
  5
1BB
330
237
100
AcDbEntity
  8
0
  6
Continuous
 62
     7
100
AcDbLine
 10
84.60070785
 20
41.45582953
 30
0.0
 11
84.60070785
 21
42.95582953
 31
0.0
  0
LINE
  5
1BC
330
237
100
AcDbEntity
  8
0
  6
Continuous
 62
     2
100
AcDbLine
 10
90.70070785
 20
38.53874317
 30
0.0
 11
90.70070785
 21
48.90460983
 31
0.0
  0
ARC
  5
1BD
330
237
100
AcDbEntity
  8
0
  6
Continuous
 62
     7
100
AcDbCircle
 10
122.11711572
 20
53.45582953
 30
0.0
 40
2.0
100
AcDbArc
 50
221.8103149
 51
270.0
  0
LINE
  5
1BE
330
237
100
AcDbEntity
  8
0
  6
Continuous
 62
     7
100
AcDbLine
 10
122.11711572
 20
51.45582953
 30
0.0
 11
127.28429999
 21
51.45582953
 31
0.0
  0
ARC
  5
1BF
330
237
100
AcDbEntity
  8
0
  6
Continuous
 62
     7
100
AcDbCircle
 10
127.28429999
 20
53.45582953
 30
0.0
 40
2.0
100
AcDbArc
 50
270.0
 51
318.1896851
  0
LINE
  5
1C0
330
237
100
AcDbEntity
  8
0
  6
Continuous
 62
     2
100
AcDbLine
 10
32.0
 20
84.24049307999998
 30
0.0
 11
32.0
 21
91.79558931
 31
0.0
  0
LINE
  5
1C1
330
237
100
AcDbEntity
  8
0
  6
Continuous
 62
     7
100
AcDbLine
 10
35.5
 20
86.45582952999999
 30
0.0
 11
35.5
 21
87.45582953000001
 31
0.0
  0
LINE
  5
1C2
330
237
100
AcDbEntity
  8
0
  6
Continuous
 62
     7
100
AcDbLine
 10
28.5
 20
86.45582952999999
 30
0.0
 11
28.5
 21
87.45582953000001
 31
0.0
  0
LINE
  5
1C3
330
237
100
AcDbEntity
  8
0
  6
Continuous
 62
     7
100
AcDbLine
 10
31.99999999
 20
90.05582956000001
 30
0.0
 11
33.48272763
 21
88.57310191000001
 31
0.0
  0
LINE
  5
1C4
330
237
100
AcDbEntity
  8
0
  6
Continuous
 62
     7
100
AcDbLine
 10
32.00000001
 20
90.05582956000001
 30
0.0
 11
30.51727237
 21
88.57310191000001
 31
0.0
  0
ARC
  5
1C5
330
237
100
AcDbEntity
  8
0
  6
Continuous
 62
     7
100
AcDbCircle
 10
31.1
 20
87.45582953000001
 30
0.0
 40
2.6
100
AcDbArc
 50
90.0
 51
180.0
  0
ARC
  5
1C6
330
237
100
AcDbEntity
  8
0
  6
Continuous
 62
     7
100
AcDbCircle
 10
32.9
 20
87.45582953000001
 30
0.0
 40
2.6
100
AcDbArc
 50
0.0
 51
90.0
  0
LINE
  5
1C7
330
237
100
AcDbEntity
  8
0
  6
Continuous
 62
     7
100
AcDbLine
 10
32.9
 20
90.05582952999999
 30
0.0
 11
31.1
 21
90.05582952999999
 31
0.0
  0
LINE
  5
1C8
330
237
100
AcDbEntity
  8
0
  6
Continuous
 62
     7
100
AcDbLine
 10
35.5
 20
87.45582953000001
 30
0.0
 11
28.5
 21
87.45582953000001
 31
0.0
  0
LINE
  5
1C9
330
237
100
AcDbEntity
  8
0
  6
Continuous
 62
     7
100
AcDbLine
 10
21.0
 20
86.45582952999999
 30
0.0
 11
21.0
 21
93.45582953
 31
0.0
  0
LINE
  5
1CA
330
237
100
AcDbEntity
  8
0
  6
Continuous
 62
     7
100
AcDbLine
 10
-1.0
 20
86.45582952999999
 30
0.0
 11
-1.0
 21
93.45582953
 31
0.0
  0
LINE
  5
1CB
330
237
100
AcDbEntity
  8
0
  6
Continuous
 62
     7
100
AcDbLine
 10
-1.000000009999999
 20
93.45582953
 30
0.0
 11
3.01787998
 21
93.45582953
 31
0.0
  0
LINE
  5
1CC
330
237
100
AcDbEntity
  8
0
  6
Continuous
 62
     7
100
AcDbLine
 10
-1.0
 20
41.45582953
 30
0.0
 11
21.0
 21
41.45582953
 31
0.0
  0
LINE
  5
1CD
330
237
100
AcDbEntity
  8
0
  6
Continuous
 62
     7
100
AcDbLine
 10
19.0
 20
41.45582953
 30
0.0
 11
19.0
 21
47.45582953
 31
0.0
  0
LINE
  5
1CE
330
237
100
AcDbEntity
  8
0
  6
Continuous
 62
     7
100
AcDbLine
 10
21.0
 20
49.45582953
 30
0.0
 11
34.0
 21
49.45582953
 31
0.0
  0
ARC
  5
1CF
330
237
100
AcDbEntity
  8
0
  6
Continuous
 62
     7
100
AcDbCircle
 10
34.0
 20
51.45582953
 30
0.0
 40
2.0
100
AcDbArc
 50
270.0
 51
0.0
  0
LINE
  5
1D0
330
237
100
AcDbEntity
  8
0
  6
Continuous
 62
     7
100
AcDbLine
 10
36.0
 20
24.45582953
 30
0.0
 11
36.0
 21
51.45582953
 31
0.0
  0
ARC
  5
1D1
330
237
100
AcDbEntity
  8
0
  6
Continuous
 62
     7
100
AcDbCircle
 10
21.0
 20
47.45582953
 30
0.0
 40
2.0
100
AcDbArc
 50
90.0
 51
180.0
  0
LINE
  5
1D2
330
237
100
AcDbEntity
  8
0
  6
Continuous
 62
     7
100
AcDbLine
 10
21.0
 20
36.95582953000001
 30
0.0
 11
21.0
 21
41.45582953
 31
0.0
  0
LINE
  5
1D3
330
237
100
AcDbEntity
  8
0
  6
Continuous
 62
     7
100
AcDbLine
 10
31.0
 20
26.95582953
 30
0.0
 11
36.0
 21
26.95582953
 31
0.0
  0
ARC
  5
1D4
330
237
100
AcDbEntity
  8
0
  6
Continuous
 62
     7
100
AcDbCircle
 10
31.0
 20
36.95582953000001
 30
0.0
 40
10.0
100
AcDbArc
 50
180.0
 51
270.0
  0
LINE
  5
1D5
330
237
100
AcDbEntity
  8
0
  6
Continuous
 62
     7
100
AcDbLine
 10
1.0
 20
41.45582953
 30
0.0
 11
1.0
 21
47.45582953
 31
0.0
  0
ARC
  5
1D6
330
237
100
AcDbEntity
  8
0
  6
Continuous
 62
     7
100
AcDbCircle
 10
-1.0
 20
47.45582953
 30
0.0
 40
2.0
100
AcDbArc
 50
0.0
 51
90.0
  0
ARC
  5
1D7
330
237
100
AcDbEntity
  8
0
  6
Continuous
 62
     7
100
AcDbCircle
 10
-14.0
 20
51.45582953
 30
0.0
 40
2.0
100
AcDbArc
 50
180.0
 51
270.0
  0
LINE
  5
1D8
330
237
100
AcDbEntity
  8
0
  6
Continuous
 62
     7
100
AcDbLine
 10
-1.0
 20
49.45582953
 30
0.0
 11
-14.0
 21
49.45582953
 31
0.0
  0
LINE
  5
1D9
330
237
100
AcDbEntity
  8
0
  6
Continuous
 62
     7
100
AcDbLine
 10
-1.0
 20
36.95582953000001
 30
0.0
 11
-1.0
 21
41.45582953
 31
0.0
  0
ARC
  5
1DA
330
237
100
AcDbEntity
  8
0
  6
Continuous
 62
     7
100
AcDbCircle
 10
-11.0
 20
36.95582953000001
 30
0.0
 40
10.0
100
AcDbArc
 50
270.0
 51
0.0
  0
LINE
  5
1DB
330
237
100
AcDbEntity
  8
0
  6
Continuous
 62
     7
100
AcDbLine
 10
-11.0
 20
26.95582953
 30
0.0
 11
-16.0
 21
26.95582953
 31
0.0
  0
LINE
  5
1DC
330
237
100
AcDbEntity
  8
0
  6
Continuous
 62
     7
100
AcDbLine
 10
-25.0
 20
51.45582953
 30
0.0
 11
-16.0
 21
51.45582953
 31
0.0
  0
LINE
  5
1DD
330
237
100
AcDbEntity
  8
0
  6
Continuous
 62
     2
100
AcDbLine
 10
144.70070785
 20
0.33458452
 30
0.0
 11
144.70070785
 21
17.83371142
 31
0.0
  0
LINE
  5
1DE
330
237
100
AcDbEntity
  8
0
  6
Continuous
 62
     2
100
AcDbLine
 10
104.70070785
 20
-0.01079298
 30
0.0
 11
104.70070785
 21
19.1000956
 31
0.0
  0
LINE
  5
1DF
330
237
100
AcDbEntity
  8
0
  6
Continuous
 62
     7
100
AcDbLine
 10
130.20070785
 20
-5.54417047
 30
0.0
 11
131.41319226
 21
18.70551761
 31
0.0
  0
ARC
  5
1E0
330
237
100
AcDbEntity
  8
0
  6
Continuous
 62
     7
100
AcDbCircle
 10
136.40695395
 20
18.45582953
 30
0.0
 40
5.0
100
AcDbArc
 50
90.0
 51
177.13759477
  0
LINE
  5
1E1
330
237
100
AcDbEntity
  8
0
  6
Continuous
 62
     7
100
AcDbLine
 10
136.40695395
 20
23.45582953
 30
0.0
 11
152.99446176
 21
23.45582953
 31
0.0
  0
ARC
  5
1E2
330
237
100
AcDbEntity
  8
0
  6
Continuous
 62
     7
100
AcDbCircle
 10
152.99446176
 20
18.45582953
 30
0.0
 40
5.0
100
AcDbArc
 50
2.862405229999999
 51
90.0
  0
LINE
  5
1E3
330
237
100
AcDbEntity
  8
0
  6
Continuous
 62
     7
100
AcDbLine
 10
159.20070785
 20
-5.54417047
 30
0.0
 11
157.98822345
 21
18.70551761
 31
0.0
  0
CIRCLE
  5
1E4
330
237
100
AcDbEntity
  8
0
  6
Continuous
 62
     7
100
AcDbCircle
 10
144.70070785
 20
9.45582953
 30
0.0
 40
5.5
  0
CIRCLE
  5
1E5
330
237
100
AcDbEntity
  8
0
  6
Continuous
 62
     2
100
AcDbCircle
 10
144.70070785
 20
9.45582953
 30
0.0
 40
6.5
  0
LINE
  5
1E6
330
237
100
AcDbEntity
  8
0
  6
Continuous
 62
     2
100
AcDbLine
 10
135.52383527
 20
9.45582953
 30
0.0
 11
154.70487067
 21
9.45582953
 31
0.0
  0
LINE
  5
1E7
330
237
100
AcDbEntity
  8
0
  6
Continuous
 62
     7
100
AcDbLine
 10
90.20070784999999
 20
-5.54417047
 30
0.0
 11
91.41319226
 21
18.70551761
 31
0.0
  0
ARC
  5
1E8
330
237
100
AcDbEntity
  8
0
  6
Continuous
 62
     7
100
AcDbCircle
 10
96.40695395000001
 20
18.45582953
 30
0.0
 40
5.0
100
AcDbArc
 50
90.0
 51
177.13759477
  0
LINE
  5
1E9
330
237
100
AcDbEntity
  8
0
  6
Continuous
 62
     7
100
AcDbLine
 10
96.40695395000001
 20
23.45582953
 30
0.0
 11
112.99446176
 21
23.45582953
 31
0.0
  0
ARC
  5
1EA
330
237
100
AcDbEntity
  8
0
  6
Continuous
 62
     7
100
AcDbCircle
 10
112.99446176
 20
18.45582953
 30
0.0
 40
5.0
100
AcDbArc
 50
2.862405229999999
 51
90.0
  0
LINE
  5
1EB
330
237
100
AcDbEntity
  8
0
  6
Continuous
 62
     7
100
AcDbLine
 10
119.20070785
 20
-5.54417047
 30
0.0
 11
117.98822345
 21
18.70551761
 31
0.0
  0
CIRCLE
  5
1EC
330
237
100
AcDbEntity
  8
0
  6
Continuous
 62
     7
100
AcDbCircle
 10
104.70070785
 20
9.45582953
 30
0.0
 40
5.5
  0
CIRCLE
  5
1ED
330
237
100
AcDbEntity
  8
0
  6
Continuous
 62
     2
100
AcDbCircle
 10
104.70070785
 20
9.45582953
 30
0.0
 40
6.5
  0
LINE
  5
1EE
330
237
100
AcDbEntity
  8
0
  6
Continuous
 62
     2
100
AcDbLine
 10
95.52383527000001
 20
9.45582953
 30
0.0
 11
114.70487067
 21
9.45582953
 31
0.0
  0
LINE
  5
1EF
330
237
100
AcDbEntity
  8
0
  6
Continuous
 62
     7
100
AcDbLine
 10
31.5
 20
-5.54417047
 30
0.0
 11
31.5
 21
21.45582953
 31
0.0
  0
LINE
  5
1F0
330
237
100
AcDbEntity
  8
0
  6
Continuous
 62
     7
100
AcDbLine
 10
-24.0
 20
23.45582953
 30
0.0
 11
-22.0
 21
23.45582953
 31
0.0
  0
LINE
  5
1F1
330
237
100
AcDbEntity
  8
0
  6
Continuous
 62
     7
100
AcDbLine
 10
42.0
 20
23.45582953
 30
0.0
 11
42.0
 21
24.45582953
 31
0.0
  0
ARC
  5
1F2
330
237
100
AcDbEntity
  8
0
  6
Continuous
 62
     7
100
AcDbCircle
 10
33.5
 20
21.45582953
 30
0.0
 40
2.0
100
AcDbArc
 50
90.0
 51
180.0
  0
ARC
  5
1F3
330
237
100
AcDbEntity
  8
0
  6
Continuous
 62
     7
100
AcDbCircle
 10
44.0
 20
21.45582953
 30
0.0
 40
2.0
100
AcDbArc
 50
0.0
 51
90.0
  0
LINE
  5
1F4
330
237
100
AcDbEntity
  8
0
  6
Continuous
 62
     7
100
AcDbLine
 10
-12.0
 20
-5.54417047
 30
0.0
 11
-12.0
 21
4.455829529999999
 31
0.0
  0
LINE
  5
1F5
330
237
100
AcDbEntity
  8
0
  6
Continuous
 62
     7
100
AcDbLine
 10
-11.0
 20
4.455829529999999
 30
0.0
 11
-11.0
 21
24.45582953
 31
0.0
  0
LINE
  5
1F6
330
237
100
AcDbEntity
  8
0
  6
Continuous
 62
     7
100
AcDbLine
 10
-12.0
 20
4.455829529999999
 30
0.0
 11
31.5
 21
4.455829529999999
 31
0.0
  0
LINE
  5
1F7
330
237
100
AcDbEntity
  8
0
  6
Continuous
 62
     7
100
AcDbLine
 10
-22.0
 20
23.45582953
 30
0.0
 11
-22.0
 21
24.45582953
 31
0.0
  0
ARC
  5
1F8
330
237
100
AcDbEntity
  8
0
  6
Continuous
 62
     7
100
AcDbCircle
 10
-24.0
 20
21.45582953
 30
0.0
 40
2.0
100
AcDbArc
 50
90.0
 51
180.0
  0
LINE
  5
1F9
330
237
100
AcDbEntity
  8
0
  6
Continuous
 62
     7
100
AcDbLine
 10
21.0
 20
4.455829529999999
 30
0.0
 11
21.0
 21
17.45582953
 31
0.0
  0
LINE
  5
1FA
330
237
100
AcDbEntity
  8
0
  6
Continuous
 62
     7
100
AcDbLine
 10
23.0
 20
19.45582953
 30
0.0
 11
31.5
 21
19.45582953
 31
0.0
  0
ARC
  5
1FB
330
237
100
AcDbEntity
  8
0
  6
Continuous
 62
     7
100
AcDbCircle
 10
23.0
 20
17.45582953
 30
0.0
 40
2.0
100
AcDbArc
 50
90.0
 51
180.0
  0
LINE
  5
1FC
330
237
100
AcDbEntity
  8
0
  6
Continuous
 62
     7
100
AcDbLine
 10
16.98212002
 20
86.45582952999999
 30
0.0
 11
16.98212002
 21
93.45582953
 31
0.0
  0
LINE
  5
1FD
330
237
100
AcDbEntity
  8
0
  6
Continuous
 62
     7
100
AcDbLine
 10
3.01787998
 20
86.45582952999999
 30
0.0
 11
3.01787998
 21
93.45582953
 31
0.0
  0
LINE
  5
1FE
330
237
100
AcDbEntity
  8
0
  6
Continuous
 62
     7
100
AcDbLine
 10
15.98212002
 20
94.45582953
 30
0.0
 11
16.98212003
 21
93.45582953
 31
0.0
  0
LINE
  5
1FF
330
237
100
AcDbEntity
  8
0
  6
Continuous
 62
     7
100
AcDbLine
 10
4.017879989999999
 20
94.45582953
 30
0.0
 11
3.017879989999999
 21
93.45582953
 31
0.0
  0
LINE
  5
200
330
237
100
AcDbEntity
  8
0
  6
Continuous
 62
     2
100
AcDbLine
 10
3.653651589999999
 20
94.09160113
 30
0.0
 11
16.98212002
 21
86.45582952999999
 31
0.0
  0
LINE
  5
201
330
237
100
AcDbEntity
  8
0
  6
Continuous
 62
     2
100
AcDbLine
 10
16.34634842
 20
94.09160113
 30
0.0
 11
3.01787998
 21
86.45582952999999
 31
0.0
  0
LINE
  5
202
330
237
100
AcDbEntity
  8
0
  6
Continuous
 62
     7
100
AcDbLine
 10
16.98212002
 20
93.45582953
 30
0.0
 11
20.99999999
 21
93.45582953
 31
0.0
  0
LINE
  5
203
330
237
100
AcDbEntity
  8
0
  6
Continuous
 62
     7
100
AcDbLine
 10
-30.0
 20
55.45582953
 30
0.0
 11
-30.0
 21
69.45582953
 31
0.0
  0
LINE
  5
204
330
237
100
AcDbEntity
  8
0
  6
Continuous
 62
     7
100
AcDbLine
 10
-29.37478522
 20
70.5387333
 30
0.0
 11
-25.0
 21
70.5387333
 31
0.0
  0
LINE
  5
205
330
237
100
AcDbEntity
  8
0
  6
Continuous
 62
     7
100
AcDbLine
 10
-29.37478522
 20
66.49728141
 30
0.0
 11
-25.0
 21
66.49728141
 31
0.0
  0
LINE
  5
206
330
237
100
AcDbEntity
  8
0
  6
Continuous
 62
     7
100
AcDbLine
 10
-29.37478522
 20
58.41437765
 30
0.0
 11
-25.0
 21
58.41437765
 31
0.0
  0
LINE
  5
207
330
237
100
AcDbEntity
  8
0
  6
Continuous
 62
     7
100
AcDbLine
 10
-29.37478522
 20
54.37292576
 30
0.0
 11
-25.0
 21
54.37292576
 31
0.0
  0
LINE
  5
208
330
237
100
AcDbEntity
  8
0
  6
Continuous
 62
     7
100
AcDbLine
 10
-30.0
 20
69.45582953
 30
0.0
 11
-29.37478522
 21
70.5387333
 31
0.0
  0
ARC
  5
209
330
237
100
AcDbEntity
  8
0
  6
Continuous
 62
     7
100
AcDbCircle
 10
-26.42184815
 20
68.51800736
 30
0.0
 40
3.578151849999999
100
AcDbArc
 50
145.61575253
 51
214.38424747
  0
ARC
  5
20A
330
237
100
AcDbEntity
  8
0
  6
Continuous
 62
     7
100
AcDbCircle
 10
-16.62521478
 20
62.45582953
 30
0.0
 40
13.37478522
100
AcDbArc
 50
162.41204623
 51
197.58795377
  0
ARC
  5
20B
330
237
100
AcDbEntity
  8
0
  6
Continuous
 62
     7
100
AcDbCircle
 10
-26.42184815
 20
56.3936517
 30
0.0
 40
3.578151849999999
100
AcDbArc
 50
145.61575253
 51
214.38424747
  0
LINE
  5
20C
330
237
100
AcDbEntity
  8
0
  6
Continuous
 62
     7
100
AcDbLine
 10
-30.0
 20
55.45582953
 30
0.0
 11
-29.37478522
 21
54.37292576
 31
0.0
  0
LINE
  5
20D
330
237
100
AcDbEntity
  8
0
  6
Continuous
 62
     2
100
AcDbLine
 10
-35.0
 20
62.45582953
 30
0.0
 11
-12.78306323
 21
62.45582953
 31
0.0
  0
LINE
  5
20E
330
237
100
AcDbEntity
  8
0
  6
Continuous
 62
     2
100
AcDbLine
 10
10.0
 20
-130.0
 30
0.0
 11
10.0
 21
-30.0
 31
0.0
  0
TEXT
  5
20F
330
237
100
AcDbEntity
  8
0
  6
Continuous
 62
     7
100
AcDbText
 10
-185.70588235
 20
115.3500061
 30
0.0
 40
4.5
  1
MODEL:254-4AA
 41
1.058823529999999
  7
MX_NOTE_STANDARD
 11
-185.70588235
 21
117.6000061
 31
0.0
100
AcDbText
 73
     2
  0
LINE
  5
210
330
237
100
AcDbEntity
  8
0
  6
Continuous
 62
     7
100
AcDbLine
 10
-194.25
 20
132.6000061
 30
0.0
 11
194.80000305
 21
132.6000061
 31
0.0
  0
LINE
  5
211
330
237
100
AcDbEntity
  8
0
  6
Continuous
 62
     7
100
AcDbLine
 10
194.80000305
 20
132.6000061
 30
0.0
 11
194.80000305
 21
-133.5
 31
0.0
  0
LINE
  5
212
330
237
100
AcDbEntity
  8
0
  6
Continuous
 62
     7
100
AcDbLine
 10
-194.25
 20
132.6000061
 30
0.0
 11
-194.25
 21
-133.5
 31
0.0
  0
LINE
  5
213
330
237
100
AcDbEntity
  8
0
  6
Continuous
 62
     7
100
AcDbLine
 10
-194.25
 20
-133.5
 30
0.0
 11
194.80000305
 21
-133.5
 31
0.0
  0
ENDSEC
  0
SECTION
  2
OBJECTS
  0
DICTIONARY
  5
221
330
0
100
AcDbDictionary
281
     1
  3
ACAD_COLOR
350
230
  3
ACAD_GROUP
350
222
  3
ACAD_LAYOUT
350
22E
  3
ACAD_MATERIAL
350
22F
  3
ACAD_MLINESTYLE
350
22B
  3
ACAD_PLOTSETTINGS
350
22D
  3
ACAD_PLOTSTYLENAME
350
223
  3
ACAD_TABLESTYLE
350
231
  3
ACDBHEADERROUNDTRIPXREC
350
249
  3
AcDbVariableDictionary
350
243
  3
DWGPROPS
350
248
  0
DICTIONARY
  5
230
102
{ACAD_REACTORS
330
221
102
}
330
221
100
AcDbDictionary
281
     1
  0
DICTIONARY
  5
222
102
{ACAD_REACTORS
330
221
102
}
330
221
100
AcDbDictionary
281
     1
  0
DICTIONARY
  5
22E
102
{ACAD_REACTORS
330
221
102
}
330
221
100
AcDbDictionary
281
     1
  3
Model
350
23A
  3
レイアウト1
350
236
  0
DICTIONARY
  5
22F
102
{ACAD_REACTORS
330
221
102
}
330
221
100
AcDbDictionary
281
     1
  0
DICTIONARY
  5
22B
102
{ACAD_REACTORS
330
221
102
}
330
221
100
AcDbDictionary
281
     1
  3
Standard
350
22C
  0
DICTIONARY
  5
22D
102
{ACAD_REACTORS
330
221
102
}
330
221
100
AcDbDictionary
281
     1
  0
ACDBDICTIONARYWDFLT
  5
223
102
{ACAD_REACTORS
330
221
102
}
330
221
100
AcDbDictionary
281
     1
  3
Normal
350
224
100
AcDbDictionaryWithDefault
340
224
  0
DICTIONARY
  5
231
102
{ACAD_REACTORS
330
221
102
}
330
221
100
AcDbDictionary
281
     1
  3
Standard
350
232
  0
DICTIONARY
  5
249
102
{ACAD_REACTORS
330
221
102
}
330
221
100
AcDbDictionary
281
     1
  0
DICTIONARY
  5
243
102
{ACAD_REACTORS
330
221
102
}
330
221
100
AcDbDictionary
281
     1
  3
CTABLESTYLE
350
244
  3
DIMASSOC
350
245
  3
PROJECTNAME
350
246
  0
XRECORD
  5
248
102
{ACAD_REACTORS
330
221
102
}
330
221
100
AcDbXrecord
280
     1
  1
DWGPROPS COOKIE
  2

  3

  4

  6

  7

  8

  9

300
=
301
=
302
=
303
=
304
=
305
=
306
=
307
=
308
=
309
=
 40
0.0041248958333333
 41
2454068.406724537
 42
2454250.442331551
  1

 90
        0
  0
LAYOUT
  5
23A
102
{ACAD_XDICTIONARY
360
24C
102
}
102
{ACAD_REACTORS
330
22E
102
}
330
22E
100
AcDbPlotSettings
  1

  2
DocuCentre Color f450
  4

  6

 40
0.0
 41
0.0
 42
0.0
 43
0.0
 44
0.0
 45
0.0
 46
0.0
 47
0.0
 48
0.0
 49
0.0
140
0.0
141
0.0
142
1.0
143
1.0
 70
  1712
 72
     0
 73
     0
 74
     0
  7

 75
     0
147
1.0
148
0.0
149
0.0
100
AcDbLayout
  1
Model
 70
     1
 71
     0
 10
0.0
 20
0.0
 11
12.0
 21
9.0
 12
0.0
 22
0.0
 32
0.0
 14
0.0
 24
0.0
 34
0.0
 15
0.0
 25
0.0
 35
0.0
146
0.0
 13
0.0
 23
0.0
 33
0.0
 16
1.0
 26
0.0
 36
0.0
 17
0.0
 27
1.0
 37
0.0
 76
     0
330
237
  0
LAYOUT
  5
236
102
{ACAD_XDICTIONARY
360
24A
102
}
102
{ACAD_REACTORS
330
22E
102
}
330
22E
100
AcDbPlotSettings
  1

  2
DocuCentre Color f450
  4

  6

 40
0.0
 41
0.0
 42
0.0
 43
0.0
 44
0.0
 45
0.0
 46
0.0
 47
0.0
 48
0.0
 49
0.0
140
0.0
141
0.0
142
1.0
143
1.0
 70
   688
 72
     0
 73
     0
 74
     5
  7

 75
    16
147
1.0
148
0.0
149
0.0
100
AcDbLayout
  1
レイアウト1
 70
     0
 71
     1
 10
0.0
 20
0.0
 11
12.0
 21
9.0
 12
0.0
 22
0.0
 32
0.0
 14
1.000000000000000E+20
 24
1.000000000000000E+20
 34
1.000000000000000E+20
 15
-1.000000000000000E+20
 25
-1.000000000000000E+20
 35
-1.000000000000000E+20
146
0.0
 13
0.0
 23
0.0
 33
0.0
 16
1.0
 26
0.0
 36
0.0
 17
0.0
 27
1.0
 37
0.0
 76
     0
330
233
  0
MLINESTYLE
  5
22C
102
{ACAD_REACTORS
330
22B
102
}
330
22B
100
AcDbMlineStyle
  2
STANDARD
 70
     0
  3

 62
   256
 51
90.0
 52
90.0
 71
     2
 49
0.5
 62
   256
  6
BYLAYER
 49
-0.5
 62
   256
  6
BYLAYER
  0
ACDBPLACEHOLDER
  5
224
102
{ACAD_REACTORS
330
223
102
}
330
223
  0
TABLESTYLE
  5
232
102
{ACAD_REACTORS
330
231
102
}
330
231
100
AcDbTableStyle
  3
Standard
 70
     0
 71
     0
 40
0.06
 41
0.06
280
     0
281
     0
  7
Standard
140
0.18
170
     2
 62
     0
 63
     7
283
     0
274
    -2
284
     1
 64
     0
275
    -2
285
     1
 65
     0
276
    -2
286
     1
 66
     0
277
    -2
287
     1
 67
     0
278
    -2
288
     1
 68
     0
279
    -2
289
     1
 69
     0
  7
Standard
140
0.25
170
     5
 62
     0
 63
     7
283
     0
274
    -2
284
     1
 64
     0
275
    -2
285
     1
 65
     0
276
    -2
286
     1
 66
     0
277
    -2
287
     1
 67
     0
278
    -2
288
     1
 68
     0
279
    -2
289
     1
 69
     0
  7
Standard
140
0.18
170
     5
 62
     0
 63
     7
283
     0
274
    -2
284
     1
 64
     0
275
    -2
285
     1
 65
     0
276
    -2
286
     1
 66
     0
277
    -2
287
     1
 67
     0
278
    -2
288
     1
 68
     0
279
    -2
289
     1
 69
     0
  0
DICTIONARYVAR
  5
244
102
{ACAD_REACTORS
330
243
102
}
330
243
100
DictionaryVariables
280
     0
  1
STANDARD
  0
DICTIONARYVAR
  5
245
102
{ACAD_REACTORS
330
243
102
}
330
243
100
DictionaryVariables
280
     0
  1
1
  0
DICTIONARYVAR
  5
246
102
{ACAD_REACTORS
330
243
102
}
330
243
100
DictionaryVariables
280
     0
  1

  0
DICTIONARY
  5
24C
330
23A
100
AcDbDictionary
280
     1
281
     1
  3
ACAD_XREC_ROUNDTRIP
360
24D
  0
DICTIONARY
  5
24A
330
236
100
AcDbDictionary
280
     1
281
     1
  3
ACAD_XREC_ROUNDTRIP
360
24B
  0
XRECORD
  5
24D
102
{ACAD_REACTORS
330
24C
102
}
330
24C
100
AcDbXrecord
280
     1
102
SHADEPLOT
 70
     0
102
SHADEPLOTRESLEVEL
 70
     2
102
SHADEPLOTCUSTOMDPI
 70
   300
  0
XRECORD
  5
24B
102
{ACAD_REACTORS
330
24A
102
}
330
24A
100
AcDbXrecord
280
     1
102
SHADEPLOT
 70
     0
102
SHADEPLOTRESLEVEL
 70
     2
102
SHADEPLOTCUSTOMDPI
 70
   300
  0
ENDSEC
  0
EOF
