  0
SECTION
  2
HEADER
  0
ENDSEC
  0
SECTION
  2
TABLES
  0
TABLE
  2
LTYPE
 70
     4
  0
LTYPE
  2
CONTINUOUS
 70
    64
  3
Solid line
 72
    65
 73
     0
 40
0.000000
  0
LTYPE
  2
DASHED
 70
    64
  3
__ __ __ __ __ __ __ __ __ __ __ __ __ __ __
 72
    65
 73
     2
 40
3.500000
 49
2.000000
 49
-1.500000
  0
LTYPE
  2
CENTER
 70
    64
  3
____ _ ____ _ ____ _ ____ _ ____ _ ____ _ ____
 72
    65
 73
     4
 40
17.500000
 49
13.000000
 49
-1.500000
 49
1.500000
 49
-1.500000
  0
LTYPE
  2
PHANTOM
 70
    64
  3
_____ _ _ _____ _ _ _____ _ _ _____ _ _ ____  
 72
    65
 73
     6
 40
15.500000
 49
8.000000
 49
-1.500000
 49
1.500000
 49
-1.500000
 49
1.500000
 49
-1.500000
  0
LTYPE
  2
DASHED1
 70
    64
  3
__ __ __ __ __ __ __ __ __ __ __ __ __ __ __
 72
    65
 73
     2
 40
1.500000
 49
1.000000
 49
-0.500000
  0
LTYPE
  2
DASHED2
 70
    64
  3
__ __ __ __ __ __ __ __ __ __ __ __ __ __ __
 72
    65
 73
     2
 40
3.500000
 49
2.500000
 49
-1.000000
  0
LTYPE
  2
DASHED3
 70
    64
  3
__ __ __ __ __ __ __ __ __ __ __ __ __ __ __
 72
    65
 73
     2
 40
6.000000
 49
4.000000
 49
-2.000000
  0
LTYPE
  2
DASHED4
 70
    64
  3
__ __ __ __ __ __ __ __ __ __ __ __ __ __ __
 72
    65
 73
     2
 40
12.000000
 49
10.000000
 49
-2.000000
  0
LTYPE
  2
DASHED5
 70
    64
  3
__ __ __ __ __ __ __ __ __ __ __ __ __ __ __
 72
    65
 73
     2
 40
17.000000
 49
15.000000
 49
-2.000000
  0
LTYPE
  2
DASHED6
 70
    64
  3
__ __ __ __ __ __ __ __ __ __ __ __ __ __ __
 72
    65
 73
     2
 40
29.000000
 49
27.000000
 49
-2.000000
  0
LTYPE
  2
PHANTOM1
 70
    64
  3
_____ _ _ _____ _ _ _____ _ _ _____ _ _ ____  
 72
    65
 73
     6
 40
31.000000
 49
25.000000
 49
-1.500000
 49
1.000000
 49
-1.000000
 49
1.000000
 49
-1.500000
  0
LTYPE
  2
PHANTOM2
 70
    64
  3
_____ _ _ _____ _ _ _____ _ _ _____ _ _ ____  
 72
    65
 73
     6
 40
36.000000
 49
27.000000
 49
-1.500000
 49
2.500000
 49
-1.000000
 49
2.500000
 49
-1.500000
  0
LTYPE
  2
PHANTOM3
 70
    64
  3
_____ _ _ _____ _ _ _____ _ _ _____ _ _ ____  
 72
    65
 73
     6
 40
78.000000
 49
64.000000
 49
-2.000000
 49
4.000000
 49
-2.000000
 49
4.000000
 49
-2.000000
  0
LTYPE
  2
CENTER1
 70
    64
  3
____ _ ____ _ ____ _ ____ _ ____ _ ____ _ ____
 72
    65
 73
     4
 40
19.000000
 49
14.000000
 49
-1.000000
 49
3.000000
 49
-1.000000
  0
LTYPE
  2
CENTER2
 70
    64
  3
____ _ ____ _ ____ _ ____ _ ____ _ ____ _ ____
 72
    65
 73
     4
 40
28.500000
 49
25.000000
 49
-1.000000
 49
1.500000
 49
-1.000000
  0
LTYPE
  2
CENTER3
 70
    64
  3
____ _ ____ _ ____ _ ____ _ ____ _ ____ _ ____
 72
    65
 73
     4
 40
31.500000
 49
27.000000
 49
-1.000000
 49
2.500000
 49
-1.000000
  0
LTYPE
  2
CENTER4
 70
    64
  3
____ _ ____ _ ____ _ ____ _ ____ _ ____ _ ____
 72
    65
 73
     4
 40
50.000000
 49
45.000000
 49
-1.000000
 49
3.000000
 49
-1.000000
  0
LTYPE
  2
CENTER5
 70
    64
  3
____ _ ____ _ ____ _ ____ _ ____ _ ____ _ ____
 72
    65
 73
     4
 40
100.000000
 49
92.000000
 49
-2.000000
 49
4.000000
 49
-2.000000
  0
LTYPE
  2
SBK1
 70
    64
  3
______ _ _ _ ______ _ _ _ ______ _ _ _ _____  
 72
    65
 73
     8
 40
60.500000
 49
45.000000
 49
-2.000000
 49
2.500000
 49
-2.000000
 49
2.500000
 49
-2.000000
 49
2.500000
 49
-2.000000
  0
LTYPE
  2
SBK2
 70
    64
  3
______ _ _ _ ______ _ _ _ ______ _ _ _ _____  
 72
    65
 73
     8
 40
84.000000
 49
64.000000
 49
-2.000000
 49
4.000000
 49
-2.000000
 49
4.000000
 49
-2.000000
 49
4.000000
 49
-2.000000
  0
LTYPE
  2
STCH
 70
    64
  3
__ __ __ __ __ __ __ __ __ __ __ __ __ __ __
 72
    65
 73
     2
 40
3.000000
 49
1.000000
 49
-2.000000
  0
LTYPE
  2
MTCH
 70
    64
  3
_____ _ _ _____ _ _ _____ _ _ _____ _ _ ____  
 72
    65
 73
     6
 40
80.000000
 49
66.000000
 49
-2.000000
 49
4.000000
 49
-2.000000
 49
4.000000
 49
-2.000000
  0
ENDTAB
  0
TABLE
  2
LAYER
 70
     1
  0
LAYER
  2
0
 70
     0
 62
     7
  6
CONTINUOUS
  0
ENDTAB
  0
TABLE
  2
STYLE
 70
     1
  0
STYLE
  2
STANDARD
 70
     0
 40
0.000000
 41
1.000000
 50
0.000000
 71
     0
 42
0.200000
  3
txt
  4
BIGFONT
  0
ENDTAB
  0
TABLE
  2
VIEW
 70
     0
  0
ENDTAB
  0
ENDSEC
  0
SECTION
  2
BLOCKS
  0
ENDSEC
  0
SECTION
  2
ENTITIES
  0
LINE
  8
0
 10
-130.685074
 20
79.550003
 11
-103.685066
 21
79.550003
  0
LINE
  8
0
 10
-19.717501
 20
79.550003
 11
20.282501
 21
79.550003
  0
LINE
  8
0
 10
121.769196
 20
79.550003
 11
148.765823
 21
79.550003
  0
LINE
  8
0
 10
-130.685074
 20
9.545691
 11
-103.686752
 21
9.545691
  0
LINE
  8
0
 62
     2
 10
-22.117201
 20
-83.621651
 11
22.052280
 21
-83.621651
  0
LINE
  8
0
  6
CENTER
 62
     2
 10
0.275002
 20
-54.420303
 11
0.275002
 21
-113.242950
  0
LINE
  8
0
  6
CENTER
 62
     2
 10
10.773689
 20
-68.833504
 11
10.773689
 21
-76.917488
  0
LINE
  8
0
 62
     2
 10
-10.223686
 20
-91.330688
 11
-10.223686
 21
-97.404930
  0
LINE
  8
0
  6
CENTER
 62
     2
 10
7.054154
 20
-73.122963
 11
14.673203
 21
-73.122963
  0
LINE
  8
0
  6
CENTER
 62
     2
 10
-13.418287
 20
-94.120338
 11
-6.114200
 21
-94.120338
  0
LINE
  8
0
  6
CENTER
 62
     2
 10
13.773314
 20
-87.401184
 11
13.773314
 21
-97.609070
  0
LINE
  8
0
  6
CENTER
 62
     2
 10
-124.669136
 20
34.045689
 11
-109.701004
 21
34.045689
  0
LINE
  8
0
  6
CENTER
 62
     2
 10
0.275002
 20
102.577072
 11
0.275002
 21
-3.103623
  0
LINE
  8
0
 10
-19.717501
 20
45.189297
 11
-16.717875
 21
45.189297
  0
LINE
  8
0
 10
-19.717501
 20
39.909958
 11
-16.717875
 21
39.909958
  0
LINE
  8
0
 10
-16.717875
 20
45.189297
 11
-16.717875
 21
39.909958
  0
LINE
  8
0
  6
PHANTOM
 62
     2
 10
-18.217688
 20
-61.634399
 11
-12.218437
 21
-55.635151
  0
LINE
  8
0
  6
PHANTOM
 62
     2
 10
-12.218437
 20
-55.635151
 11
12.783439
 21
-55.635151
  0
LINE
  8
0
  6
PHANTOM
 62
     2
 10
12.783439
 20
-55.635151
 11
18.782686
 21
-61.634399
  0
LINE
  8
0
  6
PHANTOM
 62
     2
 10
18.782688
 20
-105.623901
 11
18.782688
 21
-61.634403
  0
LINE
  8
0
  6
PHANTOM
 62
     2
 10
-18.217688
 20
-105.623901
 11
-18.217688
 21
-61.634403
  0
LINE
  8
0
  6
PHANTOM
 62
     2
 10
-18.217686
 20
-105.623901
 11
-12.218437
 21
-111.623154
  0
LINE
  8
0
  6
PHANTOM
 62
     2
 10
-12.218437
 20
-111.623154
 11
12.783439
 21
-111.623154
  0
LINE
  8
0
  6
PHANTOM
 62
     2
 10
18.782686
 20
-105.623901
 11
12.783434
 21
-111.623154
  0
LINE
  8
0
  6
PHANTOM
 62
     2
 10
-18.217688
 20
-98.619781
 11
18.782688
 21
-98.619781
  0
LINE
  8
0
  6
PHANTOM
 62
     2
 10
-18.217688
 20
-68.623528
 11
18.782688
 21
-68.623528
  0
LINE
  8
0
  6
PHANTOM
 62
     2
 10
-145.186569
 20
2.551314
 11
-145.186569
 21
0.545690
  0
LINE
  8
0
  6
PHANTOM
 62
     2
 10
-145.186569
 20
0.545690
 11
-135.182816
 21
0.545690
  0
LINE
  8
0
  6
PHANTOM
 62
     2
 10
-134.192947
 20
6.555814
 11
-134.192947
 21
3.545690
  0
LINE
  8
0
  6
PHANTOM
 62
     2
 10
-132.183197
 20
6.544940
 11
-132.183197
 21
3.545315
  0
LINE
  8
0
  6
PHANTOM
 62
     2
 10
-131.193314
 20
7.545690
 11
-103.191818
 21
7.545690
  0
LINE
  8
0
  6
PHANTOM
 62
     2
 10
-102.186943
 20
6.544940
 11
-102.186943
 21
3.545315
  0
LINE
  8
0
  6
PHANTOM
 62
     2
 10
-100.192192
 20
6.555814
 11
-100.192192
 21
3.545690
  0
LINE
  8
0
  6
PHANTOM
 62
     2
 10
-18.217688
 20
2.556564
 11
18.782688
 21
2.556564
  0
LINE
  8
0
  6
PHANTOM
 62
     2
 10
-18.217688
 20
0.546815
 11
18.782688
 21
0.546815
  0
LINE
  8
0
  6
PHANTOM
 62
     2
 10
-18.217688
 20
6.546065
 11
18.782688
 21
6.546065
  0
LINE
  8
0
  6
PHANTOM
 62
     2
 10
-18.217688
 20
9.545691
 11
-18.217688
 21
0.546815
  0
LINE
  8
0
  6
PHANTOM
 62
     2
 10
18.782688
 20
9.545691
 11
18.782688
 21
0.546815
  0
LINE
  8
0
  6
CENTER
 62
     2
 10
-23.257057
 20
61.042316
 11
-16.027962
 21
61.042316
  0
LINE
  8
0
  6
CENTER
 62
     2
 10
-22.942097
 20
34.045689
 11
-15.398040
 21
34.045689
  0
LINE
  8
0
  6
CENTER
 62
     2
 10
49.049843
 20
24.545691
 11
14.166265
 21
24.545691
  0
LINE
  8
0
  6
PHANTOM
 62
     2
 10
34.630081
 20
16.446703
 11
25.084900
 21
16.446703
  0
LINE
  8
0
  6
PHANTOM
 62
     2
 10
34.630081
 20
32.644676
 11
25.084900
 21
32.644676
  0
LINE
  8
0
  6
PHANTOM
 62
     2
 10
35.275002
 20
31.549814
 11
35.275002
 21
17.541565
  0
LINE
  8
0
  6
PHANTOM
 62
     2
 10
24.275002
 20
31.249853
 11
24.275002
 21
17.841528
  0
LINE
  8
0
  6
PHANTOM
 62
     2
 10
24.275002
 20
31.249851
 11
20.275002
 21
31.039326
  0
LINE
  8
0
  6
PHANTOM
 62
     2
 10
24.275002
 20
30.259975
 11
20.275002
 21
30.049450
  0
LINE
  8
0
  6
PHANTOM
 62
     2
 10
24.275002
 20
18.831404
 11
20.275002
 21
19.041931
  0
LINE
  8
0
  6
PHANTOM
 62
     2
 10
24.275002
 20
17.841528
 11
20.275002
 21
18.052053
  0
LINE
  8
0
  6
PHANTOM
 62
     2
 10
34.270126
 20
20.541191
 11
25.279877
 21
20.541191
  0
LINE
  8
0
  6
PHANTOM
 62
     2
 10
34.270126
 20
28.550190
 11
25.279877
 21
28.550190
  0
LINE
  8
0
  6
PHANTOM
 62
     2
 10
24.275002
 20
31.249853
 11
25.084900
 21
32.644676
  0
LINE
  8
0
  6
PHANTOM
 62
     2
 10
25.084900
 20
16.446703
 11
24.275002
 21
17.841528
  0
LINE
  8
0
  6
PHANTOM
 62
     2
 10
35.275002
 20
31.549816
 11
34.630081
 21
32.644680
  0
LINE
  8
0
  6
PHANTOM
 62
     2
 10
34.630081
 20
16.446701
 11
35.275002
 21
17.541563
  0
LINE
  8
0
  6
PHANTOM
 62
     2
 10
38.525097
 20
30.289972
 11
35.275002
 21
30.289972
  0
LINE
  8
0
  6
PHANTOM
 62
     2
 10
38.525097
 20
18.801409
 11
35.275002
 21
18.801409
  0
LINE
  8
0
  6
PHANTOM
 62
     2
 10
38.525097
 20
21.651052
 11
35.275002
 21
21.651052
  0
LINE
  8
0
  6
PHANTOM
 62
     2
 10
38.525097
 20
27.440329
 11
35.275002
 21
27.440329
  0
LINE
  8
0
  6
PHANTOM
 62
     2
 10
39.275002
 20
28.865150
 11
39.275002
 21
20.226231
  0
LINE
  8
0
  6
PHANTOM
 62
     2
 10
47.775002
 20
28.040253
 11
47.775002
 21
25.040628
  0
LINE
  8
0
  6
PHANTOM
 62
     2
 10
47.265064
 20
28.550190
 11
39.275002
 21
28.550190
  0
LINE
  8
0
  6
PHANTOM
 62
     2
 10
47.265064
 20
20.541191
 11
39.275002
 21
20.541191
  0
LINE
  8
0
  6
PHANTOM
 62
     2
 10
47.775002
 20
25.040628
 11
45.765251
 21
25.040628
  0
LINE
  8
0
  6
PHANTOM
 62
     2
 10
47.775002
 20
24.050753
 11
45.765251
 21
24.050753
  0
LINE
  8
0
  6
PHANTOM
 62
     2
 10
45.765251
 20
25.040628
 11
45.765251
 21
24.050753
  0
LINE
  8
0
  6
PHANTOM
 62
     2
 10
47.775002
 20
21.051126
 11
39.275002
 21
21.051126
  0
LINE
  8
0
  6
PHANTOM
 62
     2
 10
47.775002
 20
28.040253
 11
39.275002
 21
28.040253
  0
LINE
  8
0
  6
PHANTOM
 62
     2
 10
47.775002
 20
28.040253
 11
47.265064
 21
28.550190
  0
LINE
  8
0
  6
PHANTOM
 62
     2
 10
47.775002
 20
21.051126
 11
47.265064
 21
20.541189
  0
LINE
  8
0
  6
CENTER
 62
     2
 10
27.274626
 20
27.725292
 11
27.274626
 21
21.366087
  0
LINE
  8
0
  6
CENTER
 62
     2
 10
-129.378540
 20
22.557125
 11
-121.294556
 21
22.557125
  0
LINE
  8
0
 62
     2
 10
-113.195564
 20
72.545876
 11
-105.486534
 21
72.545876
  0
LINE
  8
0
 62
     2
 10
-109.191071
 20
76.475388
 11
-109.191071
 21
67.941452
  0
LINE
  8
0
  6
CENTER
 62
     2
 10
-125.194069
 20
26.726604
 11
-125.194069
 21
18.642614
  0
LINE
  8
0
  6
PHANTOM
 62
     2
 10
-20.212439
 20
25.046814
 11
-19.717501
 21
25.046814
  0
LINE
  8
0
  6
PHANTOM
 62
     2
 10
-20.212439
 20
20.052439
 11
-19.717501
 21
20.052439
  0
LINE
  8
0
  6
CENTER
 62
     2
 10
-23.197065
 20
22.557125
 11
-19.042583
 21
22.557125
  0
LINE
  8
0
  6
PHANTOM
 62
     2
 10
-22.012213
 20
23.756975
 11
-20.212439
 21
23.756975
  0
LINE
  8
0
  6
PHANTOM
 62
     2
 10
-22.012213
 20
21.357275
 11
-20.212439
 21
21.357275
  0
LINE
  8
0
  6
PHANTOM
 62
     2
 10
-20.212439
 20
25.046814
 11
-20.212439
 21
20.052439
  0
LINE
  8
0
  6
PHANTOM
 62
     2
 10
-22.012213
 20
23.756975
 11
-22.012213
 21
21.357275
  0
LINE
  8
0
  6
PHANTOM
 62
     2
 10
-20.212439
 20
75.050568
 11
-19.717501
 21
75.050568
  0
LINE
  8
0
  6
PHANTOM
 62
     2
 10
-20.212439
 20
70.041191
 11
-19.717501
 21
70.041191
  0
LINE
  8
0
  6
CENTER
 62
     2
 10
-23.197065
 20
72.545876
 11
-19.042583
 21
72.545876
  0
LINE
  8
0
  6
PHANTOM
 62
     2
 10
-22.012213
 20
73.745728
 11
-20.212439
 21
73.745728
  0
LINE
  8
0
  6
PHANTOM
 62
     2
 10
-22.012213
 20
71.346031
 11
-20.212439
 21
71.346031
  0
LINE
  8
0
  6
PHANTOM
 62
     2
 10
-20.212439
 20
75.050568
 11
-20.212439
 21
70.041191
  0
LINE
  8
0
  6
PHANTOM
 62
     2
 10
-22.012213
 20
73.745728
 11
-22.012213
 21
71.346031
  0
LINE
  8
0
  6
CENTER
 62
     2
 10
135.267502
 20
103.406540
 11
135.267502
 21
2.539146
  0
LINE
  8
0
  6
CENTER
 62
     2
 10
-117.185066
 20
4.356339
 11
-117.185066
 21
105.511086
  0
LINE
  8
0
  6
PHANTOM
 62
     2
 10
-99.187317
 20
0.545690
 11
-89.198570
 21
0.545690
  0
LINE
  8
0
  6
PHANTOM
 62
     2
 10
-89.198570
 20
2.545690
 11
-89.198570
 21
0.545690
  0
LINE
  8
0
  6
PHANTOM
 62
     2
 10
-103.686752
 20
9.545691
 11
-102.952927
 21
9.545691
  0
LINE
  8
0
  6
PHANTOM
 62
     2
 10
-130.683380
 20
9.545691
 11
-131.435623
 21
9.545691
  0
LINE
  8
0
  6
PHANTOM
 62
     2
 10
-99.192192
 20
2.545690
 11
-89.198570
 21
2.545690
  0
LINE
  8
0
  6
PHANTOM
 62
     2
 10
-145.186569
 20
2.545690
 11
-135.192947
 21
2.545690
  0
LINE
  8
0
  6
PHANTOM
 62
     2
 10
153.260376
 20
2.545690
 11
163.254013
 21
2.545690
  0
LINE
  8
0
  6
PHANTOM
 62
     2
 10
163.254013
 20
2.545690
 11
163.254013
 21
0.545690
  0
LINE
  8
0
  6
PHANTOM
 62
     2
 10
153.265259
 20
0.545690
 11
163.254013
 21
0.545690
  0
LINE
  8
0
  6
PHANTOM
 62
     2
 10
152.260376
 20
6.555814
 11
152.260376
 21
3.545690
  0
LINE
  8
0
  6
PHANTOM
 62
     2
 10
150.265625
 20
6.544940
 11
150.265625
 21
3.545315
  0
LINE
  8
0
  6
PHANTOM
 62
     2
 10
107.266006
 20
2.545690
 11
117.259628
 21
2.545690
  0
LINE
  8
0
  6
PHANTOM
 62
     2
 10
120.269379
 20
6.544940
 11
120.269379
 21
3.545315
  0
LINE
  8
0
  6
PHANTOM
 62
     2
 10
118.259628
 20
6.555814
 11
118.259628
 21
3.545690
  0
LINE
  8
0
  6
PHANTOM
 62
     2
 10
121.259254
 20
7.545690
 11
149.260757
 21
7.545690
  0
LINE
  8
0
  6
PHANTOM
 62
     2
 10
107.266006
 20
0.545690
 11
117.269753
 21
0.545690
  0
LINE
  8
0
  6
PHANTOM
 62
     2
 10
107.266006
 20
2.551314
 11
107.266006
 21
0.545690
  0
LINE
  8
0
  6
PHANTOM
 62
     2
 10
121.767502
 20
9.545691
 11
121.016953
 21
9.545691
  0
LINE
  8
0
  6
PHANTOM
 62
     2
 10
148.767502
 20
9.545691
 11
149.499649
 21
9.545691
  0
LINE
  8
0
  6
DASHED
 62
     2
 10
-4.588804
 20
98.545692
 11
-4.395247
 21
92.351875
  0
LINE
  8
0
  6
DASHED
 10
-4.002805
 20
98.545692
 11
-3.809248
 21
92.351875
  0
LINE
  8
0
  6
DASHED
 10
4.552640
 20
98.545692
 11
4.359083
 21
92.351875
  0
LINE
  8
0
  6
DASHED
 62
     2
 10
5.138578
 20
98.545692
 11
4.945022
 21
92.351875
  0
LINE
  8
0
  6
DASHED
 10
139.545105
 20
98.545685
 11
139.351593
 21
92.353004
  0
LINE
  8
0
  6
DASHED
 62
     2
 10
140.131042
 20
98.545692
 11
139.937515
 21
92.353004
  0
LINE
  8
0
  6
DASHED
 62
     2
 10
130.403732
 20
98.545685
 11
130.597244
 21
92.353004
  0
LINE
  8
0
  6
DASHED
 10
130.989746
 20
98.545685
 11
131.183258
 21
92.353004
  0
LINE
  8
0
  6
CENTER
 62
     2
 10
-13.224998
 20
-79.746651
 11
-13.224998
 21
-69.071655
  0
LINE
  8
0
  6
CENTER
 62
     2
 10
-10.224998
 20
-98.649094
 11
-10.224998
 21
-90.249100
  0
LINE
  8
0
 62
     2
 10
10.775005
 20
-76.771652
 11
10.775005
 21
-69.071655
  0
LINE
  8
0
 62
     2
 10
7.500005
 20
-73.121651
 11
13.800005
 21
-73.121651
  0
LINE
  8
0
 62
     2
 10
-13.699999
 20
-94.124100
 11
-6.699998
 21
-94.124100
  0
LINE
  8
0
  6
CENTER
 62
     2
 10
-18.951700
 20
-75.621651
 11
-7.474998
 21
-75.621651
  0
LINE
  8
0
  6
CENTER
 62
     2
 10
8.275002
 20
-91.621651
 11
21.050001
 21
-91.621651
  0
LINE
  8
0
 10
-19.224998
 20
-97.121651
 11
19.775002
 21
-97.121651
  0
LINE
  8
0
 10
20.275002
 20
-96.621651
 11
20.275002
 21
-70.621651
  0
LINE
  8
0
 10
-19.224998
 20
-70.121651
 11
19.775002
 21
-70.121651
  0
LINE
  8
0
 10
-19.724998
 20
-96.621651
 11
-19.724998
 21
-70.621651
  0
LINE
  8
0
 10
-14.637524
 20
-77.035866
 11
-11.809096
 21
-74.207436
  0
LINE
  8
0
 10
-14.637524
 20
-74.207436
 11
-11.809096
 21
-77.035866
  0
LINE
  8
0
 10
12.359101
 20
-93.035866
 11
15.187529
 21
-90.207436
  0
LINE
  8
0
 10
12.359101
 20
-90.207436
 11
15.187529
 21
-93.035866
  0
LINE
  8
0
 10
10.273314
 20
-91.621651
 11
10.273314
 21
-97.121651
  0
LINE
  8
0
 10
17.273315
 20
-91.621651
 11
17.273315
 21
-97.121651
  0
LINE
  8
0
 10
-16.724998
 20
-75.619965
 11
-16.724998
 21
-70.121651
  0
LINE
  8
0
 10
-9.724998
 20
-75.619965
 11
-9.724998
 21
-70.121651
  0
LINE
  8
0
 10
-130.685074
 20
98.553001
 11
-130.685074
 21
9.545691
  0
LINE
  8
0
 10
-103.685066
 20
98.553001
 11
-103.685066
 21
9.545691
  0
LINE
  8
0
  6
CENTER
 62
     2
 10
-111.825951
 20
42.545689
 11
-103.686752
 21
42.545689
  0
LINE
  8
0
  6
CENTER
 62
     2
 10
-106.685066
 20
48.214588
 11
-106.685066
 21
36.822037
  0
LINE
  8
0
  6
CENTER
 62
     2
 10
-132.689423
 20
52.545689
 11
-122.532204
 21
52.545689
  0
LINE
  8
0
  6
CENTER
 62
     2
 10
-127.685066
 20
58.474751
 11
-127.685066
 21
46.670418
  0
LINE
  8
0
  6
CENTER
 62
     2
 10
-124.669136
 20
61.045689
 11
-109.701004
 21
61.045689
  0
LINE
  8
0
 10
-130.685074
 20
98.545692
 11
-103.686752
 21
98.545692
  0
LINE
  8
0
  6
CENTER
 62
     2
 10
8.533490
 20
35.545689
 11
17.316774
 21
35.545689
  0
LINE
  8
0
  6
CENTER
 62
     2
 10
12.275002
 20
39.561138
 11
12.275002
 21
31.773369
  0
LINE
  8
0
  6
CENTER
 62
     2
 10
-15.081530
 20
47.545689
 11
-8.233120
 21
47.545689
  0
LINE
  8
0
  6
CENTER
 62
     2
 10
-11.724998
 20
51.563465
 11
-11.724998
 21
43.225971
  0
LINE
  8
0
 10
-19.717501
 20
9.545691
 11
20.282501
 21
9.545691
  0
LINE
  8
0
 10
-19.717501
 20
98.545692
 11
20.282501
 21
98.545692
  0
LINE
  8
0
 10
121.767502
 20
9.545691
 11
148.767502
 21
9.545691
  0
LINE
  8
0
 10
121.769196
 20
98.545692
 11
148.765823
 21
98.545692
  0
LINE
  8
0
  6
CENTER
 62
     2
 10
127.456940
 20
47.545689
 11
143.523865
 21
47.545689
  0
LINE
  8
0
  6
CENTER
 62
     2
 10
126.787483
 20
24.545691
 11
144.044540
 21
24.545691
  0
LINE
  8
0
  6
CENTER
 62
     2
 10
127.456940
 20
70.545692
 11
143.523865
 21
70.545692
  0
LINE
  8
0
  6
CENTER
 62
     2
 10
145.767502
 20
56.052887
 11
145.767502
 21
49.054237
  0
LINE
  8
0
  6
CENTER
 62
     2
 10
124.767502
 20
46.153896
 11
124.767502
 21
38.839993
  0
LINE
  8
0
  6
CENTER
 62
     2
 10
142.461487
 20
52.545689
 11
149.523178
 21
52.545689
  0
LINE
  8
0
  6
CENTER
 62
     2
 10
121.150284
 20
42.545689
 11
127.896729
 21
42.545689
  0
LINE
  8
0
 10
20.275002
 20
98.545692
 11
20.275002
 21
9.545691
  0
LINE
  8
0
 10
-19.724998
 20
98.545692
 11
-19.724998
 21
9.545691
  0
LINE
  8
0
 10
-19.717501
 20
15.545691
 11
20.282501
 21
15.545691
  0
LINE
  8
0
 10
-130.685074
 20
15.545691
 11
-103.686752
 21
15.545691
  0
LINE
  8
0
 10
121.767502
 20
15.545691
 11
148.767502
 21
15.545691
  0
LINE
  8
0
  6
PHANTOM
 62
     2
 10
47.775002
 20
24.050753
 11
47.775002
 21
21.051126
  0
LINE
  8
0
  6
CENTER
 62
     2
 10
16.286285
 20
47.545689
 11
24.109030
 21
47.545689
  0
LINE
  8
0
  6
CENTER
 62
     2
 10
49.049843
 20
70.545692
 11
14.166265
 21
70.545692
  0
LINE
  8
0
  6
PHANTOM
 62
     2
 10
24.275002
 20
63.841526
 11
20.275000
 21
64.052055
  0
LINE
  8
0
  6
PHANTOM
 62
     2
 10
24.275002
 20
64.831406
 11
20.275002
 21
65.041931
  0
LINE
  8
0
  6
PHANTOM
 62
     2
 10
24.275002
 20
76.259979
 11
20.275002
 21
76.049454
  0
LINE
  8
0
  6
PHANTOM
 62
     2
 10
24.275002
 20
77.249847
 11
20.275003
 21
77.039322
  0
LINE
  8
0
  6
PHANTOM
 62
     2
 10
38.525097
 20
64.801407
 11
35.275002
 21
64.801407
  0
LINE
  8
0
  6
PHANTOM
 62
     2
 10
38.525097
 20
76.289970
 11
35.275002
 21
76.289970
  0
LINE
  8
0
  6
PHANTOM
 62
     2
 10
38.525097
 20
73.440331
 11
35.275002
 21
73.440331
  0
LINE
  8
0
  6
PHANTOM
 62
     2
 10
38.525097
 20
67.651054
 11
35.275002
 21
67.651054
  0
LINE
  8
0
  6
CENTER
 62
     2
 10
27.274626
 20
67.366089
 11
27.274626
 21
73.725296
  0
LINE
  8
0
  6
PHANTOM
 62
     2
 10
34.630081
 20
78.644676
 11
35.274998
 21
77.549820
  0
LINE
  8
0
  6
PHANTOM
 62
     2
 10
35.275002
 20
63.541565
 11
34.630085
 21
62.446705
  0
LINE
  8
0
  6
PHANTOM
 62
     2
 10
25.084902
 20
78.644684
 11
24.275000
 21
77.249847
  0
LINE
  8
0
  6
PHANTOM
 62
     2
 10
24.275002
 20
63.841526
 11
25.084898
 21
62.446701
  0
LINE
  8
0
  6
PHANTOM
 62
     2
 10
34.270126
 20
66.541191
 11
25.279877
 21
66.541191
  0
LINE
  8
0
  6
PHANTOM
 62
     2
 10
34.270126
 20
74.550186
 11
25.279877
 21
74.550186
  0
LINE
  8
0
  6
PHANTOM
 62
     2
 10
24.275002
 20
63.841526
 11
24.275002
 21
77.249855
  0
LINE
  8
0
  6
PHANTOM
 62
     2
 10
35.275002
 20
63.541565
 11
35.275002
 21
77.549812
  0
LINE
  8
0
  6
PHANTOM
 62
     2
 10
34.630081
 20
62.446701
 11
25.084900
 21
62.446701
  0
LINE
  8
0
  6
PHANTOM
 62
     2
 10
34.630081
 20
78.644676
 11
25.084900
 21
78.644676
  0
LINE
  8
0
  6
PHANTOM
 62
     2
 10
47.775002
 20
71.040627
 11
47.775002
 21
74.040253
  0
LINE
  8
0
  6
PHANTOM
 62
     2
 10
47.774998
 20
74.040253
 11
47.265064
 21
74.550186
  0
LINE
  8
0
  6
PHANTOM
 62
     2
 10
47.775002
 20
67.051125
 11
47.265064
 21
66.541191
  0
LINE
  8
0
  6
PHANTOM
 62
     2
 10
47.775002
 20
67.051125
 11
39.275002
 21
67.051125
  0
LINE
  8
0
  6
PHANTOM
 62
     2
 10
47.775002
 20
74.040253
 11
39.275002
 21
74.040253
  0
LINE
  8
0
  6
PHANTOM
 62
     2
 10
45.765251
 20
70.050751
 11
45.765251
 21
71.040627
  0
LINE
  8
0
  6
PHANTOM
 62
     2
 10
47.775002
 20
71.040627
 11
45.765251
 21
71.040627
  0
LINE
  8
0
  6
PHANTOM
 62
     2
 10
47.775002
 20
70.050751
 11
45.765251
 21
70.050751
  0
LINE
  8
0
  6
PHANTOM
 62
     2
 10
47.265064
 20
74.550186
 11
39.275002
 21
74.550186
  0
LINE
  8
0
  6
PHANTOM
 62
     2
 10
47.265064
 20
66.541191
 11
39.275002
 21
66.541191
  0
LINE
  8
0
  6
PHANTOM
 62
     2
 10
47.775002
 20
67.051125
 11
47.775002
 21
70.050751
  0
LINE
  8
0
  6
PHANTOM
 62
     2
 10
39.275002
 20
66.226227
 11
39.275002
 21
74.865150
  0
LINE
  8
0
 10
148.767502
 20
98.545692
 11
148.767502
 21
9.545691
  0
LINE
  8
0
 10
121.767502
 20
98.545692
 11
121.767502
 21
9.545691
  0
LINE
  8
0
  6
CENTER
 62
     2
 10
-4.269431
 20
-61.121655
 11
4.819434
 21
-61.121655
  0
LINE
  8
0
  6
CENTER
 62
     2
 10
-4.269431
 20
-106.121651
 11
4.819434
 21
-106.121651
  0
LINE
  8
0
  6
CENTER
 62
     2
 10
112.767502
 20
4.921018
 11
112.767502
 21
-1.888131
  0
LINE
  8
0
  6
CENTER
 62
     2
 10
157.767502
 20
4.921018
 11
157.767502
 21
-1.888131
  0
LINE
  8
0
  6
CENTER
 62
     2
 10
-94.685066
 20
4.921018
 11
-94.685066
 21
-1.888131
  0
LINE
  8
0
  6
CENTER
 62
     2
 10
-139.685074
 20
4.921018
 11
-139.685074
 21
-1.888131
  0
LINE
  8
0
 10
-194.250000
 20
132.600006
 11
194.800003
 21
132.600006
  0
LINE
  8
0
 10
194.800003
 20
132.600006
 11
194.800003
 21
-133.500000
  0
LINE
  8
0
 10
-194.250000
 20
132.600006
 11
-194.250000
 21
-133.500000
  0
LINE
  8
0
 10
-194.250000
 20
-133.500000
 11
194.800003
 21
-133.500000
  0
CIRCLE
  8
0
 62
     2
 10
10.777615
 20
-73.132675
 40
1.499813
  0
CIRCLE
  8
0
 10
10.777615
 20
-73.132675
 40
0.999875
  0
CIRCLE
  8
0
 10
-10.214764
 20
-94.130051
 40
0.999875
  0
CIRCLE
  8
0
 62
     2
 10
-10.214764
 20
-94.130051
 40
1.499813
  0
CIRCLE
  8
0
 10
135.267502
 20
24.551876
 40
5.499312
  0
CIRCLE
  8
0
 62
     2
 10
135.267502
 20
24.551876
 40
6.499189
  0
CIRCLE
  8
0
  6
PHANTOM
 62
     2
 10
0.275002
 20
-61.121655
 40
2.749656
  0
ARC
  8
0
  6
PHANTOM
 62
     2
 10
-135.188507
 20
3.551001
 40
3.005316
 50
270.108521
 51
359.891602
  0
ARC
  8
0
  6
PHANTOM
 62
     2
 10
-131.194000
 20
6.556503
 40
2.998936
 50
94.621010
 51
180.013168
  0
ARC
  8
0
  6
PHANTOM
 62
     2
 10
-131.194000
 20
6.545629
 40
0.989188
 50
89.960228
 51
180.039886
  0
ARC
  8
0
  6
PHANTOM
 62
     2
 10
-103.194702
 20
6.552927
 40
3.002512
 50
0.055087
 51
85.381294
  0
ARC
  8
0
  6
PHANTOM
 62
     2
 10
-99.192703
 20
3.539928
 40
2.994245
 50
179.896927
 51
270.103058
  0
ARC
  8
0
  6
PHANTOM
 62
     2
 10
-103.187157
 20
6.534558
 40
1.000268
 50
0.594734
 51
90.267014
  0
CIRCLE
  8
0
  6
PHANTOM
 62
     2
 10
27.288536
 20
24.550983
 40
2.499687
  0
ARC
  8
0
  6
PHANTOM
 62
     2
 10
37.555374
 20
28.865150
 40
1.723508
 50
304.238892
 51
55.761101
  0
ARC
  8
0
  6
PHANTOM
 62
     2
 10
37.555389
 20
20.226231
 40
1.723497
 50
304.238373
 51
55.761623
  0
ARC
  8
0
  6
PHANTOM
 62
     2
 10
26.779957
 20
24.545691
 40
8.493448
 50
331.869537
 51
28.130476
  0
ARC
  8
0
  6
PHANTOM
 62
     2
 10
32.784782
 20
24.538607
 40
8.509783
 50
151.874237
 51
179.952301
  0
ARC
  8
0
  6
PHANTOM
 62
     2
 10
32.787273
 20
24.553398
 40
8.512276
 50
180.051895
 51
208.121567
  0
ARC
  8
0
  6
PHANTOM
 62
     2
 10
31.231079
 20
31.236399
 40
4.056049
 50
318.526581
 51
4.431727
  0
ARC
  8
0
  6
PHANTOM
 62
     2
 10
31.381437
 20
17.905350
 40
3.910522
 50
354.662231
 51
42.379486
  0
ARC
  8
0
  6
PHANTOM
 62
     2
 10
28.334986
 20
31.241781
 40
4.071652
 50
180.168777
 51
221.380478
  0
ARC
  8
0
  6
PHANTOM
 62
     2
 10
28.184620
 20
17.899973
 40
3.926013
 50
137.720474
 51
180.443878
  0
ARC
  8
0
  6
PHANTOM
 62
     2
 10
33.302998
 20
24.545691
 40
5.970699
 50
331.000153
 51
28.999842
  0
CIRCLE
  8
0
  6
PHANTOM
 62
     2
 10
-109.197151
 20
72.551170
 40
1.199850
  0
CIRCLE
  8
0
  6
PHANTOM
 62
     2
 10
-125.195160
 20
22.557405
 40
1.199850
  0
CIRCLE
  8
0
  6
PHANTOM
 62
     2
 10
-109.197151
 20
72.551170
 40
2.499687
  0
CIRCLE
  8
0
  6
PHANTOM
 62
     2
 10
-125.195160
 20
22.557405
 40
2.499687
  0
ARC
  8
0
  6
PHANTOM
 62
     2
 10
-99.192192
 20
3.545690
 40
1.000000
 50
180.000000
 51
270.000000
  0
ARC
  8
0
  6
PHANTOM
 62
     2
 10
-135.192947
 20
3.545690
 40
1.000000
 50
270.000000
 51
0.000000
  0
ARC
  8
0
  6
PHANTOM
 62
     2
 10
149.257874
 20
6.552927
 40
3.002519
 50
0.055087
 51
85.381294
  0
ARC
  8
0
  6
PHANTOM
 62
     2
 10
149.265411
 20
6.534558
 40
1.000268
 50
0.594734
 51
90.266579
  0
ARC
  8
0
  6
PHANTOM
 62
     2
 10
153.260376
 20
3.545690
 40
1.000000
 50
180.000000
 51
270.000000
  0
ARC
  8
0
  6
PHANTOM
 62
     2
 10
153.259872
 20
3.539928
 40
2.994237
 50
179.896927
 51
270.103058
  0
ARC
  8
0
  6
PHANTOM
 62
     2
 10
117.264069
 20
3.551001
 40
3.005316
 50
270.108368
 51
359.891602
  0
ARC
  8
0
  6
PHANTOM
 62
     2
 10
121.258568
 20
6.556503
 40
2.998937
 50
94.621155
 51
180.013168
  0
ARC
  8
0
  6
PHANTOM
 62
     2
 10
121.258568
 20
6.545629
 40
0.989188
 50
89.960228
 51
180.039886
  0
ARC
  8
0
  6
PHANTOM
 62
     2
 10
117.259628
 20
3.545690
 40
1.000000
 50
270.000000
 51
0.000000
  0
CIRCLE
  8
0
 10
-117.185066
 20
34.045689
 40
5.499312
  0
CIRCLE
  8
0
 62
     2
 10
-117.185066
 20
34.045689
 40
6.499189
  0
ARC
  8
0
 10
19.773750
 20
-96.620399
 40
0.501253
 50
270.143036
 51
359.856964
  0
ARC
  8
0
 10
19.776249
 20
-70.620407
 40
0.498754
 50
359.857147
 51
90.143295
  0
ARC
  8
0
 10
-19.226244
 20
-70.620407
 40
0.498758
 50
89.856918
 51
180.142868
  0
ARC
  8
0
 10
-19.223745
 20
-96.620399
 40
0.501255
 50
180.143021
 51
269.856750
  0
CIRCLE
  8
0
 10
10.775007
 20
-73.119156
 40
2.000000
  0
CIRCLE
  8
0
 10
-10.224993
 20
-94.121597
 40
2.000000
  0
CIRCLE
  8
0
 10
-13.223311
 20
-75.621651
 40
3.150000
  0
CIRCLE
  8
0
 10
13.773314
 20
-91.621651
 40
3.150000
  0
ARC
  8
0
 10
13.773314
 20
-91.621651
 40
3.500001
 50
0.000000
 51
180.000000
  0
ARC
  8
0
 10
-13.224998
 20
-75.619965
 40
3.500000
 50
180.000000
 51
0.000000
  0
CIRCLE
  8
0
 10
-106.685066
 20
42.545689
 40
2.200000
  0
ARC
  8
0
 10
-106.685066
 20
42.545689
 40
4.000000
 50
41.409630
 51
318.590363
  0
ARC
  8
0
 10
-127.685066
 20
52.545689
 40
3.999995
 50
221.409698
 51
138.590302
  0
CIRCLE
  8
0
 10
-127.685066
 20
52.545689
 40
2.200000
  0
CIRCLE
  8
0
 10
-117.185066
 20
61.045689
 40
5.499312
  0
CIRCLE
  8
0
 62
     2
 10
-117.185066
 20
61.045689
 40
6.499189
  0
CIRCLE
  8
0
 10
-11.724998
 20
47.545689
 40
2.200000
  0
CIRCLE
  8
0
 10
12.275002
 20
35.545689
 40
2.200000
  0
CIRCLE
  8
0
 10
135.267502
 20
47.545689
 40
5.499312
  0
CIRCLE
  8
0
 62
     2
 10
135.267502
 20
47.545689
 40
6.499189
  0
CIRCLE
  8
0
 10
135.267502
 20
70.545692
 40
5.499312
  0
CIRCLE
  8
0
 62
     2
 10
135.267502
 20
70.545692
 40
6.499189
  0
CIRCLE
  8
0
 10
145.767502
 20
52.545689
 40
2.200000
  0
CIRCLE
  8
0
 10
124.767502
 20
42.545689
 40
2.200000
  0
ARC
  8
0
  6
PHANTOM
 62
     2
 10
28.184620
 20
77.191406
 40
3.926013
 50
179.556183
 51
222.279556
  0
ARC
  8
0
  6
PHANTOM
 62
     2
 10
28.334986
 20
63.849598
 40
4.071654
 50
138.619507
 51
179.831223
  0
ARC
  8
0
  6
PHANTOM
 62
     2
 10
31.381437
 20
77.186028
 40
3.910522
 50
317.620483
 51
5.337782
  0
ARC
  8
0
  6
PHANTOM
 62
     2
 10
31.231079
 20
63.854980
 40
4.056049
 50
355.568268
 51
41.473431
  0
ARC
  8
0
  6
PHANTOM
 62
     2
 10
32.787273
 20
70.537979
 40
8.512274
 50
151.878448
 51
179.948135
  0
ARC
  8
0
  6
PHANTOM
 62
     2
 10
32.784782
 20
70.552773
 40
8.509784
 50
180.047714
 51
208.125748
  0
ARC
  8
0
  6
PHANTOM
 62
     2
 10
26.779957
 20
70.545692
 40
8.493448
 50
331.869507
 51
28.130487
  0
CIRCLE
  8
0
  6
PHANTOM
 62
     2
 10
27.288536
 20
70.540398
 40
2.499687
  0
ARC
  8
0
  6
PHANTOM
 62
     2
 10
37.555389
 20
74.865150
 40
1.723496
 50
304.238403
 51
55.761589
  0
ARC
  8
0
  6
PHANTOM
 62
     2
 10
33.302998
 20
70.545692
 40
5.970699
 50
331.000153
 51
28.999842
  0
ARC
  8
0
  6
PHANTOM
 62
     2
 10
37.555374
 20
66.226227
 40
1.723506
 50
304.238922
 51
55.761063
  0
CIRCLE
  8
0
  6
PHANTOM
 62
     2
 10
0.275002
 20
-106.121651
 40
2.749656
  0
TEXT
  8
0
 10
-186.892654
 20
104.550003
 40
4.500000
  1
MODEL:300-4A
 50
0.000000
 41
1.052632
 51
0.000000
  7
STANDARD
  0
TEXT
  8
0
 10
129.450287
 20
-130.669998
 40
6.300000
  1
300-4A-1
 50
0.000000
 41
1.052632
 51
0.000000
  7
STANDARD
  0
LINE
  8
0
 62
     2
 10
30.970726
 20
78.644676
 11
37.864414
 21
90.584892
  0
LINE
  8
0
 62
     2
 10
37.864414
 20
90.584892
 11
48.824448
 21
90.584900
  0
LINE
  8
0
 62
     2
 10
30.970726
 20
78.644676
 11
33.092045
 21
80.765999
  0
LINE
  8
0
 62
     2
 10
30.970726
 20
78.644676
 11
31.747183
 21
81.542450
  0
TEXT
  8
0
 62
     2
 10
38.774448
 20
91.584900
 40
3.200000
  1
-70
 50
0.000000
 41
1.052632
 51
0.000000
  7
STANDARD
  0
LINE
  8
0
 62
     2
 10
160.644363
 20
2.545690
 11
167.352097
 21
14.163824
  0
LINE
  8
0
 62
     2
 10
167.352097
 20
14.163824
 11
178.084854
 21
14.163828
  0
LINE
  8
0
 62
     2
 10
160.644363
 20
2.545690
 11
162.765686
 21
4.667010
  0
LINE
  8
0
 62
     2
 10
160.644363
 20
2.545690
 11
161.420822
 21
5.443467
  0
TEXT
  8
0
 62
     2
 10
168.034851
 20
15.163828
 40
3.200000
  1
-21
 50
0.000000
 41
1.052632
 51
0.000000
  7
STANDARD
  0
LINE
  8
0
 62
     2
 10
-107.028801
 20
73.794838
 11
-93.876289
 21
96.575661
  0
LINE
  8
0
 62
     2
 10
-93.876289
 20
96.575661
 11
-83.117622
 21
96.575661
  0
LINE
  8
0
 62
     2
 10
-107.028801
 20
73.794838
 11
-104.907478
 21
75.916161
  0
LINE
  8
0
 62
     2
 10
-107.028801
 20
73.794838
 11
-106.252342
 21
76.692612
  0
TEXT
  8
0
 62
     2
 10
-93.167625
 20
97.575661
 40
3.200000
  1
-IN
 50
0.000000
 41
1.052632
 51
0.000000
  7
STANDARD
  0
ENDSEC
  0
EOF
