  0
SECTION
  2
HEADER
  0
ENDSEC
  0
SECTION
  2
TABLES
  0
TABLE
  2
LTYPE
 70
     4
  0
LTYPE
  2
CONTINUOUS
 70
    64
  3
Solid line
 72
    65
 73
     0
 40
0.000000
  0
LTYPE
  2
DASHED
 70
    64
  3
__ __ __ __ __ __ __ __ __ __ __ __ __ __ __
 72
    65
 73
     2
 40
3.500000
 49
2.000000
 49
-1.500000
  0
LTYPE
  2
CENTER
 70
    64
  3
____ _ ____ _ ____ _ ____ _ ____ _ ____ _ ____
 72
    65
 73
     4
 40
17.500000
 49
13.000000
 49
-1.500000
 49
1.500000
 49
-1.500000
  0
LTYPE
  2
PHANTOM
 70
    64
  3
_____ _ _ _____ _ _ _____ _ _ _____ _ _ ____  
 72
    65
 73
     6
 40
15.500000
 49
8.000000
 49
-1.500000
 49
1.500000
 49
-1.500000
 49
1.500000
 49
-1.500000
  0
LTYPE
  2
DASHED1
 70
    64
  3
__ __ __ __ __ __ __ __ __ __ __ __ __ __ __
 72
    65
 73
     2
 40
1.500000
 49
1.000000
 49
-0.500000
  0
LTYPE
  2
DASHED2
 70
    64
  3
__ __ __ __ __ __ __ __ __ __ __ __ __ __ __
 72
    65
 73
     2
 40
3.500000
 49
2.500000
 49
-1.000000
  0
LTYPE
  2
DASHED3
 70
    64
  3
__ __ __ __ __ __ __ __ __ __ __ __ __ __ __
 72
    65
 73
     2
 40
6.000000
 49
4.000000
 49
-2.000000
  0
LTYPE
  2
DASHED4
 70
    64
  3
__ __ __ __ __ __ __ __ __ __ __ __ __ __ __
 72
    65
 73
     2
 40
12.000000
 49
10.000000
 49
-2.000000
  0
LTYPE
  2
DASHED5
 70
    64
  3
__ __ __ __ __ __ __ __ __ __ __ __ __ __ __
 72
    65
 73
     2
 40
17.000000
 49
15.000000
 49
-2.000000
  0
LTYPE
  2
DASHED6
 70
    64
  3
__ __ __ __ __ __ __ __ __ __ __ __ __ __ __
 72
    65
 73
     2
 40
29.000000
 49
27.000000
 49
-2.000000
  0
LTYPE
  2
PHANTOM1
 70
    64
  3
_____ _ _ _____ _ _ _____ _ _ _____ _ _ ____  
 72
    65
 73
     6
 40
31.000000
 49
25.000000
 49
-1.500000
 49
1.000000
 49
-1.000000
 49
1.000000
 49
-1.500000
  0
LTYPE
  2
PHANTOM2
 70
    64
  3
_____ _ _ _____ _ _ _____ _ _ _____ _ _ ____  
 72
    65
 73
     6
 40
36.000000
 49
27.000000
 49
-1.500000
 49
2.500000
 49
-1.000000
 49
2.500000
 49
-1.500000
  0
LTYPE
  2
PHANTOM3
 70
    64
  3
_____ _ _ _____ _ _ _____ _ _ _____ _ _ ____  
 72
    65
 73
     6
 40
78.000000
 49
64.000000
 49
-2.000000
 49
4.000000
 49
-2.000000
 49
4.000000
 49
-2.000000
  0
LTYPE
  2
CENTER1
 70
    64
  3
____ _ ____ _ ____ _ ____ _ ____ _ ____ _ ____
 72
    65
 73
     4
 40
19.000000
 49
14.000000
 49
-1.000000
 49
3.000000
 49
-1.000000
  0
LTYPE
  2
CENTER2
 70
    64
  3
____ _ ____ _ ____ _ ____ _ ____ _ ____ _ ____
 72
    65
 73
     4
 40
28.500000
 49
25.000000
 49
-1.000000
 49
1.500000
 49
-1.000000
  0
LTYPE
  2
CENTER3
 70
    64
  3
____ _ ____ _ ____ _ ____ _ ____ _ ____ _ ____
 72
    65
 73
     4
 40
31.500000
 49
27.000000
 49
-1.000000
 49
2.500000
 49
-1.000000
  0
LTYPE
  2
CENTER4
 70
    64
  3
____ _ ____ _ ____ _ ____ _ ____ _ ____ _ ____
 72
    65
 73
     4
 40
50.000000
 49
45.000000
 49
-1.000000
 49
3.000000
 49
-1.000000
  0
LTYPE
  2
CENTER5
 70
    64
  3
____ _ ____ _ ____ _ ____ _ ____ _ ____ _ ____
 72
    65
 73
     4
 40
100.000000
 49
92.000000
 49
-2.000000
 49
4.000000
 49
-2.000000
  0
LTYPE
  2
SBK1
 70
    64
  3
______ _ _ _ ______ _ _ _ ______ _ _ _ _____  
 72
    65
 73
     8
 40
60.500000
 49
45.000000
 49
-2.000000
 49
2.500000
 49
-2.000000
 49
2.500000
 49
-2.000000
 49
2.500000
 49
-2.000000
  0
LTYPE
  2
SBK2
 70
    64
  3
______ _ _ _ ______ _ _ _ ______ _ _ _ _____  
 72
    65
 73
     8
 40
84.000000
 49
64.000000
 49
-2.000000
 49
4.000000
 49
-2.000000
 49
4.000000
 49
-2.000000
 49
4.000000
 49
-2.000000
  0
LTYPE
  2
STCH
 70
    64
  3
__ __ __ __ __ __ __ __ __ __ __ __ __ __ __
 72
    65
 73
     2
 40
3.000000
 49
1.000000
 49
-2.000000
  0
LTYPE
  2
MTCH
 70
    64
  3
_____ _ _ _____ _ _ _____ _ _ _____ _ _ ____  
 72
    65
 73
     6
 40
80.000000
 49
66.000000
 49
-2.000000
 49
4.000000
 49
-2.000000
 49
4.000000
 49
-2.000000
  0
ENDTAB
  0
TABLE
  2
LAYER
 70
     1
  0
LAYER
  2
0
 70
     0
 62
     7
  6
CONTINUOUS
  0
ENDTAB
  0
TABLE
  2
STYLE
 70
     1
  0
STYLE
  2
STANDARD
 70
     0
 40
0.000000
 41
1.000000
 50
0.000000
 71
     0
 42
0.200000
  3
txt
  4
BIGFONT
  0
ENDTAB
  0
TABLE
  2
VIEW
 70
     0
  0
ENDTAB
  0
ENDSEC
  0
SECTION
  2
BLOCKS
  0
ENDSEC
  0
SECTION
  2
ENTITIES
  0
LINE
  8
0
 10
121.769196
 20
63.554317
 11
148.765823
 21
63.554317
  0
LINE
  8
0
  6
CENTER
 62
     2
 10
-24.389942
 20
-89.617340
 11
24.464464
 21
-89.617340
  0
LINE
  8
0
  6
CENTER
 62
     2
 10
0.275002
 20
-72.992661
 11
0.275002
 21
-106.448830
  0
LINE
  8
0
  6
CENTER
 62
     2
 10
13.775002
 20
-93.396866
 11
13.775002
 21
-102.361885
  0
LINE
  8
0
  6
CENTER
 62
     2
 10
-119.669136
 20
18.050003
 11
-104.701004
 21
18.050003
  0
LINE
  8
0
  6
CENTER
 62
     2
 10
0.275002
 20
86.581390
 11
0.275002
 21
-24.201506
  0
LINE
  8
0
 10
-19.717501
 20
29.193611
 11
-16.717875
 21
29.193611
  0
LINE
  8
0
 10
-19.717501
 20
23.914270
 11
-16.717875
 21
23.914270
  0
LINE
  8
0
 10
-16.717875
 20
29.193611
 11
-16.717875
 21
23.914270
  0
LINE
  8
0
  6
CENTER
 62
     2
 10
-23.257057
 20
45.046631
 11
-16.027962
 21
45.046631
  0
LINE
  8
0
  6
CENTER
 62
     2
 10
-22.942097
 20
18.050003
 11
-15.398040
 21
18.050003
  0
LINE
  8
0
  6
CENTER
 62
     2
 10
49.049843
 20
8.550003
 11
14.166265
 21
8.550003
  0
LINE
  8
0
  6
PHANTOM
 62
     2
 10
34.630081
 20
0.451015
 11
25.084900
 21
0.451015
  0
LINE
  8
0
  6
PHANTOM
 62
     2
 10
34.630081
 20
16.648991
 11
25.084900
 21
16.648991
  0
LINE
  8
0
  6
PHANTOM
 62
     2
 10
35.275002
 20
15.554128
 11
35.275002
 21
1.545878
  0
LINE
  8
0
  6
PHANTOM
 62
     2
 10
24.275002
 20
15.254166
 11
24.275002
 21
1.845841
  0
LINE
  8
0
  6
PHANTOM
 62
     2
 10
24.275002
 20
15.254165
 11
20.275002
 21
15.043638
  0
LINE
  8
0
  6
PHANTOM
 62
     2
 10
24.275002
 20
14.264289
 11
20.275002
 21
14.053762
  0
LINE
  8
0
  6
PHANTOM
 62
     2
 10
24.275002
 20
2.835717
 11
20.275002
 21
3.046244
  0
LINE
  8
0
  6
PHANTOM
 62
     2
 10
24.275002
 20
1.845841
 11
20.275002
 21
2.056367
  0
LINE
  8
0
  6
PHANTOM
 62
     2
 10
34.270126
 20
4.545504
 11
25.279877
 21
4.545504
  0
LINE
  8
0
  6
PHANTOM
 62
     2
 10
34.270126
 20
12.554502
 11
25.279877
 21
12.554502
  0
LINE
  8
0
  6
PHANTOM
 62
     2
 10
24.275002
 20
15.254166
 11
25.084900
 21
16.648991
  0
LINE
  8
0
  6
PHANTOM
 62
     2
 10
25.084900
 20
0.451015
 11
24.275002
 21
1.845841
  0
LINE
  8
0
  6
PHANTOM
 62
     2
 10
35.275002
 20
15.554129
 11
34.630081
 21
16.648993
  0
LINE
  8
0
  6
PHANTOM
 62
     2
 10
34.630081
 20
0.451014
 11
35.275002
 21
1.545877
  0
LINE
  8
0
  6
PHANTOM
 62
     2
 10
38.525097
 20
14.294285
 11
35.275002
 21
14.294285
  0
LINE
  8
0
  6
PHANTOM
 62
     2
 10
38.525097
 20
2.805721
 11
35.275002
 21
2.805721
  0
LINE
  8
0
  6
PHANTOM
 62
     2
 10
38.525097
 20
5.655365
 11
35.275002
 21
5.655365
  0
LINE
  8
0
  6
PHANTOM
 62
     2
 10
38.525097
 20
11.444641
 11
35.275002
 21
11.444641
  0
LINE
  8
0
  6
PHANTOM
 62
     2
 10
39.275002
 20
12.869463
 11
39.275002
 21
4.230543
  0
LINE
  8
0
  6
PHANTOM
 62
     2
 10
47.775002
 20
12.044566
 11
47.775002
 21
9.044941
  0
LINE
  8
0
  6
PHANTOM
 62
     2
 10
47.265064
 20
12.554502
 11
39.275002
 21
12.554502
  0
LINE
  8
0
  6
PHANTOM
 62
     2
 10
47.265064
 20
4.545504
 11
39.275002
 21
4.545504
  0
LINE
  8
0
  6
PHANTOM
 62
     2
 10
47.775002
 20
9.044941
 11
45.765251
 21
9.044941
  0
LINE
  8
0
  6
PHANTOM
 62
     2
 10
47.775002
 20
8.055065
 11
45.765251
 21
8.055065
  0
LINE
  8
0
  6
PHANTOM
 62
     2
 10
45.765251
 20
9.044941
 11
45.765251
 21
8.055065
  0
LINE
  8
0
  6
PHANTOM
 62
     2
 10
47.775002
 20
5.055440
 11
39.275002
 21
5.055440
  0
LINE
  8
0
  6
PHANTOM
 62
     2
 10
47.775002
 20
12.044566
 11
39.275002
 21
12.044566
  0
LINE
  8
0
  6
PHANTOM
 62
     2
 10
47.774998
 20
12.044565
 11
47.265064
 21
12.554501
  0
LINE
  8
0
  6
PHANTOM
 62
     2
 10
47.775002
 20
5.055438
 11
47.265064
 21
4.545503
  0
LINE
  8
0
  6
CENTER
 62
     2
 10
27.274626
 20
11.729606
 11
27.274626
 21
5.370400
  0
LINE
  8
0
  6
CENTER
 62
     2
 10
-124.378548
 20
6.561439
 11
-116.294556
 21
6.561439
  0
LINE
  8
0
  6
CENTER
 62
     2
 10
-108.195564
 20
56.550190
 11
-100.486534
 21
56.550190
  0
LINE
  8
0
  6
CENTER
 62
     2
 10
-104.191071
 20
60.479702
 11
-104.191071
 21
51.945766
  0
LINE
  8
0
  6
CENTER
 62
     2
 10
-120.194069
 20
10.730918
 11
-120.194069
 21
2.646928
  0
LINE
  8
0
  6
PHANTOM
 62
     2
 10
-20.212439
 20
9.051127
 11
-19.717501
 21
9.051127
  0
LINE
  8
0
  6
PHANTOM
 62
     2
 10
-20.212439
 20
4.056752
 11
-19.717501
 21
4.056752
  0
LINE
  8
0
  6
CENTER
 62
     2
 10
-23.197065
 20
6.561439
 11
-19.042583
 21
6.561439
  0
LINE
  8
0
  6
PHANTOM
 62
     2
 10
-22.012213
 20
7.761289
 11
-20.212439
 21
7.761289
  0
LINE
  8
0
  6
PHANTOM
 62
     2
 10
-22.012213
 20
5.361589
 11
-20.212439
 21
5.361589
  0
LINE
  8
0
  6
PHANTOM
 62
     2
 10
-20.212439
 20
9.051127
 11
-20.212439
 21
4.056752
  0
LINE
  8
0
  6
PHANTOM
 62
     2
 10
-22.012213
 20
7.761289
 11
-22.012213
 21
5.361589
  0
LINE
  8
0
  6
PHANTOM
 62
     2
 10
-20.212439
 20
59.054878
 11
-19.717501
 21
59.054878
  0
LINE
  8
0
  6
PHANTOM
 62
     2
 10
-20.212439
 20
54.045506
 11
-19.717501
 21
54.045506
  0
LINE
  8
0
  6
CENTER
 62
     2
 10
-23.197065
 20
56.550190
 11
-19.042583
 21
56.550190
  0
LINE
  8
0
  6
PHANTOM
 62
     2
 10
-22.012213
 20
57.750042
 11
-20.212439
 21
57.750042
  0
LINE
  8
0
  6
PHANTOM
 62
     2
 10
-22.012213
 20
55.350342
 11
-20.212439
 21
55.350342
  0
LINE
  8
0
  6
PHANTOM
 62
     2
 10
-20.212439
 20
59.054878
 11
-20.212439
 21
54.045506
  0
LINE
  8
0
  6
PHANTOM
 62
     2
 10
-22.012213
 20
57.750042
 11
-22.012213
 21
55.350342
  0
LINE
  8
0
  6
CENTER
 62
     2
 10
135.267502
 20
87.410858
 11
135.267502
 21
-26.966461
  0
LINE
  8
0
  6
CENTER
 62
     2
 10
-112.185066
 20
-22.656891
 11
-112.185066
 21
89.515396
  0
LINE
  8
0
  6
DASHED
 62
     2
 10
-4.588804
 20
82.550003
 11
-4.395247
 21
76.356186
  0
LINE
  8
0
  6
DASHED
 10
-4.002805
 20
82.550003
 11
-3.809248
 21
76.356186
  0
LINE
  8
0
  6
DASHED
 10
4.552640
 20
82.550003
 11
4.359083
 21
76.356186
  0
LINE
  8
0
  6
DASHED
 62
     2
 10
5.138578
 20
82.550003
 11
4.945022
 21
76.356186
  0
LINE
  8
0
  6
DASHED
 10
139.545105
 20
82.550003
 11
139.351578
 21
76.357315
  0
LINE
  8
0
  6
DASHED
 62
     2
 10
140.131042
 20
82.550003
 11
139.937515
 21
76.357315
  0
LINE
  8
0
  6
DASHED
 62
     2
 10
130.403732
 20
82.550003
 11
130.597260
 21
76.357315
  0
LINE
  8
0
  6
DASHED
 10
130.989746
 20
82.550011
 11
131.183258
 21
76.357315
  0
LINE
  8
0
  6
CENTER
 62
     2
 10
-13.224998
 20
-85.744026
 11
-13.224998
 21
-76.869339
  0
LINE
  8
0
  6
CENTER
 62
     2
 10
9.306565
 20
-97.617340
 11
18.403625
 21
-97.617340
  0
LINE
  8
0
 10
-19.224998
 20
-103.117340
 11
19.775002
 21
-103.117340
  0
LINE
  8
0
 10
20.275002
 20
-102.617340
 11
20.275002
 21
-76.617340
  0
LINE
  8
0
 10
-19.224998
 20
-76.117340
 11
19.775002
 21
-76.117340
  0
LINE
  8
0
 10
-19.724998
 20
-102.617340
 11
-19.724998
 21
-76.617340
  0
LINE
  8
0
 10
-125.685066
 20
82.557312
 11
-125.685066
 21
-19.449997
  0
LINE
  8
0
 10
-98.685066
 20
82.557312
 11
-98.685066
 21
-19.449997
  0
LINE
  8
0
  6
CENTER
 62
     2
 10
-106.825951
 20
26.550003
 11
-98.686752
 21
26.550003
  0
LINE
  8
0
  6
CENTER
 62
     2
 10
-101.685066
 20
32.218903
 11
-101.685066
 21
20.826349
  0
LINE
  8
0
  6
CENTER
 62
     2
 10
-127.689423
 20
36.550003
 11
-117.532204
 21
36.550003
  0
LINE
  8
0
  6
CENTER
 62
     2
 10
-122.685066
 20
42.479065
 11
-122.685066
 21
30.674732
  0
LINE
  8
0
  6
CENTER
 62
     2
 10
-119.669136
 20
45.050003
 11
-104.701004
 21
45.050003
  0
LINE
  8
0
 10
-125.685066
 20
82.550003
 11
-98.686752
 21
82.550003
  0
LINE
  8
0
  6
CENTER
 62
     2
 10
8.533490
 20
19.550003
 11
17.316774
 21
19.550003
  0
LINE
  8
0
  6
CENTER
 62
     2
 10
12.275002
 20
23.565451
 11
12.275002
 21
15.777681
  0
LINE
  8
0
  6
CENTER
 62
     2
 10
-15.081530
 20
31.550003
 11
-8.233120
 21
31.550003
  0
LINE
  8
0
  6
CENTER
 62
     2
 10
-11.724998
 20
35.567780
 11
-11.724998
 21
27.230284
  0
LINE
  8
0
 10
-19.717501
 20
82.550003
 11
20.282501
 21
82.550003
  0
LINE
  8
0
 10
121.769196
 20
82.550003
 11
148.765823
 21
82.550003
  0
LINE
  8
0
  6
CENTER
 62
     2
 10
127.456940
 20
31.550003
 11
143.523865
 21
31.550003
  0
LINE
  8
0
  6
CENTER
 62
     2
 10
126.787483
 20
8.550003
 11
144.044540
 21
8.550003
  0
LINE
  8
0
  6
CENTER
 62
     2
 10
127.456940
 20
54.550003
 11
143.523865
 21
54.550003
  0
LINE
  8
0
  6
CENTER
 62
     2
 10
145.767502
 20
39.856026
 11
145.767502
 21
33.243980
  0
LINE
  8
0
  6
CENTER
 62
     2
 10
124.767502
 20
29.679226
 11
124.767502
 21
23.420780
  0
LINE
  8
0
  6
CENTER
 62
     2
 10
142.461487
 20
36.550003
 11
149.073532
 21
36.550003
  0
LINE
  8
0
  6
CENTER
 62
     2
 10
121.638283
 20
26.550003
 11
127.896729
 21
26.550003
  0
LINE
  8
0
 10
20.275002
 20
82.550003
 11
20.275002
 21
-19.449997
  0
LINE
  8
0
 10
-19.724998
 20
82.550003
 11
-19.724998
 21
-19.449997
  0
LINE
  8
0
 10
-19.717501
 20
-0.449997
 11
20.282501
 21
-0.449997
  0
LINE
  8
0
 10
-125.685066
 20
-0.449997
 11
-98.686752
 21
-0.449997
  0
LINE
  8
0
 10
121.769196
 20
-0.449997
 11
148.765823
 21
-0.449997
  0
LINE
  8
0
  6
PHANTOM
 62
     2
 10
47.775002
 20
8.055065
 11
47.775002
 21
5.055440
  0
LINE
  8
0
  6
CENTER
 62
     2
 10
16.286285
 20
31.550003
 11
24.109030
 21
31.550003
  0
LINE
  8
0
  6
CENTER
 62
     2
 10
49.049843
 20
54.550003
 11
14.166265
 21
54.550003
  0
LINE
  8
0
  6
PHANTOM
 62
     2
 10
24.275002
 20
47.845840
 11
20.275002
 21
48.056370
  0
LINE
  8
0
  6
PHANTOM
 62
     2
 10
24.275002
 20
48.835716
 11
20.275002
 21
49.046242
  0
LINE
  8
0
  6
PHANTOM
 62
     2
 10
24.275002
 20
60.264290
 11
20.275002
 21
60.053764
  0
LINE
  8
0
  6
PHANTOM
 62
     2
 10
24.275002
 20
61.254166
 11
20.275002
 21
61.043636
  0
LINE
  8
0
  6
PHANTOM
 62
     2
 10
38.525097
 20
48.805721
 11
35.275002
 21
48.805721
  0
LINE
  8
0
  6
PHANTOM
 62
     2
 10
38.525097
 20
60.294285
 11
35.275002
 21
60.294285
  0
LINE
  8
0
  6
PHANTOM
 62
     2
 10
38.525097
 20
57.444641
 11
35.275002
 21
57.444641
  0
LINE
  8
0
  6
PHANTOM
 62
     2
 10
38.525097
 20
51.655365
 11
35.275002
 21
51.655365
  0
LINE
  8
0
  6
CENTER
 62
     2
 10
27.274626
 20
51.370399
 11
27.274626
 21
57.729607
  0
LINE
  8
0
  6
PHANTOM
 62
     2
 10
34.630081
 20
62.648991
 11
35.274998
 21
61.554127
  0
LINE
  8
0
  6
PHANTOM
 62
     2
 10
35.275002
 20
47.545876
 11
34.630081
 21
46.451012
  0
LINE
  8
0
  6
PHANTOM
 62
     2
 10
25.084902
 20
62.648994
 11
24.275000
 21
61.254162
  0
LINE
  8
0
  6
PHANTOM
 62
     2
 10
24.275002
 20
47.845840
 11
25.084900
 21
46.451015
  0
LINE
  8
0
  6
PHANTOM
 62
     2
 10
34.270126
 20
50.545502
 11
25.279877
 21
50.545502
  0
LINE
  8
0
  6
PHANTOM
 62
     2
 10
34.270126
 20
58.554504
 11
25.279877
 21
58.554504
  0
LINE
  8
0
  6
PHANTOM
 62
     2
 10
24.275002
 20
47.845840
 11
24.275002
 21
61.254166
  0
LINE
  8
0
  6
PHANTOM
 62
     2
 10
35.275002
 20
47.545879
 11
35.275002
 21
61.554127
  0
LINE
  8
0
  6
PHANTOM
 62
     2
 10
34.630081
 20
46.451015
 11
25.084900
 21
46.451015
  0
LINE
  8
0
  6
PHANTOM
 62
     2
 10
34.630081
 20
62.648991
 11
25.084900
 21
62.648991
  0
LINE
  8
0
  6
PHANTOM
 62
     2
 10
47.775002
 20
55.044941
 11
47.775002
 21
58.044567
  0
LINE
  8
0
  6
PHANTOM
 62
     2
 10
47.775002
 20
58.044567
 11
47.265068
 21
58.554504
  0
LINE
  8
0
  6
PHANTOM
 62
     2
 10
47.775002
 20
51.055439
 11
47.265064
 21
50.545502
  0
LINE
  8
0
  6
PHANTOM
 62
     2
 10
47.775002
 20
51.055439
 11
39.275002
 21
51.055439
  0
LINE
  8
0
  6
PHANTOM
 62
     2
 10
47.775002
 20
58.044567
 11
39.275002
 21
58.044567
  0
LINE
  8
0
  6
PHANTOM
 62
     2
 10
45.765251
 20
54.055065
 11
45.765251
 21
55.044941
  0
LINE
  8
0
  6
PHANTOM
 62
     2
 10
47.775002
 20
55.044941
 11
45.765251
 21
55.044941
  0
LINE
  8
0
  6
PHANTOM
 62
     2
 10
47.775002
 20
54.055065
 11
45.765251
 21
54.055065
  0
LINE
  8
0
  6
PHANTOM
 62
     2
 10
47.265064
 20
58.554504
 11
39.275002
 21
58.554504
  0
LINE
  8
0
  6
PHANTOM
 62
     2
 10
47.265064
 20
50.545502
 11
39.275002
 21
50.545502
  0
LINE
  8
0
  6
PHANTOM
 62
     2
 10
47.775002
 20
51.055439
 11
47.775002
 21
54.055065
  0
LINE
  8
0
  6
PHANTOM
 62
     2
 10
39.275002
 20
50.230541
 11
39.275002
 21
58.869465
  0
LINE
  8
0
 10
-19.724998
 20
63.550003
 11
20.275002
 21
63.550003
  0
LINE
  8
0
 10
-19.717501
 20
-19.449997
 11
20.282501
 21
-19.449997
  0
LINE
  8
0
  6
DASHED
 62
     2
 10
-4.588997
 20
-19.456184
 11
-4.395247
 21
-13.256184
  0
LINE
  8
0
  6
DASHED
 10
-4.002998
 20
-19.456182
 11
-3.809248
 21
-13.256183
  0
LINE
  8
0
  6
DASHED
 10
4.552834
 20
-19.456184
 11
4.359083
 21
-13.256184
  0
LINE
  8
0
  6
DASHED
 62
     2
 10
5.138772
 20
-19.456184
 11
4.945021
 21
-13.256185
  0
LINE
  8
0
 10
-125.685066
 20
63.550003
 11
-98.686752
 21
63.550003
  0
LINE
  8
0
 10
-125.685066
 20
-19.449997
 11
-98.686752
 21
-19.449997
  0
LINE
  8
0
 10
121.769196
 20
-19.449997
 11
148.765823
 21
-19.449997
  0
LINE
  8
0
  6
DASHED
 10
139.545105
 20
-19.449997
 11
139.351593
 21
-13.257309
  0
LINE
  8
0
  6
DASHED
 62
     2
 10
140.131042
 20
-19.449997
 11
139.937515
 21
-13.257308
  0
LINE
  8
0
  6
DASHED
 62
     2
 10
130.403732
 20
-19.449997
 11
130.597244
 21
-13.257308
  0
LINE
  8
0
  6
DASHED
 10
130.989731
 20
-19.449997
 11
131.183258
 21
-13.257307
  0
LINE
  8
0
 10
12.714339
 20
-98.678001
 11
14.835660
 21
-96.556679
  0
LINE
  8
0
 10
12.714339
 20
-96.556679
 11
14.835660
 21
-98.678001
  0
LINE
  8
0
 10
-14.285660
 20
-80.556679
 11
-12.164339
 21
-82.678001
  0
LINE
  8
0
 10
-14.285660
 20
-82.678001
 11
-12.164339
 21
-80.556679
  0
LINE
  8
0
  6
CENTER
 62
     2
 10
-17.693436
 20
-81.617340
 11
-8.596375
 21
-81.617340
  0
LINE
  8
0
 10
148.767502
 20
82.550003
 11
148.767502
 21
-19.449997
  0
LINE
  8
0
 10
121.767502
 20
82.550003
 11
121.767502
 21
-19.449997
  0
LINE
  8
0
 10
-194.250000
 20
132.600006
 11
194.800003
 21
132.600006
  0
LINE
  8
0
 10
194.800003
 20
132.600006
 11
194.800003
 21
-133.500000
  0
LINE
  8
0
 10
-194.250000
 20
132.600006
 11
-194.250000
 21
-133.500000
  0
LINE
  8
0
 10
-194.250000
 20
-133.500000
 11
194.800003
 21
-133.500000
  0
CIRCLE
  8
0
 10
135.271423
 20
8.561483
 40
5.499312
  0
CIRCLE
  8
0
 62
     2
 10
135.271423
 20
8.561483
 40
6.499189
  0
CIRCLE
  8
0
  6
PHANTOM
 62
     2
 10
27.288536
 20
8.555297
 40
2.499687
  0
ARC
  8
0
  6
PHANTOM
 62
     2
 10
37.555374
 20
12.869463
 40
1.723508
 50
304.238892
 51
55.761101
  0
ARC
  8
0
  6
PHANTOM
 62
     2
 10
37.555389
 20
4.230543
 40
1.723497
 50
304.238373
 51
55.761623
  0
ARC
  8
0
  6
PHANTOM
 62
     2
 10
26.779957
 20
8.550003
 40
8.493448
 50
331.869537
 51
28.130476
  0
ARC
  8
0
  6
PHANTOM
 62
     2
 10
32.784782
 20
8.542919
 40
8.509783
 50
151.874237
 51
179.952301
  0
ARC
  8
0
  6
PHANTOM
 62
     2
 10
32.787273
 20
8.557712
 40
8.512276
 50
180.051895
 51
208.121567
  0
ARC
  8
0
  6
PHANTOM
 62
     2
 10
31.231079
 20
15.240712
 40
4.056049
 50
318.526581
 51
4.431727
  0
ARC
  8
0
  6
PHANTOM
 62
     2
 10
31.381437
 20
1.909663
 40
3.910522
 50
354.662201
 51
42.379494
  0
ARC
  8
0
  6
PHANTOM
 62
     2
 10
28.334986
 20
15.246094
 40
4.071652
 50
180.168777
 51
221.380463
  0
ARC
  8
0
  6
PHANTOM
 62
     2
 10
28.184620
 20
1.904285
 40
3.926013
 50
137.720474
 51
180.443863
  0
ARC
  8
0
  6
PHANTOM
 62
     2
 10
33.302998
 20
8.550003
 40
5.970699
 50
331.000153
 51
28.999842
  0
CIRCLE
  8
0
  6
PHANTOM
 62
     2
 10
-104.197151
 20
56.555485
 40
1.199850
  0
CIRCLE
  8
0
  6
PHANTOM
 62
     2
 10
-120.195160
 20
6.561718
 40
1.199850
  0
CIRCLE
  8
0
  6
PHANTOM
 62
     2
 10
-104.197151
 20
56.555485
 40
2.499687
  0
CIRCLE
  8
0
  6
PHANTOM
 62
     2
 10
-120.195160
 20
6.561718
 40
2.499687
  0
CIRCLE
  8
0
 10
-112.185066
 20
18.050003
 40
5.499312
  0
CIRCLE
  8
0
 62
     2
 10
-112.185066
 20
18.050003
 40
6.499189
  0
ARC
  8
0
 10
19.773750
 20
-102.616089
 40
0.501253
 50
270.143036
 51
359.856964
  0
ARC
  8
0
 10
19.776249
 20
-76.616096
 40
0.498754
 50
359.857147
 51
90.143295
  0
ARC
  8
0
 10
-19.226244
 20
-76.616096
 40
0.498758
 50
89.856918
 51
180.142868
  0
ARC
  8
0
 10
-19.223745
 20
-102.616089
 40
0.501255
 50
180.143021
 51
269.856750
  0
CIRCLE
  8
0
 10
-101.685066
 20
26.550003
 40
2.200000
  0
ARC
  8
0
 10
-101.685066
 20
26.550003
 40
4.000000
 50
41.409630
 51
318.590363
  0
ARC
  8
0
 10
-122.685066
 20
36.550003
 40
4.000000
 50
221.409622
 51
138.590378
  0
CIRCLE
  8
0
 10
-122.685066
 20
36.550003
 40
2.200000
  0
CIRCLE
  8
0
 10
-112.185066
 20
45.050003
 40
5.499312
  0
CIRCLE
  8
0
 62
     2
 10
-112.185066
 20
45.050003
 40
6.499189
  0
CIRCLE
  8
0
 10
-11.724998
 20
31.550003
 40
2.200000
  0
CIRCLE
  8
0
 10
12.275002
 20
19.550003
 40
2.200000
  0
CIRCLE
  8
0
 10
135.271423
 20
31.555296
 40
5.499312
  0
CIRCLE
  8
0
 62
     2
 10
135.271423
 20
31.555296
 40
6.499189
  0
CIRCLE
  8
0
 10
135.271423
 20
54.555298
 40
5.499312
  0
CIRCLE
  8
0
 62
     2
 10
135.271423
 20
54.555298
 40
6.499189
  0
CIRCLE
  8
0
 10
145.767502
 20
36.550003
 40
2.200000
  0
CIRCLE
  8
0
 10
124.767502
 20
26.550003
 40
2.200000
  0
ARC
  8
0
  6
PHANTOM
 62
     2
 10
28.184620
 20
61.195721
 40
3.926013
 50
179.556122
 51
222.279510
  0
ARC
  8
0
  6
PHANTOM
 62
     2
 10
28.334986
 20
47.853912
 40
4.071651
 50
138.619537
 51
179.831223
  0
ARC
  8
0
  6
PHANTOM
 62
     2
 10
31.381437
 20
61.190342
 40
3.910522
 50
317.620483
 51
5.337782
  0
ARC
  8
0
  6
PHANTOM
 62
     2
 10
31.231079
 20
47.859295
 40
4.056049
 50
355.568268
 51
41.473431
  0
ARC
  8
0
  6
PHANTOM
 62
     2
 10
32.787273
 20
54.542294
 40
8.512274
 50
151.878448
 51
179.948105
  0
ARC
  8
0
  6
PHANTOM
 62
     2
 10
32.784782
 20
54.557087
 40
8.509784
 50
180.047699
 51
208.125763
  0
ARC
  8
0
  6
PHANTOM
 62
     2
 10
26.779957
 20
54.550003
 40
8.493448
 50
331.869507
 51
28.130487
  0
CIRCLE
  8
0
  6
PHANTOM
 62
     2
 10
27.288536
 20
54.544708
 40
2.499687
  0
ARC
  8
0
  6
PHANTOM
 62
     2
 10
37.555389
 20
58.869465
 40
1.723499
 50
304.238342
 51
55.761658
  0
ARC
  8
0
  6
PHANTOM
 62
     2
 10
33.302998
 20
54.550003
 40
5.970699
 50
331.000153
 51
28.999842
  0
ARC
  8
0
  6
PHANTOM
 62
     2
 10
37.555374
 20
50.230541
 40
1.723509
 50
304.238861
 51
55.761135
  0
CIRCLE
  8
0
 10
0.275002
 20
-89.617340
 40
4.277999
  0
CIRCLE
  8
0
 62
     2
 10
0.275002
 20
-89.617340
 40
4.863999
  0
CIRCLE
  8
0
 10
13.775002
 20
-97.617340
 40
3.250000
  0
CIRCLE
  8
0
 10
13.775002
 20
-97.617340
 40
2.799999
  0
CIRCLE
  8
0
 10
-13.224999
 20
-81.617340
 40
3.250000
  0
CIRCLE
  8
0
 10
-13.224999
 20
-81.617340
 40
2.799999
  0
TEXT
  8
0
 10
-186.892654
 20
104.550003
 40
4.500000
  1
MODEL:300-4A2
 50
0.000000
 41
1.052632
 51
0.000000
  7
STANDARD
  0
TEXT
  8
0
 10
126.300285
 20
-130.669998
 40
6.300000
  1
300-4A2-1
 50
0.000000
 41
1.052632
 51
0.000000
  7
STANDARD
  0
LINE
  8
0
 62
     2
 10
-102.357460
 20
58.247814
 11
-92.194527
 21
75.850525
  0
LINE
  8
0
 62
     2
 10
-92.194527
 20
75.850525
 11
-81.295822
 21
75.850525
  0
LINE
  8
0
 62
     2
 10
-102.357460
 20
58.247814
 11
-100.236137
 21
60.369133
  0
LINE
  8
0
 62
     2
 10
-102.357460
 20
58.247814
 11
-101.581001
 21
61.145592
  0
TEXT
  8
0
 62
     2
 10
-91.345825
 20
76.850525
 40
3.200000
  1
-IN
 50
0.000000
 41
1.052632
 51
0.000000
  7
STANDARD
  0
LINE
  8
0
 62
     2
 10
32.662933
 20
62.648987
 11
39.593765
 21
74.653542
  0
LINE
  8
0
 62
     2
 10
39.593765
 20
74.653542
 11
51.011639
 21
74.653542
  0
LINE
  8
0
 62
     2
 10
32.662933
 20
62.648987
 11
34.784252
 21
64.770309
  0
LINE
  8
0
 62
     2
 10
32.662933
 20
62.648987
 11
33.439392
 21
65.546761
  0
TEXT
  8
0
 62
     2
 10
40.961639
 20
75.653542
 40
3.200000
  1
-70
 50
0.000000
 41
1.052632
 51
0.000000
  7
STANDARD
  0
ENDSEC
  0
EOF
