  0
SECTION
  2
HEADER
  9
$ACADVER
  1
AC1012
  9
$DWGCODEPAGE
  3
dos932
  9
$INSBASE
 10
0.0
 20
0.0
 30
0.0
  9
$EXTMIN
 10
-138.39999389648437
 20
-94.800003051757812
 30
0.0
  9
$EXTMAX
 10
138.35000610351562
 20
94.5
 30
0.0
  9
$LIMMIN
 10
-148.5
 20
-105.00000000000001
  9
$LIMMAX
 10
148.5
 20
105.00000000000001
  9
$ORTHOMODE
 70
               0
  9
$REGENMODE
 70
               1
  9
$FILLMODE
 70
               1
  9
$QTEXTMODE
 70
               0
  9
$MIRRTEXT
 70
               1
  9
$DRAGMODE
 70
               2
  9
$LTSCALE
 40
1.0
  9
$OSMODE
 70
               0
  9
$ATTMODE
 70
               1
  9
$TEXTSIZE
 40
3.2000000476837158
  9
$TRACEWID
 40
0.05
  9
$TEXTSTYLE
  7
MX_NOTE_STANDARD
  9
$CLAYER
  8
0
  9
$CELTYPE
  6
CONTINUOUS
  9
$CECOLOR
 62
             256
  9
$CELTSCALE
 40
1.0
  9
$DELOBJ
 70
               1
  9
$DISPSILH
 70
               0
  9
$DIMSCALE
 40
1.0
  9
$DIMASZ
 40
2.5
  9
$DIMEXO
 40
1.5
  9
$DIMDLI
 40
3.75
  9
$DIMRND
 40
0.0
  9
$DIMDLE
 40
0.0
  9
$DIMEXE
 40
1.5
  9
$DIMTP
 40
0.0
  9
$DIMTM
 40
0.0
  9
$DIMTXT
 40
3.2000000476837158
  9
$DIMCEN
 40
2.5
  9
$DIMTSZ
 40
0.0
  9
$DIMTOL
 70
               0
  9
$DIMLIM
 70
               0
  9
$DIMTIH
 70
               0
  9
$DIMTOH
 70
               0
  9
$DIMSE1
 70
               0
  9
$DIMSE2
 70
               0
  9
$DIMTAD
 70
               1
  9
$DIMZIN
 70
               8
  9
$DIMBLK
  1

  9
$DIMASO
 70
               1
  9
$DIMSHO
 70
               1
  9
$DIMPOST
  1

  9
$DIMAPOST
  1

  9
$DIMALT
 70
               0
  9
$DIMALTD
 70
               4
  9
$DIMALTF
 40
0.03937007874016
  9
$DIMLFAC
 40
1.0
  9
$DIMTOFL
 70
               1
  9
$DIMTVP
 40
0.0
  9
$DIMTIX
 70
               0
  9
$DIMSOXD
 70
               0
  9
$DIMSAH
 70
               1
  9
$DIMBLK1
  1
_OPEN30
  9
$DIMBLK2
  1
_OPEN30
  9
$DIMSTYLE
  2
MXDIMSTYLE
  9
$DIMCLRD
 70
               0
  9
$DIMCLRE
 70
               0
  9
$DIMCLRT
 70
               0
  9
$DIMTFAC
 40
1.0
  9
$DIMGAP
 40
1.0
  9
$DIMJUST
 70
               0
  9
$DIMSD1
 70
               0
  9
$DIMSD2
 70
               0
  9
$DIMTOLJ
 70
               0
  9
$DIMTZIN
 70
               0
  9
$DIMALTZ
 70
               0
  9
$DIMALTTZ
 70
               0
  9
$DIMFIT
 70
               3
  9
$DIMUPT
 70
               1
  9
$DIMUNIT
 70
               2
  9
$DIMDEC
 70
               2
  9
$DIMTDEC
 70
               2
  9
$DIMALTU
 70
               2
  9
$DIMALTTD
 70
               4
  9
$DIMTXSTY
  7
MX_NOTE_STANDARD
  9
$DIMAUNIT
 70
               0
  9
$LUNITS
 70
               2
  9
$LUPREC
 70
               4
  9
$SKETCHINC
 40
0.1
  9
$FILLETRAD
 40
0.0
  9
$AUNITS
 70
               0
  9
$AUPREC
 70
               0
  9
$MENU
  1
acad
  9
$ELEVATION
 40
0.0
  9
$PELEVATION
 40
0.0
  9
$THICKNESS
 40
0.0
  9
$LIMCHECK
 70
               0
  9
$BLIPMODE
 70
               1
  9
$CHAMFERA
 40
0.0
  9
$CHAMFERB
 40
0.0
  9
$CHAMFERC
 40
0.0
  9
$CHAMFERD
 40
0.0
  9
$SKPOLY
 70
               0
  9
$TDCREATE
 40
2454085.536608796
  9
$TDUPDATE
 40
2454085.536608796
  9
$TDINDWG
 40
0.0000000000
  9
$TDUSRTIMER
 40
0.0000000000
  9
$USRTIMER
 70
               1
  9
$ANGBASE
 50
0.0
  9
$ANGDIR
 70
               0
  9
$PDMODE
 70
               0
  9
$PDSIZE
 40
0.0
  9
$PLINEWID
 40
0.0
  9
$COORDS
 70
               1
  9
$SPLFRAME
 70
               0
  9
$SPLINETYPE
 70
               6
  9
$SPLINESEGS
 70
               8
  9
$ATTDIA
 70
               0
  9
$ATTREQ
 70
               1
  9
$HANDLING
 70
               1
  9
$HANDSEED
  5
EA
  9
$SURFTAB1
 70
               6
  9
$SURFTAB2
 70
               6
  9
$SURFTYPE
 70
               6
  9
$SURFU
 70
               6
  9
$SURFV
 70
               6
  9
$UCSNAME
  2

  9
$UCSORG
 10
0.0
 20
0.0
 30
0.0
  9
$UCSXDIR
 10
1.0
 20
0.0
 30
0.0
  9
$UCSYDIR
 10
0.0
 20
1.0
 30
0.0
  9
$PUCSNAME
  2

  9
$PUCSORG
 10
0.0
 20
0.0
 30
0.0
  9
$PUCSXDIR
 10
1.0
 20
0.0
 30
0.0
  9
$PUCSYDIR
 10
0.0
 20
1.0
 30
0.0
  9
$USERI1
 70
               0
  9
$USERI2
 70
               0
  9
$USERI3
 70
               0
  9
$USERI4
 70
               0
  9
$USERI5
 70
               0
  9
$USERR1
 40
0.0
  9
$USERR2
 40
0.0
  9
$USERR3
 40
0.0
  9
$USERR4
 40
0.0
  9
$USERR5
 40
0.0
  9
$WORLDVIEW
 70
               1
  9
$SHADEDGE
 70
               3
  9
$SHADEDIF
 70
              70
  9
$TILEMODE
 70
               1
  9
$MAXACTVP
 70
              16
  9
$PINSBASE
 10
0.0
 20
0.0
 30
0.0
  9
$PLIMCHECK
 70
               0
  9
$PEXTMIN
 10
1.0000000000000000E+20
 20
1.0000000000000000E+20
 30
1.0000000000000000E+20
  9
$PEXTMAX
 10
-1.0000000000000000E+20
 20
-1.0000000000000000E+20
 30
-1.0000000000000000E+20
  9
$PLIMMIN
 10
0.0
 20
0.0
  9
$PLIMMAX
 10
12.0
 20
9.0
  9
$UNITMODE
 70
               0
  9
$VISRETAIN
 70
               0
  9
$PLINEGEN
 70
               1
  9
$PSLTSCALE
 70
               0
  9
$TREEDEPTH
 70
            3020
  9
$PICKSTYLE
 70
               1
  9
$CMLSTYLE
  2
Standard
  9
$CMLJUST
 70
               0
  9
$CMLSCALE
 40
1.0
  9
$SAVEIMAGES
 70
               0
  0
ENDSEC
  0
SECTION
  2
CLASSES
  0
CLASS
  1
LWPOLYLINE
  2
AcDbPolyline
  3
"AutoCAD"
 90
    32768
280
               0
281
               1
  0
CLASS
  1
IMAGE
  2
AcDbRasterImage
  3
ISM
 90
    32895
280
               0
281
               1
  0
CLASS
  1
OLE2FRAME
  2
AcDbOle2Frame
  3
""
 90
    32768
280
               0
281
               1
  0
CLASS
  1
HATCH
  2
AcDbHatch
  3
"ACAD_SEDONA"
 90
    32768
280
               0
281
               1
  0
CLASS
  1
DICTIONARYVAR
  2
AcDbDictionaryVar
  3
"AutoCAD"
 90
    32768
280
               0
281
               0
  0
CLASS
  1
RASTERVARIABLES
  2
AcDbRasterVariables
  3
ISM
 90
    32768
280
               0
281
               0
  0
CLASS
  1
IMAGEDEF
  2
AcDbRasterImageDef
  3
ISM
 90
    32768
280
               0
281
               0
  0
CLASS
  1
IMAGEDEF_REACTOR
  2
AcDbRasterImageDefReactor
  3
ISM
 90
    32769
280
               0
281
               0
  0
CLASS
  1
IDBUFFER
  2
AcDbIdBuffer
  3
"Acad"
 90
    32768
280
               0
281
               0
  0
CLASS
  1
SPATIAL_FILTER
  2
AcDbSpatialFilter
  3
"Acad"
 90
    32768
280
               0
281
               0
  0
CLASS
  1
XRECORD
  2
AcDbXrecord
  3
"<Built In>"
 90
    32768
280
               0
281
               0
  0
CLASS
  1
SORTENTSTABLE
  2
AcDbSortentsTable
  3
"AutoCAD"
 90
    32768
280
               0
281
               0
  0
CLASS
  1
LAYER_INDEX
  2
AcDbLayerIndex
  3
"Acad"
 90
    32768
280
               0
281
               0
  0
CLASS
  1
SPATIAL_INDEX
  2
AcDbSpatialIndex
  3
"Acad"
 90
    32768
280
               0
281
               0
  0
CLASS
  1
OBJECT_PTR
  2
CAseDLPNTableRecord
  3
"ASE-LPNTableRecord"
 90
    32769
280
               0
281
               0
  0
CLASS
  1
LAYOUT
  2
AcDbLayout
  3
"AutoCAD 2000"
 90
    32768
280
               0
281
               0
  0
CLASS
  1
PLOTSETTINGS
  2
AcDbPlotSettings
  3
"AutoCAD 2000"
 90
    32768
280
               0
281
               0
  0
CLASS
  1
ACDBDICTIONARYWDFLT
  2
AcDbDictionaryWithDefault
  3
"AutoCAD 2000"
 90
    32768
280
               0
281
               0
  0
CLASS
  1
ACDBPLACEHOLDER
  2
AcDbPlaceHolder
  3
"AutoCAD 2000"
 90
    32768
280
               0
281
               0
  0
ENDSEC
  0
SECTION
  2
TABLES
  0
TABLE
  2
VPORT
  5
7
100
AcDbSymbolTable
 70
               1
  0
VPORT
  5
15
100
AcDbSymbolTableRecord
100
AcDbViewportTableRecord
  2
*ACTIVE
 70
               0
 10
0.0
 20
0.0
 11
1.0
 21
1.0
 12
0.0
 22
0.0
 13
0.0
 23
0.0
 14
1.0
 24
1.0
 15
0.0
 25
0.0
 16
0.0
 26
0.0
 36
1.0
 17
0.0
 27
0.0
 37
0.0
 40
212.10000000000002
 41
1.7320508075688772
 42
50.0
 43
0.0
 44
0.0
 50
0.0
 51
0.0
 71
               0
 72
             100
 73
               1
 74
               1
 75
               0
 76
               0
 77
               0
 78
               0
  0
ENDTAB
  0
TABLE
  2
LTYPE
  5
4
100
AcDbSymbolTable
 70
               6
  0
LTYPE
  5
11
100
AcDbSymbolTableRecord
100
AcDbLinetypeTableRecord
  2
BYBLOCK
 70
              64
  3

 72
              65
 73
               0
 40
0.0
  0
LTYPE
  5
12
100
AcDbSymbolTableRecord
100
AcDbLinetypeTableRecord
  2
BYLAYER
 70
              64
  3

 72
              65
 73
               0
 40
0.0
  0
LTYPE
  5
13
100
AcDbSymbolTableRecord
100
AcDbLinetypeTableRecord
  2
CONTINUOUS
 70
              64
  3
Solid line
 72
              65
 73
               0
 40
0.0
  0
LTYPE
  5
35
100
AcDbSymbolTableRecord
100
AcDbLinetypeTableRecord
  2
NON_PLOTING
 70
               0
  3
Solid line
 72
              65
 73
               0
 40
0.0
  0
LTYPE
  5
4F
100
AcDbSymbolTableRecord
100
AcDbLinetypeTableRecord
  2
CENTER
 70
              64
  3
Center ____ _ ____ _ ____ _ ____ _ ____ _ ____
 72
              65
 73
               4
 40
50.800000000000004
 49
31.75
 74
               0
 49
-6.3499999999999996
 74
               0
 49
6.3499999999999996
 74
               0
 49
-6.3499999999999996
 74
               0
  0
LTYPE
  5
C9
100
AcDbSymbolTableRecord
100
AcDbLinetypeTableRecord
  2
DASHED
 70
              64
  3
Dashed __ __ __ __ __ __ __ __ __ __ __ __ __ _
 72
              65
 73
               2
 40
19.049999999999997
 49
12.699999999999999
 74
               0
 49
-6.3499999999999996
 74
               0
  0
ENDTAB
  0
TABLE
  2
LAYER
  5
2
100
AcDbSymbolTable
 70
               2
  0
LAYER
  5
14
100
AcDbSymbolTableRecord
100
AcDbLayerTableRecord
  2
0
 70
               0
 62
               7
  6
CONTINUOUS
  0
LAYER
  5
1D
100
AcDbSymbolTableRecord
100
AcDbLayerTableRecord
  2
DEFPOINTS
 70
               0
 62
               7
  6
CONTINUOUS
  0
ENDTAB
  0
TABLE
  2
STYLE
  5
3
100
AcDbSymbolTable
 70
               1
  0
STYLE
  5
17
100
AcDbSymbolTableRecord
100
AcDbTextStyleTableRecord
  2
MX_NOTE_STANDARD
 70
               0
 40
0.0
 41
1.0
 50
0.0
 71
               0
 42
3.2000000476837158
  3
txt.shx
  4
extfont.shx
  0
ENDTAB
  0
TABLE
  2
VIEW
  5
5
100
AcDbSymbolTable
 70
               0
  0
ENDTAB
  0
TABLE
  2
UCS
  5
6
100
AcDbSymbolTable
 70
               0
  0
ENDTAB
  0
TABLE
  2
APPID
  5
8
100
AcDbSymbolTable
 70
               1
  0
APPID
  5
16
100
AcDbSymbolTableRecord
100
AcDbRegAppTableRecord
  2
ACAD
 70
               0
  0
ENDTAB
  0
TABLE
  2
DIMSTYLE
  5
9
100
AcDbSymbolTable
 70
               1
  0
DIMSTYLE
105
18
100
AcDbSymbolTableRecord
100
AcDbDimStyleTableRecord
  2
MXDIMSTYLE
 70
               0
  3

  4

  5

  6
_OPEN30
  7
_OPEN30
 40
1.0
 41
2.5
 42
1.5
 43
3.75
 44
1.5
 45
0.0
 46
0.0
 47
0.0
 48
0.0
 71
               0
 72
               0
 73
               0
 74
               0
 75
               0
 76
               0
 77
               1
 78
               8
140
3.2000000476837158
141
2.5
142
0.0
143
0.03937007874016
144
1.0
145
0.0
146
1.0
147
1.0
170
               0
171
               4
172
               1
173
               1
174
               0
175
               0
176
               0
177
               0
178
               0
270
               2
271
               2
272
               2
273
               2
274
               4
275
               0
280
               0
281
               0
282
               0
283
               0
284
               0
285
               0
286
               0
287
               3
288
               1
340
17
  0
ENDTAB
  0
TABLE
  2
BLOCK_RECORD
  5
1
100
AcDbSymbolTable
 70
               4
  0
BLOCK_RECORD
  5
A
100
AcDbSymbolTableRecord
100
AcDbBlockTableRecord
  2
*MODEL_SPACE
  0
BLOCK_RECORD
  5
B
100
AcDbSymbolTableRecord
100
AcDbBlockTableRecord
  2
*PAPER_SPACE
  0
BLOCK_RECORD
  5
1E
100
AcDbSymbolTableRecord
100
AcDbBlockTableRecord
  2
34F-1
  0
BLOCK_RECORD
  5
1F
100
AcDbSymbolTableRecord
100
AcDbBlockTableRecord
  2
34F-2
  0
BLOCK_RECORD
  5
20
100
AcDbSymbolTableRecord
100
AcDbBlockTableRecord
  2
34F-3
  0
BLOCK_RECORD
  5
21
100
AcDbSymbolTableRecord
100
AcDbBlockTableRecord
  2
_OPEN30
  0
ENDTAB
  0
ENDSEC
  0
SECTION
  2
BLOCKS
  0
BLOCK
  5
D
100
AcDbEntity
  8
0
100
AcDbBlockBegin
  2
*MODEL_SPACE
 70
               0
 10
0.0
 20
0.0
 30
0.0
  3
*MODEL_SPACE
  1

  0
ENDBLK
  5
E
100
AcDbEntity
  8
0
100
AcDbBlockEnd
  0
BLOCK
  5
F
100
AcDbEntity
 67
               1
  8
0
100
AcDbBlockBegin
  2
*PAPER_SPACE
 70
               0
 10
0.0
 20
0.0
 30
0.0
  3
*PAPER_SPACE
  1

  0
ENDBLK
  5
10
100
AcDbEntity
 67
               1
  8
0
100
AcDbBlockEnd
  0
BLOCK
  5
27
100
AcDbEntity
  8
0
100
AcDbBlockBegin
  2
34F-1
 70
               0
 10
0.0
 20
0.0
 30
0.0
  3
34F-1
  1

  0
CIRCLE
  5
28
100
AcDbEntity
  8
0
  6
CONTINUOUS
 62
               7
100
AcDbCircle
 10
3.7164725878843683
 20
28.999999999999893
 30
0.0
 40
3.0009999999999999
  0
CIRCLE
  5
29
100
AcDbEntity
  8
0
  6
CONTINUOUS
 62
               7
100
AcDbCircle
 10
3.7164725878843683
 20
28.999999999999893
 30
0.0
 40
2.5010000000000554
  0
ARC
  5
2A
100
AcDbEntity
  8
0
  6
CONTINUOUS
 62
               7
100
AcDbCircle
 10
-66.783527412115632
 20
4.9999999999998934
 30
0.0
 40
2.0
100
AcDbArc
 50
180.0
 51
269.99999999999994
  0
ARC
  5
2B
100
AcDbEntity
  8
0
  6
CONTINUOUS
 62
               7
100
AcDbCircle
 10
9.2164725878843683
 20
4.9999999999998934
 30
0.0
 40
2.0
100
AcDbArc
 50
270.00000000000324
 51
0.0
  0
ARC
  5
2C
100
AcDbEntity
  8
0
  6
CONTINUOUS
 62
               7
100
AcDbCircle
 10
-9.7836057750117078
 20
16.965168233039535
 30
0.0
 40
6.0000783634078001
100
AcDbArc
 50
270.00074830076272
 51
359.99925169923648
  0
ARC
  5
2D
100
AcDbEntity
  8
0
  6
CONTINUOUS
 62
               7
100
AcDbCircle
 10
8.7076372579095249
 20
36.782177930754344
 30
0.0
 40
2.0
100
AcDbArc
 50
12.581396799399243
 51
101.8687587770537
  0
ARC
  5
2E
100
AcDbEntity
  8
0
  6
CONTINUOUS
 62
               7
100
AcDbCircle
 10
-9.9460787950833378
 20
16.698183479348714
 30
0.0
 40
6.0
100
AcDbArc
 50
27.428303884066629
 51
87.0
  0
ARC
  5
2F
100
AcDbEntity
  8
0
  6
CONTINUOUS
 62
               7
100
AcDbCircle
 10
0.704976484673935
 20
22.225843149367719
 30
0.0
 40
6.0000000000000009
100
AcDbArc
 50
207.42830388406637
 51
281.99999999999994
  0
ARC
  5
30
100
AcDbEntity
  8
0
  6
CONTINUOUS
 62
               7
100
AcDbCircle
 10
-73.438271912718776
 20
22.732382568836059
 30
0.0
 40
2.0
100
AcDbArc
 50
100.5957843835449
 51
187.81946176883903
  0
ARC
  5
31
100
AcDbEntity
  8
0
  6
CONTINUOUS
 62
               7
100
AcDbCircle
 10
-66.329901014289291
 20
14.646272659357493
 30
0.0
 40
6.0
100
AcDbArc
 50
200.49824907487852
 51
267.0
  0
ARC
  5
32
100
AcDbEntity
  8
0
  6
CONTINUOUS
 62
               7
100
AcDbCircle
 10
-38.668700316803417
 20
13.196610558499749
 30
0.0
 40
6.0
100
AcDbArc
 50
267.00000000000006
 51
356.99999999999983
  0
ARC
  5
33
100
AcDbEntity
  8
0
  6
CONTINUOUS
 62
               7
100
AcDbCircle
 10
-26.423466118533796
 20
17.561726757357292
 30
0.0
 40
6.0000000000000036
100
AcDbArc
 50
87.000000000000142
 51
177.0
  0
ARC
  5
34
100
AcDbEntity
  8
0
  6
CONTINUOUS
 62
               7
100
AcDbCircle
 10
3.7164725878843683
 20
28.999999999999893
 30
0.0
 40
4.5
100
AcDbArc
 50
306.58551965393195
 51
233.40665436163775
  0
LINE
  5
36
100
AcDbEntity
  8
DEFPOINTS
  6
NON_PLOTING
 62
               7
100
AcDbLine
 10
-9.7835274121156317
 20
10.999999999999901
 30
0.0
 11
-9.7835274121156317
 21
11.034910129856335
 31
0.0
  0
LINE
  5
37
100
AcDbEntity
  8
0
  6
CONTINUOUS
 62
               7
100
AcDbLine
 10
-56.783527412115632
 20
0.0
 30
0.0
 11
6.0745091373718623
 21
0.0
 31
0.0
  0
LINE
  5
38
100
AcDbEntity
  8
0
  6
CONTINUOUS
 62
               7
100
AcDbLine
 10
-56.783527412115632
 20
0.0
 30
0.0
 11
-56.783527412115632
 21
2.9650898701434372
 31
0.0
  0
LINE
  5
39
100
AcDbEntity
  8
0
  6
CONTINUOUS
 62
               7
100
AcDbLine
 10
-69.858253216423833
 20
25.361493246130053
 30
0.0
 11
-70.515196768436823
 21
28.452169661157924
 31
0.0
  0
LINE
  5
3A
100
AcDbEntity
  8
0
  6
CONTINUOUS
 62
               7
100
AcDbLine
 10
6.0745091373718765
 20
2.9650898701434372
 30
0.0
 11
6.0745091373718765
 21
0.0
 31
0.0
  0
LINE
  5
3B
100
AcDbEntity
  8
0
  6
CONTINUOUS
 62
               7
100
AcDbLine
 10
-4.1582795059646571
 20
39.594256909307845
 30
0.0
 11
-3.5457198569084625
 21
36.712390340506722
 31
0.0
  0
LINE
  5
3C
100
AcDbEntity
  8
DEFPOINTS
  6
NON_PLOTING
 62
               7
100
AcDbLine
 10
-9.7835274121156317
 20
10.965089870143458
 30
0.0
 11
-9.7835274121156317
 21
10.999999999999893
 31
0.0
  0
LINE
  5
3D
100
AcDbEntity
  8
0
  6
CONTINUOUS
 62
               7
100
AcDbLine
 10
11.216472587884368
 20
18.32608704988381
 30
0.0
 11
11.216472587884255
 21
4.9999999999998934
 31
0.0
  0
LINE
  5
3E
100
AcDbEntity
  8
0
  6
CONTINUOUS
 62
               7
100
AcDbLine
 10
-68.783527412115632
 20
9.170898927831054
 30
0.0
 11
-68.783527412115632
 21
4.9999999999998934
 31
0.0
  0
LINE
  5
3F
100
AcDbEntity
  8
0
  6
CONTINUOUS
 62
               7
100
AcDbLine
 10
-66.783527412115632
 20
2.9650898701434585
 30
0.0
 11
-66.783527412115632
 21
2.9999999999998934
 31
0.0
  0
LINE
  5
40
100
AcDbEntity
  8
0
  6
CONTINUOUS
 62
               7
100
AcDbLine
 10
9.2164725878843683
 20
2.9650898938742287
 30
0.0
 11
-66.783527412115632
 21
2.9650898701434585
 31
0.0
  0
LINE
  5
41
100
AcDbEntity
  8
0
  6
CONTINUOUS
 62
               7
100
AcDbLine
 10
9.216472587884482
 20
3.0000000237306708
 30
0.0
 11
9.2164725878843683
 21
2.9650898938742287
 31
0.0
  0
LINE
  5
42
100
AcDbEntity
  8
0
  6
CONTINUOUS
 62
               7
100
AcDbLine
 10
-3.7835274121156317
 20
16.965089870143458
 30
0.0
 11
-3.7835274121156317
 21
18.244218761193352
 31
0.0
  0
LINE
  5
43
100
AcDbEntity
  8
0
  6
CONTINUOUS
 62
               7
100
AcDbLine
 10
-25.783527412115632
 20
10.965089870143458
 30
0.0
 11
-9.7835274121156317
 21
10.965089870143458
 31
0.0
  0
LINE
  5
44
100
AcDbEntity
  8
0
  6
CONTINUOUS
 62
               7
100
AcDbLine
 10
-73.734394134226648
 20
11.003799178887334
 30
0.0
 11
-71.778098932759036
 21
11.419622560522811
 31
0.0
  0
LINE
  5
45
100
AcDbEntity
  8
0
  6
CONTINUOUS
 62
               7
100
AcDbLine
 10
14.525667488868422
 20
19.029478139932962
 30
0.0
 11
10.65948232960011
 21
37.218449249046955
 31
0.0
  0
LINE
  5
46
100
AcDbEntity
  8
0
  6
CONTINUOUS
 62
               7
100
AcDbLine
 10
-73.734394134226648
 20
11.003799178887334
 30
0.0
 11
-75.424880403002959
 21
22.459171998483846
 31
0.0
  0
LINE
  5
47
100
AcDbEntity
  8
0
  6
CONTINUOUS
 62
               7
100
AcDbLine
 10
-9.632063057625686
 20
22.689960687876159
 30
0.0
 11
-26.109450381076144
 21
23.553503965884715
 31
0.0
  0
LINE
  5
48
100
AcDbEntity
  8
0
  6
CONTINUOUS
 62
               7
100
AcDbLine
 10
14.525667488868422
 20
19.029478139932962
 30
0.0
 11
1.9524466295804928
 21
16.356957544964878
 31
0.0
  0
LINE
  5
49
100
AcDbEntity
  8
0
  6
CONTINUOUS
 62
               7
100
AcDbLine
 10
-73.804163817616569
 20
24.686060972491518
 30
0.0
 11
8.2962960362994096
 21
38.739420480722103
 31
0.0
  0
LINE
  5
4A
100
AcDbEntity
  8
0
  6
CONTINUOUS
 62
               7
100
AcDbLine
 10
-71.778098932759036
 20
11.419622560522811
 30
0.0
 11
-73.806029971284957
 21
24.698280330765613
 31
0.0
  0
LINE
  5
4B
100
AcDbEntity
  8
0
  6
CONTINUOUS
 62
               7
100
AcDbLine
 10
-38.982716054261068
 20
7.2048333499723043
 30
0.0
 11
-66.643916751746957
 21
8.6544954508300336
 31
0.0
  0
LINE
  5
4C
100
AcDbEntity
  8
0
  6
CONTINUOUS
 62
               7
100
AcDbLine
 10
-32.415243327061233
 20
17.875742494814951
 30
0.0
 11
-32.676923108275986
 21
12.882594821042076
 31
0.0
  0
LINE
  5
4D
100
AcDbEntity
  8
0
  6
CONTINUOUS
 62
               7
100
AcDbLine
 10
1.0338802470095771
 20
25.387009779603503
 30
0.0
 11
1.5722131750154915
 21
26.900439910285094
 31
0.0
  0
LINE
  5
4E
100
AcDbEntity
  8
0
  6
CONTINUOUS
 62
               7
100
AcDbLine
 10
5.8604452035282293
 20
26.900147047203149
 30
0.0
 11
6.3985714083090386
 21
25.386643400177974
 31
0.0
  0
LINE
  5
50
100
AcDbEntity
  8
0
  6
CENTER
 62
               2
100
AcDbLine
 10
3.7164725878843683
 20
23.999999999999886
 30
0.0
 11
3.7164725878843683
 21
33.999999999999886
 31
0.0
  0
LINE
  5
51
100
AcDbEntity
  8
0
  6
CENTER
 62
               2
100
AcDbLine
 10
8.7164725878843683
 20
28.999999999999893
 30
0.0
 11
-1.2835274121156317
 21
28.999999999999893
 31
0.0
  0
LINE
  5
52
100
AcDbEntity
  8
0
  6
CONTINUOUS
 62
               7
100
AcDbLine
 10
-4.1582795059646713
 20
39.594256909307838
 30
0.0
 11
-70.507923414028255
 21
28.417951219010462
 31
0.0
  0
LINE
  5
53
100
AcDbEntity
  8
0
  6
CONTINUOUS
 62
               7
100
AcDbLine
 10
-31.761751961453164
 20
16.93280546946653
 30
0.0
 11
-31.761751961453164
 21
20.300833228323079
 31
0.0
  0
ARC
  5
54
100
AcDbEntity
  8
0
  6
CONTINUOUS
 62
               7
100
AcDbCircle
 10
-25.794036362130093
 20
16.93280546946653
 30
0.0
 40
5.9677155993230713
100
AcDbArc
 50
180.0
 51
270.10089587054313
  0
LINE
  5
55
100
AcDbEntity
  8
0
  6
CENTER
 62
               2
100
AcDbLine
 10
0.0
 20
-5.6506668125981321
 30
0.0
 11
0.0
 21
5.878856736488224
 31
0.0
  0
ENDBLK
  5
56
100
AcDbEntity
  8
0
100
AcDbBlockEnd
  0
BLOCK
  5
57
100
AcDbEntity
  8
0
100
AcDbBlockBegin
  2
34F-2
 70
               0
 10
0.0
 20
0.0
 30
0.0
  3
34F-2
  1

  0
ARC
  5
58
100
AcDbEntity
  8
0
  6
CONTINUOUS
 62
               7
100
AcDbCircle
 10
19.49999999252779
 20
15.499999976269116
 30
0.0
 40
6.0
100
AcDbArc
 50
270.0
 51
0.0
  0
ARC
  5
59
100
AcDbEntity
  8
0
  6
CONTINUOUS
 62
               7
100
AcDbCircle
 10
-5.5000000074722095
 20
16.499999976269109
 30
0.0
 40
9.0
100
AcDbArc
 50
231.05755873101853
 51
308.94244126898133
  0
ARC
  5
5A
100
AcDbEntity
  8
0
  6
CONTINUOUS
 62
               7
100
AcDbCircle
 10
-19.50000000747221
 20
15.499999976269109
 30
0.0
 40
6.0
100
AcDbArc
 50
179.99999977338777
 51
270.0
  0
LINE
  5
5B
100
AcDbEntity
  8
0
  6
CONTINUOUS
 62
               7
100
AcDbLine
 10
25.142700748588652
 20
13.460409777834577
 30
0.0
 11
-25.142700763533057
 21
13.46040977783457
 31
0.0
  0
LINE
  5
5C
100
AcDbEntity
  8
0
  6
CONTINUOUS
 62
               7
100
AcDbLine
 10
34.499999999999972
 20
4.9999999999999076
 30
0.0
 11
31.999999999999972
 21
4.9999999999999076
 31
0.0
  0
LINE
  5
5D
100
AcDbEntity
  8
0
  6
CONTINUOUS
 62
               7
100
AcDbLine
 10
-34.500000000000028
 20
4.9999999999999005
 30
0.0
 11
-34.500000000000028
 21
37.443804577189752
 31
0.0
  0
LINE
  5
5E
100
AcDbEntity
  8
0
  6
CONTINUOUS
 62
               7
100
AcDbLine
 10
-34.500000000000028
 20
4.9999999999999005
 30
0.0
 11
-32.000000000000028
 21
4.9999999999999005
 31
0.0
  0
LINE
  5
5F
100
AcDbEntity
  8
DEFPOINTS
  6
NON_PLOTING
 62
               7
100
AcDbLine
 10
34.499999999999972
 20
10.999999999999893
 30
0.0
 11
31.999999999999972
 21
10.999999999999893
 31
0.0
  0
LINE
  5
60
100
AcDbEntity
  8
DEFPOINTS
  6
NON_PLOTING
 62
               7
100
AcDbLine
 10
34.499999999999972
 20
15.999999999999908
 30
0.0
 11
31.999999999999972
 21
15.999999999999908
 31
0.0
  0
LINE
  5
61
100
AcDbEntity
  8
DEFPOINTS
  6
NON_PLOTING
 62
               7
100
AcDbLine
 10
-34.500000000000028
 20
15.999999999999901
 30
0.0
 11
-32.000000000000028
 21
15.999999999999901
 31
0.0
  0
LINE
  5
62
100
AcDbEntity
  8
0
  6
CONTINUOUS
 62
               7
100
AcDbLine
 10
-28.000000000000028
 20
-0.0000000000000071
 30
0.0
 11
28.0
 21
0.0
 31
0.0
  0
LINE
  5
63
100
AcDbEntity
  8
0
  6
CONTINUOUS
 62
               7
100
AcDbLine
 10
-28.000000000000028
 20
-0.0000000000000071
 30
0.0
 11
-28.000000000000028
 21
2.9999999999998863
 31
0.0
  0
LINE
  5
64
100
AcDbEntity
  8
0
  6
CONTINUOUS
 62
               7
100
AcDbLine
 10
28.0
 20
2.9999999999998863
 30
0.0
 11
28.0
 21
0.0
 31
0.0
  0
LINE
  5
65
100
AcDbEntity
  8
0
  6
CONTINUOUS
 62
               7
100
AcDbLine
 10
37.0
 20
31.500999999999863
 30
0.0
 11
37.0
 21
26.498999999999917
 31
0.0
  0
LINE
  5
66
100
AcDbEntity
  8
0
  6
CONTINUOUS
 62
               7
100
AcDbLine
 10
37.0
 20
31.500999999999859
 30
0.0
 11
36.500000000000028
 21
32.000999999999884
 31
0.0
  0
LINE
  5
67
100
AcDbEntity
  8
0
  6
CONTINUOUS
 62
               7
100
AcDbLine
 10
36.500000000000028
 20
25.998999999999889
 30
0.0
 11
37.0
 21
26.498999999999917
 31
0.0
  0
LINE
  5
68
100
AcDbEntity
  8
0
  6
CONTINUOUS
 62
               7
100
AcDbLine
 10
-37.000000000000028
 20
26.498999999999832
 30
0.0
 11
-37.000000000000028
 21
31.500999999999941
 31
0.0
  0
LINE
  5
69
100
AcDbEntity
  8
0
  6
CONTINUOUS
 62
               7
100
AcDbLine
 10
-37.000000000000028
 20
26.498999999999832
 30
0.0
 11
-36.500000000000028
 21
25.998999999999889
 31
0.0
  0
LINE
  5
6A
100
AcDbEntity
  8
0
  6
CONTINUOUS
 62
               7
100
AcDbLine
 10
-36.500000000000028
 20
32.000999999999884
 30
0.0
 11
-37.000000000000028
 21
31.500999999999941
 31
0.0
  0
LINE
  5
6B
100
AcDbEntity
  8
0
  6
CONTINUOUS
 62
               7
100
AcDbLine
 10
36.500000000000028
 20
32.000999999999884
 30
0.0
 11
34.500000000000028
 21
32.000999999999884
 31
0.0
  0
LINE
  5
6C
100
AcDbEntity
  8
0
  6
CONTINUOUS
 62
               7
100
AcDbLine
 10
34.500000000000028
 20
25.998999999999889
 30
0.0
 11
36.500000000000028
 21
25.998999999999889
 31
0.0
  0
LINE
  5
6D
100
AcDbEntity
  8
0
  6
CONTINUOUS
 62
               7
100
AcDbLine
 10
36.500000000000028
 20
25.998999999999889
 30
0.0
 11
36.500000000000028
 21
32.000999999999891
 31
0.0
  0
LINE
  5
6E
100
AcDbEntity
  8
0
  6
CONTINUOUS
 62
               7
100
AcDbLine
 10
-36.500000000000028
 20
25.998999999999889
 30
0.0
 11
-35.10000000000008
 21
25.998999999999889
 31
0.0
  0
LINE
  5
6F
100
AcDbEntity
  8
0
  6
CONTINUOUS
 62
               7
100
AcDbLine
 10
-35.10000000000008
 20
32.000999999999884
 30
0.0
 11
-36.500000000000028
 21
32.000999999999884
 31
0.0
  0
LINE
  5
70
100
AcDbEntity
  8
0
  6
CONTINUOUS
 62
               7
100
AcDbLine
 10
-36.500000000000028
 20
32.000999999999884
 30
0.0
 11
-36.500000000000028
 21
25.998999999999889
 31
0.0
  0
LINE
  5
71
100
AcDbEntity
  8
0
  6
CONTINUOUS
 62
               7
100
AcDbLine
 10
25.499999992527847
 20
15.703004788578014
 30
0.0
 11
-25.500000007472096
 21
15.703004788578006
 31
0.0
  0
LINE
  5
72
100
AcDbEntity
  8
0
  6
CONTINUOUS
 62
               7
100
AcDbLine
 10
-35.10000000000008
 20
25.386643400177967
 30
0.0
 11
-35.10000000000008
 21
33.499999999999886
 31
0.0
  0
LINE
  5
73
100
AcDbEntity
  8
0
  6
CONTINUOUS
 62
               7
100
AcDbLine
 10
-35.10000000000008
 20
25.386643400177967
 30
0.0
 11
-34.500000000000028
 21
25.386643400177967
 31
0.0
  0
LINE
  5
74
100
AcDbEntity
  8
0
  6
CONTINUOUS
 62
               7
100
AcDbLine
 10
-34.500000000000028
 20
33.499999999999886
 30
0.0
 11
-35.10000000000008
 21
33.499999999999886
 31
0.0
  0
LINE
  5
75
100
AcDbEntity
  8
0
  6
CONTINUOUS
 62
               7
100
AcDbLine
 10
32.5
 20
39.443804577189759
 30
0.0
 11
-32.500000000000028
 21
39.443804577189752
 31
0.0
  0
LINE
  5
76
100
AcDbEntity
  8
0
  6
CONTINUOUS
 62
               7
100
AcDbLine
 10
32.000000000000028
 20
3.0000000237315732
 30
0.0
 11
-31.999999999999801
 21
3.0000000237306637
 31
0.0
  0
LINE
  5
77
100
AcDbEntity
  8
0
  6
CONTINUOUS
 62
               7
100
AcDbLine
 10
-32.000000000000028
 20
3.0000000237306637
 30
0.0
 11
-32.000000000000028
 21
19.091213854775297
 31
0.0
  0
LINE
  5
78
100
AcDbEntity
  8
0
  6
CONTINUOUS
 62
               7
100
AcDbLine
 10
32.000000000000028
 20
2.9999999999998934
 30
0.0
 11
32.000000000000028
 21
19.091213854775255
 31
0.0
  0
LINE
  5
79
100
AcDbEntity
  8
0
  6
CONTINUOUS
 62
               7
100
AcDbLine
 10
0.1568542420201737
 20
9.499999976269109
 30
0.0
 11
19.49999999252779
 21
9.4999999762691161
 31
0.0
  0
LINE
  5
7A
100
AcDbEntity
  8
0
  6
CONTINUOUS
 62
               7
100
AcDbLine
 10
-19.50000000747221
 20
9.499999976269109
 30
0.0
 11
-11.156854256964607
 21
9.499999976269109
 31
0.0
  0
LINE
  5
7B
100
AcDbEntity
  8
0
  6
CONTINUOUS
 62
               7
100
AcDbLine
 10
-19.500000007472195
 20
27.568851625423825
 30
0.0
 11
-11.156854256964593
 21
27.568851625423825
 31
0.0
  0
LINE
  5
7C
100
AcDbEntity
  8
0
  6
CONTINUOUS
 62
               7
100
AcDbLine
 10
0.1568542420201879
 20
27.568851625423825
 30
0.0
 11
19.499999992527819
 21
27.568851625423825
 31
0.0
  0
LINE
  5
7D
100
AcDbEntity
  8
0
  6
CONTINUOUS
 62
               7
100
AcDbLine
 10
-11.156854256964593
 20
27.568851625423825
 30
0.0
 11
-11.156854256964593
 21
28.086489715628822
 31
0.0
  0
LINE
  5
7E
100
AcDbEntity
  8
0
  6
CONTINUOUS
 62
               7
100
AcDbLine
 10
0.1568542420201879
 20
27.568851625423825
 30
0.0
 11
0.1568542420201879
 21
28.086489715628826
 31
0.0
  0
LINE
  5
7F
100
AcDbEntity
  8
DEFPOINTS
  6
NON_PLOTING
 62
               7
100
AcDbLine
 10
19.499999992527819
 20
27.568851625423825
 30
0.0
 11
19.499999992527819
 21
28.086489715628826
 31
0.0
  0
LINE
  5
80
100
AcDbEntity
  8
DEFPOINTS
  6
NON_PLOTING
 62
               7
100
AcDbLine
 10
-19.500000007472195
 20
27.568851625423825
 30
0.0
 11
-19.500000007472195
 21
28.086489715628822
 31
0.0
  0
LINE
  5
81
100
AcDbEntity
  8
0
  6
CONTINUOUS
 62
               7
100
AcDbLine
 10
-25.50000000747221
 20
19.091213854775411
 30
0.0
 11
-32.000000000000028
 21
19.091213854775297
 31
0.0
  0
LINE
  5
82
100
AcDbEntity
  8
0
  6
CONTINUOUS
 62
               7
100
AcDbLine
 10
25.49999999252779
 20
15.499999976269109
 30
0.0
 11
25.499999992527819
 21
22.488413504275606
 31
0.0
  0
LINE
  5
83
100
AcDbEntity
  8
0
  6
CONTINUOUS
 62
               7
100
AcDbLine
 10
32.000000000000028
 20
19.091213854775255
 30
0.0
 11
25.499999992527819
 21
19.091213854775411
 31
0.0
  0
LINE
  5
84
100
AcDbEntity
  8
0
  6
CONTINUOUS
 62
               7
100
AcDbLine
 10
-25.50000000747221
 20
15.499999999999886
 30
0.0
 11
-25.500000007472195
 21
22.488413482134369
 31
0.0
  0
LINE
  5
85
100
AcDbEntity
  8
0
  6
CONTINUOUS
 62
               7
100
AcDbLine
 10
34.5
 20
19.608851944980294
 30
0.0
 11
25.499999992527819
 21
19.608851944980408
 31
0.0
  0
LINE
  5
86
100
AcDbEntity
  8
0
  6
CONTINUOUS
 62
               7
100
AcDbLine
 10
34.499999999999972
 20
4.9999999999999076
 30
0.0
 11
34.5
 21
37.443804577189759
 31
0.0
  0
LINE
  5
87
100
AcDbEntity
  8
0
  6
CONTINUOUS
 62
               7
100
AcDbLine
 10
-25.50000000747221
 20
19.608851944980408
 30
0.0
 11
-34.500000000000028
 21
19.608851944980294
 31
0.0
  0
LINE
  5
88
100
AcDbEntity
  8
0
  6
CONTINUOUS
 62
               7
100
AcDbLine
 10
-19.500000007472195
 20
28.086489715628822
 30
0.0
 11
-11.156854256964593
 21
28.086489715628822
 31
0.0
  0
LINE
  5
89
100
AcDbEntity
  8
0
  6
CONTINUOUS
 62
               7
100
AcDbLine
 10
0.1568542420201879
 20
28.086489715628826
 30
0.0
 11
19.499999992527819
 21
28.086489715628826
 31
0.0
  0
LINE
  5
8A
100
AcDbEntity
  8
0
  6
CENTER
 62
               2
100
AcDbLine
 10
38.5
 20
28.99999999999989
 30
0.0
 11
31.5
 21
28.99999999999989
 31
0.0
  0
ARC
  5
8B
100
AcDbEntity
  8
0
  6
CONTINUOUS
 62
               7
100
AcDbCircle
 10
-32.500000000000028
 20
37.443804577189752
 30
0.0
 40
2.0
100
AcDbArc
 50
90.0
 51
180.0
  0
ARC
  5
8C
100
AcDbEntity
  8
0
  6
CONTINUOUS
 62
               7
100
AcDbCircle
 10
32.5
 20
37.443804577189759
 30
0.0
 40
2.0
100
AcDbArc
 50
0.0
 51
90.0
  0
LINE
  5
8D
100
AcDbEntity
  8
0
  6
CENTER
 62
               2
100
AcDbLine
 10
-31.500000000000028
 20
28.999999999999883
 30
0.0
 11
-40.000000000000028
 21
28.999999999999883
 31
0.0
  0
ARC
  5
8E
100
AcDbEntity
  8
0
  6
CONTINUOUS
 62
               7
100
AcDbCircle
 10
-19.710533938190984
 20
22.324711347486847
 30
0.0
 40
5.765623513512864
100
AcDbArc
 50
87.907357645390348
 51
178.30855990590206
  0
ARC
  5
8F
100
AcDbEntity
  8
0
  6
CONTINUOUS
 62
               7
100
AcDbCircle
 10
-19.64098136909012
 20
21.651057732258543
 30
0.0
 40
5.9194729753846813
100
AcDbArc
 50
88.635283768953983
 51
171.80441143750363
  0
ARC
  5
90
100
AcDbEntity
  8
0
  6
CONTINUOUS
 62
               7
100
AcDbCircle
 10
-5.5000000074720816
 20
20.445150120436594
 30
0.0
 40
9.5073692896116864
100
AcDbArc
 50
53.487596427937341
 51
126.51240357206434
  0
ARC
  5
91
100
AcDbEntity
  8
0
  6
CONTINUOUS
 62
               7
100
AcDbCircle
 10
-5.5000000074721243
 20
19.927512030231398
 30
0.0
 40
9.5073692896119315
100
AcDbArc
 50
53.487596427937902
 51
126.51240357206291
  0
ARC
  5
92
100
AcDbEntity
  8
0
  6
CONTINUOUS
 62
               7
100
AcDbCircle
 10
19.699328045983179
 20
22.28570046458767
 30
0.0
 40
5.8042129188968046
100
AcDbArc
 50
2.0014710468679211
 51
91.968036393069696
  0
ARC
  5
93
100
AcDbEntity
  8
0
  6
CONTINUOUS
 62
               7
100
AcDbCircle
 10
19.67072700233463
 20
21.687259727240885
 30
0.0
 40
5.8840692525367606
100
AcDbArc
 50
7.8254950931982235
 51
91.662677603428023
  0
LINE
  5
94
100
AcDbEntity
  8
0
  6
CENTER
 62
               2
100
AcDbLine
 10
0.0
 20
42.443804577189759
 30
0.0
 11
0.0
 21
-5.5938971520269902
 31
0.0
  0
LINE
  5
95
100
AcDbEntity
  8
0
  6
CENTER
 62
               2
100
AcDbLine
 10
-20.5
 20
-3.7150778146800647
 30
0.0
 11
-20.5
 21
5.9214175965020317
 31
0.0
  0
LINE
  5
96
100
AcDbEntity
  8
0
  6
CENTER
 62
               2
100
AcDbLine
 10
20.5
 20
-3.5808764334409986
 30
0.0
 11
20.5
 21
5.9214175965020317
 31
0.0
  0
ENDBLK
  5
97
100
AcDbEntity
  8
0
100
AcDbBlockEnd
  0
BLOCK
  5
98
100
AcDbEntity
  8
0
100
AcDbBlockBegin
  2
34F-3
 70
               0
 10
0.0
 20
0.0
 30
0.0
  3
34F-3
  1

  0
LINE
  5
99
100
AcDbEntity
  8
0
  6
CENTER
 62
               2
100
AcDbLine
 10
0.0
 20
14.40552861021208
 30
0.0
 11
0.0
 21
25.935052159298444
 31
0.0
  0
LINE
  5
9A
100
AcDbEntity
  8
0
  6
CENTER
 62
               2
100
AcDbLine
 10
4.9629805311748356
 20
20.500000000000007
 30
0.0
 11
-5.4974389231870475
 21
20.500000000000007
 31
0.0
  0
ELLIPSE
  5
9B
100
AcDbEntity
  8
0
  6
CONTINUOUS
 62
               7
100
AcDbEllipse
 10
-14.361206260826449
 20
-18.0
 30
0.0
 11
-0.0000000000000018
 21
-10.0
 31
0.0
210
0.0
220
0.0
230
1.0
 40
0.9659258262890689
 41
0.0
 42
1.5707963267948966
  0
ELLIPSE
  5
9C
100
AcDbEntity
  8
0
  6
CONTINUOUS
 62
               7
100
AcDbEllipse
 10
-60.725645922701702
 20
18.000000000000014
 30
0.0
 11
-0.0000000000000018
 21
-10.0
 31
0.0
210
0.0
220
0.0
230
1.0
 40
0.9659258262890689
 41
3.1415926535897931
 42
4.7123889803846897
  0
ELLIPSE
  5
9D
100
AcDbEntity
  8
0
  6
CONTINUOUS
 62
               7
100
AcDbEllipse
 10
-60.725645922701702
 20
-18.000000000000007
 30
0.0
 11
-0.0000000000000018
 21
-10.0
 31
0.0
210
0.0
220
0.0
230
1.0
 40
0.9659258262890689
 41
4.7123889803846897
 42
0.0
  0
ELLIPSE
  5
9E
100
AcDbEntity
  8
0
  6
CONTINUOUS
 62
               7
100
AcDbEllipse
 10
-14.361206260826457
 20
18.000000000000014
 30
0.0
 11
-0.0000000000000018
 21
-10.0
 31
0.0
210
0.0
220
0.0
230
1.0
 40
0.9659258262890689
 41
1.5707963267948966
 42
3.1415926535897931
  0
ELLIPSE
  5
9F
100
AcDbEntity
  8
0
  6
CONTINUOUS
 62
               7
100
AcDbEllipse
 10
-13.584749125518961
 20
18.000000000000014
 30
0.0
 11
-0.0000000000000018
 21
-10.0
 31
0.0
210
0.0
220
0.0
230
1.0
 40
0.9659258262890683
 41
1.5707963267948966
 42
3.1415926535897931
  0
ELLIPSE
  5
A0
100
AcDbEntity
  8
0
  6
CONTINUOUS
 62
               7
100
AcDbEllipse
 10
-13.584749125518954
 20
-18.0
 30
0.0
 11
-0.0000000000000018
 21
-10.0
 31
0.0
210
0.0
220
0.0
230
1.0
 40
0.9659258262890683
 41
0.0
 42
1.5707963267948966
  0
LINE
  5
A1
100
AcDbEntity
  8
0
  6
CONTINUOUS
 62
               7
100
AcDbLine
 10
-74.954512265236076
 20
-34.500000000000007
 30
0.0
 11
15.032670658713371
 21
-34.5
 31
0.0
  0
LINE
  5
A2
100
AcDbEntity
  8
0
  6
CONTINUOUS
 62
               7
100
AcDbLine
 10
-74.95451226523609
 20
34.5
 30
0.0
 11
-74.954512265236076
 21
-34.500000000000007
 31
0.0
  0
LINE
  5
A3
100
AcDbEntity
  8
0
  6
CONTINUOUS
 62
               7
100
AcDbLine
 10
-74.954512265236076
 20
34.5
 30
0.0
 11
15.032670658713357
 21
34.500000000000028
 31
0.0
  0
LINE
  5
A4
100
AcDbEntity
  8
0
  6
CONTINUOUS
 62
               7
100
AcDbLine
 10
6.7174725878843731
 20
-36.5
 30
0.0
 11
6.7174725878843731
 21
-35.100000000000044
 31
0.0
  0
LINE
  5
A5
100
AcDbEntity
  8
0
  6
CONTINUOUS
 62
               7
100
AcDbLine
 10
0.7154725878843635
 20
-35.100000000000044
 30
0.0
 11
0.7154725878843635
 21
-36.5
 31
0.0
  0
LINE
  5
A6
100
AcDbEntity
  8
0
  6
CONTINUOUS
 62
               7
100
AcDbLine
 10
6.2174725878844299
 20
-37.0
 30
0.0
 11
6.7174725878843731
 21
-36.5
 31
0.0
  0
LINE
  5
A7
100
AcDbEntity
  8
0
  6
CONTINUOUS
 62
               7
100
AcDbLine
 10
0.7154725878843635
 20
-36.5
 30
0.0
 11
1.2154725878843209
 21
-37.0
 31
0.0
  0
LINE
  5
A8
100
AcDbEntity
  8
0
  6
CONTINUOUS
 62
               7
100
AcDbLine
 10
0.7154725878843635
 20
-36.5
 30
0.0
 11
6.7174725878843731
 21
-36.5
 31
0.0
  0
LINE
  5
A9
100
AcDbEntity
  8
0
  6
CONTINUOUS
 62
               7
100
AcDbLine
 10
6.2174725878844299
 20
-37.0
 30
0.0
 11
1.2154725878843067
 21
-37.0
 31
0.0
  0
LINE
  5
AA
100
AcDbEntity
  8
0
  6
CONTINUOUS
 62
               7
100
AcDbLine
 10
8.2164725878843683
 20
-35.100000000000044
 30
0.0
 11
8.2164725878843683
 21
-34.5
 31
0.0
  0
LINE
  5
AB
100
AcDbEntity
  8
0
  6
CONTINUOUS
 62
               7
100
AcDbLine
 10
-0.7835274121156317
 20
-34.5
 30
0.0
 11
-0.7835274121156317
 21
-35.100000000000044
 31
0.0
  0
LINE
  5
AC
100
AcDbEntity
  8
0
  6
CONTINUOUS
 62
               7
100
AcDbLine
 10
8.2164725878843683
 20
-35.100000000000044
 30
0.0
 11
-0.7835274121156317
 21
-35.100000000000044
 31
0.0
  0
LINE
  5
AD
100
AcDbEntity
  8
0
  6
CONTINUOUS
 62
               7
100
AcDbLine
 10
14.261094464345291
 20
25.499999992527833
 30
0.0
 11
15.032670658713812
 21
25.499999992527833
 31
0.0
  0
LINE
  5
AE
100
AcDbEntity
  8
0
  6
CONTINUOUS
 62
               7
100
AcDbLine
 10
15.032670658713229
 20
34.500000000000028
 30
0.0
 11
15.032670658713812
 21
25.499999992527833
 31
0.0
  0
LINE
  5
AF
100
AcDbEntity
  8
0
  6
CONTINUOUS
 62
               7
100
AcDbLine
 10
15.032670658713727
 20
-25.500000007472178
 30
0.0
 11
15.032670658713371
 21
-34.5
 31
0.0
  0
LINE
  5
B0
100
AcDbEntity
  8
0
  6
CONTINUOUS
 62
               7
100
AcDbLine
 10
15.032670658713812
 20
-25.500000007472178
 30
0.0
 11
14.261094470277669
 21
-25.500000007472174
 31
0.0
  0
LINE
  5
B1
100
AcDbEntity
  8
0
  6
CONTINUOUS
 62
               7
100
AcDbLine
 10
12.761094464344794
 20
-19.500000007472174
 30
0.0
 11
12.761094464344794
 21
-11.156854256964571
 31
0.0
  0
LINE
  5
B2
100
AcDbEntity
  8
0
  6
CONTINUOUS
 62
               7
100
AcDbLine
 10
12.761094464344794
 20
0.1568542420202164
 30
0.0
 11
12.761094464344794
 21
19.499999992527833
 31
0.0
  0
LINE
  5
B3
100
AcDbEntity
  8
0
  6
CONTINUOUS
 62
               7
100
AcDbLine
 10
-13.584749125518783
 20
-28.000000000000004
 30
0.0
 11
-14.361206260826293
 21
-28.000000000000004
 31
0.0
  0
LINE
  5
B4
100
AcDbEntity
  8
0
  6
CONTINUOUS
 62
               7
100
AcDbLine
 10
-14.361206260826563
 20
28.000000000000014
 30
0.0
 11
-60.725645922701716
 21
28.000000000000014
 31
0.0
  0
LINE
  5
B5
100
AcDbEntity
  8
0
  6
CONTINUOUS
 62
               7
100
AcDbLine
 10
-70.384904185592418
 20
18.000000000000014
 30
0.0
 11
-70.384904185592404
 21
-18.000000000000007
 31
0.0
  0
LINE
  5
B6
100
AcDbEntity
  8
0
  6
CONTINUOUS
 62
               7
100
AcDbLine
 10
-60.725645922701702
 20
-28.000000000000004
 30
0.0
 11
-14.361206260826293
 21
-28.000000000000004
 31
0.0
  0
LINE
  5
B7
100
AcDbEntity
  8
0
  6
CONTINUOUS
 62
               7
100
AcDbLine
 10
-14.361206260826563
 20
28.000000000000014
 30
0.0
 11
-13.584749125518861
 21
28.000000000000014
 31
0.0
  0
LINE
  5
B8
100
AcDbEntity
  8
0
  6
CONTINUOUS
 62
               7
100
AcDbLine
 10
-4.7019479979357328
 20
-18.0
 30
0.0
 11
-4.701947997935747
 21
18.000000000000014
 31
0.0
  0
LINE
  5
B9
100
AcDbEntity
  8
DEFPOINTS
  6
NON_PLOTING
 62
               7
100
AcDbLine
 10
-4.7019479979357328
 20
-18.0
 30
0.0
 11
-3.9254908626281235
 21
-18.0
 31
0.0
  0
LINE
  5
BA
100
AcDbEntity
  8
DEFPOINTS
  6
NON_PLOTING
 62
               7
100
AcDbLine
 10
-3.9254908626281519
 20
18.000000000000014
 30
0.0
 11
-4.701947997935747
 21
18.000000000000014
 31
0.0
  0
LINE
  5
BB
100
AcDbEntity
  8
DEFPOINTS
  6
NON_PLOTING
 62
               7
100
AcDbLine
 10
-73.47215035544113
 20
34.5
 30
0.0
 11
-73.472150355441116
 21
-34.500000000000014
 31
0.0
  0
LINE
  5
BC
100
AcDbEntity
  8
0
  6
CONTINUOUS
 62
               7
100
AcDbLine
 10
-3.9254908626281235
 20
-18.0
 30
0.0
 11
-3.9254908626281519
 21
18.000000000000014
 31
0.0
  0
LINE
  5
BD
100
AcDbEntity
  8
DEFPOINTS
  6
NON_PLOTING
 62
               7
100
AcDbLine
 10
10.115108795623811
 20
34.500000000000028
 30
0.0
 11
10.115108795623826
 21
-34.5
 31
0.0
  0
LINE
  5
BE
100
AcDbEntity
  8
DEFPOINTS
  6
NON_PLOTING
 62
               7
100
AcDbLine
 10
7.665619052840654
 20
-34.5
 30
0.0
 11
7.665619052840654
 21
34.500000000000014
 31
0.0
  0
LINE
  5
BF
100
AcDbEntity
  8
0
  6
CONTINUOUS
 62
               7
100
AcDbLine
 10
8.2164725878843683
 20
35.100000000000037
 30
0.0
 11
8.2164725878843683
 21
34.5
 31
0.0
  0
LINE
  5
C0
100
AcDbEntity
  8
0
  6
CONTINUOUS
 62
               7
100
AcDbLine
 10
-0.7835274121156317
 20
34.5
 30
0.0
 11
-0.7835274121156317
 21
35.100000000000051
 31
0.0
  0
LINE
  5
C1
100
AcDbEntity
  8
0
  6
CONTINUOUS
 62
               7
100
AcDbLine
 10
8.2164725878843683
 20
35.100000000000037
 30
0.0
 11
-0.7835274121156317
 21
35.100000000000051
 31
0.0
  0
LINE
  5
C2
100
AcDbEntity
  8
0
  6
CONTINUOUS
 62
               7
100
AcDbLine
 10
6.2174725878844299
 20
37.0
 30
0.0
 11
1.2154725878843067
 21
37.0
 31
0.0
  0
LINE
  5
C3
100
AcDbEntity
  8
0
  6
CONTINUOUS
 62
               7
100
AcDbLine
 10
0.7154725878843635
 20
36.5
 30
0.0
 11
6.7174725878843731
 21
36.5
 31
0.0
  0
LINE
  5
C4
100
AcDbEntity
  8
0
  6
CONTINUOUS
 62
               7
100
AcDbLine
 10
0.7154725878843635
 20
36.5
 30
0.0
 11
1.2154725878843209
 21
37.0
 31
0.0
  0
LINE
  5
C5
100
AcDbEntity
  8
0
  6
CONTINUOUS
 62
               7
100
AcDbLine
 10
6.2174725878844299
 20
37.0
 30
0.0
 11
6.7174725878843731
 21
36.5
 31
0.0
  0
LINE
  5
C6
100
AcDbEntity
  8
0
  6
CONTINUOUS
 62
               7
100
AcDbLine
 10
0.7154725878843635
 20
35.100000000000051
 30
0.0
 11
0.7154725878843635
 21
36.5
 31
0.0
  0
LINE
  5
C7
100
AcDbEntity
  8
0
  6
CONTINUOUS
 62
               7
100
AcDbLine
 10
6.7174725878843731
 20
36.5
 30
0.0
 11
6.7174725878843731
 21
35.100000000000037
 31
0.0
  0
LINE
  5
C8
100
AcDbEntity
  8
0
  6
CENTER
 62
               2
100
AcDbLine
 10
-79.954512265236076
 20
0.0
 30
0.0
 11
19.987817058312601
 21
0.0
 31
0.0
  0
CIRCLE
  5
CA
100
AcDbEntity
  8
0
  6
DASHED
 62
               7
100
AcDbCircle
 10
0.0
 20
20.500000000000014
 30
0.0
 40
2.5
  0
CIRCLE
  5
CB
100
AcDbEntity
  8
0
  6
DASHED
 62
               7
100
AcDbCircle
 10
0.0
 20
-20.500000000000004
 30
0.0
 40
2.5
  0
LINE
  5
CC
100
AcDbEntity
  8
0
  6
CENTER
 62
               2
100
AcDbLine
 10
0.0
 20
-26.594471389787934
 30
0.0
 11
0.0
 21
-15.064947840701571
 31
0.0
  0
LINE
  5
CD
100
AcDbEntity
  8
0
  6
CENTER
 62
               2
100
AcDbLine
 10
3.7164725878843683
 20
30.999999999999986
 30
0.0
 11
3.7164725878843683
 21
40.5
 31
0.0
  0
LINE
  5
CE
100
AcDbEntity
  8
0
  6
CENTER
 62
               2
100
AcDbLine
 10
3.7164725878843683
 20
-40.5
 30
0.0
 11
3.7164725878843683
 21
-31.000000000000007
 31
0.0
  0
ARC
  5
CF
100
AcDbEntity
  8
0
  6
CONTINUOUS
 62
               7
100
AcDbCircle
 10
14.434786765144082
 20
24.665349345507529
 30
0.0
 40
0.8525319453991123
100
AcDbArc
 50
101.7555742069331
 51
161.51967059111391
  0
ARC
  5
D0
100
AcDbEntity
  8
0
  6
CONTINUOUS
 62
               7
100
AcDbCircle
 10
27.9211848700632
 20
19.873770238608166
 30
0.0
 40
15.164697336459234
100
AcDbArc
 50
160.50106658295738
 51
181.41233458335668
  0
ARC
  5
D1
100
AcDbEntity
  8
0
  6
CONTINUOUS
 62
               7
100
AcDbCircle
 10
44.51050377929937
 20
-5.5000000074731403
 30
0.0
 40
32.249418473028527
100
AcDbArc
 50
169.89751086591849
 51
190.1024891340781
  0
ARC
  5
D2
100
AcDbEntity
  8
0
  6
CONTINUOUS
 62
               7
100
AcDbCircle
 10
14.614163896751506
 20
-24.416920419325482
 30
0.0
 40
1.1391748830493826
100
AcDbArc
 50
193.8045408135558
 51
251.94472586043426
  0
ARC
  5
D3
100
AcDbEntity
  8
0
  6
CONTINUOUS
 62
               7
100
AcDbCircle
 10
26.862384186661956
 20
-20.118557008540652
 30
0.0
 40
14.114849790071874
100
AcDbArc
 50
177.48831481185988
 51
198.89200558375524
  0
LINE
  5
D4
100
AcDbEntity
  8
0
  6
CENTER
 62
               2
100
AcDbLine
 10
4.9629805311748356
 20
-20.500000000000007
 30
0.0
 11
-5.4974389231870475
 21
-20.500000000000007
 31
0.0
  0
ENDBLK
  5
D5
100
AcDbEntity
  8
0
100
AcDbBlockEnd
  0
BLOCK
  5
22
100
AcDbEntity
  8
0
  6
ByBlock
 62
               0
100
AcDbBlockBegin
  2
_OPEN30
 70
               2
 10
0.0
 20
0.0
 30
0.0
  3
_OPEN30
  1

  0
LINE
  5
23
100
AcDbEntity
  8
0
  6
ByBlock
 62
               0
100
AcDbLine
 10
-1.0
 20
0.267949
 30
0.0
 11
0.0
 21
0.0
 31
0.0
  0
LINE
  5
24
100
AcDbEntity
  8
0
  6
ByBlock
 62
               0
100
AcDbLine
 10
0.0
 20
0.0
 30
0.0
 11
-1.0
 21
-0.267949
 31
0.0
  0
LINE
  5
25
100
AcDbEntity
  8
0
  6
ByBlock
 62
               0
100
AcDbLine
 10
0.0
 20
0.0
 30
0.0
 11
-1.0
 21
0.0
 31
0.0
  0
ENDBLK
  5
26
100
AcDbEntity
  8
0
  6
ByBlock
 62
               0
100
AcDbBlockEnd
  0
ENDSEC
  0
SECTION
  2
ENTITIES
  0
INSERT
  5
D6
100
AcDbEntity
  8
0
  6
ByBlock
100
AcDbBlockReference
  2
34F-3
 10
-3.2164725878843683
 20
34.943804577189795
 30
0.0
  0
INSERT
  5
D7
100
AcDbEntity
  8
0
  6
ByBlock
100
AcDbBlockReference
  2
34F-2
 10
80.0
 20
-59.999999999999993
 30
0.0
  0
INSERT
  5
D8
100
AcDbEntity
  8
0
  6
ByBlock
100
AcDbBlockReference
  2
34F-1
 10
-3.2164725878843683
 20
-60.0
 30
0.0
  0
MTEXT
  5
D9
100
AcDbEntity
  8
0
  6
CONTINUOUS
 62
               7
100
AcDbMText
 10
-110.16666030883789
 20
89.099999904632568
 30
0.0
 40
3.1999998092651367
 41
0.0
 71
               1
 72
               1
  1
\A1;34F
  0
LINE
  5
DA
100
AcDbEntity
  8
0
  6
CONTINUOUS
 62
               7
100
AcDbLine
 10
-138.39999389648437
 20
94.5
 30
0.0
 11
138.35000610351562
 21
94.5
 31
0.0
  0
LINE
  5
DB
100
AcDbEntity
  8
0
  6
CONTINUOUS
 62
               7
100
AcDbLine
 10
138.35000610351562
 20
94.5
 30
0.0
 11
138.35000610351562
 21
-94.800003051757812
 31
0.0
  0
LINE
  5
DC
100
AcDbEntity
  8
0
  6
CONTINUOUS
 62
               7
100
AcDbLine
 10
-138.39999389648437
 20
-94.800003051757812
 30
0.0
 11
138.35000610351562
 21
-94.800003051757812
 31
0.0
  0
LINE
  5
DD
100
AcDbEntity
  8
0
  6
CONTINUOUS
 62
               7
100
AcDbLine
 10
-138.39999389648437
 20
94.5
 30
0.0
 11
-138.39999389648437
 21
-94.800003051757812
 31
0.0
  0
LINE
  5
DE
100
AcDbEntity
  8
0
  6
CONTINUOUS
 62
               7
100
AcDbLine
 10
73.350006103515625
 20
-84.800003051757813
 30
0.0
 11
138.35000610351562
 21
-84.800003051757813
 31
0.0
  0
LINE
  5
DF
100
AcDbEntity
  8
0
  6
CONTINUOUS
 62
               7
100
AcDbLine
 10
-138.39999389648437
 20
84.5
 30
0.0
 11
-73.399993896484375
 21
84.5
 31
0.0
  0
LINE
  5
E0
100
AcDbEntity
  8
0
  6
CONTINUOUS
 62
               7
100
AcDbLine
 10
73.350006103515625
 20
84.5
 30
0.0
 11
138.35000610351562
 21
84.5
 31
0.0
  0
LINE
  5
E1
100
AcDbEntity
  8
0
  6
CONTINUOUS
 62
               7
100
AcDbLine
 10
73.350006103515625
 20
-84.800003051757813
 30
0.0
 11
73.350006103515625
 21
-94.800003051757812
 31
0.0
  0
LINE
  5
E2
100
AcDbEntity
  8
0
  6
CONTINUOUS
 62
               7
100
AcDbLine
 10
73.350006103515625
 20
94.5
 30
0.0
 11
73.350006103515625
 21
84.5
 31
0.0
  0
LINE
  5
E3
100
AcDbEntity
  8
0
  6
CONTINUOUS
 62
               7
100
AcDbLine
 10
-73.399993896484375
 20
94.5
 30
0.0
 11
-73.399993896484375
 21
84.5
 31
0.0
  0
MTEXT
  5
E4
100
AcDbEntity
  8
0
  6
CONTINUOUS
 62
               7
100
AcDbMText
 10
77.440523342735503
 20
-89.800003051757812
 30
0.0
 40
4.5
 41
0.0
 71
               4
 72
               1
  1
\W1.121;\A1;KOGANEI CORP.
  0
MTEXT
  5
E5
100
AcDbEntity
  8
0
  6
CONTINUOUS
 62
               7
100
AcDbMText
 10
93.749460369842424
 20
89.5
 30
0.0
 40
3.1999998092651367
 41
0.0
 71
               4
 72
               1
  1
\W1.311;\A1;Ver. 1.0
  0
MTEXT
  5
E6
100
AcDbEntity
  8
0
  6
CONTINUOUS
 62
               7
100
AcDbMText
 10
-119.7820074619834
 20
93.099999904632568
 30
0.0
 40
3.1999998092651367
 41
0.0
 71
               1
 72
               1
  1
\W0.971;\A1;TAC VALVE
  0
MTEXT
  5
E7
100
AcDbEntity
  8
0
  6
CONTINUOUS
 62
               7
100
AcDbMText
 10
-129.42399391242981
 20
74.5
 30
0.0
 40
3.2000000476837158
 41
0.0
 71
               4
 72
               1
  1
\W1.080;\A1;MODEL:34F
  0
ENDSEC
  0
SECTION
  2
OBJECTS
  0
DICTIONARY
  5
19
100
AcDbDictionary
  3
ACAD_GROUP
350
1A
  3
ACAD_MLINESTYLE
350
1B
  0
DICTIONARY
  5
1A
102
{ACAD_REACTORS
330
19
102
}
100
AcDbDictionary
  0
DICTIONARY
  5
1B
102
{ACAD_REACTORS
330
19
102
}
100
AcDbDictionary
  3
STANDARD
350
1C
  0
MLINESTYLE
  5
1C
102
{ACAD_REACTORS
330
1B
102
}
100
AcDbMlineStyle
  2
Standard
 70
               0
  3

 62
               0
 51
90.0
 52
90.0
 71
               2
 49
0.5
 62
             256
  6
ByLayer
 49
-0.5
 62
             256
  6
ByLayer
  0
ENDSEC
  0
EOF
