  0
SECTION
  2
HEADER
  9
$ACADVER
  1
AC1012
  9
$DWGCODEPAGE
  3
dos932
  9
$INSBASE
 10
0.0
 20
0.0
 30
0.0
  9
$EXTMIN
 10
-138.39999389648437
 20
-94.800003051757812
 30
0.0
  9
$EXTMAX
 10
138.35000610351562
 20
94.5
 30
0.0
  9
$LIMMIN
 10
-148.5
 20
-105.00000000000001
  9
$LIMMAX
 10
148.5
 20
105.00000000000001
  9
$ORTHOMODE
 70
               0
  9
$REGENMODE
 70
               1
  9
$FILLMODE
 70
               1
  9
$QTEXTMODE
 70
               0
  9
$MIRRTEXT
 70
               1
  9
$DRAGMODE
 70
               2
  9
$LTSCALE
 40
1.0
  9
$OSMODE
 70
               0
  9
$ATTMODE
 70
               1
  9
$TEXTSIZE
 40
3.2000000476837158
  9
$TRACEWID
 40
0.05
  9
$TEXTSTYLE
  7
MX_NOTE_STANDARD
  9
$CLAYER
  8
0
  9
$CELTYPE
  6
CONTINUOUS
  9
$CECOLOR
 62
             256
  9
$CELTSCALE
 40
1.0
  9
$DELOBJ
 70
               1
  9
$DISPSILH
 70
               0
  9
$DIMSCALE
 40
1.0
  9
$DIMASZ
 40
2.5
  9
$DIMEXO
 40
1.5
  9
$DIMDLI
 40
3.75
  9
$DIMRND
 40
0.0
  9
$DIMDLE
 40
0.0
  9
$DIMEXE
 40
1.5
  9
$DIMTP
 40
0.0
  9
$DIMTM
 40
0.0
  9
$DIMTXT
 40
3.2000000476837158
  9
$DIMCEN
 40
2.5
  9
$DIMTSZ
 40
0.0
  9
$DIMTOL
 70
               0
  9
$DIMLIM
 70
               0
  9
$DIMTIH
 70
               0
  9
$DIMTOH
 70
               0
  9
$DIMSE1
 70
               0
  9
$DIMSE2
 70
               0
  9
$DIMTAD
 70
               1
  9
$DIMZIN
 70
               8
  9
$DIMBLK
  1

  9
$DIMASO
 70
               1
  9
$DIMSHO
 70
               1
  9
$DIMPOST
  1

  9
$DIMAPOST
  1

  9
$DIMALT
 70
               0
  9
$DIMALTD
 70
               4
  9
$DIMALTF
 40
0.03937007874016
  9
$DIMLFAC
 40
1.0
  9
$DIMTOFL
 70
               1
  9
$DIMTVP
 40
0.0
  9
$DIMTIX
 70
               0
  9
$DIMSOXD
 70
               0
  9
$DIMSAH
 70
               1
  9
$DIMBLK1
  1
_OPEN30
  9
$DIMBLK2
  1
_OPEN30
  9
$DIMSTYLE
  2
MXDIMSTYLE
  9
$DIMCLRD
 70
               0
  9
$DIMCLRE
 70
               0
  9
$DIMCLRT
 70
               0
  9
$DIMTFAC
 40
1.0
  9
$DIMGAP
 40
1.0
  9
$DIMJUST
 70
               0
  9
$DIMSD1
 70
               0
  9
$DIMSD2
 70
               0
  9
$DIMTOLJ
 70
               0
  9
$DIMTZIN
 70
               0
  9
$DIMALTZ
 70
               0
  9
$DIMALTTZ
 70
               0
  9
$DIMFIT
 70
               3
  9
$DIMUPT
 70
               1
  9
$DIMUNIT
 70
               2
  9
$DIMDEC
 70
               2
  9
$DIMTDEC
 70
               2
  9
$DIMALTU
 70
               2
  9
$DIMALTTD
 70
               4
  9
$DIMTXSTY
  7
MX_NOTE_STANDARD
  9
$DIMAUNIT
 70
               0
  9
$LUNITS
 70
               2
  9
$LUPREC
 70
               4
  9
$SKETCHINC
 40
0.1
  9
$FILLETRAD
 40
0.0
  9
$AUNITS
 70
               0
  9
$AUPREC
 70
               0
  9
$MENU
  1
acad
  9
$ELEVATION
 40
0.0
  9
$PELEVATION
 40
0.0
  9
$THICKNESS
 40
0.0
  9
$LIMCHECK
 70
               0
  9
$BLIPMODE
 70
               1
  9
$CHAMFERA
 40
0.0
  9
$CHAMFERB
 40
0.0
  9
$CHAMFERC
 40
0.0
  9
$CHAMFERD
 40
0.0
  9
$SKPOLY
 70
               0
  9
$TDCREATE
 40
2454085.536608796
  9
$TDUPDATE
 40
2454085.536608796
  9
$TDINDWG
 40
0.0000000000
  9
$TDUSRTIMER
 40
0.0000000000
  9
$USRTIMER
 70
               1
  9
$ANGBASE
 50
0.0
  9
$ANGDIR
 70
               0
  9
$PDMODE
 70
               0
  9
$PDSIZE
 40
0.0
  9
$PLINEWID
 40
0.0
  9
$COORDS
 70
               1
  9
$SPLFRAME
 70
               0
  9
$SPLINETYPE
 70
               6
  9
$SPLINESEGS
 70
               8
  9
$ATTDIA
 70
               0
  9
$ATTREQ
 70
               1
  9
$HANDLING
 70
               1
  9
$HANDSEED
  5
11A
  9
$SURFTAB1
 70
               6
  9
$SURFTAB2
 70
               6
  9
$SURFTYPE
 70
               6
  9
$SURFU
 70
               6
  9
$SURFV
 70
               6
  9
$UCSNAME
  2

  9
$UCSORG
 10
0.0
 20
0.0
 30
0.0
  9
$UCSXDIR
 10
1.0
 20
0.0
 30
0.0
  9
$UCSYDIR
 10
0.0
 20
1.0
 30
0.0
  9
$PUCSNAME
  2

  9
$PUCSORG
 10
0.0
 20
0.0
 30
0.0
  9
$PUCSXDIR
 10
1.0
 20
0.0
 30
0.0
  9
$PUCSYDIR
 10
0.0
 20
1.0
 30
0.0
  9
$USERI1
 70
               0
  9
$USERI2
 70
               0
  9
$USERI3
 70
               0
  9
$USERI4
 70
               0
  9
$USERI5
 70
               0
  9
$USERR1
 40
0.0
  9
$USERR2
 40
0.0
  9
$USERR3
 40
0.0
  9
$USERR4
 40
0.0
  9
$USERR5
 40
0.0
  9
$WORLDVIEW
 70
               1
  9
$SHADEDGE
 70
               3
  9
$SHADEDIF
 70
              70
  9
$TILEMODE
 70
               1
  9
$MAXACTVP
 70
              16
  9
$PINSBASE
 10
0.0
 20
0.0
 30
0.0
  9
$PLIMCHECK
 70
               0
  9
$PEXTMIN
 10
1.0000000000000000E+20
 20
1.0000000000000000E+20
 30
1.0000000000000000E+20
  9
$PEXTMAX
 10
-1.0000000000000000E+20
 20
-1.0000000000000000E+20
 30
-1.0000000000000000E+20
  9
$PLIMMIN
 10
0.0
 20
0.0
  9
$PLIMMAX
 10
12.0
 20
9.0
  9
$UNITMODE
 70
               0
  9
$VISRETAIN
 70
               0
  9
$PLINEGEN
 70
               1
  9
$PSLTSCALE
 70
               0
  9
$TREEDEPTH
 70
            3020
  9
$PICKSTYLE
 70
               1
  9
$CMLSTYLE
  2
Standard
  9
$CMLJUST
 70
               0
  9
$CMLSCALE
 40
1.0
  9
$SAVEIMAGES
 70
               0
  0
ENDSEC
  0
SECTION
  2
CLASSES
  0
CLASS
  1
LWPOLYLINE
  2
AcDbPolyline
  3
"AutoCAD"
 90
    32768
280
               0
281
               1
  0
CLASS
  1
IMAGE
  2
AcDbRasterImage
  3
ISM
 90
    32895
280
               0
281
               1
  0
CLASS
  1
OLE2FRAME
  2
AcDbOle2Frame
  3
""
 90
    32768
280
               0
281
               1
  0
CLASS
  1
HATCH
  2
AcDbHatch
  3
"ACAD_SEDONA"
 90
    32768
280
               0
281
               1
  0
CLASS
  1
DICTIONARYVAR
  2
AcDbDictionaryVar
  3
"AutoCAD"
 90
    32768
280
               0
281
               0
  0
CLASS
  1
RASTERVARIABLES
  2
AcDbRasterVariables
  3
ISM
 90
    32768
280
               0
281
               0
  0
CLASS
  1
IMAGEDEF
  2
AcDbRasterImageDef
  3
ISM
 90
    32768
280
               0
281
               0
  0
CLASS
  1
IMAGEDEF_REACTOR
  2
AcDbRasterImageDefReactor
  3
ISM
 90
    32769
280
               0
281
               0
  0
CLASS
  1
IDBUFFER
  2
AcDbIdBuffer
  3
"Acad"
 90
    32768
280
               0
281
               0
  0
CLASS
  1
SPATIAL_FILTER
  2
AcDbSpatialFilter
  3
"Acad"
 90
    32768
280
               0
281
               0
  0
CLASS
  1
XRECORD
  2
AcDbXrecord
  3
"<Built In>"
 90
    32768
280
               0
281
               0
  0
CLASS
  1
SORTENTSTABLE
  2
AcDbSortentsTable
  3
"AutoCAD"
 90
    32768
280
               0
281
               0
  0
CLASS
  1
LAYER_INDEX
  2
AcDbLayerIndex
  3
"Acad"
 90
    32768
280
               0
281
               0
  0
CLASS
  1
SPATIAL_INDEX
  2
AcDbSpatialIndex
  3
"Acad"
 90
    32768
280
               0
281
               0
  0
CLASS
  1
OBJECT_PTR
  2
CAseDLPNTableRecord
  3
"ASE-LPNTableRecord"
 90
    32769
280
               0
281
               0
  0
CLASS
  1
LAYOUT
  2
AcDbLayout
  3
"AutoCAD 2000"
 90
    32768
280
               0
281
               0
  0
CLASS
  1
PLOTSETTINGS
  2
AcDbPlotSettings
  3
"AutoCAD 2000"
 90
    32768
280
               0
281
               0
  0
CLASS
  1
ACDBDICTIONARYWDFLT
  2
AcDbDictionaryWithDefault
  3
"AutoCAD 2000"
 90
    32768
280
               0
281
               0
  0
CLASS
  1
ACDBPLACEHOLDER
  2
AcDbPlaceHolder
  3
"AutoCAD 2000"
 90
    32768
280
               0
281
               0
  0
ENDSEC
  0
SECTION
  2
TABLES
  0
TABLE
  2
VPORT
  5
7
100
AcDbSymbolTable
 70
               1
  0
VPORT
  5
15
100
AcDbSymbolTableRecord
100
AcDbViewportTableRecord
  2
*ACTIVE
 70
               0
 10
0.0
 20
0.0
 11
1.0
 21
1.0
 12
0.0
 22
0.0
 13
0.0
 23
0.0
 14
1.0
 24
1.0
 15
0.0
 25
0.0
 16
0.0
 26
0.0
 36
1.0
 17
0.0
 27
0.0
 37
0.0
 40
212.10000000000002
 41
1.7320508075688772
 42
50.0
 43
0.0
 44
0.0
 50
0.0
 51
0.0
 71
               0
 72
             100
 73
               1
 74
               1
 75
               0
 76
               0
 77
               0
 78
               0
  0
ENDTAB
  0
TABLE
  2
LTYPE
  5
4
100
AcDbSymbolTable
 70
               5
  0
LTYPE
  5
11
100
AcDbSymbolTableRecord
100
AcDbLinetypeTableRecord
  2
BYBLOCK
 70
              64
  3

 72
              65
 73
               0
 40
0.0
  0
LTYPE
  5
12
100
AcDbSymbolTableRecord
100
AcDbLinetypeTableRecord
  2
BYLAYER
 70
              64
  3

 72
              65
 73
               0
 40
0.0
  0
LTYPE
  5
13
100
AcDbSymbolTableRecord
100
AcDbLinetypeTableRecord
  2
CONTINUOUS
 70
              64
  3
Solid line
 72
              65
 73
               0
 40
0.0
  0
LTYPE
  5
47
100
AcDbSymbolTableRecord
100
AcDbLinetypeTableRecord
  2
CENTER
 70
              64
  3
Center ____ _ ____ _ ____ _ ____ _ ____ _ ____
 72
              65
 73
               4
 40
50.800000000000004
 49
31.75
 74
               0
 49
-6.3499999999999996
 74
               0
 49
6.3499999999999996
 74
               0
 49
-6.3499999999999996
 74
               0
  0
LTYPE
  5
FE
100
AcDbSymbolTableRecord
100
AcDbLinetypeTableRecord
  2
NON_PLOTING
 70
               0
  3
Solid line
 72
              65
 73
               0
 40
0.0
  0
ENDTAB
  0
TABLE
  2
LAYER
  5
2
100
AcDbSymbolTable
 70
               2
  0
LAYER
  5
14
100
AcDbSymbolTableRecord
100
AcDbLayerTableRecord
  2
0
 70
               0
 62
               7
  6
CONTINUOUS
  0
LAYER
  5
1D
100
AcDbSymbolTableRecord
100
AcDbLayerTableRecord
  2
DEFPOINTS
 70
               0
 62
               7
  6
CONTINUOUS
  0
ENDTAB
  0
TABLE
  2
STYLE
  5
3
100
AcDbSymbolTable
 70
               1
  0
STYLE
  5
17
100
AcDbSymbolTableRecord
100
AcDbTextStyleTableRecord
  2
MX_NOTE_STANDARD
 70
               0
 40
0.0
 41
1.0
 50
0.0
 71
               0
 42
3.2000000476837158
  3
txt.shx
  4
extfont.shx
  0
ENDTAB
  0
TABLE
  2
VIEW
  5
5
100
AcDbSymbolTable
 70
               0
  0
ENDTAB
  0
TABLE
  2
UCS
  5
6
100
AcDbSymbolTable
 70
               0
  0
ENDTAB
  0
TABLE
  2
APPID
  5
8
100
AcDbSymbolTable
 70
               1
  0
APPID
  5
16
100
AcDbSymbolTableRecord
100
AcDbRegAppTableRecord
  2
ACAD
 70
               0
  0
ENDTAB
  0
TABLE
  2
DIMSTYLE
  5
9
100
AcDbSymbolTable
 70
               1
  0
DIMSTYLE
105
18
100
AcDbSymbolTableRecord
100
AcDbDimStyleTableRecord
  2
MXDIMSTYLE
 70
               0
  3

  4

  5

  6
_OPEN30
  7
_OPEN30
 40
1.0
 41
2.5
 42
1.5
 43
3.75
 44
1.5
 45
0.0
 46
0.0
 47
0.0
 48
0.0
 71
               0
 72
               0
 73
               0
 74
               0
 75
               0
 76
               0
 77
               1
 78
               8
140
3.2000000476837158
141
2.5
142
0.0
143
0.03937007874016
144
1.0
145
0.0
146
1.0
147
1.0
170
               0
171
               4
172
               1
173
               1
174
               0
175
               0
176
               0
177
               0
178
               0
270
               2
271
               2
272
               2
273
               2
274
               4
275
               0
280
               0
281
               0
282
               0
283
               0
284
               0
285
               0
286
               0
287
               3
288
               1
340
17
  0
ENDTAB
  0
TABLE
  2
BLOCK_RECORD
  5
1
100
AcDbSymbolTable
 70
               5
  0
BLOCK_RECORD
  5
A
100
AcDbSymbolTableRecord
100
AcDbBlockTableRecord
  2
*MODEL_SPACE
  0
BLOCK_RECORD
  5
B
100
AcDbSymbolTableRecord
100
AcDbBlockTableRecord
  2
*PAPER_SPACE
  0
BLOCK_RECORD
  5
1E
100
AcDbSymbolTableRecord
100
AcDbBlockTableRecord
  2
34T-1
  0
BLOCK_RECORD
  5
1F
100
AcDbSymbolTableRecord
100
AcDbBlockTableRecord
  2
34T-2
  0
BLOCK_RECORD
  5
20
100
AcDbSymbolTableRecord
100
AcDbBlockTableRecord
  2
34T-3
  0
BLOCK_RECORD
  5
21
100
AcDbSymbolTableRecord
100
AcDbBlockTableRecord
  2
34T-4
  0
BLOCK_RECORD
  5
22
100
AcDbSymbolTableRecord
100
AcDbBlockTableRecord
  2
_OPEN30
  0
ENDTAB
  0
ENDSEC
  0
SECTION
  2
BLOCKS
  0
BLOCK
  5
D
100
AcDbEntity
  8
0
100
AcDbBlockBegin
  2
*MODEL_SPACE
 70
               0
 10
0.0
 20
0.0
 30
0.0
  3
*MODEL_SPACE
  1

  0
ENDBLK
  5
E
100
AcDbEntity
  8
0
100
AcDbBlockEnd
  0
BLOCK
  5
F
100
AcDbEntity
 67
               1
  8
0
100
AcDbBlockBegin
  2
*PAPER_SPACE
 70
               0
 10
0.0
 20
0.0
 30
0.0
  3
*PAPER_SPACE
  1

  0
ENDBLK
  5
10
100
AcDbEntity
 67
               1
  8
0
100
AcDbBlockEnd
  0
BLOCK
  5
28
100
AcDbEntity
  8
0
100
AcDbBlockBegin
  2
34T-1
 70
               0
 10
0.0
 20
0.0
 30
0.0
  3
34T-1
  1

  0
LINE
  5
29
100
AcDbEntity
  8
0
  6
CONTINUOUS
 62
               7
100
AcDbLine
 10
8.75
 20
0.0
 30
0.0
 11
8.75
 21
1.6000000000000476
 31
0.0
  0
LINE
  5
2A
100
AcDbEntity
  8
0
  6
CONTINUOUS
 62
               7
100
AcDbLine
 10
-7.1807033081725242
 20
1.6000000000000476
 30
0.0
 11
-7.1807033081725242
 21
0.0
 31
0.0
  0
LINE
  5
2B
100
AcDbEntity
  8
0
  6
CONTINUOUS
 62
               7
100
AcDbLine
 10
-9.0
 20
1.6000000000000476
 30
0.0
 11
8.75
 21
1.6000000000000476
 31
0.0
  0
LINE
  5
2C
100
AcDbEntity
  8
0
  6
CONTINUOUS
 62
               7
100
AcDbLine
 10
-17.209005257627972
 20
0.0
 30
0.0
 11
8.75
 21
0.0
 31
0.0
  0
LINE
  5
2D
100
AcDbEntity
  8
0
  6
CONTINUOUS
 62
               7
100
AcDbLine
 10
-9.0
 20
0.0
 30
0.0
 11
-9.0
 21
6.5
 31
0.0
  0
LINE
  5
2E
100
AcDbEntity
  8
0
  6
CONTINUOUS
 62
               7
100
AcDbLine
 10
-17.0
 20
0.0
 30
0.0
 11
-17.000000000000291
 21
6.5
 31
0.0
  0
LINE
  5
2F
100
AcDbEntity
  8
0
  6
CONTINUOUS
 62
               7
100
AcDbLine
 10
-17.0
 20
2.1000000000000014
 30
0.0
 11
-17.302797878015479
 21
2.1000000000000014
 31
0.0
  0
LINE
  5
30
100
AcDbEntity
  8
0
  6
CONTINUOUS
 62
               7
100
AcDbLine
 10
-20.984629660844803
 20
11.667341294139625
 30
0.0
 11
-19.419593513011932
 21
11.999999998509885
 31
0.0
  0
LINE
  5
31
100
AcDbEntity
  8
0
  6
CONTINUOUS
 62
               7
100
AcDbLine
 10
-18.774041421711445
 20
1.2673412919044473
 30
0.0
 11
-20.984629660087194
 21
11.667341294300698
 31
0.0
  0
LINE
  5
32
100
AcDbEntity
  8
0
  6
CONTINUOUS
 62
               7
100
AcDbLine
 10
-17.343696109899252
 20
2.2336706473754084
 30
0.0
 11
-19.419593497239717
 21
12.000000001862411
 31
0.0
  0
ARC
  5
33
100
AcDbEntity
  8
0
  6
CONTINUOUS
 62
               7
100
AcDbCircle
 10
-13.0
 20
6.5
 30
0.0
 40
4.0000000000002904
100
AcDbArc
 50
0.0
 51
180.0
  0
ARC
  5
34
100
AcDbEntity
  8
0
  6
CONTINUOUS
 62
               7
100
AcDbCircle
 10
-17.209005257627972
 20
1.5999999999999979
 30
0.0
 40
1.6000000000000001
100
AcDbArc
 50
192.00000007596475
 51
270.0
  0
ARC
  5
35
100
AcDbEntity
  8
0
  6
CONTINUOUS
 62
               7
100
AcDbCircle
 10
-16.561178029305914
 20
2.4000000000000021
 30
0.0
 40
0.8
100
AcDbArc
 50
191.99999999783162
 51
202.02431283704215
  0
CIRCLE
  5
36
100
AcDbEntity
  8
0
  6
CONTINUOUS
 62
               7
100
AcDbCircle
 10
-13.0
 20
6.4999999999999964
 30
0.0
 40
2.4999999999999996
  0
LINE
  5
37
100
AcDbEntity
  8
0
  6
CONTINUOUS
 62
               7
100
AcDbLine
 10
16.852678915667369
 20
28.310485011994043
 30
0.0
 11
18.663655619564352
 21
29.079199015540322
 31
0.0
  0
LINE
  5
38
100
AcDbEntity
  8
0
  6
CONTINUOUS
 62
               7
100
AcDbLine
 10
13.330243711480733
 20
22.469858466465467
 30
0.0
 11
18.414448724433136
 21
24.627975454910384
 31
0.0
  0
LINE
  5
39
100
AcDbEntity
  8
0
  6
CONTINUOUS
 62
               7
100
AcDbLine
 10
31.301516672767292
 20
30.098211253760216
 30
0.0
 11
30.52324703197695
 21
31.931699628264941
 31
0.0
  0
LINE
  5
3A
100
AcDbEntity
  8
0
  6
CONTINUOUS
 62
               7
100
AcDbLine
 10
18.414448724433136
 20
24.627975454910384
 30
0.0
 11
31.301516672767299
 21
30.098211253760219
 31
0.0
  0
LINE
  5
3B
100
AcDbEntity
  8
0
  6
CONTINUOUS
 62
               7
100
AcDbLine
 10
11.291373090468205
 20
21.145800403632528
 30
0.0
 11
8.112548453863571
 21
18.181498473812763
 31
0.0
  0
LINE
  5
3C
100
AcDbEntity
  8
0
  6
CONTINUOUS
 62
               7
100
AcDbLine
 10
-9.3692012927387864
 20
8.1784816791822124
 30
0.0
 11
-9.3687175406961636
 21
8.1786870197415951
 31
0.0
  0
LINE
  5
3D
100
AcDbEntity
  8
0
  6
CONTINUOUS
 62
               7
100
AcDbLine
 10
-9.8711592455885224
 20
9.3623654989007967
 30
0.0
 11
4.6429006257288608
 21
15.523218395233442
 31
0.0
  0
LINE
  5
3E
100
AcDbEntity
  8
0
  6
CONTINUOUS
 62
               7
100
AcDbLine
 10
-9.3687175406961565
 20
8.1786870197415773
 30
0.0
 11
-9.871159245588526
 21
9.3623654989007861
 31
0.0
  0
LINE
  5
3F
100
AcDbEntity
  8
0
  6
CONTINUOUS
 62
               7
100
AcDbLine
 10
8.1125484538635675
 20
18.181498473812763
 30
0.0
 11
6.6817710383696545
 21
16.8472769489596
 31
0.0
  0
LINE
  5
40
100
AcDbEntity
  8
0
  6
CONTINUOUS
 62
               7
100
AcDbLine
 10
6.4454088359345443
 20
21.720126941148539
 30
0.0
 11
-19.174148104647116
 21
10.845270217423597
 31
0.0
  0
LINE
  5
41
100
AcDbEntity
  8
0
  6
CONTINUOUS
 62
               7
100
AcDbLine
 10
-17.0
 20
5.6824245337822212
 30
0.0
 11
-19.156745978050651
 21
10.763399648653703
 31
0.0
  0
ARC
  5
42
100
AcDbEntity
  8
0
  6
CONTINUOUS
 62
               7
100
AcDbCircle
 10
34.574652885578317
 20
-10.882849420410281
 30
0.0
 40
43.013786457423954
100
AcDbArc
 50
114.33263484661556
 51
130.38940623750756
  0
ARC
  5
43
100
AcDbEntity
  8
0
  6
CONTINUOUS
 62
               7
100
AcDbCircle
 10
16.065361610905029
 20
16.026324492299526
 30
0.0
 40
6.9999999999987228
100
AcDbArc
 50
112.99999999999905
 51
121.79641619156749
  0
ARC
  5
44
100
AcDbEntity
  8
0
  6
CONTINUOUS
 62
               7
100
AcDbCircle
 10
16.065361610905398
 20
16.026324492298706
 30
0.0
 40
6.9999999999996145
100
AcDbArc
 50
121.79641619156649
 51
133.00000000000031
  0
ARC
  5
45
100
AcDbEntity
  8
0
  6
CONTINUOUS
 62
               7
100
AcDbCircle
 10
6.054656752770506
 20
22.640621289772163
 30
0.0
 40
0.9999984958715279
100
AcDbArc
 50
292.98611111842513
 51
310.4064645936927
  0
ARC
  5
46
100
AcDbEntity
  8
0
  6
CONTINUOUS
 62
               7
100
AcDbCircle
 10
1.9077825179321239
 20
21.966752860293784
 30
0.0
 40
7.0
100
AcDbArc
 50
292.99999999999994
 51
313.00000000000028
  0
LINE
  5
48
100
AcDbEntity
  8
0
  6
CENTER
 62
               2
100
AcDbLine
 10
-18.0
 20
6.4999999999999964
 30
0.0
 11
-7.9999999999999991
 21
6.4999999999999964
 31
0.0
  0
LINE
  5
49
100
AcDbEntity
  8
0
  6
CENTER
 62
               2
100
AcDbLine
 10
-13.0
 20
1.4999999999999964
 30
0.0
 11
-13.0
 21
11.499999999999996
 31
0.0
  0
ARC
  5
4A
100
AcDbEntity
  8
0
  6
CONTINUOUS
 62
               7
100
AcDbCircle
 10
33.862159567473711
 20
-8.0316733563711438
 30
0.0
 40
40.102531971700905
100
AcDbArc
 50
94.776885110334604
 51
112.27411613873593
  0
LINE
  5
4B
100
AcDbEntity
  8
0
  6
CENTER
 62
               2
100
AcDbLine
 10
-0.0000000000000009
 20
-3.0
 30
0.0
 11
0.0
 21
4.6000000000000476
 31
0.0
  0
ENDBLK
  5
4C
100
AcDbEntity
  8
0
100
AcDbBlockEnd
  0
BLOCK
  5
4D
100
AcDbEntity
  8
0
100
AcDbBlockBegin
  2
34T-2
 70
               0
 10
0.0
 20
0.0
 30
0.0
  3
34T-2
  1

  0
ARC
  5
4E
100
AcDbEntity
  8
0
  6
CONTINUOUS
 62
               7
100
AcDbCircle
 10
10.203874592333634
 20
16.062675377293719
 30
0.0
 40
5.9596109602140794
100
AcDbArc
 50
103.04627410975756
 51
121.46831258609853
  0
ARC
  5
4F
100
AcDbEntity
  8
0
  6
CONTINUOUS
 62
               7
100
AcDbCircle
 10
4.4170766457551309
 20
45.159839604462015
 30
0.0
 40
23.711079791427089
100
AcDbArc
 50
280.7962472686645
 51
286.87589498948057
  0
ARC
  5
50
100
AcDbEntity
  8
0
  6
CONTINUOUS
 62
               7
100
AcDbCircle
 10
8.0909223515060873
 20
20.679894085510263
 30
0.0
 40
3.4189288854205619
100
AcDbArc
 50
116.060180641427
 51
164.2009443069949
  0
ARC
  5
51
100
AcDbEntity
  8
0
  6
CONTINUOUS
 62
               7
100
AcDbCircle
 10
9.4480527642744008
 20
18.280987818979472
 30
0.0
 40
6.1723667663741546
100
AcDbArc
 50
95.689370083085407
 51
117.59459468178723
  0
ARC
  5
52
100
AcDbEntity
  8
0
  6
CONTINUOUS
 62
               7
100
AcDbCircle
 10
3.6678741506784149
 20
85.142435122750754
 30
0.0
 40
60.939043879892047
100
AcDbArc
 50
274.86513684052949
 51
276.3465113189776
  0
ARC
  5
53
100
AcDbEntity
  8
0
  6
CONTINUOUS
 62
               7
100
AcDbCircle
 10
9.3513882207219297
 20
32.360736774831956
 30
0.0
 40
7.8547528327725571
100
AcDbArc
 50
277.70242492952019
 51
294.49511200757729
  0
ARC
  5
54
100
AcDbEntity
  8
0
  6
CONTINUOUS
 62
               7
100
AcDbCircle
 10
11.797885121783793
 20
27.365238005192431
 30
0.0
 40
2.2997454812833258
100
AcDbArc
 50
290.62821541428104
 51
343.24520005981827
  0
ARC
  5
55
100
AcDbEntity
  8
0
  6
CONTINUOUS
 62
               7
100
AcDbCircle
 10
11.427437557320012
 20
26.820958162053739
 30
0.0
 40
2.5728738705195804
100
AcDbArc
 50
0.8914797432038931
 51
39.759576923930702
  0
ARC
  5
56
100
AcDbEntity
  8
0
  6
CONTINUOUS
 62
               7
100
AcDbCircle
 10
9.2894666715400405
 20
25.02310617386512
 30
0.0
 40
5.3662746198118807
100
AcDbArc
 50
39.916475138928021
 51
63.787911774856155
  0
ARC
  5
57
100
AcDbEntity
  8
0
  6
CONTINUOUS
 62
               7
100
AcDbCircle
 10
-10.203874592333634
 20
16.062675377293719
 30
0.0
 40
5.9596109602140794
100
AcDbArc
 50
58.531687413901459
 51
76.953725890242438
  0
ARC
  5
58
100
AcDbEntity
  8
0
  6
CONTINUOUS
 62
               7
100
AcDbCircle
 10
-4.4170766457551309
 20
45.159839604462015
 30
0.0
 40
23.711079791427089
100
AcDbArc
 50
253.1241050105194
 51
259.20375273133544
  0
ARC
  5
59
100
AcDbEntity
  8
0
  6
CONTINUOUS
 62
               7
100
AcDbCircle
 10
-8.0909223515060944
 20
20.679894085510263
 30
0.0
 40
3.4189288854205619
100
AcDbArc
 50
16.120634039727346
 51
63.939819358573004
  0
ARC
  5
5A
100
AcDbEntity
  8
0
  6
CONTINUOUS
 62
               7
100
AcDbCircle
 10
-9.4480527642744079
 20
18.280987818979472
 30
0.0
 40
6.1723667663741546
100
AcDbArc
 50
62.405405318212779
 51
84.310629916914593
  0
ARC
  5
5B
100
AcDbEntity
  8
0
  6
CONTINUOUS
 62
               7
100
AcDbCircle
 10
-3.6678741506784149
 20
85.142435122750754
 30
0.0
 40
60.939043879892047
100
AcDbArc
 50
263.6534886810224
 51
265.13486315947051
  0
ARC
  5
5C
100
AcDbEntity
  8
0
  6
CONTINUOUS
 62
               7
100
AcDbCircle
 10
-9.3513882207219297
 20
32.360736774831956
 30
0.0
 40
7.8547528327725571
100
AcDbArc
 50
245.50488799242274
 51
262.29757507047981
  0
ARC
  5
5D
100
AcDbEntity
  8
0
  6
CONTINUOUS
 62
               7
100
AcDbCircle
 10
-11.797885121783793
 20
27.365238005192431
 30
0.0
 40
2.2997454812833258
100
AcDbArc
 50
196.75479994018173
 51
249.37178458571898
  0
ARC
  5
5E
100
AcDbEntity
  8
0
  6
CONTINUOUS
 62
               7
100
AcDbCircle
 10
-11.427437557320019
 20
26.820958162053739
 30
0.0
 40
2.5728738705195804
100
AcDbArc
 50
140.24042307606931
 51
179.10852025679611
  0
ARC
  5
5F
100
AcDbEntity
  8
0
  6
CONTINUOUS
 62
               7
100
AcDbCircle
 10
-9.2894666715400405
 20
25.02310617386512
 30
0.0
 40
5.3662746198118807
100
AcDbArc
 50
116.21208822514384
 51
140.08352486107199
  0
ARC
  5
60
100
AcDbEntity
  8
0
  6
CONTINUOUS
 62
               7
100
AcDbCircle
 10
-5.1304731322647115
 20
17.036681871218274
 30
0.0
 40
14.369868249350425
100
AcDbArc
 50
102.28367591009048
 51
117.02446870307205
  0
ARC
  5
61
100
AcDbEntity
  8
0
  6
CONTINUOUS
 62
               7
100
AcDbCircle
 10
0.0226142270545893
 20
-7.9492091253342636
 30
0.0
 40
39.881055414909795
100
AcDbArc
 50
78.742296658156818
 51
101.88042220326346
  0
LINE
  5
62
100
AcDbEntity
  8
0
  6
CENTER
 62
               2
100
AcDbLine
 10
-9.7999899999999798
 20
6.4999999999999964
 30
0.0
 11
10.001542687151158
 21
6.4999999999999929
 31
0.0
  0
ELLIPSE
  5
63
100
AcDbEntity
  8
0
  6
CONTINUOUS
 62
               7
100
AcDbEllipse
 10
6.9999999999999929
 20
24.627975454910384
 30
0.0
 11
7.0
 21
-0.0000000000000017
 31
0.0
210
0.0
220
0.0
230
1.0
 40
0.3907311284892737
 41
5.373940790867004
 42
0.0
  0
ELLIPSE
  5
64
100
AcDbEntity
  8
0
  6
CONTINUOUS
 62
               7
100
AcDbEllipse
 10
-7.0
 20
24.627975454910384
 30
0.0
 11
6.9999999999999991
 21
-0.0000000000000017
 31
0.0
210
0.0
220
0.0
230
1.0
 40
0.3907311284892737
 41
3.1415926535897931
 42
4.0508371699023762
  0
ELLIPSE
  5
65
100
AcDbEntity
  8
0
  6
CONTINUOUS
 62
               7
100
AcDbEllipse
 10
-11.700000000000003
 20
17.320951852639226
 30
0.0
 11
-7.0000000000000009
 21
0.0000000000000009
 31
0.0
210
0.0
220
0.0
230
1.0
 40
0.7257674956435346
 41
3.3161935857154798
 42
3.9940010750340034
  0
ELLIPSE
  5
66
100
AcDbEntity
  8
0
  6
CONTINUOUS
 62
               7
100
AcDbEllipse
 10
11.700000000000003
 20
17.320951852639233
 30
0.0
 11
-7.0
 21
0.0000000000000009
 31
0.0
210
0.0
220
0.0
230
1.0
 40
0.7257674956435346
 41
5.4307768857353782
 42
6.1129781446933276
  0
LINE
  5
67
100
AcDbEntity
  8
0
  6
CONTINUOUS
 62
               7
100
AcDbLine
 10
13.999999999999993
 20
24.627975454910384
 30
0.0
 11
13.999999999999993
 21
26.86115340590214
 31
0.0
  0
LINE
  5
68
100
AcDbEntity
  8
0
  6
CONTINUOUS
 62
               7
100
AcDbLine
 10
-14.0
 20
24.627975454910381
 30
0.0
 11
-14.0
 21
26.860988551940416
 31
0.0
  0
LINE
  5
69
100
AcDbEntity
  8
0
  6
CONTINUOUS
 62
               7
100
AcDbLine
 10
4.80115211728139
 20
10.894103337594107
 30
0.0
 11
4.80115211728139
 21
21.610746667594153
 31
0.0
  0
LINE
  5
6A
100
AcDbEntity
  8
0
  6
CONTINUOUS
 62
               7
100
AcDbLine
 10
-4.8064284098075518
 20
10.883327238091155
 30
0.0
 11
-4.8064284098075518
 21
21.629196076716784
 31
0.0
  0
ELLIPSE
  5
6B
100
AcDbEntity
  8
0
  6
CONTINUOUS
 62
               7
100
AcDbEllipse
 10
3.0
 20
10.043704800379064
 30
0.0
 11
2.0
 21
-0.0000000000000005
 31
0.0
210
0.0
220
0.0
230
1.0
 40
0.9781476007416743
 41
0.0
 42
1.5707963267948952
  0
ELLIPSE
  5
6C
100
AcDbEntity
  8
0
  6
CONTINUOUS
 62
               7
100
AcDbEllipse
 10
-3.0
 20
10.043704800379025
 30
0.0
 11
2.0
 21
-0.0000000000000005
 31
0.0
210
0.0
220
0.0
230
1.0
 40
0.9781476007416743
 41
1.5707963267948966
 42
3.1415926535897931
  0
ELLIPSE
  5
6D
100
AcDbEntity
  8
0
  6
CONTINUOUS
 62
               7
100
AcDbEllipse
 10
3.0
 20
9.711046092699128
 30
0.0
 11
-2.0
 21
0.0000000000000002
 31
0.0
210
0.0
220
0.0
230
1.0
 40
0.9781476008007859
 41
3.1415926535897931
 42
4.7123889803846888
  0
ELLIPSE
  5
6E
100
AcDbEntity
  8
0
  6
CONTINUOUS
 62
               7
100
AcDbEllipse
 10
-3.0
 20
9.7110460926990854
 30
0.0
 11
-2.0
 21
0.0000000000000002
 31
0.0
210
0.0
220
0.0
230
1.0
 40
0.9781476008007859
 41
4.7123889803846897
 42
0.0
  0
ARC
  5
6F
100
AcDbEntity
  8
0
  6
CONTINUOUS
 62
               7
100
AcDbCircle
 10
0.9999999999998437
 20
6.4999999999999964
 30
0.0
 40
7.0015426871513124
100
AcDbArc
 50
339.07999451023079
 51
20.920005489769256
  0
ARC
  5
70
100
AcDbEntity
  8
0
  6
CONTINUOUS
 62
               7
100
AcDbCircle
 10
5.5999999999999943
 20
1.0
 30
0.0
 40
1.0
100
AcDbArc
 50
270.00000000000284
 51
0.0
  0
ARC
  5
71
100
AcDbEntity
  8
0
  6
CONTINUOUS
 62
               7
100
AcDbCircle
 10
-5.5999900000000054
 20
1.0
 30
0.0
 40
1.0
100
AcDbArc
 50
180.0
 51
270.00000000000006
  0
LINE
  5
72
100
AcDbEntity
  8
0
  6
CONTINUOUS
 62
               7
100
AcDbLine
 10
-8.75
 20
0.0
 30
0.0
 11
8.75
 21
0.0
 31
0.0
  0
LINE
  5
73
100
AcDbEntity
  8
0
  6
CONTINUOUS
 62
               7
100
AcDbLine
 10
6.6000000000000441
 20
1.6000000000000476
 30
0.0
 11
8.75
 21
1.6000000000000476
 31
0.0
  0
LINE
  5
74
100
AcDbEntity
  8
0
  6
CONTINUOUS
 62
               7
100
AcDbLine
 10
-8.75
 20
1.6000000000000441
 30
0.0
 11
-8.75
 21
0.0
 31
0.0
  0
LINE
  5
75
100
AcDbEntity
  8
0
  6
CONTINUOUS
 62
               7
100
AcDbLine
 10
8.75
 20
0.0
 30
0.0
 11
8.75
 21
1.6000000000000476
 31
0.0
  0
LINE
  5
76
100
AcDbEntity
  8
0
  6
CONTINUOUS
 62
               7
100
AcDbLine
 10
-8.75
 20
1.6000000000000441
 30
0.0
 11
-6.5999900000000054
 21
1.6000000000000441
 31
0.0
  0
LINE
  5
77
100
AcDbEntity
  8
0
  6
CONTINUOUS
 62
               7
100
AcDbLine
 10
-7.7999899999999798
 20
4.9999999999999929
 30
0.0
 11
-6.5999900000000054
 21
4.9999999999999964
 31
0.0
  0
LINE
  5
78
100
AcDbEntity
  8
0
  6
CONTINUOUS
 62
               7
100
AcDbLine
 10
-6.5999900000000054
 20
7.9999999999999964
 30
0.0
 11
-7.7999899999999798
 21
7.9999999999999964
 31
0.0
  0
LINE
  5
79
100
AcDbEntity
  8
0
  6
CONTINUOUS
 62
               7
100
AcDbLine
 10
-7.7999899999999798
 20
4.9999999999999964
 30
0.0
 11
-7.7999899999999798
 21
7.9999999999999964
 31
0.0
  0
LINE
  5
7A
100
AcDbEntity
  8
0
  6
CONTINUOUS
 62
               7
100
AcDbLine
 10
7.5399999999999991
 20
8.9999999999999964
 30
0.0
 11
6.6000000000000014
 21
8.9999999999999964
 31
0.0
  0
LINE
  5
7B
100
AcDbEntity
  8
0
  6
CONTINUOUS
 62
               7
100
AcDbLine
 10
6.6000000000000014
 20
3.9999999999999964
 30
0.0
 11
7.5399999999999991
 21
3.9999999999999964
 31
0.0
  0
LINE
  5
7C
100
AcDbEntity
  8
0
  6
CONTINUOUS
 62
               7
100
AcDbLine
 10
7.5399999999999991
 20
3.9999999999999964
 30
0.0
 11
7.5399999999999991
 21
8.9999999999999964
 31
0.0
  0
LINE
  5
7D
100
AcDbEntity
  8
0
  6
CONTINUOUS
 62
               7
100
AcDbLine
 10
6.6000000000000512
 20
10.500000000000291
 30
0.0
 11
5.0
 21
10.500000000000291
 31
0.0
  0
LINE
  5
7E
100
AcDbEntity
  8
0
  6
CONTINUOUS
 62
               7
100
AcDbLine
 10
-5.0
 20
10.500000000000288
 30
0.0
 11
-6.5999900000000054
 21
10.500000000000288
 31
0.0
  0
LINE
  5
7F
100
AcDbEntity
  8
0
  6
CONTINUOUS
 62
               7
100
AcDbLine
 10
-6.5999900000000054
 20
1.0
 30
0.0
 11
-6.5999900000000054
 21
10.500000000000291
 31
0.0
  0
LINE
  5
80
100
AcDbEntity
  8
0
  6
CONTINUOUS
 62
               7
100
AcDbLine
 10
6.6000000000000512
 20
1.0
 30
0.0
 11
6.6000000000000512
 21
10.500000000000291
 31
0.0
  0
LINE
  5
81
100
AcDbEntity
  8
0
  6
CONTINUOUS
 62
               7
100
AcDbLine
 10
5.0
 20
0.0
 30
0.0
 11
5.0
 21
10.500000000000291
 31
0.0
  0
LINE
  5
82
100
AcDbEntity
  8
0
  6
CONTINUOUS
 62
               7
100
AcDbLine
 10
-5.0
 20
0.0
 30
0.0
 11
-5.0
 21
10.500000000000288
 31
0.0
  0
LINE
  5
83
100
AcDbEntity
  8
0
  6
CONTINUOUS
 62
               7
100
AcDbLine
 10
3.0
 20
11.667341294139625
 30
0.0
 11
-3.0
 21
11.667341294139625
 31
0.0
  0
LINE
  5
84
100
AcDbEntity
  8
0
  6
CONTINUOUS
 62
               7
100
AcDbLine
 10
3.0
 20
11.999999998509885
 30
0.0
 11
-3.0
 21
11.999999998509885
 31
0.0
  0
ARC
  5
85
100
AcDbEntity
  8
0
  6
CONTINUOUS
 62
               7
100
AcDbCircle
 10
5.1304731322647115
 20
17.036681871218274
 30
0.0
 40
14.369868249350425
100
AcDbArc
 50
62.975531296927947
 51
76.161871238061195
  0
LINE
  5
86
100
AcDbEntity
  8
0
  6
CONTINUOUS
 62
               7
100
AcDbLine
 10
8.5674534465844161
 20
30.9894693999764
 30
0.0
 11
7.808281026690338
 21
31.164496573463385
 31
0.0
  0
LINE
  5
87
100
AcDbEntity
  8
0
  6
CENTER
 62
               2
100
AcDbLine
 10
0.0
 20
-3.0
 30
0.0
 11
0.0
 21
34.268517705376908
 31
0.0
  0
ENDBLK
  5
88
100
AcDbEntity
  8
0
100
AcDbBlockEnd
  0
BLOCK
  5
89
100
AcDbEntity
  8
0
100
AcDbBlockBegin
  2
34T-3
 70
               0
 10
0.0
 20
0.0
 30
0.0
  3
34T-3
  1

  0
ARC
  5
8A
100
AcDbEntity
  8
0
  6
CONTINUOUS
 62
               7
100
AcDbCircle
 10
10.214913355336549
 20
16.039499485804573
 30
0.0
 40
5.9851414832262524
100
AcDbArc
 50
102.82284633195034
 51
121.4426267005462
  0
ARC
  5
8B
100
AcDbEntity
  8
0
  6
CONTINUOUS
 62
               7
100
AcDbCircle
 10
4.5667475642121929
 20
44.613174213023846
 30
0.0
 40
23.144511866564631
100
AcDbArc
 50
280.75713561350636
 51
286.91419522004537
  0
ARC
  5
8C
100
AcDbEntity
  8
0
  6
CONTINUOUS
 62
               7
100
AcDbCircle
 10
9.4423571901713643
 20
15.854714313201251
 30
0.0
 40
6.6477690012084771
100
AcDbArc
 50
95.678736164462251
 51
127.25784993719887
  0
ARC
  5
8D
100
AcDbEntity
  8
0
  6
CONTINUOUS
 62
               7
100
AcDbCircle
 10
-10.214913355336549
 20
16.039499485804573
 30
0.0
 40
5.9851414832262524
100
AcDbArc
 50
58.557373299453793
 51
77.177153668049655
  0
ARC
  5
8E
100
AcDbEntity
  8
0
  6
CONTINUOUS
 62
               7
100
AcDbCircle
 10
-4.5667475642121929
 20
44.613174213023846
 30
0.0
 40
23.144511866564631
100
AcDbArc
 50
253.08580477995463
 51
259.24286438649364
  0
ARC
  5
8F
100
AcDbEntity
  8
0
  6
CONTINUOUS
 62
               7
100
AcDbCircle
 10
-9.4423571901713643
 20
15.854714313201251
 30
0.0
 40
6.6477690012084771
100
AcDbArc
 50
52.742150062801123
 51
84.321263835537749
  0
ARC
  5
90
100
AcDbEntity
  8
0
  6
CONTINUOUS
 62
               7
100
AcDbCircle
 10
-8.0337457455389938
 20
19.178036229505555
 30
0.0
 40
4.6635330003000197
100
AcDbArc
 50
18.106636707977096
 51
82.223390449178083
  0
ARC
  5
91
100
AcDbEntity
  8
0
  6
CONTINUOUS
 62
               7
100
AcDbCircle
 10
-11.798463949654376
 20
-0.2397460576546031
 30
0.0
 40
24.437031013179272
100
AcDbArc
 50
79.637199180700563
 51
85.936067542856918
  0
ARC
  5
92
100
AcDbEntity
  8
0
  6
CONTINUOUS
 62
               7
100
AcDbCircle
 10
-9.728632082320857
 20
28.03537062019933
 30
0.0
 40
3.9141505236203922
100
AcDbArc
 50
222.11331608506177
 51
265.04628558531027
  0
ARC
  5
93
100
AcDbEntity
  8
0
  6
CONTINUOUS
 62
               7
100
AcDbCircle
 10
10.713182938351594
 20
26.555892541922542
 30
0.0
 40
3.300962070642532
100
AcDbArc
 50
5.306084753959456
 51
60.484428736831021
  0
ARC
  5
94
100
AcDbEntity
  8
0
  6
CONTINUOUS
 62
               7
100
AcDbCircle
 10
6.4799295434213064
 20
20.345757581852141
 30
0.0
 40
10.808761377197893
100
AcDbArc
 50
57.17281035558802
 51
75.084652227233775
  0
ARC
  5
95
100
AcDbEntity
  8
0
  6
CONTINUOUS
 62
               7
100
AcDbCircle
 10
-6.4799295434213064
 20
20.345757581852141
 30
0.0
 40
10.808761377197893
100
AcDbArc
 50
104.91534777276622
 51
122.82718964441197
  0
ARC
  5
96
100
AcDbEntity
  8
0
  6
CONTINUOUS
 62
               7
100
AcDbCircle
 10
-10.713182938351594
 20
26.555892541922542
 30
0.0
 40
3.300962070642532
100
AcDbArc
 50
119.51557126316898
 51
174.69391524604055
  0
ARC
  5
97
100
AcDbEntity
  8
0
  6
CONTINUOUS
 62
               7
100
AcDbCircle
 10
-0.0335464066859004
 20
-5.9392754947109196
 30
0.0
 40
37.871220760818986
100
AcDbArc
 50
75.79774374533558
 51
104.10385320715923
  0
LINE
  5
98
100
AcDbEntity
  8
0
  6
CENTER
 62
               2
100
AcDbLine
 10
-10.001542687151158
 20
6.4999999999999964
 30
0.0
 11
9.7999899999999798
 21
6.4999999999999964
 31
0.0
  0
ELLIPSE
  5
99
100
AcDbEntity
  8
0
  6
CONTINUOUS
 62
               7
100
AcDbEllipse
 10
0.0034937437949054
 20
-46.877841585655737
 30
0.0
 11
61.501322389884919
 21
-0.0000000000000151
 31
0.0
210
0.0
220
0.0
230
1.0
 40
0.9205048534524404
 41
1.5121797218562529
 42
1.6294408033364043
  0
ELLIPSE
  5
9A
100
AcDbEntity
  8
0
  6
CONTINUOUS
 62
               7
100
AcDbEllipse
 10
11.700000000000003
 20
17.320951852639229
 30
0.0
 11
7.0000000000000009
 21
0.0
 31
0.0
210
0.0
220
0.0
230
1.0
 40
0.7257674956435346
 41
2.2891842321455842
 42
2.9713854911035398
  0
ELLIPSE
  5
9B
100
AcDbEntity
  8
0
  6
CONTINUOUS
 62
               7
100
AcDbEllipse
 10
-11.700000000000003
 20
17.320951852639229
 30
0.0
 11
7.0
 21
0.0
 31
0.0
210
0.0
220
0.0
230
1.0
 40
0.7257674956435346
 41
0.1702071624862587
 42
0.8524084214442089
  0
ELLIPSE
  5
9C
100
AcDbEntity
  8
0
  6
CONTINUOUS
 62
               7
100
AcDbEllipse
 10
-11.700000000000003
 20
17.320951852639229
 30
0.0
 11
8.2000000000000011
 21
0.0
 31
0.0
210
0.0
220
0.0
230
1.0
 40
0.7257674956435345
 41
0.1572327515945329
 42
0.698006865257458
  0
ELLIPSE
  5
9D
100
AcDbEntity
  8
0
  6
CONTINUOUS
 62
               7
100
AcDbEllipse
 10
7.0
 20
24.627975454910384
 30
0.0
 11
6.9999999999999991
 21
-0.0000000000000017
 31
0.0
210
0.0
220
0.0
230
1.0
 40
0.3907311284892737
 41
5.3739407908670032
 42
0.0
  0
ELLIPSE
  5
9E
100
AcDbEntity
  8
0
  6
CONTINUOUS
 62
               7
100
AcDbEllipse
 10
-7.0
 20
24.627975454910384
 30
0.0
 11
7.0
 21
-0.0000000000000017
 31
0.0
210
0.0
220
0.0
230
1.0
 40
0.3907311284892737
 41
3.1415926535897931
 42
4.0508371699023762
  0
ELLIPSE
  5
9F
100
AcDbEntity
  8
0
  6
CONTINUOUS
 62
               7
100
AcDbEllipse
 10
-11.700000000000003
 20
19.475211012716471
 30
0.0
 11
8.2000000000000011
 21
-0.000000000000002
 31
0.0
210
0.0
220
0.0
230
1.0
 40
0.3907311284892737
 41
1.2073026723361173
 42
1.2284329048795646
  0
ELLIPSE
  5
A0
100
AcDbEntity
  8
0
  6
CONTINUOUS
 62
               7
100
AcDbEllipse
 10
-7.0
 20
24.627975454910384
 30
0.0
 11
5.8000000000000007
 21
-0.0000000000000014
 31
0.0
210
0.0
220
0.0
230
1.0
 40
0.3907311284892737
 41
3.1415926535897931
 42
4.3700255584693588
  0
ELLIPSE
  5
A1
100
AcDbEntity
  8
0
  6
CONTINUOUS
 62
               7
100
AcDbEllipse
 10
0.0
 20
24.627975454910381
 30
0.0
 11
12.800000000000001
 21
-0.0000000000000031
 31
0.0
210
0.0
220
0.0
230
1.0
 40
0.3907311284892737
 41
0.0
 42
3.1415926535897931
  0
ELLIPSE
  5
A2
100
AcDbEntity
  8
0
  6
CONTINUOUS
 62
               7
100
AcDbEllipse
 10
7.0
 20
24.627975454910384
 30
0.0
 11
5.7999999999999998
 21
-0.0000000000000014
 31
0.0
210
0.0
220
0.0
230
1.0
 40
0.3907311284892737
 41
5.0248991447189031
 42
0.0
  0
ELLIPSE
  5
A3
100
AcDbEntity
  8
0
  6
CONTINUOUS
 62
               7
100
AcDbEllipse
 10
0.0
 20
24.627975454910381
 30
0.0
 11
14.0
 21
-0.0000000000000034
 31
0.0
210
0.0
220
0.0
230
1.0
 40
0.3907311284892737
 41
0.0
 42
3.1415926535897931
  0
LINE
  5
A4
100
AcDbEntity
  8
0
  6
CONTINUOUS
 62
               7
100
AcDbLine
 10
-3.6011521172838314
 20
2.4999999999999964
 30
0.0
 11
-3.6011521172813872
 21
20.627399459209276
 31
0.0
  0
LINE
  5
A5
100
AcDbEntity
  8
0
  6
CONTINUOUS
 62
               7
100
AcDbLine
 10
-4.80115211728139
 20
2.4999999999999964
 30
0.0
 11
-3.6011521172838457
 21
2.4999999999999964
 31
0.0
  0
LINE
  5
A6
100
AcDbEntity
  8
0
  6
CONTINUOUS
 62
               7
100
AcDbLine
 10
3.6064284097960808
 20
2.4999999999999964
 30
0.0
 11
4.806428409807495
 21
2.4999999999999964
 31
0.0
  0
LINE
  5
A7
100
AcDbEntity
  8
0
  6
CONTINUOUS
 62
               7
100
AcDbLine
 10
3.606428409807549
 20
9.3623657443474215
 30
0.0
 11
4.8064284098075376
 21
9.3623654989007932
 31
0.0
  0
LINE
  5
A8
100
AcDbEntity
  8
0
  6
CONTINUOUS
 62
               7
100
AcDbLine
 10
-4.80115211728139
 20
2.4999999999999964
 30
0.0
 11
-4.8011521173034453
 21
18.181498473812763
 31
0.0
  0
LINE
  5
A9
100
AcDbEntity
  8
0
  6
CONTINUOUS
 62
               7
100
AcDbLine
 10
-4.80115211728139
 20
9.3623654989007932
 30
0.0
 11
-3.6011521172813872
 21
9.3623657443474215
 31
0.0
  0
LINE
  5
AA
100
AcDbEntity
  8
0
  6
CONTINUOUS
 62
               7
100
AcDbLine
 10
3.6064284097960808
 20
2.4999999999999964
 30
0.0
 11
3.6064284097960808
 21
20.643437626228508
 31
0.0
  0
LINE
  5
AB
100
AcDbEntity
  8
0
  6
CONTINUOUS
 62
               7
100
AcDbLine
 10
4.8064284098075376
 20
18.203489523384352
 30
0.0
 11
4.8064284098075376
 21
18.181498473812738
 31
0.0
  0
LINE
  5
AC
100
AcDbEntity
  8
0
  6
CONTINUOUS
 62
               7
100
AcDbLine
 10
4.806428409807495
 20
2.4999999999999964
 30
0.0
 11
4.8064284098075376
 21
18.181498473812738
 31
0.0
  0
LINE
  5
AD
100
AcDbEntity
  8
0
  6
CONTINUOUS
 62
               7
100
AcDbLine
 10
4.8064284098075376
 20
18.181498473812738
 30
0.0
 11
4.8011521173255005
 21
18.181498473812734
 31
0.0
  0
LINE
  5
AE
100
AcDbEntity
  8
0
  6
CONTINUOUS
 62
               7
100
AcDbLine
 10
-14.0
 20
24.627975454910381
 30
0.0
 11
-14.0
 21
26.861153405902137
 31
0.0
  0
LINE
  5
AF
100
AcDbEntity
  8
0
  6
CONTINUOUS
 62
               7
100
AcDbLine
 10
14.0
 20
24.627975454910384
 30
0.0
 11
14.0
 21
26.860988551940419
 31
0.0
  0
ELLIPSE
  5
B0
100
AcDbEntity
  8
0
  6
CONTINUOUS
 62
               7
100
AcDbEllipse
 10
-3.0
 20
10.043704800379064
 30
0.0
 11
2.0
 21
-0.0000000000000005
 31
0.0
210
0.0
220
0.0
230
1.0
 40
0.9781476007416743
 41
2.6918892193576971
 42
3.1415926535897931
  0
ELLIPSE
  5
B1
100
AcDbEntity
  8
0
  6
CONTINUOUS
 62
               7
100
AcDbEllipse
 10
3.0
 20
10.043704800379025
 30
0.0
 11
2.0
 21
-0.0000000000000005
 31
0.0
210
0.0
220
0.0
230
1.0
 40
0.9781476007416743
 41
0.0
 42
0.4435958451446231
  0
ARC
  5
B2
100
AcDbEntity
  8
0
  6
CONTINUOUS
 62
               7
100
AcDbCircle
 10
-0.9999999999998437
 20
6.4999999999999964
 30
0.0
 40
7.0015426871513124
100
AcDbArc
 50
159.07999451023079
 51
200.92000548976927
  0
ARC
  5
B3
100
AcDbEntity
  8
0
  6
CONTINUOUS
 62
               7
100
AcDbCircle
 10
-4.5
 20
2.0999999999999979
 30
0.0
 40
0.5
100
AcDbArc
 50
180.0
 51
270.0
  0
ARC
  5
B4
100
AcDbEntity
  8
0
  6
CONTINUOUS
 62
               7
100
AcDbCircle
 10
4.4999899999999968
 20
2.1000000000000014
 30
0.0
 40
0.5
100
AcDbArc
 50
270.0
 51
0.0
  0
LINE
  5
B5
100
AcDbEntity
  8
0
  6
CONTINUOUS
 62
               7
100
AcDbLine
 10
7.7999899999999798
 20
7.9999999999999964
 30
0.0
 11
7.7999899999999798
 21
4.9999999999999964
 31
0.0
  0
LINE
  5
B6
100
AcDbEntity
  8
0
  6
CONTINUOUS
 62
               7
100
AcDbLine
 10
7.7999899999999798
 20
7.9999999999999964
 30
0.0
 11
6.5999900000000054
 21
7.9999999999999964
 31
0.0
  0
LINE
  5
B7
100
AcDbEntity
  8
0
  6
CONTINUOUS
 62
               7
100
AcDbLine
 10
6.5999900000000054
 20
4.9999999999999964
 30
0.0
 11
7.7999899999999798
 21
4.9999999999999964
 31
0.0
  0
LINE
  5
B8
100
AcDbEntity
  8
0
  6
CONTINUOUS
 62
               7
100
AcDbLine
 10
-4.8011521172813758
 20
7.9999999999999964
 30
0.0
 11
-5.0
 21
7.9999999999999964
 31
0.0
  0
LINE
  5
B9
100
AcDbEntity
  8
0
  6
CONTINUOUS
 62
               7
100
AcDbLine
 10
3.6064284098075206
 20
7.9999999999999964
 30
0.0
 11
-3.6011521172812877
 21
7.9999999999999964
 31
0.0
  0
LINE
  5
BA
100
AcDbEntity
  8
0
  6
CONTINUOUS
 62
               7
100
AcDbLine
 10
4.9999899999999542
 20
7.9999999999999964
 30
0.0
 11
4.806428409807495
 21
7.9999999999999964
 31
0.0
  0
LINE
  5
BB
100
AcDbEntity
  8
0
  6
CONTINUOUS
 62
               7
100
AcDbLine
 10
4.806428409807495
 20
4.9999999999999964
 30
0.0
 11
4.9999899999999542
 21
4.9999999999999964
 31
0.0
  0
LINE
  5
BC
100
AcDbEntity
  8
0
  6
CONTINUOUS
 62
               7
100
AcDbLine
 10
-3.6011521172838457
 20
4.9999999999999964
 30
0.0
 11
3.6064284097960808
 21
4.9999999999999964
 31
0.0
  0
LINE
  5
BD
100
AcDbEntity
  8
0
  6
CONTINUOUS
 62
               7
100
AcDbLine
 10
-5.0
 20
4.9999999999999964
 30
0.0
 11
-4.8011521172813758
 21
4.9999999999999964
 31
0.0
  0
LINE
  5
BE
100
AcDbEntity
  8
0
  6
CONTINUOUS
 62
               7
100
AcDbLine
 10
-7.5400000000000063
 20
3.9999999999999964
 30
0.0
 11
-6.6000000000000085
 21
3.9999999999999964
 31
0.0
  0
LINE
  5
BF
100
AcDbEntity
  8
0
  6
CONTINUOUS
 62
               7
100
AcDbLine
 10
-6.6000000000000085
 20
8.9999999999999964
 30
0.0
 11
-7.5400000000000063
 21
8.9999999999999964
 31
0.0
  0
LINE
  5
C0
100
AcDbEntity
  8
0
  6
CONTINUOUS
 62
               7
100
AcDbLine
 10
-7.5400000000000063
 20
8.9999999999999964
 30
0.0
 11
-7.5400000000000063
 21
3.9999999999999964
 31
0.0
  0
LINE
  5
C1
100
AcDbEntity
  8
0
  6
CONTINUOUS
 62
               7
100
AcDbLine
 10
-6.6000000000000512
 20
1.6000000000000441
 30
0.0
 11
-6.6000000000000512
 21
10.500000000000291
 31
0.0
  0
LINE
  5
C2
100
AcDbEntity
  8
0
  6
CONTINUOUS
 62
               7
100
AcDbLine
 10
-5.0
 20
2.0999999999999979
 30
0.0
 11
-5.0
 21
10.500000000000291
 31
0.0
  0
LINE
  5
C3
100
AcDbEntity
  8
0
  6
CONTINUOUS
 62
               7
100
AcDbLine
 10
-5.0
 20
10.500000000000288
 30
0.0
 11
-6.6000000000000512
 21
10.500000000000288
 31
0.0
  0
LINE
  5
C4
100
AcDbEntity
  8
0
  6
CONTINUOUS
 62
               7
100
AcDbLine
 10
4.9999899999999542
 20
2.1000000000000014
 30
0.0
 11
4.9999899999999542
 21
10.500000000000291
 31
0.0
  0
LINE
  5
C5
100
AcDbEntity
  8
0
  6
CONTINUOUS
 62
               7
100
AcDbLine
 10
6.5999900000000054
 20
1.6000000000000476
 30
0.0
 11
6.5999900000000054
 21
10.500000000000291
 31
0.0
  0
LINE
  5
C6
100
AcDbEntity
  8
0
  6
CONTINUOUS
 62
               7
100
AcDbLine
 10
6.5999900000000054
 20
10.500000000000288
 30
0.0
 11
4.9999899999999542
 21
10.500000000000288
 31
0.0
  0
LINE
  5
C7
100
AcDbEntity
  8
0
  6
CONTINUOUS
 62
               7
100
AcDbLine
 10
-8.75
 20
1.6000000000000441
 30
0.0
 11
-8.75
 21
0.0
 31
0.0
  0
LINE
  5
C8
100
AcDbEntity
  8
0
  6
CONTINUOUS
 62
               7
100
AcDbLine
 10
8.75
 20
0.0
 30
0.0
 11
8.75
 21
1.6000000000000476
 31
0.0
  0
LINE
  5
C9
100
AcDbEntity
  8
0
  6
CONTINUOUS
 62
               7
100
AcDbLine
 10
-8.75
 20
0.0
 30
0.0
 11
8.75
 21
0.0
 31
0.0
  0
LINE
  5
CA
100
AcDbEntity
  8
0
  6
CONTINUOUS
 62
               7
100
AcDbLine
 10
-8.75
 20
1.6000000000000441
 30
0.0
 11
8.75
 21
1.6000000000000476
 31
0.0
  0
ARC
  5
CB
100
AcDbEntity
  8
0
  6
CONTINUOUS
 62
               7
100
AcDbCircle
 10
8.0337457455389938
 20
19.178036229505555
 30
0.0
 40
4.6635330003000197
100
AcDbArc
 50
97.776609550821917
 51
161.68593044504377
  0
ARC
  5
CC
100
AcDbEntity
  8
0
  6
CONTINUOUS
 62
               7
100
AcDbCircle
 10
11.798463949654376
 20
-0.2397460576546031
 30
0.0
 40
24.437031013179272
100
AcDbArc
 50
94.063932457143082
 51
100.36280081929944
  0
ARC
  5
CD
100
AcDbEntity
  8
0
  6
CONTINUOUS
 62
               7
100
AcDbCircle
 10
9.728632082320857
 20
28.03537062019933
 30
0.0
 40
3.9141505236203922
100
AcDbArc
 50
274.95371441468973
 51
317.88668391493826
  0
ELLIPSE
  5
CE
100
AcDbEntity
  8
0
  6
CONTINUOUS
 62
               7
100
AcDbEllipse
 10
11.700000000000003
 20
17.320951852639229
 30
0.0
 11
8.2000000000000011
 21
0.0
 31
0.0
210
0.0
220
0.0
230
1.0
 40
0.7257674956435345
 41
2.4435857883323351
 42
2.9843599019952602
  0
LINE
  5
CF
100
AcDbEntity
  8
0
  6
CENTER
 62
               2
100
AcDbLine
 10
0.0
 20
-2.6000000000000014
 30
0.0
 11
0.0
 21
34.624911654330042
 31
0.0
  0
ENDBLK
  5
D0
100
AcDbEntity
  8
0
100
AcDbBlockEnd
  0
BLOCK
  5
D1
100
AcDbEntity
  8
0
100
AcDbBlockBegin
  2
34T-4
 70
               0
 10
0.0
 20
0.0
 30
0.0
  3
34T-4
  1

  0
SPLINE
  5
D2
100
AcDbEntity
  8
0
  6
CONTINUOUS
 62
               4
100
AcDbSpline
210
0.0
220
0.0
230
1.0
 70
               0
 71
               3
 72
               0
 73
               0
 74
               6
 44
0.000001
 12
0.9828771982120644
 22
0.184261806229078
 32
0.0
 13
0.8006535837913233
 23
0.5991275646822722
 33
0.0
 11
-17.302797878015475
 21
-5.0
 31
0.0
 11
-17.214642946991418
 21
-4.9731989825621099
 31
0.0
 11
-17.145360530438253
 21
-4.9349887286137601
 31
0.0
 11
-17.068602438315963
 21
-4.8854464502673096
 31
0.0
 11
-16.952959870325707
 21
-4.8033341946334076
 31
0.0
 11
-16.950152232074267
 21
-4.8012358183488004
 31
0.0
  0
ARC
  5
D3
100
AcDbEntity
  8
0
  6
CONTINUOUS
 62
               7
100
AcDbCircle
 10
4.3840914956055386
 20
-11.768754752906833
 30
0.0
 40
7.3445457935281944
100
AcDbArc
 50
19.227911743537639
 51
71.563933923545093
  0
ARC
  5
D4
100
AcDbEntity
  8
0
  6
CONTINUOUS
 62
               7
100
AcDbCircle
 10
17.823325584779823
 20
-7.139531326493767
 30
0.0
 40
6.869740896571499
100
AcDbArc
 50
198.76993161565338
 51
267.02279837600457
  0
ARC
  5
D5
100
AcDbEntity
  8
0
  6
CONTINUOUS
 62
               7
100
AcDbCircle
 10
4.9666051337804191
 20
11.244880502212666
 30
0.0
 40
6.628793322895886
100
AcDbArc
 50
283.76358430028785
 51
343.38997596678115
  0
ARC
  5
D6
100
AcDbEntity
  8
0
  6
CONTINUOUS
 62
               7
100
AcDbCircle
 10
17.84689708266577
 20
7.1081751662142949
 30
0.0
 40
6.902309927248699
100
AcDbArc
 50
93.158504845925563
 51
161.04694024225955
  0
ARC
  5
D7
100
AcDbEntity
  8
0
  6
CONTINUOUS
 62
               7
100
AcDbCircle
 10
16.494662617990642
 20
-0.0228605791274674
 30
0.0
 40
14.05650253114001
100
AcDbArc
 50
276.09134054642334
 51
86.035154743372487
  0
LINE
  5
D8
100
AcDbEntity
  8
0
  6
CENTER
 62
               2
100
AcDbLine
 10
-13.000000000000002
 20
-10.701223599146712
 30
0.0
 11
-13.0
 21
10.097192885947138
 31
0.0
  0
ELLIPSE
  5
D9
100
AcDbEntity
  8
0
  6
CONTINUOUS
 62
               7
100
AcDbEllipse
 10
5.3105093009790991
 20
0.0034937437948912
 30
0.0
 11
0.0000000000000038
 21
62.701322389891985
 31
0.0
210
0.0
220
0.0
230
1.0
 40
0.3907311284892737
 41
1.4941210052516658
 42
1.5704735947769612
  0
ELLIPSE
  5
DA
100
AcDbEntity
  8
0
  6
CONTINUOUS
 62
               7
100
AcDbEllipse
 10
5.3105093009790991
 20
0.0034937437948912
 30
0.0
 11
0.0000000000000038
 21
62.701322389891985
 31
0.0
210
0.0
220
0.0
230
1.0
 40
0.3907311284892737
 41
1.5704735947769612
 42
1.6474990199995554
  0
ELLIPSE
  5
DB
100
AcDbEntity
  8
0
  6
CONTINUOUS
 62
               7
100
AcDbEllipse
 10
18.414448724433129
 20
0.0
 30
0.0
 11
0.0000000000000009
 21
14.0
 31
0.0
210
0.0
220
0.0
230
1.0
 40
0.9205048534524404
 41
3.1415926535897931
 42
0.0
  0
LINE
  5
DC
100
AcDbEntity
  8
0
  6
CONTINUOUS
 62
               7
100
AcDbLine
 10
-19.116815904381745
 20
-4.80115211728139
 30
0.0
 11
6.7067766712714132
 21
-4.80115211728139
 31
0.0
  0
LINE
  5
DD
100
AcDbEntity
  8
0
  6
CONTINUOUS
 62
               7
100
AcDbLine
 10
-19.116867280727227
 20
4.8064284098075376
 30
0.0
 11
6.5437023316326481
 21
4.8064284098075518
 31
0.0
  0
LINE
  5
DE
100
AcDbEntity
  8
0
  6
CONTINUOUS
 62
               7
100
AcDbLine
 10
18.414448724433129
 20
-13.999999999999996
 30
0.0
 11
17.466520924122563
 21
-13.999999999999996
 31
0.0
  0
LINE
  5
DF
100
AcDbEntity
  8
0
  6
CONTINUOUS
 62
               7
100
AcDbLine
 10
18.414448724433129
 20
14.0
 30
0.0
 11
17.466590900477662
 21
14.0
 31
0.0
  0
ELLIPSE
  5
E0
100
AcDbEntity
  8
0
  6
CONTINUOUS
 62
               7
100
AcDbEllipse
 10
-20.568806279081912
 20
3.0
 30
0.0
 11
0.0000000000000001
 21
2.0
 31
0.0
210
0.0
220
0.0
230
1.0
 40
0.2079116905026421
 41
0.0
 42
1.5707963267948968
  0
ELLIPSE
  5
E1
100
AcDbEntity
  8
0
  6
CONTINUOUS
 62
               7
100
AcDbEllipse
 10
-20.568806279081905
 20
-3.0
 30
0.0
 11
0.0000000000000001
 21
2.0
 31
0.0
210
0.0
220
0.0
230
1.0
 40
0.2079116905026421
 41
1.5707963267948981
 42
3.1415926535897931
  0
ELLIPSE
  5
E2
100
AcDbEntity
  8
0
  6
CONTINUOUS
 62
               7
100
AcDbEllipse
 10
-19.003770115678236
 20
-3.0
 30
0.0
 11
-0.0000000000000004
 21
-2.0
 31
0.0
210
0.0
220
0.0
230
1.0
 40
0.2079116907807403
 41
4.7123889803846906
 42
0.0
  0
ELLIPSE
  5
E3
100
AcDbEntity
  8
0
  6
CONTINUOUS
 62
               7
100
AcDbEllipse
 10
-19.003770115678215
 20
3.0
 30
0.0
 11
-0.0000000000000004
 21
-2.0
 31
0.0
210
0.0
220
0.0
230
1.0
 40
0.2079116907807403
 41
3.1415926535897931
 42
4.7123889803846897
  0
ARC
  5
E4
100
AcDbEntity
  8
0
  6
CONTINUOUS
 62
               7
100
AcDbCircle
 10
0.0
 20
0.0
 30
0.0
 40
6.25
100
AcDbArc
 50
50.266733064464105
 51
129.73326693553591
  0
ARC
  5
E5
100
AcDbEntity
  8
0
  6
CONTINUOUS
 62
               7
100
AcDbCircle
 10
0.0
 20
0.0
 30
0.0
 40
6.25
100
AcDbArc
 50
230.19112285948771
 51
309.80887714051238
  0
ARC
  5
E6
100
AcDbEntity
  8
0
  6
CONTINUOUS
 62
               7
100
AcDbCircle
 10
0.0
 20
0.0
 30
0.0
 40
8.75
100
AcDbArc
 50
34.829345512849635
 51
145.15009542095345
  0
ARC
  5
E7
100
AcDbEntity
  8
0
  6
CONTINUOUS
 62
               7
100
AcDbCircle
 10
0.0
 20
0.0
 30
0.0
 40
8.75
100
AcDbArc
 50
214.84990457904655
 51
325.28958241140327
  0
ARC
  5
E8
100
AcDbEntity
  8
0
  6
CONTINUOUS
 62
               7
100
AcDbCircle
 10
-13.0
 20
-0.9999999999998437
 30
0.0
 40
7.0015426871513124
100
AcDbArc
 50
249.07999451023079
 51
290.92000548976921
  0
LINE
  5
E9
100
AcDbEntity
  8
0
  6
CONTINUOUS
 62
               7
100
AcDbLine
 10
-20.568806279081919
 20
-5.0
 30
0.0
 11
-7.1807033081725242
 21
-5.0
 31
0.0
  0
LINE
  5
EA
100
AcDbEntity
  8
0
  6
CONTINUOUS
 62
               7
100
AcDbLine
 10
-17.0
 20
4.9999899999999968
 30
0.0
 11
-17.0
 21
4.8374930969432057
 31
0.0
  0
LINE
  5
EB
100
AcDbEntity
  8
0
  6
CONTINUOUS
 62
               7
100
AcDbLine
 10
-16.957530611445698
 20
4.8066549770197895
 30
0.0
 11
-17.000000000011042
 21
4.8374930969433478
 31
0.0
  0
LINE
  5
EC
100
AcDbEntity
  8
0
  6
CONTINUOUS
 62
               7
100
AcDbLine
 10
-14.5
 20
-4.8011521172813758
 30
0.0
 11
-14.5
 21
-5.0
 31
0.0
  0
LINE
  5
ED
100
AcDbEntity
  8
0
  6
CONTINUOUS
 62
               7
100
AcDbLine
 10
-14.5
 20
4.9999899999999542
 30
0.0
 11
-14.5
 21
4.806428409807495
 31
0.0
  0
LINE
  5
EE
100
AcDbEntity
  8
0
  6
CONTINUOUS
 62
               7
100
AcDbLine
 10
-11.5
 20
4.806428409807495
 30
0.0
 11
-11.5
 21
4.9999899999999542
 31
0.0
  0
LINE
  5
EF
100
AcDbEntity
  8
0
  6
CONTINUOUS
 62
               7
100
AcDbLine
 10
-11.5
 20
-5.0
 30
0.0
 11
-11.5
 21
-4.8011521172813758
 31
0.0
  0
LINE
  5
F0
100
AcDbEntity
  8
0
  6
CONTINUOUS
 62
               7
100
AcDbLine
 10
-14.5
 20
7.7999899999999798
 30
0.0
 11
-11.5
 21
7.7999899999999798
 31
0.0
  0
LINE
  5
F1
100
AcDbEntity
  8
0
  6
CONTINUOUS
 62
               7
100
AcDbLine
 10
-14.5
 20
7.7999899999999798
 30
0.0
 11
-14.5
 21
6.5999900000000054
 31
0.0
  0
LINE
  5
F2
100
AcDbEntity
  8
0
  6
CONTINUOUS
 62
               7
100
AcDbLine
 10
-11.5
 20
6.5999900000000054
 30
0.0
 11
-11.5
 21
7.7999899999999798
 31
0.0
  0
LINE
  5
F3
100
AcDbEntity
  8
0
  6
CONTINUOUS
 62
               7
100
AcDbLine
 10
-10.5
 20
-7.539999999999992
 30
0.0
 11
-10.5
 21
-6.5999999999999943
 31
0.0
  0
LINE
  5
F4
100
AcDbEntity
  8
0
  6
CONTINUOUS
 62
               7
100
AcDbLine
 10
-15.499999999999998
 20
-6.5999999999999943
 30
0.0
 11
-15.499999999999998
 21
-7.539999999999992
 31
0.0
  0
LINE
  5
F5
100
AcDbEntity
  8
0
  6
CONTINUOUS
 62
               7
100
AcDbLine
 10
-15.499999999999998
 20
-7.539999999999992
 30
0.0
 11
-10.5
 21
-7.539999999999992
 31
0.0
  0
LINE
  5
F6
100
AcDbEntity
  8
0
  6
CONTINUOUS
 62
               7
100
AcDbLine
 10
-8.9999999999997105
 20
6.5999900000000054
 30
0.0
 11
-17.000000000000291
 21
6.5999900000000054
 31
0.0
  0
LINE
  5
F7
100
AcDbEntity
  8
0
  6
CONTINUOUS
 62
               7
100
AcDbLine
 10
-17.000000000000291
 20
4.9999899999999542
 30
0.0
 11
-17.000000000000291
 21
6.5999900000000054
 31
0.0
  0
LINE
  5
F8
100
AcDbEntity
  8
0
  6
CONTINUOUS
 62
               7
100
AcDbLine
 10
-9.0
 20
4.806428409807495
 30
0.0
 11
-9.0000000000000018
 21
6.5999900000000054
 31
0.0
  0
LINE
  5
F9
100
AcDbEntity
  8
0
  6
CONTINUOUS
 62
               7
100
AcDbLine
 10
-17.000000000000291
 20
-6.6000000000000512
 30
0.0
 11
-17.000000000000291
 21
-5.0
 31
0.0
  0
LINE
  5
FA
100
AcDbEntity
  8
0
  6
CONTINUOUS
 62
               7
100
AcDbLine
 10
-8.9999999999997087
 20
-6.6000000000000512
 30
0.0
 11
-17.000000000000291
 21
-6.6000000000000512
 31
0.0
  0
LINE
  5
FB
100
AcDbEntity
  8
0
  6
CONTINUOUS
 62
               7
100
AcDbLine
 10
-8.9999999999999982
 20
-6.6000000000000512
 30
0.0
 11
-8.9999999999999982
 21
-4.80115211728139
 31
0.0
  0
LINE
  5
FC
100
AcDbEntity
  8
0
  6
CONTINUOUS
 62
               7
100
AcDbLine
 10
-20.984629660844803
 20
-3.0
 30
0.0
 11
-20.984629660844803
 21
3.0
 31
0.0
  0
LINE
  5
FD
100
AcDbEntity
  8
0
  6
CONTINUOUS
 62
               7
100
AcDbLine
 10
-19.419593513011932
 20
-3.0
 30
0.0
 11
-19.419593513011932
 21
3.0
 31
0.0
  0
LINE
  5
FF
100
AcDbEntity
  8
DEFPOINTS
  6
NON_PLOTING
 62
               7
100
AcDbLine
 10
-17.343696109899255
 20
4.806428409807495
 30
0.0
 11
-17.343696109899255
 21
5.0
 31
0.0
  0
LINE
  5
100
100
AcDbEntity
  8
DEFPOINTS
  6
NON_PLOTING
 62
               7
100
AcDbLine
 10
-17.343696109899248
 20
-5.0
 30
0.0
 11
-17.343696109899248
 21
-4.8011521172813758
 31
0.0
  0
LINE
  5
101
100
AcDbEntity
  8
0
  6
CONTINUOUS
 62
               7
100
AcDbLine
 10
-20.568806279081912
 20
5.0
 30
0.0
 11
-7.1807033081725313
 21
5.0
 31
0.0
  0
LINE
  5
102
100
AcDbEntity
  8
0
  6
CENTER
 62
               2
100
AcDbLine
 10
-0.0000000000000022
 20
-11.75
 30
0.0
 11
0.0000000000000004
 21
11.75
 31
0.0
  0
LINE
  5
103
100
AcDbEntity
  8
0
  6
CENTER
 62
               2
100
AcDbLine
 10
-22.803994295608604
 20
0.0
 30
0.0
 11
33.466946498264932
 21
0.0
 31
0.0
  0
ENDBLK
  5
104
100
AcDbEntity
  8
0
100
AcDbBlockEnd
  0
BLOCK
  5
23
100
AcDbEntity
  8
0
  6
ByBlock
 62
               0
100
AcDbBlockBegin
  2
_OPEN30
 70
               2
 10
0.0
 20
0.0
 30
0.0
  3
_OPEN30
  1

  0
LINE
  5
24
100
AcDbEntity
  8
0
  6
ByBlock
 62
               0
100
AcDbLine
 10
-1.0
 20
0.267949
 30
0.0
 11
0.0
 21
0.0
 31
0.0
  0
LINE
  5
25
100
AcDbEntity
  8
0
  6
ByBlock
 62
               0
100
AcDbLine
 10
0.0
 20
0.0
 30
0.0
 11
-1.0
 21
-0.267949
 31
0.0
  0
LINE
  5
26
100
AcDbEntity
  8
0
  6
ByBlock
 62
               0
100
AcDbLine
 10
0.0
 20
0.0
 30
0.0
 11
-1.0
 21
0.0
 31
0.0
  0
ENDBLK
  5
27
100
AcDbEntity
  8
0
  6
ByBlock
 62
               0
100
AcDbBlockEnd
  0
ENDSEC
  0
SECTION
  2
ENTITIES
  0
INSERT
  5
105
100
AcDbEntity
  8
0
  6
ByBlock
100
AcDbBlockReference
  2
34T-4
 10
0.0000000000000018
 20
50.0
 30
0.0
  0
INSERT
  5
106
100
AcDbEntity
  8
0
  6
ByBlock
100
AcDbBlockReference
  2
34T-3
 10
79.847910361203631
 20
-40.399999999999999
 30
0.0
  0
INSERT
  5
107
100
AcDbEntity
  8
0
  6
ByBlock
100
AcDbBlockReference
  2
34T-2
 10
-70.0
 20
-40.0
 30
0.0
  0
INSERT
  5
108
100
AcDbEntity
  8
0
  6
ByBlock
100
AcDbBlockReference
  2
34T-1
 10
0.0000000000000009
 20
-40.0
 30
0.0
  0
MTEXT
  5
109
100
AcDbEntity
  8
0
  6
CONTINUOUS
 62
               7
100
AcDbMText
 10
-110.16666030883789
 20
89.099999904632568
 30
0.0
 40
3.1999998092651367
 41
0.0
 71
               1
 72
               1
  1
\A1;34T
  0
LINE
  5
10A
100
AcDbEntity
  8
0
  6
CONTINUOUS
 62
               7
100
AcDbLine
 10
-138.39999389648437
 20
94.5
 30
0.0
 11
138.35000610351562
 21
94.5
 31
0.0
  0
LINE
  5
10B
100
AcDbEntity
  8
0
  6
CONTINUOUS
 62
               7
100
AcDbLine
 10
138.35000610351562
 20
94.5
 30
0.0
 11
138.35000610351562
 21
-94.800003051757812
 31
0.0
  0
LINE
  5
10C
100
AcDbEntity
  8
0
  6
CONTINUOUS
 62
               7
100
AcDbLine
 10
-138.39999389648437
 20
-94.800003051757812
 30
0.0
 11
138.35000610351562
 21
-94.800003051757812
 31
0.0
  0
LINE
  5
10D
100
AcDbEntity
  8
0
  6
CONTINUOUS
 62
               7
100
AcDbLine
 10
-138.39999389648437
 20
94.5
 30
0.0
 11
-138.39999389648437
 21
-94.800003051757812
 31
0.0
  0
LINE
  5
10E
100
AcDbEntity
  8
0
  6
CONTINUOUS
 62
               7
100
AcDbLine
 10
73.350006103515625
 20
-84.800003051757813
 30
0.0
 11
138.35000610351562
 21
-84.800003051757813
 31
0.0
  0
LINE
  5
10F
100
AcDbEntity
  8
0
  6
CONTINUOUS
 62
               7
100
AcDbLine
 10
-138.39999389648437
 20
84.5
 30
0.0
 11
-73.399993896484375
 21
84.5
 31
0.0
  0
LINE
  5
110
100
AcDbEntity
  8
0
  6
CONTINUOUS
 62
               7
100
AcDbLine
 10
73.350006103515625
 20
84.5
 30
0.0
 11
138.35000610351562
 21
84.5
 31
0.0
  0
LINE
  5
111
100
AcDbEntity
  8
0
  6
CONTINUOUS
 62
               7
100
AcDbLine
 10
73.350006103515625
 20
-84.800003051757813
 30
0.0
 11
73.350006103515625
 21
-94.800003051757812
 31
0.0
  0
LINE
  5
112
100
AcDbEntity
  8
0
  6
CONTINUOUS
 62
               7
100
AcDbLine
 10
73.350006103515625
 20
94.5
 30
0.0
 11
73.350006103515625
 21
84.5
 31
0.0
  0
LINE
  5
113
100
AcDbEntity
  8
0
  6
CONTINUOUS
 62
               7
100
AcDbLine
 10
-73.399993896484375
 20
94.5
 30
0.0
 11
-73.399993896484375
 21
84.5
 31
0.0
  0
MTEXT
  5
114
100
AcDbEntity
  8
0
  6
CONTINUOUS
 62
               7
100
AcDbMText
 10
77.440523342735503
 20
-89.800003051757812
 30
0.0
 40
4.5
 41
0.0
 71
               4
 72
               1
  1
\W1.121;\A1;KOGANEI CORP.
  0
MTEXT
  5
115
100
AcDbEntity
  8
0
  6
CONTINUOUS
 62
               7
100
AcDbMText
 10
93.749460369842424
 20
89.5
 30
0.0
 40
3.1999998092651367
 41
0.0
 71
               4
 72
               1
  1
\W1.311;\A1;Ver. 1.0
  0
MTEXT
  5
116
100
AcDbEntity
  8
0
  6
CONTINUOUS
 62
               7
100
AcDbMText
 10
-119.7820074619834
 20
93.099999904632568
 30
0.0
 40
3.1999998092651367
 41
0.0
 71
               1
 72
               1
  1
\W0.971;\A1;TAC VALVE
  0
MTEXT
  5
117
100
AcDbEntity
  8
0
  6
CONTINUOUS
 62
               7
100
AcDbMText
 10
-129.42399391242981
 20
74.5
 30
0.0
 40
3.2000000476837158
 41
0.0
 71
               4
 72
               1
  1
\W1.080;\A1;MODEL:34T
  0
ENDSEC
  0
SECTION
  2
OBJECTS
  0
DICTIONARY
  5
19
100
AcDbDictionary
  3
ACAD_GROUP
350
1A
  3
ACAD_MLINESTYLE
350
1B
  0
DICTIONARY
  5
1A
102
{ACAD_REACTORS
330
19
102
}
100
AcDbDictionary
  0
DICTIONARY
  5
1B
102
{ACAD_REACTORS
330
19
102
}
100
AcDbDictionary
  3
STANDARD
350
1C
  0
MLINESTYLE
  5
1C
102
{ACAD_REACTORS
330
1B
102
}
100
AcDbMlineStyle
  2
Standard
 70
               0
  3

 62
               0
 51
90.0
 52
90.0
 71
               2
 49
0.5
 62
             256
  6
ByLayer
 49
-0.5
 62
             256
  6
ByLayer
  0
ENDSEC
  0
EOF
