  0
SECTION
  2
HEADER
  0
ENDSEC
  0
SECTION
  2
TABLES
  0
TABLE
  2
LTYPE
 70
     4
  0
LTYPE
  2
CONTINUOUS
 70
    64
  3
Solid line
 72
    65
 73
     0
 40
0.000000
  0
LTYPE
  2
DASHED
 70
    64
  3
__ __ __ __ __ __ __ __ __ __ __ __ __ __ __
 72
    65
 73
     2
 40
3.500000
 49
2.000000
 49
-1.500000
  0
LTYPE
  2
CENTER
 70
    64
  3
____ _ ____ _ ____ _ ____ _ ____ _ ____ _ ____
 72
    65
 73
     4
 40
17.500000
 49
13.000000
 49
-1.500000
 49
1.500000
 49
-1.500000
  0
LTYPE
  2
PHANTOM
 70
    64
  3
_____ _ _ _____ _ _ _____ _ _ _____ _ _ ____  
 72
    65
 73
     6
 40
15.500000
 49
8.000000
 49
-1.500000
 49
1.500000
 49
-1.500000
 49
1.500000
 49
-1.500000
  0
LTYPE
  2
DASHED1
 70
    64
  3
__ __ __ __ __ __ __ __ __ __ __ __ __ __ __
 72
    65
 73
     2
 40
1.500000
 49
1.000000
 49
-0.500000
  0
LTYPE
  2
DASHED2
 70
    64
  3
__ __ __ __ __ __ __ __ __ __ __ __ __ __ __
 72
    65
 73
     2
 40
3.500000
 49
2.500000
 49
-1.000000
  0
LTYPE
  2
DASHED3
 70
    64
  3
__ __ __ __ __ __ __ __ __ __ __ __ __ __ __
 72
    65
 73
     2
 40
6.000000
 49
4.000000
 49
-2.000000
  0
LTYPE
  2
DASHED4
 70
    64
  3
__ __ __ __ __ __ __ __ __ __ __ __ __ __ __
 72
    65
 73
     2
 40
12.000000
 49
10.000000
 49
-2.000000
  0
LTYPE
  2
DASHED5
 70
    64
  3
__ __ __ __ __ __ __ __ __ __ __ __ __ __ __
 72
    65
 73
     2
 40
17.000000
 49
15.000000
 49
-2.000000
  0
LTYPE
  2
DASHED6
 70
    64
  3
__ __ __ __ __ __ __ __ __ __ __ __ __ __ __
 72
    65
 73
     2
 40
29.000000
 49
27.000000
 49
-2.000000
  0
LTYPE
  2
PHANTOM1
 70
    64
  3
_____ _ _ _____ _ _ _____ _ _ _____ _ _ ____  
 72
    65
 73
     6
 40
31.000000
 49
25.000000
 49
-1.500000
 49
1.000000
 49
-1.000000
 49
1.000000
 49
-1.500000
  0
LTYPE
  2
PHANTOM2
 70
    64
  3
_____ _ _ _____ _ _ _____ _ _ _____ _ _ ____  
 72
    65
 73
     6
 40
36.000000
 49
27.000000
 49
-1.500000
 49
2.500000
 49
-1.000000
 49
2.500000
 49
-1.500000
  0
LTYPE
  2
PHANTOM3
 70
    64
  3
_____ _ _ _____ _ _ _____ _ _ _____ _ _ ____  
 72
    65
 73
     6
 40
78.000000
 49
64.000000
 49
-2.000000
 49
4.000000
 49
-2.000000
 49
4.000000
 49
-2.000000
  0
LTYPE
  2
CENTER1
 70
    64
  3
____ _ ____ _ ____ _ ____ _ ____ _ ____ _ ____
 72
    65
 73
     4
 40
19.000000
 49
14.000000
 49
-1.000000
 49
3.000000
 49
-1.000000
  0
LTYPE
  2
CENTER2
 70
    64
  3
____ _ ____ _ ____ _ ____ _ ____ _ ____ _ ____
 72
    65
 73
     4
 40
28.500000
 49
25.000000
 49
-1.000000
 49
1.500000
 49
-1.000000
  0
LTYPE
  2
CENTER3
 70
    64
  3
____ _ ____ _ ____ _ ____ _ ____ _ ____ _ ____
 72
    65
 73
     4
 40
31.500000
 49
27.000000
 49
-1.000000
 49
2.500000
 49
-1.000000
  0
LTYPE
  2
CENTER4
 70
    64
  3
____ _ ____ _ ____ _ ____ _ ____ _ ____ _ ____
 72
    65
 73
     4
 40
50.000000
 49
45.000000
 49
-1.000000
 49
3.000000
 49
-1.000000
  0
LTYPE
  2
CENTER5
 70
    64
  3
____ _ ____ _ ____ _ ____ _ ____ _ ____ _ ____
 72
    65
 73
     4
 40
100.000000
 49
92.000000
 49
-2.000000
 49
4.000000
 49
-2.000000
  0
LTYPE
  2
SBK1
 70
    64
  3
______ _ _ _ ______ _ _ _ ______ _ _ _ _____  
 72
    65
 73
     8
 40
60.500000
 49
45.000000
 49
-2.000000
 49
2.500000
 49
-2.000000
 49
2.500000
 49
-2.000000
 49
2.500000
 49
-2.000000
  0
LTYPE
  2
SBK2
 70
    64
  3
______ _ _ _ ______ _ _ _ ______ _ _ _ _____  
 72
    65
 73
     8
 40
84.000000
 49
64.000000
 49
-2.000000
 49
4.000000
 49
-2.000000
 49
4.000000
 49
-2.000000
 49
4.000000
 49
-2.000000
  0
LTYPE
  2
STCH
 70
    64
  3
__ __ __ __ __ __ __ __ __ __ __ __ __ __ __
 72
    65
 73
     2
 40
3.000000
 49
1.000000
 49
-2.000000
  0
LTYPE
  2
MTCH
 70
    64
  3
_____ _ _ _____ _ _ _____ _ _ _____ _ _ ____  
 72
    65
 73
     6
 40
80.000000
 49
66.000000
 49
-2.000000
 49
4.000000
 49
-2.000000
 49
4.000000
 49
-2.000000
  0
ENDTAB
  0
TABLE
  2
LAYER
 70
     1
  0
LAYER
  2
0
 70
     0
 62
     7
  6
CONTINUOUS
  0
ENDTAB
  0
TABLE
  2
STYLE
 70
     1
  0
STYLE
  2
STANDARD
 70
     0
 40
0.000000
 41
1.000000
 50
0.000000
 71
     0
 42
0.200000
  3
txt
  4
BIGFONT
  0
ENDTAB
  0
TABLE
  2
VIEW
 70
     0
  0
ENDTAB
  0
ENDSEC
  0
SECTION
  2
BLOCKS
  0
ENDSEC
  0
SECTION
  2
ENTITIES
  0
LINE
  8
0
 10
182.099976
 20
-175.000000
 11
282.099976
 21
-175.000000
  0
LINE
  8
0
 10
182.099976
 20
-175.000000
 11
182.099976
 21
-195.000000
  0
LINE
  8
0
 10
182.099976
 20
180.500000
 11
282.099976
 21
180.500000
  0
LINE
  8
0
 10
-281.250000
 20
180.500000
 11
-181.250000
 21
180.500000
  0
LINE
  8
0
 10
-181.250000
 20
195.500000
 11
-181.250000
 21
180.500000
  0
LINE
  8
0
 10
182.099976
 20
180.500000
 11
182.099976
 21
195.500000
  0
LINE
  8
0
 10
-297.000000
 20
210.000000
 11
297.000000
 21
210.000000
  0
LINE
  8
0
 10
-297.000000
 20
210.000000
 11
-297.000000
 21
-210.000000
  0
LINE
  8
0
 10
-297.000000
 20
-210.000000
 11
297.000000
 21
-210.000000
  0
LINE
  8
0
 10
297.000000
 20
210.000000
 11
297.000000
 21
-210.000000
  0
LINE
  8
0
 10
-281.250000
 20
-195.000000
 11
282.099976
 21
-195.000000
  0
LINE
  8
0
 10
282.099976
 20
195.500000
 11
282.099976
 21
-195.000000
  0
LINE
  8
0
 10
-281.250000
 20
195.500000
 11
282.099976
 21
195.500000
  0
LINE
  8
0
 10
-281.250000
 20
195.500000
 11
-281.250000
 21
-195.000000
  0
TEXT
  8
0
 10
178.000870
 20
-190.300003
 40
7.000000
  1
ＫＯＧＡＮＥＩ，ＣＯＲＰ．
 50
0.000000
 41
0.902367
 51
15.000000
  7
STANDARD
  0
TEXT
  8
0
 10
188.021667
 20
183.779999
 40
5.800000
  1
DATE: MAY ,1992
 50
0.000000
 41
1.052632
 51
0.000000
  7
STANDARD
  0
TEXT
  8
0
 10
-260.828308
 20
183.779999
 40
5.800000
  1
430-4E1-37
 50
0.000000
 41
1.052632
 51
0.000000
  7
STANDARD
  0
TEXT
  8
0
 10
-272.728302
 20
163.779999
 40
5.800000
  1
MODEL: 430-4E1-262-37
 50
0.000000
 41
1.052632
 51
0.000000
  7
STANDARD
  0
POINT
  8
0
 10
-25.424997
 20
-60.999981
  0
POINT
  8
0
 10
21.075003
 20
-60.999981
  0
LINE
  8
0
 10
-4.424997
 20
-101.333305
 11
-4.424997
 21
72.353134
  0
LINE
  8
0
 10
-9.424997
 20
-58.999981
 11
-9.424997
 21
-0.999981
  0
LINE
  8
0
 10
0.575003
 20
-58.999981
 11
0.575003
 21
-0.999981
  0
LINE
  8
0
 10
-10.424997
 20
-58.999981
 11
-10.424997
 21
-0.999981
  0
LINE
  8
0
 10
1.575003
 20
-58.999981
 11
1.575003
 21
-0.999981
  0
LINE
  8
0
 10
-16.924997
 20
-19.499981
 11
-16.924997
 21
-10.499981
  0
LINE
  8
0
 10
8.075003
 20
-49.499981
 11
8.075003
 21
-40.499981
  0
LINE
  8
0
 10
11.575003
 20
-70.999985
 11
11.575003
 21
47.000019
  0
LINE
  8
0
 10
-21.424997
 20
-15.000011
 11
-12.424997
 21
-15.000011
  0
LINE
  8
0
 10
3.575003
 20
-44.999981
 11
12.575003
 21
-44.999981
  0
LINE
  8
0
 10
-9.424997
 20
-9.999996
 11
0.575003
 21
-9.999996
  0
LINE
  8
0
 10
-9.424997
 20
-49.999981
 11
0.575003
 21
-49.999981
  0
LINE
  8
0
 10
-8.424997
 20
0.000004
 11
-0.424997
 21
0.000004
  0
LINE
  8
0
 10
-8.424967
 20
-59.999981
 11
-0.424967
 21
-59.999981
  0
LINE
  8
0
 10
-8.424997
 20
1.000004
 11
-0.424997
 21
1.000004
  0
LINE
  8
0
 10
-8.424967
 20
-60.999981
 11
-0.424967
 21
-60.999981
  0
LINE
  8
0
 10
-20.424997
 20
6.000004
 11
11.575003
 21
6.000004
  0
LINE
  8
0
 10
-17.424997
 20
49.999989
 11
8.575003
 21
49.999989
  0
LINE
  8
0
 10
8.075003
 20
-41.999981
 11
11.575003
 21
-41.999981
  0
LINE
  8
0
 10
8.075003
 20
-47.999981
 11
11.575003
 21
-47.999981
  0
LINE
  8
0
 10
-16.924997
 20
-47.999981
 11
-20.424997
 21
-47.999981
  0
LINE
  8
0
 10
-16.924997
 20
-41.999981
 11
-20.424997
 21
-41.999981
  0
LINE
  8
0
 10
8.075003
 20
-11.999996
 11
11.575003
 21
-11.999996
  0
LINE
  8
0
 10
8.075003
 20
-18.000011
 11
11.575003
 21
-18.000011
  0
LINE
  8
0
 10
-16.924997
 20
-11.999996
 11
-20.424997
 21
-11.999996
  0
LINE
  8
0
 10
-16.924997
 20
-18.000011
 11
-20.424997
 21
-18.000011
  0
LINE
  8
0
 10
3.575003
 20
-15.000011
 11
12.575003
 21
-15.000011
  0
LINE
  8
0
 10
8.075003
 20
-10.499981
 11
8.075003
 21
-19.499981
  0
LINE
  8
0
 10
-16.924997
 20
-40.499981
 11
-16.924997
 21
-49.499981
  0
LINE
  8
0
 10
-21.424997
 20
-44.999981
 11
-12.424997
 21
-44.999981
  0
LINE
  8
0
 10
10.075003
 20
-2.499981
 11
10.075003
 21
4.500019
  0
LINE
  8
0
 10
4.275015
 20
4.500004
 11
10.075003
 21
4.500004
  0
LINE
  8
0
 10
4.275015
 20
-2.499981
 11
4.275015
 21
4.500019
  0
LINE
  8
0
 10
4.274984
 20
-2.499996
 11
10.075003
 21
-2.499996
  0
LINE
  8
0
 10
-13.124979
 20
-57.499981
 11
-18.924967
 21
-57.499981
  0
LINE
  8
0
 10
-13.124979
 20
-57.499981
 11
-13.124979
 21
-64.499985
  0
LINE
  8
0
 10
-13.124979
 20
-64.499985
 11
-18.924967
 21
-64.499985
  0
LINE
  8
0
 10
-18.924997
 20
-57.499981
 11
-18.924997
 21
-64.499985
  0
LINE
  8
0
 10
7.353323
 20
-43.749981
 11
8.796713
 21
-43.749981
  0
LINE
  8
0
 10
7.353323
 20
-46.249981
 11
8.796713
 21
-46.249981
  0
LINE
  8
0
 10
7.353331
 20
-46.249954
 11
6.631636
 21
-44.999943
  0
LINE
  8
0
 10
9.518393
 20
-44.999954
 11
8.796698
 21
-43.749947
  0
LINE
  8
0
 10
8.797014
 20
-46.250172
 11
9.518702
 21
-45.000175
  0
LINE
  8
0
 10
6.631975
 20
-45.000134
 11
7.353662
 21
-43.750137
  0
LINE
  8
0
 10
-17.646677
 20
-46.249981
 11
-16.203287
 21
-46.249981
  0
LINE
  8
0
 10
-17.646683
 20
-46.249939
 11
-18.368362
 21
-44.999954
  0
LINE
  8
0
 10
-15.481619
 20
-44.999931
 11
-16.203299
 21
-43.749947
  0
LINE
  8
0
 10
-16.203007
 20
-46.250149
 11
-15.481318
 21
-45.000149
  0
LINE
  8
0
 10
-18.368095
 20
-45.000141
 11
-17.646408
 21
-43.750145
  0
LINE
  8
0
 10
-17.646677
 20
-43.749981
 11
-16.203287
 21
-43.749981
  0
LINE
  8
0
 10
-17.646677
 20
-16.250011
 11
-16.203287
 21
-16.250011
  0
LINE
  8
0
 10
-17.646677
 20
-16.249947
 11
-18.368357
 21
-14.999962
  0
LINE
  8
0
 10
-15.481589
 20
-14.999935
 11
-16.203285
 21
-13.749920
  0
LINE
  8
0
 10
-16.203068
 20
-16.250126
 11
-15.481372
 21
-15.000114
  0
LINE
  8
0
 10
-18.368160
 20
-15.000114
 11
-17.646473
 21
-13.750114
  0
LINE
  8
0
 10
-17.646677
 20
-13.750011
 11
-16.203287
 21
-13.750011
  0
LINE
  8
0
 10
7.353323
 20
-16.250011
 11
8.796713
 21
-16.250011
  0
LINE
  8
0
 10
7.353327
 20
-16.249943
 11
6.631647
 21
-14.999958
  0
LINE
  8
0
 10
9.518389
 20
-14.999943
 11
8.796694
 21
-13.749931
  0
LINE
  8
0
 10
8.797026
 20
-16.250202
 11
9.518721
 21
-15.000191
  0
LINE
  8
0
 10
6.631926
 20
-15.000145
 11
7.353621
 21
-13.750134
  0
LINE
  8
0
 10
7.353323
 20
-13.750011
 11
8.796713
 21
-13.750011
  0
LINE
  8
0
 10
-2.274973
 20
50.700001
 11
-6.574961
 21
50.700001
  0
LINE
  8
0
 10
-2.274973
 20
50.000019
 11
-2.274973
 21
50.700001
  0
LINE
  8
0
 10
-6.574991
 20
50.000019
 11
-6.574991
 21
50.700001
  0
LINE
  8
0
 10
-29.924997
 20
26.000019
 11
-29.924997
 21
-70.999985
  0
LINE
  8
0
 10
21.075033
 20
26.000004
 11
11.575003
 21
26.000004
  0
LINE
  8
0
 10
21.075003
 20
26.000019
 11
21.075003
 21
-70.999985
  0
LINE
  8
0
 10
-25.424997
 20
-55.999981
 11
-28.924997
 21
-55.999981
  0
LINE
  8
0
 10
-25.424997
 20
-65.999985
 11
-28.924997
 21
-65.999985
  0
LINE
  8
0
 10
16.575033
 20
18.000004
 11
20.075033
 21
18.000004
  0
LINE
  8
0
 10
16.575033
 20
8.000004
 11
20.075033
 21
8.000004
  0
LINE
  8
0
 10
-19.424997
 20
-60.999981
 11
-31.424997
 21
-60.999981
  0
LINE
  8
0
 10
-25.424997
 20
-54.999981
 11
-25.424997
 21
-66.999985
  0
LINE
  8
0
 10
16.575003
 20
19.000019
 11
16.575003
 21
7.000019
  0
LINE
  8
0
 10
22.575033
 20
13.000004
 11
10.575033
 21
13.000004
  0
LINE
  8
0
 10
-26.591013
 20
-14.799999
 11
-26.591013
 21
-20.199993
  0
LINE
  8
0
 10
-24.724985
 20
-22.065990
 11
-22.524973
 21
-22.065990
  0
LINE
  8
0
 10
-20.658945
 20
-14.799999
 11
-20.658945
 21
-20.199993
  0
LINE
  8
0
 10
-24.724985
 20
-12.934002
 11
-22.524973
 21
-12.934002
  0
LINE
  8
0
 10
-26.591013
 20
-39.799969
 11
-26.591013
 21
-45.199963
  0
LINE
  8
0
 10
-24.724985
 20
-47.065990
 11
-22.524973
 21
-47.065990
  0
LINE
  8
0
 10
-20.658945
 20
-39.799969
 11
-20.658945
 21
-45.199963
  0
LINE
  8
0
 10
-24.724985
 20
-37.934002
 11
-22.524973
 21
-37.934002
  0
LINE
  8
0
 10
11.808981
 20
-2.799984
 11
11.808981
 21
-8.199978
  0
LINE
  8
0
 10
13.675009
 20
-10.065990
 11
15.875021
 21
-10.065990
  0
LINE
  8
0
 10
17.741049
 20
-2.799984
 11
17.741049
 21
-8.199978
  0
LINE
  8
0
 10
13.675009
 20
-0.934002
 11
15.875021
 21
-0.934002
  0
LINE
  8
0
 10
11.808981
 20
-27.299999
 11
11.808981
 21
-32.699963
  0
LINE
  8
0
 10
13.675009
 20
-34.565990
 11
15.875021
 21
-34.565990
  0
LINE
  8
0
 10
17.741049
 20
-27.299999
 11
17.741049
 21
-32.699963
  0
LINE
  8
0
 10
13.675009
 20
-25.434002
 11
15.875021
 21
-25.434002
  0
LINE
  8
0
 10
11.808981
 20
-51.799969
 11
11.808981
 21
-57.199963
  0
LINE
  8
0
 10
13.675009
 20
-59.065990
 11
15.875021
 21
-59.065990
  0
LINE
  8
0
 10
17.741049
 20
-51.799969
 11
17.741049
 21
-57.199963
  0
LINE
  8
0
 10
13.675009
 20
-49.934002
 11
15.875021
 21
-49.934002
  0
LINE
  8
0
 10
20.925009
 20
56.999989
 11
20.925009
 21
26.000004
  0
LINE
  8
0
 10
-29.774973
 20
56.999989
 11
-29.774973
 21
26.000004
  0
LINE
  8
0
 10
17.925009
 20
59.999989
 11
-26.774973
 21
59.999989
  0
LINE
  8
0
 10
18.075003
 20
-73.999985
 11
-26.924997
 21
-73.999985
  0
LINE
  8
0
 10
-20.424997
 20
26.000004
 11
-29.924967
 21
26.000004
  0
LINE
  8
0
 10
11.575003
 20
26.000004
 11
-20.424997
 21
26.000004
  0
LINE
  8
0
 10
6.401022
 20
69.999985
 11
-15.250376
 21
69.999985
  0
LINE
  8
0
 10
6.401022
 20
64.999985
 11
-15.250376
 21
64.999985
  0
LINE
  8
0
 10
4.890524
 20
64.999985
 11
4.890524
 21
59.999989
  0
LINE
  8
0
 10
-13.740488
 20
64.999985
 11
-13.740488
 21
59.999989
  0
LINE
  8
0
 10
6.401022
 20
69.999985
 11
6.401022
 21
64.999985
  0
LINE
  8
0
 10
-15.250406
 20
69.999985
 11
-15.250406
 21
64.999985
  0
LINE
  8
0
 10
3.901022
 20
69.999985
 11
3.901022
 21
64.999985
  0
LINE
  8
0
 10
-1.924997
 20
69.999985
 11
-1.924997
 21
64.999985
  0
LINE
  8
0
 10
3.575064
 20
69.999985
 11
3.575064
 21
64.999985
  0
LINE
  8
0
 10
-6.924997
 20
69.999985
 11
-6.924997
 21
64.999985
  0
LINE
  8
0
 10
-12.425058
 20
69.999985
 11
-12.425058
 21
64.999985
  0
LINE
  8
0
 10
-12.750986
 20
69.999985
 11
-12.750986
 21
64.999985
  0
LINE
  8
0
 10
-12.540476
 20
64.999985
 11
-12.540476
 21
59.999989
  0
LINE
  8
0
 10
3.690512
 20
64.999985
 11
3.690512
 21
59.999989
  0
LINE
  8
0
 10
11.575003
 20
-23.999989
 11
-20.424997
 21
-23.999989
  0
LINE
  8
0
 10
-20.424997
 20
47.000019
 11
-20.424997
 21
-70.999985
  0
LINE
  8
0
 10
-20.424997
 20
-65.999985
 11
11.575003
 21
-65.999985
  0
ARC
  8
0
 10
8.575003
 20
47.000019
 40
3.000000
 50
0.000000
 51
90.000000
  0
ARC
  8
0
 10
-17.424997
 20
47.000019
 40
3.000000
 50
89.999962
 51
180.000000
  0
ARC
  8
0
 10
-0.424997
 20
-0.999981
 40
2.000000
 50
0.000000
 51
90.000000
  0
ARC
  8
0
 10
-8.424997
 20
-0.999981
 40
2.000000
 50
90.000000
 51
180.000000
  0
ARC
  8
0
 10
-8.424967
 20
-58.999981
 40
2.000000
 50
180.000000
 51
270.000000
  0
ARC
  8
0
 10
-0.424967
 20
-58.999981
 40
2.000000
 50
270.000000
 51
0.000109
  0
ARC
  8
0
 10
-0.424997
 20
-0.999981
 40
1.000000
 50
0.000000
 51
90.000000
  0
ARC
  8
0
 10
-8.424997
 20
-0.999981
 40
1.000000
 50
90.000000
 51
180.000000
  0
ARC
  8
0
 10
-8.424967
 20
-58.999981
 40
1.000000
 50
180.000000
 51
270.000000
  0
ARC
  8
0
 10
-0.424967
 20
-58.999981
 40
1.000000
 50
270.000000
 51
0.000000
  0
CIRCLE
  8
0
 10
8.075003
 20
-44.999981
 40
2.500000
  0
ARC
  8
0
 10
8.075003
 20
-44.999981
 40
3.000000
 50
90.000000
 51
270.000000
  0
ARC
  8
0
 10
-16.924997
 20
-44.999981
 40
3.000000
 50
270.000031
 51
89.999962
  0
CIRCLE
  8
0
 10
8.075003
 20
-44.999981
 40
2.500000
  0
ARC
  8
0
 10
8.075003
 20
-14.999981
 40
3.000000
 50
90.000000
 51
270.000000
  0
CIRCLE
  8
0
 10
8.075003
 20
-14.999981
 40
2.500000
  0
ARC
  8
0
 10
-16.924997
 20
-14.999981
 40
3.000000
 50
270.000061
 51
90.000038
  0
CIRCLE
  8
0
 10
-16.924997
 20
-14.999981
 40
2.500000
  0
CIRCLE
  8
0
 10
-16.924997
 20
-44.999981
 40
2.500000
  0
CIRCLE
  8
0
 10
-16.924997
 20
-14.999981
 40
2.500000
  0
CIRCLE
  8
0
 10
8.075003
 20
-14.999981
 40
2.500000
  0
ARC
  8
0
 10
-24.724985
 20
-14.799999
 40
1.865997
 50
89.999939
 51
179.999878
  0
ARC
  8
0
 10
15.875021
 20
-57.199963
 40
1.865997
 50
270.000000
 51
0.000000
  0
ARC
  8
0
 10
15.875021
 20
-51.799969
 40
1.865997
 50
0.000117
 51
90.000000
  0
ARC
  8
0
 10
-24.724985
 20
-39.799969
 40
1.865997
 50
89.999939
 51
179.999878
  0
ARC
  8
0
 10
-22.524973
 20
-39.799969
 40
1.865997
 50
0.000117
 51
90.000061
  0
ARC
  8
0
 10
-22.524973
 20
-45.199963
 40
1.865997
 50
270.000000
 51
0.000000
  0
ARC
  8
0
 10
13.675009
 20
-8.199978
 40
1.865997
 50
180.000000
 51
270.000000
  0
ARC
  8
0
 10
15.875021
 20
-8.199978
 40
1.865997
 50
270.000000
 51
0.000000
  0
ARC
  8
0
 10
13.675039
 20
-2.799984
 40
1.865997
 50
89.999886
 51
179.999878
  0
ARC
  8
0
 10
13.675009
 20
-51.799969
 40
1.865997
 50
89.999886
 51
179.999878
  0
ARC
  8
0
 10
13.675009
 20
-57.199963
 40
1.865997
 50
180.000000
 51
270.000000
  0
ARC
  8
0
 10
13.675009
 20
-27.299999
 40
1.865997
 50
89.999886
 51
179.999878
  0
ARC
  8
0
 10
15.875021
 20
-27.299999
 40
1.865997
 50
0.000117
 51
90.000000
  0
ARC
  8
0
 10
-22.524973
 20
-20.199993
 40
1.865997
 50
270.000000
 51
0.000000
  0
ARC
  8
0
 10
-24.724985
 20
-20.199993
 40
1.865997
 50
180.000000
 51
269.999939
  0
ARC
  8
0
 10
15.875021
 20
-2.799984
 40
1.865997
 50
0.000117
 51
90.000000
  0
ARC
  8
0
 10
13.675009
 20
-32.699963
 40
1.865997
 50
179.999878
 51
270.000000
  0
ARC
  8
0
 10
-22.524973
 20
-14.799999
 40
1.865997
 50
0.000117
 51
90.000061
  0
ARC
  8
0
 10
15.875021
 20
-32.699963
 40
1.865997
 50
270.000000
 51
0.000000
  0
ARC
  8
0
 10
-24.724985
 20
-45.199963
 40
1.865997
 50
180.000000
 51
269.999939
  0
ARC
  8
0
 10
18.075003
 20
-70.999985
 40
3.000000
 50
270.000000
 51
0.000000
  0
ARC
  8
0
 10
-26.924997
 20
-70.999985
 40
3.000000
 50
180.000000
 51
270.000031
  0
ARC
  8
0
 10
16.575033
 20
13.000019
 40
5.000000
 50
90.000000
 51
270.000000
  0
CIRCLE
  8
0
 10
16.575033
 20
13.000019
 40
2.750000
  0
CIRCLE
  8
0
 10
-25.424997
 20
-60.999981
 40
2.750000
  0
ARC
  8
0
 10
-25.424997
 20
-60.999981
 40
5.000004
 50
270.000031
 51
89.999977
  0
ARC
  8
0
 10
20.075033
 20
7.000019
 40
1.000000
 50
0.000000
 51
90.000000
  0
ARC
  8
0
 10
20.075033
 20
19.000019
 40
1.000000
 50
270.000000
 51
0.000000
  0
ARC
  8
0
 10
-28.924997
 20
-54.999981
 40
1.000000
 50
180.000000
 51
270.000000
  0
ARC
  8
0
 10
-28.924997
 20
-66.999985
 40
1.000000
 50
90.000000
 51
180.000000
  0
ARC
  8
0
 10
-26.774973
 20
56.999989
 40
3.000000
 50
89.999962
 51
180.000000
  0
ARC
  8
0
 10
17.925009
 20
56.999989
 40
3.000000
 50
0.000000
 51
90.000000
  0
ARC
  8
0
 10
-17.424997
 20
-70.999985
 40
3.000000
 50
179.999847
 51
270.000031
  0
ARC
  8
0
 10
8.575003
 20
-70.999985
 40
3.000000
 50
270.000000
 51
0.000000
  0
TEXT
  8
0
 10
-14.217971
 20
-59.119984
 40
3.200000
  1
B
 50
180.000000
 41
1.052632
 51
0.000000
  7
STANDARD
  0
TEXT
  8
0
 10
5.368009
 20
-0.879981
 40
3.200000
  1
A
 50
0.000000
 41
1.052632
 51
0.000000
  7
STANDARD
  0
TEXT
  8
0
 10
15.215014
 20
-7.078480
 40
1.599999
  1
R1
 50
90.000000
 41
1.052632
 51
0.000000
  7
STANDARD
  0
TEXT
  8
0
 10
15.215014
 20
-56.078480
 40
1.599999
  1
R2
 50
90.000000
 41
1.052632
 51
0.000000
  7
STANDARD
  0
TEXT
  8
0
 10
-24.064978
 20
-41.721481
 40
1.599999
  1
B
 50
270.000000
 41
1.052632
 51
0.000000
  7
STANDARD
  0
TEXT
  8
0
 10
15.215014
 20
-30.778481
 40
1.599999
  1
P
 50
90.000000
 41
1.052632
 51
0.000000
  7
STANDARD
  0
TEXT
  8
0
 10
-24.064978
 20
-16.721481
 40
1.599999
  1
A
 50
270.000000
 41
1.052632
 51
0.000000
  7
STANDARD
  0
POINT
  8
0
 10
16.574991
 20
175.599960
  0
POINT
  8
0
 10
-25.425009
 20
175.599960
  0
LINE
  8
0
 10
8.074991
 20
131.999985
 11
8.074991
 21
140.999985
  0
LINE
  8
0
 10
10.075052
 20
84.999985
 11
-18.924948
 21
84.999985
  0
LINE
  8
0
 10
11.574991
 20
139.999985
 11
-20.425009
 21
139.999985
  0
LINE
  8
0
 10
11.575022
 20
94.999985
 11
-20.424978
 21
94.999985
  0
LINE
  8
0
 10
11.575022
 20
124.999985
 11
-20.424978
 21
124.999985
  0
LINE
  8
0
 10
-20.425009
 20
86.499954
 11
-20.425009
 21
140.599960
  0
LINE
  8
0
 10
11.574991
 20
86.499985
 11
11.574991
 21
140.599991
  0
LINE
  8
0
 10
11.575022
 20
133.499985
 11
8.075022
 21
133.499985
  0
LINE
  8
0
 10
5.074991
 20
136.499985
 11
5.074991
 21
139.999985
  0
LINE
  8
0
 10
12.575022
 20
136.499985
 11
3.575022
 21
136.499985
  0
LINE
  8
0
 10
-0.924978
 20
129.099960
 11
-7.924978
 21
129.099960
  0
LINE
  8
0
 10
-16.925009
 20
131.999954
 11
-16.925009
 21
140.999954
  0
LINE
  8
0
 10
-20.424978
 20
133.499985
 11
-16.924978
 21
133.499985
  0
LINE
  8
0
 10
-13.925009
 20
136.499985
 11
-13.925009
 21
139.999985
  0
LINE
  8
0
 10
3.575022
 20
136.499985
 11
12.575022
 21
136.499985
  0
LINE
  8
0
 10
11.575022
 20
96.399979
 11
-20.424978
 21
96.399979
  0
LINE
  8
0
 10
11.575022
 20
98.399979
 11
-20.424978
 21
98.399979
  0
LINE
  8
0
 10
11.575022
 20
99.999985
 11
-4.424978
 21
99.999985
  0
LINE
  8
0
 10
11.575022
 20
101.999985
 11
-4.424978
 21
101.999985
  0
LINE
  8
0
 10
11.575022
 20
103.599960
 11
-20.424978
 21
103.599960
  0
LINE
  8
0
 10
11.575022
 20
105.599960
 11
-20.424978
 21
105.599960
  0
LINE
  8
0
 10
11.575022
 20
107.199966
 11
-20.424978
 21
107.199966
  0
LINE
  8
0
 10
11.575022
 20
109.199966
 11
-20.424978
 21
109.199966
  0
LINE
  8
0
 10
11.575022
 20
110.799973
 11
-20.424978
 21
110.799973
  0
LINE
  8
0
 10
11.575022
 20
112.799973
 11
-20.424978
 21
112.799973
  0
LINE
  8
0
 10
11.575022
 20
114.399979
 11
-20.424978
 21
114.399979
  0
LINE
  8
0
 10
11.575022
 20
116.399979
 11
-20.424978
 21
116.399979
  0
LINE
  8
0
 10
11.575022
 20
117.999954
 11
-20.424978
 21
117.999954
  0
LINE
  8
0
 10
11.575022
 20
119.999954
 11
-20.424978
 21
119.999954
  0
LINE
  8
0
 10
11.575022
 20
121.599960
 11
-20.424978
 21
121.599960
  0
LINE
  8
0
 10
11.575022
 20
123.599960
 11
-20.424978
 21
123.599960
  0
LINE
  8
0
 10
-17.425009
 20
99.999954
 11
-17.425009
 21
101.999954
  0
LINE
  8
0
 10
-17.424978
 20
99.999985
 11
-20.424978
 21
99.999985
  0
LINE
  8
0
 10
-17.424978
 20
101.999985
 11
-20.424978
 21
101.999985
  0
LINE
  8
0
 10
-4.425009
 20
99.999985
 11
-4.425009
 21
101.999985
  0
LINE
  8
0
 10
6.085032
 20
136.299973
 11
7.875010
 21
136.299973
  0
LINE
  8
0
 10
6.085032
 20
136.699966
 11
7.875010
 21
136.699966
  0
LINE
  8
0
 10
7.875010
 20
134.510025
 11
7.875010
 21
136.300003
  0
LINE
  8
0
 10
8.275003
 20
134.510025
 11
8.275003
 21
136.300003
  0
LINE
  8
0
 10
8.275003
 20
136.299973
 11
10.064981
 21
136.299973
  0
LINE
  8
0
 10
8.275003
 20
136.699997
 11
8.275003
 21
138.489975
  0
LINE
  8
0
 10
7.875010
 20
136.699997
 11
7.875010
 21
138.489975
  0
LINE
  8
0
 10
8.275003
 20
136.699966
 11
10.064981
 21
136.699966
  0
LINE
  8
0
 10
-21.424978
 20
136.499985
 11
-12.424978
 21
136.499985
  0
LINE
  8
0
 10
-18.914968
 20
136.299973
 11
-17.124990
 21
136.299973
  0
LINE
  8
0
 10
-18.914968
 20
136.699966
 11
-17.124990
 21
136.699966
  0
LINE
  8
0
 10
-17.124990
 20
134.509995
 11
-17.124990
 21
136.299973
  0
LINE
  8
0
 10
-16.724997
 20
134.509995
 11
-16.724997
 21
136.299973
  0
LINE
  8
0
 10
-16.724997
 20
136.299973
 11
-14.935019
 21
136.299973
  0
LINE
  8
0
 10
-16.724997
 20
136.699966
 11
-16.724997
 21
138.489944
  0
LINE
  8
0
 10
-17.124990
 20
136.699966
 11
-17.124990
 21
138.489944
  0
LINE
  8
0
 10
-16.724997
 20
136.699966
 11
-14.935019
 21
136.699966
  0
LINE
  8
0
 10
21.074991
 20
175.599960
 11
-29.925009
 21
175.599960
  0
LINE
  8
0
 10
18.074991
 20
141.599960
 11
-26.925009
 21
141.599960
  0
LINE
  8
0
 10
21.074991
 20
144.599960
 11
21.074991
 21
175.599960
  0
LINE
  8
0
 10
-29.925009
 20
144.599960
 11
-29.925009
 21
175.599960
  0
LINE
  8
0
 10
11.574991
 20
140.599960
 11
11.574991
 21
141.599960
  0
LINE
  8
0
 10
-20.425009
 20
140.599960
 11
-20.425009
 21
141.599960
  0
LINE
  8
0
 10
-4.425009
 20
178.715683
 11
-4.425009
 21
81.505005
  0
LINE
  8
0
 10
-19.646780
 20
158.349960
 11
27.173258
 21
158.349960
  0
LINE
  8
0
 10
-27.925009
 20
147.599960
 11
-19.925009
 21
147.599960
  0
LINE
  8
0
 10
-27.925009
 20
169.099960
 11
-19.925009
 21
169.099960
  0
LINE
  8
0
 10
11.074991
 20
169.099960
 11
19.074991
 21
169.099960
  0
LINE
  8
0
 10
11.074991
 20
147.599960
 11
19.074991
 21
147.599960
  0
LINE
  8
0
 10
-23.925009
 20
151.599960
 11
-23.925009
 21
143.599960
  0
LINE
  8
0
 10
-23.925009
 20
173.099960
 11
-23.925009
 21
165.099960
  0
LINE
  8
0
 10
15.074991
 20
173.099960
 11
15.074991
 21
165.099960
  0
LINE
  8
0
 10
15.074991
 20
151.599960
 11
15.074991
 21
143.599960
  0
LINE
  8
0
 10
-14.925009
 20
155.174515
 11
-14.925009
 21
161.525345
  0
LINE
  8
0
 10
6.074991
 20
155.174515
 11
6.074991
 21
161.525406
  0
LINE
  8
0
 10
-12.425039
 20
165.855530
 11
-6.924980
 21
169.030991
  0
LINE
  8
0
 10
3.575090
 20
165.855560
 11
-1.924942
 21
169.031006
  0
LINE
  8
0
 10
-6.924984
 20
147.669037
 11
-12.424993
 21
150.844467
  0
LINE
  8
0
 10
-1.924950
 20
147.669052
 11
3.575031
 21
150.844467
  0
LINE
  8
0
 10
-12.750380
 20
150.656708
 11
-12.425039
 21
150.844543
  0
LINE
  8
0
 10
-15.250426
 20
154.986740
 11
-14.925085
 21
155.174576
  0
LINE
  8
0
 10
-6.924955
 20
169.406662
 11
-4.424984
 21
170.850021
  0
LINE
  8
0
 10
-1.924950
 20
169.406616
 11
-4.424973
 21
170.850006
  0
LINE
  8
0
 10
-15.251608
 20
154.986649
 11
-15.251608
 21
152.099899
  0
LINE
  8
0
 10
-12.750265
 20
150.656555
 11
-15.250263
 21
152.099915
  0
LINE
  8
0
 10
-6.925009
 20
169.030960
 11
-6.925009
 21
169.406601
  0
LINE
  8
0
 10
-1.925009
 20
169.030930
 11
-1.925009
 21
169.406570
  0
LINE
  8
0
 10
-1.925112
 20
147.293579
 11
-4.425137
 21
145.850189
  0
LINE
  8
0
 10
-6.924999
 20
147.293320
 11
-4.425001
 21
145.849930
  0
LINE
  8
0
 10
-6.925009
 20
147.293320
 11
-6.925009
 21
147.668991
  0
LINE
  8
0
 10
-1.925009
 20
147.293320
 11
-1.925009
 21
147.668991
  0
LINE
  8
0
 10
6.400461
 20
154.986710
 11
6.400461
 21
152.099960
  0
LINE
  8
0
 10
3.901026
 20
150.655533
 11
6.401024
 21
152.098907
  0
LINE
  8
0
 10
3.900414
 20
150.656631
 11
3.575073
 21
150.844467
  0
LINE
  8
0
 10
6.400391
 20
154.986740
 11
6.075048
 21
155.174576
  0
LINE
  8
0
 10
3.900465
 20
166.043518
 11
6.400463
 21
164.600143
  0
LINE
  8
0
 10
6.401560
 20
161.713272
 11
6.401560
 21
164.600021
  0
LINE
  8
0
 10
6.400372
 20
161.713348
 11
6.075031
 21
161.525513
  0
LINE
  8
0
 10
3.900373
 20
166.043411
 11
3.575033
 21
165.855576
  0
LINE
  8
0
 10
-15.250418
 20
161.713181
 11
-15.250418
 21
164.599930
  0
LINE
  8
0
 10
-12.750973
 20
166.044464
 11
-15.250972
 21
164.601089
  0
LINE
  8
0
 10
-12.750318
 20
166.043442
 11
-12.424976
 21
165.855606
  0
LINE
  8
0
 10
-15.250265
 20
161.713287
 11
-14.924924
 21
161.525452
  0
LINE
  8
0
 10
-25.197802
 20
169.948471
 11
-24.773533
 21
170.372742
  0
LINE
  8
0
 10
-23.076487
 20
167.827164
 11
-22.652218
 21
168.251434
  0
LINE
  8
0
 10
-25.197819
 20
168.251419
 11
-24.773550
 21
168.675690
  0
LINE
  8
0
 10
-24.773535
 20
167.827179
 11
-24.349266
 21
168.251450
  0
LINE
  8
0
 10
-25.197788
 20
168.251450
 11
-24.773520
 21
167.827179
  0
LINE
  8
0
 10
-23.076473
 20
170.372772
 11
-22.652205
 21
169.948502
  0
LINE
  8
0
 10
-25.197786
 20
169.948502
 11
-24.773525
 21
169.524246
  0
LINE
  8
0
 10
-24.773523
 20
170.372772
 11
-24.349262
 21
169.948502
  0
LINE
  8
0
 10
-23.500767
 20
169.948471
 11
-23.076500
 21
170.372742
  0
LINE
  8
0
 10
-23.076483
 20
169.524231
 11
-22.652214
 21
169.948502
  0
LINE
  8
0
 10
-23.500731
 20
168.251450
 11
-23.076468
 21
167.827179
  0
LINE
  8
0
 10
-23.076468
 20
168.675705
 11
-22.652205
 21
168.251450
  0
LINE
  8
0
 10
-25.197815
 20
148.448486
 11
-24.773546
 21
148.872742
  0
LINE
  8
0
 10
-23.076479
 20
146.327179
 11
-22.652210
 21
146.751450
  0
LINE
  8
0
 10
-25.197815
 20
146.751434
 11
-24.773546
 21
147.175690
  0
LINE
  8
0
 10
-24.773550
 20
146.327179
 11
-24.349281
 21
146.751450
  0
LINE
  8
0
 10
-25.197803
 20
146.751434
 11
-24.773535
 21
146.327164
  0
LINE
  8
0
 10
-23.076460
 20
148.872772
 11
-22.652191
 21
148.448502
  0
LINE
  8
0
 10
-25.197803
 20
148.448486
 11
-24.773540
 21
148.024231
  0
LINE
  8
0
 10
-24.773512
 20
148.872772
 11
-24.349249
 21
148.448502
  0
LINE
  8
0
 10
-23.500763
 20
148.448486
 11
-23.076494
 21
148.872742
  0
LINE
  8
0
 10
-23.076496
 20
148.024231
 11
-22.652229
 21
148.448502
  0
LINE
  8
0
 10
-23.500746
 20
146.751434
 11
-23.076483
 21
146.327164
  0
LINE
  8
0
 10
-23.076454
 20
147.175705
 11
-22.652191
 21
146.751450
  0
LINE
  8
0
 10
13.802183
 20
169.948471
 11
14.226450
 21
170.372742
  0
LINE
  8
0
 10
15.923517
 20
167.827179
 11
16.347784
 21
168.251450
  0
LINE
  8
0
 10
13.802183
 20
168.251419
 11
14.226450
 21
168.675690
  0
LINE
  8
0
 10
14.226465
 20
167.827179
 11
14.650732
 21
168.251450
  0
LINE
  8
0
 10
13.802214
 20
168.251450
 11
14.226480
 21
167.827179
  0
LINE
  8
0
 10
15.923536
 20
170.372772
 11
16.347803
 21
169.948502
  0
LINE
  8
0
 10
13.802214
 20
169.948502
 11
14.226477
 21
169.524246
  0
LINE
  8
0
 10
14.226484
 20
170.372772
 11
14.650747
 21
169.948517
  0
LINE
  8
0
 10
15.499235
 20
169.948471
 11
15.923502
 21
170.372742
  0
LINE
  8
0
 10
15.923517
 20
169.524231
 11
16.347784
 21
169.948502
  0
LINE
  8
0
 10
15.499269
 20
168.251450
 11
15.923532
 21
167.827179
  0
LINE
  8
0
 10
15.923540
 20
168.675720
 11
16.347803
 21
168.251450
  0
LINE
  8
0
 10
13.802187
 20
148.448471
 11
14.226454
 21
148.872742
  0
LINE
  8
0
 10
15.923521
 20
146.327164
 11
16.347788
 21
146.751434
  0
LINE
  8
0
 10
13.802187
 20
146.751419
 11
14.226454
 21
147.175690
  0
LINE
  8
0
 10
14.226469
 20
146.327179
 11
14.650740
 21
146.751450
  0
LINE
  8
0
 10
13.802229
 20
146.751465
 11
14.226492
 21
146.327209
  0
LINE
  8
0
 10
15.923544
 20
148.872772
 11
16.347807
 21
148.448502
  0
LINE
  8
0
 10
13.802225
 20
148.448517
 11
14.226488
 21
148.024261
  0
LINE
  8
0
 10
14.226488
 20
148.872772
 11
14.650751
 21
148.448502
  0
LINE
  8
0
 10
15.499239
 20
148.448471
 11
15.923506
 21
148.872742
  0
LINE
  8
0
 10
15.923525
 20
148.024231
 11
16.347792
 21
148.448502
  0
LINE
  8
0
 10
15.499285
 20
146.751465
 11
15.923548
 21
146.327194
  0
LINE
  8
0
 10
15.923548
 20
147.175705
 11
16.347811
 21
146.751450
  0
ARC
  8
0
 10
-18.924948
 20
86.499954
 40
1.500000
 50
180.000000
 51
270.000000
  0
ARC
  8
0
 10
10.075052
 20
86.499985
 40
1.500000
 50
270.000000
 51
0.000000
  0
CIRCLE
  8
0
 10
8.075022
 20
136.499985
 40
2.500000
  0
ARC
  8
0
 10
8.075022
 20
136.499985
 40
3.000000
 50
180.000000
 51
270.000000
  0
CIRCLE
  8
0
 10
-4.424978
 20
129.099960
 40
2.150000
  0
CIRCLE
  8
0
 10
-4.424978
 20
129.099960
 40
1.500000
  0
CIRCLE
  8
0
 10
-16.924978
 20
136.499954
 40
2.500000
  0
ARC
  8
0
 10
-16.924978
 20
136.499954
 40
3.000000
 50
270.000031
 51
0.000000
  0
ARC
  8
0
 10
-16.924978
 20
136.499954
 40
2.000000
 50
264.260864
 51
275.739258
  0
ARC
  8
0
 10
8.075022
 20
136.499985
 40
2.000000
 50
354.260925
 51
5.739083
  0
ARC
  8
0
 10
8.075022
 20
136.499985
 40
2.000000
 50
84.260811
 51
95.739189
  0
ARC
  8
0
 10
8.075022
 20
136.499985
 40
2.000000
 50
174.260910
 51
185.739090
  0
ARC
  8
0
 10
-16.924978
 20
136.499954
 40
2.000000
 50
84.260811
 51
95.739136
  0
ARC
  8
0
 10
-16.924978
 20
136.499954
 40
2.000000
 50
354.260925
 51
5.739083
  0
ARC
  8
0
 10
-16.924978
 20
136.499954
 40
2.000000
 50
174.260910
 51
185.739090
  0
ARC
  8
0
 10
18.074991
 20
144.599960
 40
3.000000
 50
270.000000
 51
0.000000
  0
ARC
  8
0
 10
-26.925009
 20
144.599960
 40
3.000000
 50
180.000000
 51
269.999969
  0
ARC
  8
0
 10
-4.425009
 20
158.349960
 40
11.899999
 50
35.464756
 51
84.537300
  0
CIRCLE
  8
0
 10
-4.424978
 20
158.349960
 40
5.000000
  0
CIRCLE
  8
0
 10
-4.424978
 20
158.349960
 40
7.500000
  0
ARC
  8
0
 10
-4.425009
 20
158.349960
 40
11.899997
 50
95.462929
 51
144.522705
  0
ARC
  8
0
 10
-4.425009
 20
158.349960
 40
11.900000
 50
155.463852
 51
204.522339
  0
ARC
  8
0
 10
-4.425009
 20
158.349960
 40
11.900002
 50
215.463486
 51
264.536743
  0
ARC
  8
0
 10
-4.425009
 20
158.349960
 40
11.899998
 50
275.459869
 51
324.522614
  0
ARC
  8
0
 10
-4.425009
 20
158.349960
 40
11.900000
 50
335.464417
 51
24.522985
  0
CIRCLE
  8
0
 10
15.074991
 20
169.099960
 40
3.000000
  0
CIRCLE
  8
0
 10
15.074991
 20
147.599960
 40
3.000000
  0
CIRCLE
  8
0
 10
-23.925009
 20
169.099960
 40
3.000000
  0
ARC
  8
0
 10
-23.925009
 20
170.372757
 40
0.600005
 50
225.000381
 51
314.999603
  0
ARC
  8
0
 10
-25.197798
 20
169.099960
 40
0.600005
 50
314.999603
 51
45.000385
  0
ARC
  8
0
 10
-22.652220
 20
169.099960
 40
0.600004
 50
134.999481
 51
225.000381
  0
ARC
  8
0
 10
-23.925009
 20
167.827164
 40
0.600005
 50
45.000385
 51
134.999481
  0
CIRCLE
  8
0
 10
-23.925009
 20
147.599960
 40
2.799999
  0
ARC
  8
0
 10
-23.925009
 20
148.872757
 40
0.600005
 50
225.000381
 51
314.999603
  0
ARC
  8
0
 10
-25.197798
 20
147.599960
 40
0.600005
 50
314.999603
 51
45.000385
  0
ARC
  8
0
 10
-22.652220
 20
147.599960
 40
0.600004
 50
134.999481
 51
225.000381
  0
ARC
  8
0
 10
-23.925009
 20
146.327164
 40
0.600005
 50
45.000385
 51
134.999481
  0
ARC
  8
0
 10
15.074991
 20
170.372757
 40
0.600004
 50
225.000519
 51
314.999481
  0
ARC
  8
0
 10
13.802202
 20
169.099960
 40
0.600004
 50
314.999481
 51
45.000515
  0
ARC
  8
0
 10
16.347780
 20
169.099960
 40
0.600004
 50
134.999481
 51
225.000519
  0
ARC
  8
0
 10
15.074991
 20
167.827164
 40
0.600004
 50
45.000515
 51
134.999481
  0
ARC
  8
0
 10
15.074991
 20
148.872757
 40
0.600004
 50
225.000519
 51
314.999481
  0
ARC
  8
0
 10
13.802202
 20
147.599960
 40
0.600004
 50
314.999481
 51
45.000515
  0
ARC
  8
0
 10
16.347780
 20
147.599960
 40
0.600004
 50
134.999481
 51
225.000519
  0
ARC
  8
0
 10
15.074991
 20
146.327164
 40
0.600004
 50
45.000515
 51
134.999481
  0
TEXT
  8
0
 10
-7.968407
 20
101.439980
 40
1.599999
  1
DC24V
 50
180.000000
 41
0.798236
 51
0.000000
  7
STANDARD
  0
POINT
  8
0
 10
-94.824982
 20
-60.999981
  0
POINT
  8
0
 10
-185.424988
 20
-60.999981
  0
LINE
  8
0
 10
-94.824982
 20
-73.999985
 11
-94.824982
 21
48.500019
  0
LINE
  8
0
 10
-94.825012
 20
-47.999981
 11
-124.825012
 21
-47.999981
  0
LINE
  8
0
 10
-94.825012
 20
-41.999981
 11
-124.825012
 21
-41.999981
  0
LINE
  8
0
 10
-124.824982
 20
-47.999950
 11
-124.824982
 21
-41.999950
  0
LINE
  8
0
 10
-120.824982
 20
-47.499950
 11
-120.824982
 21
-42.499950
  0
LINE
  8
0
 10
-94.824982
 20
-73.999985
 11
-149.824982
 21
-73.999985
  0
LINE
  8
0
 10
-94.825012
 20
26.000004
 11
-149.825012
 21
26.000004
  0
LINE
  8
0
 10
-94.825012
 20
6.000004
 11
-149.825012
 21
6.000004
  0
LINE
  8
0
 10
-104.824982
 20
-65.999954
 11
-104.824982
 21
6.000042
  0
LINE
  8
0
 10
-94.824982
 20
-65.999985
 11
-149.824982
 21
-65.999985
  0
LINE
  8
0
 10
-120.062469
 20
-44.999981
 11
-125.525635
 21
-44.999981
  0
LINE
  8
0
 10
-120.825012
 20
-42.499981
 11
-124.825012
 21
-42.499981
  0
LINE
  8
0
 10
-120.825012
 20
-47.499981
 11
-124.825012
 21
-47.499981
  0
LINE
  8
0
 10
-94.825012
 20
-11.999996
 11
-124.825012
 21
-11.999996
  0
LINE
  8
0
 10
-94.825012
 20
-18.000011
 11
-124.825012
 21
-18.000011
  0
LINE
  8
0
 10
-124.824982
 20
-11.999973
 11
-124.824982
 21
-17.999981
  0
LINE
  8
0
 10
-120.824982
 20
-12.499973
 11
-120.824982
 21
-17.499981
  0
LINE
  8
0
 10
-120.062469
 20
-15.000011
 11
-125.706299
 21
-15.000011
  0
LINE
  8
0
 10
-120.825012
 20
-17.500011
 11
-124.825012
 21
-17.500011
  0
LINE
  8
0
 10
-120.825012
 20
-12.499996
 11
-124.825012
 21
-12.499996
  0
LINE
  8
0
 10
-149.824982
 20
-73.999985
 11
-149.824982
 21
48.500019
  0
LINE
  8
0
 10
-146.324982
 20
44.920155
 11
-146.324982
 21
50.745869
  0
LINE
  8
0
 10
-143.325043
 20
45.999989
 11
-149.825043
 21
45.999989
  0
LINE
  8
0
 10
-145.325043
 20
48.999989
 11
-147.325043
 21
48.999989
  0
LINE
  8
0
 10
-143.324982
 20
46.000019
 11
-143.324982
 21
50.000019
  0
LINE
  8
0
 10
-148.824982
 20
46.000019
 11
-148.824982
 21
47.500019
  0
LINE
  8
0
 10
-143.824982
 20
46.000019
 11
-143.824982
 21
47.500019
  0
LINE
  8
0
 10
-143.825043
 20
46.999989
 11
-148.825043
 21
46.999989
  0
LINE
  8
0
 10
-141.074982
 20
50.000019
 11
-141.074982
 21
50.700031
  0
LINE
  8
0
 10
-136.774963
 20
50.000019
 11
-136.774963
 21
50.700031
  0
LINE
  8
0
 10
-136.775055
 20
50.700001
 11
-141.075043
 21
50.700001
  0
LINE
  8
0
 10
-96.325043
 20
49.999989
 11
-148.325043
 21
49.999989
  0
LINE
  8
0
 10
-106.224976
 20
50.000050
 11
-106.224976
 21
26.000050
  0
LINE
  8
0
 10
-108.224976
 20
50.000019
 11
-108.224976
 21
26.000019
  0
LINE
  8
0
 10
-109.824982
 20
50.000019
 11
-109.824982
 21
26.000019
  0
LINE
  8
0
 10
-111.824982
 20
50.000019
 11
-111.824982
 21
26.000019
  0
LINE
  8
0
 10
-113.424988
 20
50.000019
 11
-113.424988
 21
26.000019
  0
LINE
  8
0
 10
-115.424988
 20
50.000019
 11
-115.424988
 21
26.000019
  0
LINE
  8
0
 10
-117.024963
 20
50.000019
 11
-117.024963
 21
26.000019
  0
LINE
  8
0
 10
-119.024963
 20
50.000019
 11
-119.024963
 21
26.000019
  0
LINE
  8
0
 10
-120.624969
 20
50.000019
 11
-120.624969
 21
26.000019
  0
LINE
  8
0
 10
-122.624969
 20
50.000019
 11
-122.624969
 21
26.000019
  0
LINE
  8
0
 10
-124.224976
 20
50.000019
 11
-124.224976
 21
26.000019
  0
LINE
  8
0
 10
-126.224976
 20
50.000019
 11
-126.224976
 21
26.000019
  0
LINE
  8
0
 10
-127.824982
 20
50.000019
 11
-127.824982
 21
26.000019
  0
LINE
  8
0
 10
-129.824982
 20
50.000019
 11
-129.824982
 21
26.000034
  0
LINE
  8
0
 10
-131.424988
 20
50.000019
 11
-131.424988
 21
26.000019
  0
LINE
  8
0
 10
-133.424988
 20
50.000019
 11
-133.424988
 21
26.000019
  0
LINE
  8
0
 10
-104.824982
 20
50.000050
 11
-104.824982
 21
26.000050
  0
LINE
  8
0
 10
-134.824982
 20
50.000019
 11
-134.824982
 21
26.000019
  0
LINE
  8
0
 10
-146.125031
 20
47.999989
 11
-146.525055
 21
47.999989
  0
LINE
  8
0
 10
-146.125000
 20
48.000019
 11
-146.125000
 21
49.000019
  0
LINE
  8
0
 10
-146.524963
 20
48.000019
 11
-146.524963
 21
49.000019
  0
LINE
  8
0
 10
-159.424988
 20
-55.999950
 11
-159.424988
 21
-65.999954
  0
LINE
  8
0
 10
-152.424988
 20
-55.999981
 11
-159.424988
 21
-55.999981
  0
LINE
  8
0
 10
-152.424988
 20
-65.999985
 11
-159.424988
 21
-65.999985
  0
LINE
  8
0
 10
-146.117981
 20
-60.999981
 11
-163.630371
 21
-60.999981
  0
LINE
  8
0
 10
-154.424988
 20
-73.999985
 11
-185.424988
 21
-73.999985
  0
LINE
  8
0
 10
-149.824982
 20
-68.999985
 11
-151.424988
 21
-68.999985
  0
LINE
  8
0
 10
-170.524994
 20
-63.066021
 11
-168.324982
 21
-63.066021
  0
LINE
  8
0
 10
-172.391022
 20
-55.799999
 11
-172.391022
 21
-61.199963
  0
LINE
  8
0
 10
-166.458954
 20
-55.799999
 11
-166.458954
 21
-61.199963
  0
LINE
  8
0
 10
-170.524994
 20
-53.934032
 11
-168.324982
 21
-53.934032
  0
LINE
  8
0
 10
-151.424927
 20
26.000004
 11
-185.424927
 21
26.000004
  0
LINE
  8
0
 10
-151.424988
 20
26.000050
 11
-151.424988
 21
-70.999954
  0
LINE
  8
0
 10
-149.824982
 20
8.500004
 11
-151.424927
 21
8.500004
  0
LINE
  8
0
 10
-172.391022
 20
1.200001
 11
-172.391022
 21
-4.199993
  0
LINE
  8
0
 10
-170.524994
 20
-6.066044
 11
-168.324982
 21
-6.066044
  0
LINE
  8
0
 10
-166.458954
 20
1.200001
 11
-166.458954
 21
-4.199993
  0
LINE
  8
0
 10
-170.524994
 20
3.065945
 11
-168.324982
 21
3.065945
  0
LINE
  8
0
 10
-185.424988
 20
26.000050
 11
-185.424988
 21
-73.999954
  0
LINE
  8
0
 10
-159.424988
 20
-42.499981
 11
-179.424988
 21
-42.499981
  0
LINE
  8
0
 10
-169.424988
 20
-7.499943
 11
-169.424988
 21
-52.499920
  0
LINE
  8
0
 10
-159.424988
 20
-17.500011
 11
-179.424988
 21
-17.500011
  0
LINE
  8
0
 10
-151.574982
 20
56.999989
 11
-151.574982
 21
26.000004
  0
LINE
  8
0
 10
-184.774994
 20
56.999989
 11
-184.774994
 21
26.000004
  0
LINE
  8
0
 10
-181.774994
 20
59.999989
 11
-154.574982
 21
59.999989
  0
LINE
  8
0
 10
-180.674988
 20
64.999985
 11
-155.674988
 21
64.999985
  0
LINE
  8
0
 10
-180.674988
 20
69.999985
 11
-155.674988
 21
69.999985
  0
LINE
  8
0
 10
-180.674988
 20
69.999985
 11
-180.674988
 21
64.999985
  0
LINE
  8
0
 10
-155.674988
 20
69.999985
 11
-155.674988
 21
64.999985
  0
LINE
  8
0
 10
-158.859497
 20
64.999985
 11
-158.859497
 21
59.999989
  0
LINE
  8
0
 10
-177.490479
 20
64.999985
 11
-177.490479
 21
59.999989
  0
LINE
  8
0
 10
-174.424988
 20
69.999985
 11
-174.424988
 21
64.999985
  0
LINE
  8
0
 10
-171.538239
 20
69.999985
 11
-171.538239
 21
64.999985
  0
LINE
  8
0
 10
-175.869415
 20
69.999985
 11
-175.869415
 21
64.999985
  0
LINE
  8
0
 10
-179.231598
 20
69.999985
 11
-179.231598
 21
64.999985
  0
LINE
  8
0
 10
-178.855957
 20
69.999985
 11
-178.855957
 21
64.999985
  0
LINE
  8
0
 10
-171.350433
 20
69.999985
 11
-171.350433
 21
64.999985
  0
LINE
  8
0
 10
-164.811737
 20
69.999985
 11
-164.811737
 21
64.999985
  0
LINE
  8
0
 10
-164.999542
 20
69.999985
 11
-164.999542
 21
64.999985
  0
LINE
  8
0
 10
-161.924988
 20
69.999985
 11
-161.924988
 21
64.999985
  0
LINE
  8
0
 10
-160.480560
 20
69.999985
 11
-160.480560
 21
64.999985
  0
LINE
  8
0
 10
-157.494019
 20
69.999985
 11
-157.494019
 21
64.999985
  0
LINE
  8
0
 10
-157.118378
 20
69.999985
 11
-157.118378
 21
64.999985
  0
LINE
  8
0
 10
-168.174988
 20
74.659744
 11
-168.174988
 21
58.659748
  0
LINE
  8
0
 10
-176.290466
 20
64.999985
 11
-176.290466
 21
59.999989
  0
LINE
  8
0
 10
-160.059509
 20
64.999985
 11
-160.059509
 21
59.999989
  0
LINE
  8
0
 10
-138.925049
 20
53.149982
 11
-138.925049
 21
47.550007
  0
ARC
  8
0
 10
-148.325043
 20
48.500019
 40
1.500000
 50
90.000000
 51
180.000000
  0
ARC
  8
0
 10
-145.325043
 20
47.500019
 40
1.500000
 50
0.000000
 51
90.000000
  0
ARC
  8
0
 10
-147.325043
 20
47.500019
 40
1.500000
 50
90.000000
 51
180.000000
  0
ARC
  8
0
 10
-96.325043
 20
48.500050
 40
1.500000
 50
0.000000
 51
90.000000
  0
ARC
  8
0
 10
-152.424988
 20
-54.999950
 40
1.000000
 50
270.000000
 51
0.000000
  0
ARC
  8
0
 10
-152.424988
 20
-66.999954
 40
1.000000
 50
0.000000
 51
90.000000
  0
ARC
  8
0
 10
-154.424988
 20
-70.999954
 40
3.000000
 50
270.000000
 51
0.000000
  0
ARC
  8
0
 10
-168.324982
 20
-61.199963
 40
1.865997
 50
270.000000
 51
0.000000
  0
ARC
  8
0
 10
-170.524994
 20
-61.199963
 40
1.865997
 50
179.999878
 51
270.000000
  0
ARC
  8
0
 10
-170.524994
 20
-55.799999
 40
1.865997
 50
90.000000
 51
179.999878
  0
ARC
  8
0
 10
-168.324982
 20
-55.799999
 40
1.865997
 50
0.000000
 51
90.000000
  0
ARC
  8
0
 10
-170.524933
 20
-4.199993
 40
1.865997
 50
179.999878
 51
270.000000
  0
ARC
  8
0
 10
-168.324951
 20
-4.199993
 40
1.865997
 50
270.000000
 51
0.000000
  0
ARC
  8
0
 10
-170.524933
 20
1.200001
 40
1.865997
 50
90.000000
 51
179.999878
  0
ARC
  8
0
 10
-168.324951
 20
1.200001
 40
1.865997
 50
0.000000
 51
90.000000
  0
ARC
  8
0
 10
-181.774994
 20
56.999989
 40
3.000000
 50
90.000000
 51
180.000000
  0
ARC
  8
0
 10
-154.574982
 20
56.999989
 40
3.000000
 50
0.000000
 51
90.000000
  0
CIRCLE
  8
0
 10
-169.424988
 20
-17.500011
 40
6.578499
  0
CIRCLE
  8
0
 10
-169.424988
 20
-17.500011
 40
5.722500
  0
CIRCLE
  8
0
 10
-169.424988
 20
-42.499981
 40
6.578499
  0
CIRCLE
  8
0
 10
-169.424988
 20
-42.499981
 40
5.722500
  0
TEXT
  8
0
 10
-169.864990
 20
-57.721481
 40
1.599999
  1
B
 50
270.000000
 41
1.052632
 51
0.000000
  7
STANDARD
  0
TEXT
  8
0
 10
-169.864960
 20
-0.721496
 40
1.599999
  1
A
 50
270.000000
 41
1.052632
 51
0.000000
  7
STANDARD
  0
POINT
  8
0
 10
174.575012
 20
-60.999981
  0
POINT
  8
0
 10
194.575012
 20
-60.999981
  0
LINE
  8
0
 10
83.975006
 20
-72.499985
 11
83.975006
 21
48.499989
  0
LINE
  8
0
 10
83.975037
 20
-47.999981
 11
113.975037
 21
-47.999981
  0
LINE
  8
0
 10
83.975037
 20
-41.999981
 11
113.975037
 21
-41.999981
  0
LINE
  8
0
 10
113.975006
 20
-48.000011
 11
113.975006
 21
-42.000011
  0
LINE
  8
0
 10
109.975006
 20
-47.500011
 11
109.975006
 21
-42.500011
  0
LINE
  8
0
 10
85.475006
 20
-73.999985
 11
138.975006
 21
-73.999985
  0
LINE
  8
0
 10
83.975067
 20
26.000004
 11
138.975098
 21
26.000004
  0
LINE
  8
0
 10
83.975067
 20
6.000004
 11
138.975098
 21
6.000004
  0
LINE
  8
0
 10
93.975006
 20
-65.999985
 11
93.975006
 21
5.999996
  0
LINE
  8
0
 10
83.975006
 20
-65.999985
 11
138.975006
 21
-65.999985
  0
LINE
  8
0
 10
109.212494
 20
-44.999981
 11
114.675659
 21
-44.999981
  0
LINE
  8
0
 10
109.975037
 20
-42.499981
 11
113.975037
 21
-42.499981
  0
LINE
  8
0
 10
109.975037
 20
-47.499981
 11
113.975037
 21
-47.499981
  0
LINE
  8
0
 10
83.975037
 20
-11.999996
 11
113.975037
 21
-11.999996
  0
LINE
  8
0
 10
83.975037
 20
-18.000011
 11
113.975037
 21
-18.000011
  0
LINE
  8
0
 10
113.975006
 20
-12.000019
 11
113.975006
 21
-18.000011
  0
LINE
  8
0
 10
109.975006
 20
-12.500019
 11
109.975006
 21
-17.500011
  0
LINE
  8
0
 10
109.212494
 20
-15.000011
 11
114.856323
 21
-15.000011
  0
LINE
  8
0
 10
109.975037
 20
-17.500011
 11
113.975037
 21
-17.500011
  0
LINE
  8
0
 10
109.975037
 20
-12.499996
 11
113.975037
 21
-12.499996
  0
LINE
  8
0
 10
138.975006
 20
-73.999985
 11
138.975006
 21
48.499958
  0
LINE
  8
0
 10
135.475006
 20
44.920094
 11
135.475006
 21
50.745808
  0
LINE
  8
0
 10
132.475098
 20
45.999989
 11
138.975098
 21
45.999989
  0
LINE
  8
0
 10
134.475098
 20
48.999989
 11
136.475098
 21
48.999989
  0
LINE
  8
0
 10
132.475006
 20
45.999958
 11
132.475006
 21
49.999958
  0
LINE
  8
0
 10
137.975006
 20
45.999958
 11
137.975006
 21
47.499958
  0
LINE
  8
0
 10
132.975006
 20
45.999958
 11
132.975006
 21
47.499958
  0
LINE
  8
0
 10
132.975098
 20
46.999989
 11
137.975098
 21
46.999989
  0
LINE
  8
0
 10
130.225006
 20
49.999958
 11
130.225006
 21
50.699970
  0
LINE
  8
0
 10
125.924988
 20
49.999958
 11
125.924988
 21
50.699970
  0
LINE
  8
0
 10
125.925110
 20
50.700001
 11
130.225098
 21
50.700001
  0
LINE
  8
0
 10
85.475098
 20
49.999989
 11
137.475098
 21
49.999989
  0
LINE
  8
0
 10
95.375000
 20
49.999989
 11
95.375000
 21
25.999989
  0
LINE
  8
0
 10
97.375000
 20
49.999989
 11
97.375000
 21
25.999989
  0
LINE
  8
0
 10
98.975006
 20
49.999989
 11
98.975006
 21
25.999989
  0
LINE
  8
0
 10
100.975006
 20
49.999989
 11
100.975006
 21
25.999989
  0
LINE
  8
0
 10
102.575012
 20
49.999989
 11
102.575012
 21
25.999989
  0
LINE
  8
0
 10
104.575012
 20
49.999989
 11
104.575012
 21
25.999989
  0
LINE
  8
0
 10
106.174988
 20
49.999989
 11
106.174988
 21
25.999989
  0
LINE
  8
0
 10
108.174988
 20
49.999989
 11
108.174988
 21
25.999989
  0
LINE
  8
0
 10
109.774994
 20
49.999989
 11
109.774994
 21
25.999989
  0
LINE
  8
0
 10
111.774994
 20
49.999989
 11
111.774994
 21
25.999989
  0
LINE
  8
0
 10
113.375000
 20
49.999989
 11
113.375000
 21
25.999989
  0
LINE
  8
0
 10
115.375000
 20
49.999989
 11
115.375000
 21
25.999989
  0
LINE
  8
0
 10
116.975006
 20
49.999989
 11
116.975006
 21
25.999989
  0
LINE
  8
0
 10
118.975006
 20
49.999958
 11
118.975006
 21
25.999973
  0
LINE
  8
0
 10
120.575012
 20
49.999958
 11
120.575012
 21
25.999958
  0
LINE
  8
0
 10
122.575012
 20
49.999958
 11
122.575012
 21
25.999958
  0
LINE
  8
0
 10
93.975006
 20
49.999989
 11
93.975006
 21
25.999989
  0
LINE
  8
0
 10
123.975006
 20
49.999989
 11
123.975006
 21
25.999958
  0
LINE
  8
0
 10
135.275085
 20
47.999989
 11
135.675110
 21
47.999989
  0
LINE
  8
0
 10
135.275024
 20
47.999958
 11
135.275024
 21
48.999958
  0
LINE
  8
0
 10
135.674988
 20
47.999958
 11
135.674988
 21
48.999958
  0
LINE
  8
0
 10
143.575012
 20
-73.999985
 11
174.575012
 21
-73.999985
  0
LINE
  8
0
 10
138.975006
 20
-68.999985
 11
140.575012
 21
-68.999985
  0
LINE
  8
0
 10
140.575012
 20
26.000004
 11
174.575012
 21
26.000004
  0
LINE
  8
0
 10
140.575012
 20
25.999989
 11
140.575012
 21
-71.000015
  0
LINE
  8
0
 10
138.975006
 20
8.500004
 11
140.575012
 21
8.500004
  0
LINE
  8
0
 10
174.575012
 20
25.999989
 11
174.575012
 21
-74.000015
  0
LINE
  8
0
 10
148.575012
 20
17.999989
 11
148.575012
 21
7.999989
  0
LINE
  8
0
 10
141.575012
 20
18.000004
 11
148.575012
 21
18.000004
  0
LINE
  8
0
 10
141.575012
 20
8.000004
 11
148.575012
 21
8.000004
  0
LINE
  8
0
 10
147.620605
 20
-30.000011
 11
170.219299
 21
-30.000011
  0
LINE
  8
0
 10
148.575012
 20
-5.499996
 11
168.575012
 21
-5.499996
  0
LINE
  8
0
 10
135.268005
 20
13.000004
 11
152.780396
 21
13.000004
  0
LINE
  8
0
 10
148.575012
 20
-54.499981
 11
168.575012
 21
-54.499981
  0
LINE
  8
0
 10
158.575012
 20
6.981342
 11
158.575012
 21
-64.500015
  0
LINE
  8
0
 10
165.608948
 20
-16.300030
 11
165.608948
 21
-21.700024
  0
LINE
  8
0
 10
167.474976
 20
-23.565990
 11
169.674988
 21
-23.565990
  0
LINE
  8
0
 10
171.541016
 20
-16.300030
 11
171.541016
 21
-21.700024
  0
LINE
  8
0
 10
167.474976
 20
-14.434002
 11
169.674988
 21
-14.434002
  0
LINE
  8
0
 10
165.608948
 20
-40.799999
 11
165.608948
 21
-46.199993
  0
LINE
  8
0
 10
167.474976
 20
-48.065990
 11
169.674988
 21
-48.065990
  0
LINE
  8
0
 10
171.541016
 20
-40.799999
 11
171.541016
 21
-46.199993
  0
LINE
  8
0
 10
167.474976
 20
-38.934002
 11
169.674988
 21
-38.934002
  0
LINE
  8
0
 10
170.925049
 20
59.999989
 11
143.725037
 21
59.999989
  0
LINE
  8
0
 10
140.725037
 20
56.999989
 11
140.725037
 21
26.000004
  0
LINE
  8
0
 10
173.925049
 20
56.999989
 11
173.925049
 21
26.000004
  0
LINE
  8
0
 10
165.608948
 20
8.199986
 11
165.608948
 21
2.799992
  0
LINE
  8
0
 10
167.474976
 20
0.934010
 11
169.674988
 21
0.934010
  0
LINE
  8
0
 10
171.541016
 20
8.199986
 11
171.541016
 21
2.799992
  0
LINE
  8
0
 10
167.474976
 20
10.065998
 11
169.674988
 21
10.065998
  0
LINE
  8
0
 10
144.825043
 20
64.999985
 11
169.825043
 21
64.999985
  0
LINE
  8
0
 10
144.825043
 20
69.999985
 11
169.825043
 21
69.999985
  0
LINE
  8
0
 10
144.825043
 20
69.999985
 11
144.825043
 21
64.999985
  0
LINE
  8
0
 10
169.825043
 20
69.999985
 11
169.825043
 21
64.999985
  0
LINE
  8
0
 10
166.640533
 20
64.999985
 11
166.640533
 21
59.999989
  0
LINE
  8
0
 10
148.009552
 20
64.999985
 11
148.009552
 21
59.999989
  0
LINE
  8
0
 10
151.075043
 20
69.999985
 11
151.075043
 21
64.999985
  0
LINE
  8
0
 10
153.961792
 20
69.999985
 11
153.961792
 21
64.999985
  0
LINE
  8
0
 10
149.630615
 20
69.999985
 11
149.630615
 21
64.999985
  0
LINE
  8
0
 10
146.268433
 20
69.999985
 11
146.268433
 21
64.999985
  0
LINE
  8
0
 10
146.644073
 20
69.999985
 11
146.644073
 21
64.999985
  0
LINE
  8
0
 10
154.149597
 20
69.999985
 11
154.149597
 21
64.999985
  0
LINE
  8
0
 10
160.688293
 20
69.999985
 11
160.688293
 21
64.999985
  0
LINE
  8
0
 10
160.500488
 20
69.999985
 11
160.500488
 21
64.999985
  0
LINE
  8
0
 10
163.575043
 20
69.999985
 11
163.575043
 21
64.999985
  0
LINE
  8
0
 10
165.019470
 20
69.999985
 11
165.019470
 21
64.999985
  0
LINE
  8
0
 10
168.006012
 20
69.999985
 11
168.006012
 21
64.999985
  0
LINE
  8
0
 10
168.381653
 20
69.999985
 11
168.381653
 21
64.999985
  0
LINE
  8
0
 10
157.325043
 20
75.326431
 11
157.325043
 21
57.326435
  0
LINE
  8
0
 10
149.209564
 20
64.999985
 11
149.209564
 21
59.999989
  0
LINE
  8
0
 10
165.440521
 20
64.999985
 11
165.440521
 21
59.999989
  0
LINE
  8
0
 10
128.075012
 20
53.149952
 11
128.075012
 21
47.549976
  0
ARC
  8
0
 10
137.475098
 20
48.499958
 40
1.500000
 50
0.000000
 51
90.000000
  0
ARC
  8
0
 10
134.475098
 20
47.499958
 40
1.500000
 50
90.000000
 51
180.000000
  0
ARC
  8
0
 10
136.475098
 20
47.499958
 40
1.500000
 50
0.000000
 51
90.000000
  0
ARC
  8
0
 10
85.475098
 20
48.499989
 40
1.500000
 50
90.000000
 51
180.000000
  0
ARC
  8
0
 10
143.575012
 20
-71.000015
 40
3.000000
 50
179.999847
 51
270.000000
  0
ARC
  8
0
 10
141.575012
 20
18.999989
 40
1.000000
 50
180.000000
 51
270.000000
  0
ARC
  8
0
 10
141.575012
 20
6.999989
 40
1.000000
 50
90.000000
 51
180.000000
  0
ARC
  8
0
 10
167.474976
 20
-21.700024
 40
1.865997
 50
180.000000
 51
270.000000
  0
ARC
  8
0
 10
169.674988
 20
-21.700024
 40
1.865997
 50
270.000000
 51
0.000000
  0
ARC
  8
0
 10
167.474976
 20
-16.300030
 40
1.865997
 50
90.000000
 51
179.999878
  0
ARC
  8
0
 10
169.674988
 20
-16.300030
 40
1.865997
 50
0.000117
 51
90.000000
  0
ARC
  8
0
 10
167.474976
 20
-46.199993
 40
1.865997
 50
180.000000
 51
270.000000
  0
ARC
  8
0
 10
169.674988
 20
-46.199993
 40
1.865997
 50
270.000000
 51
0.000000
  0
ARC
  8
0
 10
167.474976
 20
-40.799999
 40
1.865997
 50
90.000000
 51
179.999878
  0
ARC
  8
0
 10
169.674988
 20
-40.799999
 40
1.865997
 50
0.000117
 51
90.000000
  0
ARC
  8
0
 10
158.575012
 20
-42.500011
 40
5.650002
 50
103.231880
 51
105.258369
  0
ARC
  8
0
 10
143.725037
 20
56.999989
 40
3.000000
 50
90.000000
 51
180.000000
  0
ARC
  8
0
 10
170.925049
 20
56.999989
 40
3.000000
 50
0.000000
 51
90.000000
  0
CIRCLE
  8
0
 10
158.575012
 20
-54.499981
 40
5.722500
  0
CIRCLE
  8
0
 10
158.575012
 20
-54.499981
 40
6.578499
  0
CIRCLE
  8
0
 10
158.575012
 20
-5.499996
 40
6.578499
  0
CIRCLE
  8
0
 10
158.575012
 20
-5.499996
 40
5.722500
  0
CIRCLE
  8
0
 10
158.575012
 20
-30.000011
 40
6.578499
  0
CIRCLE
  8
0
 10
158.575012
 20
-30.000011
 40
5.722500
  0
ARC
  8
0
 10
167.474976
 20
2.799992
 40
1.865997
 50
180.000000
 51
270.000000
  0
ARC
  8
0
 10
169.674988
 20
2.799992
 40
1.865997
 50
270.000000
 51
0.000000
  0
ARC
  8
0
 10
167.474976
 20
8.199986
 40
1.865997
 50
90.000000
 51
180.000000
  0
ARC
  8
0
 10
169.674988
 20
8.199986
 40
1.865997
 50
0.000000
 51
90.000000
  0
ARC
  8
0
 10
85.475006
 20
-72.499985
 40
1.500000
 50
179.999710
 51
270.000000
  0
TEXT
  8
0
 10
169.015015
 20
-19.778511
 40
1.599999
  1
P
 50
90.000000
 41
1.052632
 51
0.000000
  7
STANDARD
  0
TEXT
  8
0
 10
169.015015
 20
-45.078510
 40
1.599999
  1
R2
 50
90.000000
 41
1.052632
 51
0.000000
  7
STANDARD
  0
TEXT
  8
0
 10
169.015015
 20
3.921489
 40
1.599999
  1
R1
 50
90.000000
 41
1.052632
 51
0.000000
  7
STANDARD
  0
POINT
  8
0
 10
16.574999
 20
-179.600037
  0
POINT
  8
0
 10
-25.425001
 20
-179.600037
  0
LINE
  8
0
 10
-18.224989
 20
-166.133972
 11
-23.625013
 21
-166.133972
  0
LINE
  8
0
 10
-25.490980
 20
-168.000000
 11
-25.490980
 21
-170.200012
  0
LINE
  8
0
 10
-18.224989
 20
-172.066040
 11
-23.625013
 21
-172.066040
  0
LINE
  8
0
 10
-16.358961
 20
-168.000000
 11
-16.358961
 21
-170.200012
  0
LINE
  8
0
 10
-18.925062
 20
-89.000031
 11
10.074938
 21
-89.000031
  0
LINE
  8
0
 10
-20.425093
 20
-144.000031
 11
11.574907
 21
-144.000031
  0
LINE
  8
0
 10
11.574999
 20
-90.499969
 11
11.574999
 21
-144.599976
  0
LINE
  8
0
 10
-20.425001
 20
-90.500000
 11
-20.425001
 21
-144.600006
  0
LINE
  8
0
 10
-29.925093
 20
-179.600037
 11
21.074907
 21
-179.600037
  0
LINE
  8
0
 10
-26.925093
 20
-145.600037
 11
18.074907
 21
-145.600037
  0
LINE
  8
0
 10
-29.925001
 20
-148.599976
 11
-29.925001
 21
-179.599976
  0
LINE
  8
0
 10
21.074999
 20
-148.600006
 11
21.074999
 21
-179.600006
  0
LINE
  8
0
 10
-20.425001
 20
-144.600006
 11
-20.425001
 21
-145.600006
  0
LINE
  8
0
 10
11.574999
 20
-144.600006
 11
11.574999
 21
-145.600006
  0
LINE
  8
0
 10
-4.425001
 20
-183.600037
 11
-4.425001
 21
-85.000031
  0
LINE
  8
0
 10
-13.425001
 20
-154.100037
 11
-13.425001
 21
-166.100037
  0
LINE
  8
0
 10
-19.425001
 20
-160.100037
 11
-7.425001
 21
-160.100037
  0
LINE
  8
0
 10
7.074816
 20
-105.133972
 11
7.074816
 21
-106.866028
  0
LINE
  8
0
 10
5.574858
 20
-104.267815
 11
7.074862
 21
-105.133842
  0
LINE
  8
0
 10
4.074827
 20
-106.865944
 11
5.574831
 21
-107.731972
  0
LINE
  8
0
 10
5.574751
 20
-107.732002
 11
7.074755
 21
-106.865974
  0
LINE
  8
0
 10
4.074745
 20
-105.133957
 11
5.574747
 21
-104.267929
  0
LINE
  8
0
 10
4.074816
 20
-105.133972
 11
4.074816
 21
-106.866028
  0
LINE
  8
0
 10
-15.425166
 20
-131.267883
 11
-13.925162
 21
-132.133911
  0
LINE
  8
0
 10
-16.925188
 20
-132.133942
 11
-15.425185
 21
-131.267914
  0
LINE
  8
0
 10
-16.925192
 20
-133.865936
 11
-15.425187
 21
-134.731964
  0
LINE
  8
0
 10
-15.425233
 20
-134.731995
 11
-13.925228
 21
-133.865967
  0
LINE
  8
0
 10
-13.925184
 20
-132.133972
 11
-13.925184
 21
-133.866028
  0
LINE
  8
0
 10
-16.925184
 20
-132.133972
 11
-16.925184
 21
-133.866028
  0
LINE
  8
0
 10
-20.425184
 20
-133.000000
 11
-10.425184
 21
-133.000000
  0
LINE
  8
0
 10
0.574816
 20
-106.000000
 11
10.574816
 21
-106.000000
  0
LINE
  8
0
 10
-15.425184
 20
-128.000000
 11
-15.425184
 21
-138.000000
  0
LINE
  8
0
 10
5.574816
 20
-101.000000
 11
5.574816
 21
-111.000000
  0
CIRCLE
  8
0
 10
5.574816
 20
-106.000000
 40
4.000000
  0
ARC
  8
0
 10
-23.625013
 20
-168.000000
 40
1.865997
 50
89.999939
 51
180.000000
  0
ARC
  8
0
 10
-23.625013
 20
-170.200012
 40
1.865997
 50
180.000000
 51
270.000000
  0
ARC
  8
0
 10
-18.225019
 20
-168.000000
 40
1.865997
 50
0.000000
 51
89.999939
  0
ARC
  8
0
 10
-18.225019
 20
-170.200012
 40
1.865997
 50
270.000061
 51
0.000000
  0
ARC
  8
0
 10
10.074907
 20
-90.500000
 40
1.500000
 50
0.000000
 51
90.000000
  0
ARC
  8
0
 10
-18.925093
 20
-90.500000
 40
1.500000
 50
90.000000
 51
180.000000
  0
ARC
  8
0
 10
-26.925123
 20
-148.599976
 40
3.000000
 50
89.999962
 51
180.000000
  0
ARC
  8
0
 10
18.074877
 20
-148.600006
 40
3.000000
 50
0.000000
 51
90.000076
  0
CIRCLE
  8
0
 10
-13.425001
 20
-160.100037
 40
4.282999
  0
CIRCLE
  8
0
 10
-13.425001
 20
-160.100037
 40
4.863998
  0
CIRCLE
  8
0
 10
5.574816
 20
-106.000000
 40
3.500000
  0
CIRCLE
  8
0
 10
-15.425184
 20
-133.000000
 40
3.500000
  0
CIRCLE
  8
0
 10
-15.425184
 20
-133.000000
 40
4.000000
  0
TEXT
  8
0
 10
-22.503500
 20
-169.540039
 40
1.599999
  1
PR
 50
0.000000
 41
1.052632
 51
0.000000
  7
STANDARD
  0
ENDSEC
  0
EOF
