  0
SECTION
  2
HEADER
  0
ENDSEC
  0
SECTION
  2
TABLES
  0
TABLE
  2
LTYPE
 70
     4
  0
LTYPE
  2
CONTINUOUS
 70
    64
  3
Solid line
 72
    65
 73
     0
 40
0.000000
  0
LTYPE
  2
DASHED
 70
    64
  3
__ __ __ __ __ __ __ __ __ __ __ __ __ __ __
 72
    65
 73
     2
 40
3.500000
 49
2.000000
 49
-1.500000
  0
LTYPE
  2
CENTER
 70
    64
  3
____ _ ____ _ ____ _ ____ _ ____ _ ____ _ ____
 72
    65
 73
     4
 40
17.500000
 49
13.000000
 49
-1.500000
 49
1.500000
 49
-1.500000
  0
LTYPE
  2
PHANTOM
 70
    64
  3
_____ _ _ _____ _ _ _____ _ _ _____ _ _ ____  
 72
    65
 73
     6
 40
15.500000
 49
8.000000
 49
-1.500000
 49
1.500000
 49
-1.500000
 49
1.500000
 49
-1.500000
  0
LTYPE
  2
DASHED1
 70
    64
  3
__ __ __ __ __ __ __ __ __ __ __ __ __ __ __
 72
    65
 73
     2
 40
1.500000
 49
1.000000
 49
-0.500000
  0
LTYPE
  2
DASHED2
 70
    64
  3
__ __ __ __ __ __ __ __ __ __ __ __ __ __ __
 72
    65
 73
     2
 40
3.500000
 49
2.500000
 49
-1.000000
  0
LTYPE
  2
DASHED3
 70
    64
  3
__ __ __ __ __ __ __ __ __ __ __ __ __ __ __
 72
    65
 73
     2
 40
6.000000
 49
4.000000
 49
-2.000000
  0
LTYPE
  2
DASHED4
 70
    64
  3
__ __ __ __ __ __ __ __ __ __ __ __ __ __ __
 72
    65
 73
     2
 40
12.000000
 49
10.000000
 49
-2.000000
  0
LTYPE
  2
DASHED5
 70
    64
  3
__ __ __ __ __ __ __ __ __ __ __ __ __ __ __
 72
    65
 73
     2
 40
17.000000
 49
15.000000
 49
-2.000000
  0
LTYPE
  2
DASHED6
 70
    64
  3
__ __ __ __ __ __ __ __ __ __ __ __ __ __ __
 72
    65
 73
     2
 40
29.000000
 49
27.000000
 49
-2.000000
  0
LTYPE
  2
PHANTOM1
 70
    64
  3
_____ _ _ _____ _ _ _____ _ _ _____ _ _ ____  
 72
    65
 73
     6
 40
31.000000
 49
25.000000
 49
-1.500000
 49
1.000000
 49
-1.000000
 49
1.000000
 49
-1.500000
  0
LTYPE
  2
PHANTOM2
 70
    64
  3
_____ _ _ _____ _ _ _____ _ _ _____ _ _ ____  
 72
    65
 73
     6
 40
36.000000
 49
27.000000
 49
-1.500000
 49
2.500000
 49
-1.000000
 49
2.500000
 49
-1.500000
  0
LTYPE
  2
PHANTOM3
 70
    64
  3
_____ _ _ _____ _ _ _____ _ _ _____ _ _ ____  
 72
    65
 73
     6
 40
78.000000
 49
64.000000
 49
-2.000000
 49
4.000000
 49
-2.000000
 49
4.000000
 49
-2.000000
  0
LTYPE
  2
CENTER1
 70
    64
  3
____ _ ____ _ ____ _ ____ _ ____ _ ____ _ ____
 72
    65
 73
     4
 40
19.000000
 49
14.000000
 49
-1.000000
 49
3.000000
 49
-1.000000
  0
LTYPE
  2
CENTER2
 70
    64
  3
____ _ ____ _ ____ _ ____ _ ____ _ ____ _ ____
 72
    65
 73
     4
 40
28.500000
 49
25.000000
 49
-1.000000
 49
1.500000
 49
-1.000000
  0
LTYPE
  2
CENTER3
 70
    64
  3
____ _ ____ _ ____ _ ____ _ ____ _ ____ _ ____
 72
    65
 73
     4
 40
31.500000
 49
27.000000
 49
-1.000000
 49
2.500000
 49
-1.000000
  0
LTYPE
  2
CENTER4
 70
    64
  3
____ _ ____ _ ____ _ ____ _ ____ _ ____ _ ____
 72
    65
 73
     4
 40
50.000000
 49
45.000000
 49
-1.000000
 49
3.000000
 49
-1.000000
  0
LTYPE
  2
CENTER5
 70
    64
  3
____ _ ____ _ ____ _ ____ _ ____ _ ____ _ ____
 72
    65
 73
     4
 40
100.000000
 49
92.000000
 49
-2.000000
 49
4.000000
 49
-2.000000
  0
LTYPE
  2
SBK1
 70
    64
  3
______ _ _ _ ______ _ _ _ ______ _ _ _ _____  
 72
    65
 73
     8
 40
60.500000
 49
45.000000
 49
-2.000000
 49
2.500000
 49
-2.000000
 49
2.500000
 49
-2.000000
 49
2.500000
 49
-2.000000
  0
LTYPE
  2
SBK2
 70
    64
  3
______ _ _ _ ______ _ _ _ ______ _ _ _ _____  
 72
    65
 73
     8
 40
84.000000
 49
64.000000
 49
-2.000000
 49
4.000000
 49
-2.000000
 49
4.000000
 49
-2.000000
 49
4.000000
 49
-2.000000
  0
LTYPE
  2
STCH
 70
    64
  3
__ __ __ __ __ __ __ __ __ __ __ __ __ __ __
 72
    65
 73
     2
 40
3.000000
 49
1.000000
 49
-2.000000
  0
LTYPE
  2
MTCH
 70
    64
  3
_____ _ _ _____ _ _ _____ _ _ _____ _ _ ____  
 72
    65
 73
     6
 40
80.000000
 49
66.000000
 49
-2.000000
 49
4.000000
 49
-2.000000
 49
4.000000
 49
-2.000000
  0
ENDTAB
  0
TABLE
  2
LAYER
 70
     1
  0
LAYER
  2
0
 70
     0
 62
     7
  6
CONTINUOUS
  0
ENDTAB
  0
TABLE
  2
STYLE
 70
     1
  0
STYLE
  2
STANDARD
 70
     0
 40
0.000000
 41
1.000000
 50
0.000000
 71
     0
 42
0.200000
  3
txt
  4
BIGFONT
  0
ENDTAB
  0
TABLE
  2
VIEW
 70
     0
  0
ENDTAB
  0
ENDSEC
  0
SECTION
  2
BLOCKS
  0
ENDSEC
  0
SECTION
  2
ENTITIES
  0
LINE
  8
0
 10
118.527802
 20
118.298965
 11
194.800003
 21
118.298965
  0
LINE
  8
0
 10
118.527802
 20
132.600006
 11
118.527802
 21
118.298965
  0
LINE
  8
0
 10
-194.250000
 20
118.298965
 11
-92.977806
 21
118.298965
  0
LINE
  8
0
 10
-194.250000
 20
132.600006
 11
194.800003
 21
132.600006
  0
LINE
  8
0
 10
194.800003
 20
132.600006
 11
194.800003
 21
-133.500000
  0
LINE
  8
0
 10
-194.250000
 20
132.600006
 11
-194.250000
 21
-133.500000
  0
LINE
  8
0
 10
-194.250000
 20
-133.500000
 11
194.800003
 21
-133.500000
  0
LINE
  8
0
 10
118.527802
 20
-119.198959
 11
194.800003
 21
-119.198959
  0
LINE
  8
0
 10
210.000000
 20
148.500000
 11
210.000000
 21
-148.500000
  0
LINE
  8
0
 10
-210.000000
 20
148.500000
 11
-210.000000
 21
-148.500000
  0
LINE
  8
0
 10
-210.000000
 20
148.500000
 11
210.000000
 21
148.500000
  0
LINE
  8
0
 10
-210.000000
 20
-148.500000
 11
210.000000
 21
-148.500000
  0
LINE
  8
0
 10
118.527802
 20
-119.198959
 11
118.527802
 21
-133.500000
  0
LINE
  8
0
 10
-92.977806
 20
118.298965
 11
-92.977806
 21
132.600006
  0
LINE
  8
0
 10
-194.250000
 20
-0.449997
 11
194.800003
 21
-0.449997
  0
LINE
  8
0
 10
0.275002
 20
132.600006
 11
0.275002
 21
-133.500000
  0
LINE
  8
0
 10
-194.250000
 20
9.550003
 11
194.800003
 21
9.550003
  0
LINE
  8
0
 10
-194.250000
 20
-123.500000
 11
118.527802
 21
-123.500000
  0
TEXT
  8
0
 10
122.724205
 20
122.631119
 40
4.242641
  1
DATE : MAR ,1987
 50
0.000000
 41
1.052631
 51
0.000000
  7
STANDARD
  0
TEXT
  8
0
 10
-191.078186
 20
121.949493
 40
5.000000
  1
430 ADDITIONAL PART
 50
0.000000
 41
1.052632
 51
0.000000
  7
STANDARD
  0
TEXT
  8
0
 10
123.699844
 20
-129.849472
 40
5.000000
  1
KOGANEI CORP.
 50
0.000000
 41
1.052632
 51
15.000000
  7
STANDARD
  0
TEXT
  8
0
 10
-147.737320
 20
1.770003
 40
4.200000
  1
SPEED CONTROLER : SCE-02
 50
0.000000
 41
1.052632
 51
0.000000
  7
STANDARD
  0
TEXT
  8
0
 10
46.787697
 20
1.770003
 40
4.200000
  1
SPEED CONTROLER : SCE-03
 50
0.000000
 41
1.052632
 51
0.000000
  7
STANDARD
  0
TEXT
  8
0
 10
-128.837311
 20
-131.279999
 40
4.200000
  1
MUFFLER : KM-22
 50
0.000000
 41
1.052632
 51
0.000000
  7
STANDARD
  0
TEXT
  8
0
 10
27.551592
 20
-131.279999
 40
4.200000
  1
MUFFLER : KM-31
 50
0.000000
 41
1.052632
 51
0.000000
  7
STANDARD
  0
POINT
  8
0
 10
-145.618744
 20
42.812504
  0
POINT
  8
0
 10
-125.705345
 20
42.812504
  0
LINE
  8
0
 10
-151.618744
 20
48.203499
 11
-151.618744
 21
37.421505
  0
LINE
  8
0
 10
-130.618744
 20
49.812508
 11
-130.618744
 21
35.812504
  0
LINE
  8
0
 10
-140.822342
 20
50.895409
 11
-131.243958
 21
50.895409
  0
LINE
  8
0
 10
-140.822342
 20
34.729599
 11
-131.243958
 21
34.729599
  0
LINE
  8
0
 10
-150.586487
 20
49.235756
 11
-141.618744
 21
49.515999
  0
LINE
  8
0
 10
-150.586487
 20
36.389248
 11
-141.618744
 21
36.109005
  0
LINE
  8
0
 10
-151.470093
 20
48.352146
 11
-142.955536
 21
48.618225
  0
LINE
  8
0
 10
-151.470139
 20
37.272861
 11
-142.955551
 21
37.006783
  0
LINE
  8
0
 10
-151.618744
 20
37.421497
 11
-150.586487
 21
36.389240
  0
LINE
  8
0
 10
-130.618744
 20
49.812504
 11
-131.243958
 21
50.895409
  0
LINE
  8
0
 10
-130.618744
 20
35.812500
 11
-131.243958
 21
34.729591
  0
LINE
  8
0
 10
-141.618744
 20
49.515999
 11
-140.822342
 21
50.895405
  0
LINE
  8
0
 10
-141.618744
 20
36.109005
 11
-140.822342
 21
34.729599
  0
LINE
  8
0
 10
-142.955536
 20
48.618237
 11
-141.618744
 21
49.516010
  0
LINE
  8
0
 10
-142.955551
 20
37.006786
 11
-141.618744
 21
36.109009
  0
LINE
  8
0
 10
-141.618744
 20
36.109005
 11
-141.618744
 21
49.515999
  0
LINE
  8
0
 10
-131.243958
 20
46.853958
 11
-140.822342
 21
46.853958
  0
LINE
  8
0
 10
-131.243958
 20
38.771053
 11
-140.822342
 21
38.771053
  0
LINE
  8
0
 10
-142.955536
 20
49.474228
 11
-142.955536
 21
36.150780
  0
LINE
  8
0
 10
-128.618744
 20
38.812504
 11
-126.205345
 21
38.812504
  0
LINE
  8
0
 10
-125.705345
 20
46.312504
 11
-125.705345
 21
43.312504
  0
LINE
  8
0
 10
-128.618744
 20
39.312504
 11
-125.705345
 21
39.312504
  0
LINE
  8
0
 10
-127.705345
 20
43.312504
 11
-127.705345
 21
42.312504
  0
LINE
  8
0
 10
-127.705345
 20
42.312504
 11
-125.705345
 21
42.312504
  0
LINE
  8
0
 10
-127.697037
 20
43.312504
 11
-125.705345
 21
43.312504
  0
LINE
  8
0
 10
-128.618744
 20
46.812504
 11
-126.205345
 21
46.812504
  0
LINE
  8
0
 10
-128.618744
 20
46.312504
 11
-125.705345
 21
46.312504
  0
LINE
  8
0
 10
-125.705345
 20
42.312504
 11
-125.705345
 21
39.312504
  0
LINE
  8
0
 10
-126.205353
 20
38.812500
 11
-125.705353
 21
39.312500
  0
LINE
  8
0
 10
-125.705322
 20
46.312523
 11
-126.205322
 21
46.812523
  0
LINE
  8
0
 10
-126.205345
 20
46.812504
 11
-126.205345
 21
43.312504
  0
LINE
  8
0
 10
-126.205345
 20
42.312504
 11
-126.205345
 21
38.812504
  0
LINE
  8
0
 10
-128.618744
 20
37.812508
 11
-128.618744
 21
47.812508
  0
LINE
  8
0
 10
-129.065323
 20
37.039001
 11
-130.618744
 21
37.039001
  0
LINE
  8
0
 10
-129.065323
 20
39.925751
 11
-130.618744
 21
39.925751
  0
LINE
  8
0
 10
-129.065338
 20
45.699253
 11
-130.618744
 21
45.699253
  0
LINE
  8
0
 10
-129.065338
 20
48.586002
 11
-130.618744
 21
48.586002
  0
LINE
  8
0
 10
-128.618729
 20
37.812492
 11
-129.065308
 21
37.038990
  0
LINE
  8
0
 10
-129.065308
 20
48.586021
 11
-128.618729
 21
47.812519
  0
LINE
  8
0
 10
-151.618759
 20
48.203499
 11
-150.586502
 21
49.235756
  0
LINE
  8
0
 10
-150.586487
 20
49.235756
 11
-150.586487
 21
36.389210
  0
ARC
  8
0
 10
-138.656921
 20
48.874680
 40
2.961826
 50
163.020493
 51
223.020340
  0
ARC
  8
0
 10
-130.966095
 20
42.812504
 40
10.652647
 50
157.704453
 51
202.295547
  0
ARC
  8
0
 10
-138.656921
 20
36.750328
 40
2.961820
 50
136.979660
 51
196.979645
  0
ARC
  8
0
 10
-134.196899
 20
36.750328
 40
3.578160
 50
334.383514
 51
34.384247
  0
ARC
  8
0
 10
-143.993546
 20
42.812504
 40
13.374803
 50
342.412048
 51
17.587925
  0
ARC
  8
0
 10
-134.196899
 20
48.874680
 40
3.578156
 50
325.615814
 51
25.615023
  0
ARC
  8
0
 10
-131.174561
 20
38.482376
 40
2.555816
 50
334.384064
 51
34.384266
  0
ARC
  8
0
 10
-131.174561
 20
47.142632
 40
2.555807
 50
325.615540
 51
25.614784
  0
ARC
  8
0
 10
-138.172150
 20
42.812500
 40
9.553409
 50
342.412048
 51
17.587936
  0
ARC
  8
0
 10
-131.174561
 20
53.482376
 40
2.555819
 50
177.856964
 51
180.000000
  0
CIRCLE
  8
0
 10
-138.618744
 20
42.812504
 40
2.500000
  0
POINT
  8
0
 10
-145.618744
 20
92.812500
  0
POINT
  8
0
 10
-125.705345
 20
92.812500
  0
LINE
  8
0
 10
-151.618744
 20
98.203499
 11
-151.618744
 21
87.421501
  0
LINE
  8
0
 10
-150.586487
 20
99.235756
 11
-141.618744
 21
99.515999
  0
LINE
  8
0
 10
-150.586487
 20
86.389244
 11
-141.618744
 21
86.109001
  0
LINE
  8
0
 10
-151.470093
 20
98.352142
 11
-142.955536
 21
98.618225
  0
LINE
  8
0
 10
-151.470123
 20
87.272858
 11
-142.955536
 21
87.006775
  0
LINE
  8
0
 10
-151.618759
 20
87.421486
 11
-150.586502
 21
86.389229
  0
LINE
  8
0
 10
-142.955551
 20
98.618225
 11
-141.618744
 21
99.515999
  0
LINE
  8
0
 10
-142.955551
 20
87.006767
 11
-141.618744
 21
86.108994
  0
LINE
  8
0
 10
-141.618744
 20
85.812500
 11
-141.618744
 21
99.812500
  0
LINE
  8
0
 10
-142.955536
 20
99.474228
 11
-142.955536
 21
86.150780
  0
LINE
  8
0
 10
-128.618744
 20
88.812500
 11
-126.205345
 21
88.812500
  0
LINE
  8
0
 10
-125.705345
 20
96.312500
 11
-125.705345
 21
89.312500
  0
LINE
  8
0
 10
-128.618744
 20
89.312500
 11
-125.705345
 21
89.312500
  0
LINE
  8
0
 10
-128.618744
 20
96.812500
 11
-126.205345
 21
96.812500
  0
LINE
  8
0
 10
-128.618744
 20
96.312500
 11
-125.705345
 21
96.312500
  0
LINE
  8
0
 10
-126.205338
 20
88.812500
 11
-125.705338
 21
89.312500
  0
LINE
  8
0
 10
-125.705338
 20
96.312515
 11
-126.205338
 21
96.812515
  0
LINE
  8
0
 10
-126.205345
 20
96.812500
 11
-126.205345
 21
88.812500
  0
LINE
  8
0
 10
-141.618744
 20
85.812500
 11
-130.618744
 21
85.812500
  0
LINE
  8
0
 10
-141.618744
 20
99.812500
 11
-130.618744
 21
99.812500
  0
LINE
  8
0
 10
-130.618744
 20
99.812500
 11
-130.618744
 21
85.812500
  0
LINE
  8
0
 10
-128.618744
 20
97.812500
 11
-128.618744
 21
87.812500
  0
LINE
  8
0
 10
-130.618744
 20
87.812500
 11
-128.618744
 21
87.812500
  0
LINE
  8
0
 10
-130.618744
 20
97.812500
 11
-128.618744
 21
97.812500
  0
LINE
  8
0
 10
-140.822342
 20
92.812500
 11
-131.243958
 21
92.812500
  0
LINE
  8
0
 10
-130.618744
 20
92.812500
 11
-129.065338
 21
92.812500
  0
LINE
  8
0
 10
-151.618744
 20
98.203506
 11
-150.586487
 21
99.235764
  0
LINE
  8
0
 10
-150.586487
 20
99.235756
 11
-150.586487
 21
86.389198
  0
ARC
  8
0
 10
-135.839600
 20
90.312500
 40
7.220860
 50
339.743774
 51
20.256233
  0
ARC
  8
0
 10
-135.839600
 20
95.312500
 40
7.220860
 50
339.743774
 51
20.256233
  0
ARC
  8
0
 10
-140.727997
 20
96.312500
 40
10.109253
 50
339.743866
 51
20.256132
  0
ARC
  8
0
 10
-140.727997
 20
89.312500
 40
10.109253
 50
339.743866
 51
20.256132
  0
ARC
  8
0
 10
-133.529694
 20
96.312500
 40
8.089049
 50
154.362000
 51
205.637955
  0
ARC
  8
0
 10
-133.529694
 20
89.312500
 40
8.089049
 50
154.362000
 51
205.637955
  0
POINT
  8
0
 10
-68.356247
 20
42.812504
  0
POINT
  8
0
 10
-61.356247
 20
42.812504
  0
LINE
  8
0
 10
-75.356247
 20
46.853954
 11
-75.356247
 21
38.771053
  0
LINE
  8
0
 10
-61.356247
 20
46.853954
 11
-61.356247
 21
38.771053
  0
LINE
  8
0
 10
-61.356247
 20
46.853958
 11
-68.356255
 21
50.895412
  0
LINE
  8
0
 10
-68.356247
 20
34.729599
 11
-75.356255
 21
38.771053
  0
LINE
  8
0
 10
-75.356247
 20
46.853962
 11
-68.356239
 21
50.895412
  0
LINE
  8
0
 10
-68.356239
 20
34.729584
 11
-61.356239
 21
38.771034
  0
LINE
  8
0
 10
-73.356247
 20
45.699253
 11
-73.356247
 21
39.925755
  0
LINE
  8
0
 10
-63.356247
 20
45.699253
 11
-63.356247
 21
39.925755
  0
LINE
  8
0
 10
-63.356243
 20
45.699249
 11
-68.356239
 21
48.585999
  0
LINE
  8
0
 10
-73.356239
 20
45.699249
 11
-68.356239
 21
48.585999
  0
LINE
  8
0
 10
-63.356239
 20
39.925739
 11
-68.356239
 21
37.038986
  0
LINE
  8
0
 10
-73.356247
 20
39.925751
 11
-68.356239
 21
37.038998
  0
LINE
  8
0
 10
-72.324875
 20
43.312504
 11
-64.387619
 21
43.312504
  0
LINE
  8
0
 10
-72.324875
 20
42.312504
 11
-64.387619
 21
42.312504
  0
CIRCLE
  8
0
 10
-68.356247
 20
42.812504
 40
7.000000
  0
CIRCLE
  8
0
 10
-68.356247
 20
42.812504
 40
5.000000
  0
CIRCLE
  8
0
 10
-68.356247
 20
42.812504
 40
4.000000
  0
CIRCLE
  8
0
 10
-68.356247
 20
42.812504
 40
3.500000
  0
POINT
  8
0
 10
54.381256
 20
42.812504
  0
POINT
  8
0
 10
90.381256
 20
42.812504
  0
LINE
  8
0
 10
83.031258
 20
53.782158
 11
83.031258
 21
31.842850
  0
LINE
  8
0
 10
62.119408
 20
54.936848
 11
82.093445
 21
54.936848
  0
LINE
  8
0
 10
62.119415
 20
30.688147
 11
82.093430
 21
30.688147
  0
LINE
  8
0
 10
83.031258
 20
53.312504
 11
82.093445
 21
54.936844
  0
LINE
  8
0
 10
82.093437
 20
30.688148
 11
83.031258
 21
32.312504
  0
LINE
  8
0
 10
90.381256
 20
49.812504
 11
90.381256
 21
43.812504
  0
LINE
  8
0
 10
87.031258
 20
34.812504
 11
89.381256
 21
34.812504
  0
LINE
  8
0
 10
87.031258
 20
50.812504
 11
89.381256
 21
50.812504
  0
LINE
  8
0
 10
87.031258
 20
49.730003
 11
90.381256
 21
49.730003
  0
LINE
  8
0
 10
87.031258
 20
35.895004
 11
90.381256
 21
35.895004
  0
LINE
  8
0
 10
89.381256
 20
34.812504
 11
90.381256
 21
35.812504
  0
LINE
  8
0
 10
90.381256
 20
49.812500
 11
89.381256
 21
50.812500
  0
LINE
  8
0
 10
89.381256
 20
50.812504
 11
89.381256
 21
43.812504
  0
LINE
  8
0
 10
88.381256
 20
43.812504
 11
88.381256
 21
41.812504
  0
LINE
  8
0
 10
88.381256
 20
41.812504
 11
90.381256
 21
41.812504
  0
LINE
  8
0
 10
88.381256
 20
43.812504
 11
90.381256
 21
43.812504
  0
LINE
  8
0
 10
89.381256
 20
41.812504
 11
89.381256
 21
34.812504
  0
LINE
  8
0
 10
90.381256
 20
41.812504
 11
90.381256
 21
35.812504
  0
LINE
  8
0
 10
48.031258
 20
49.912308
 11
48.031258
 21
35.712700
  0
LINE
  8
0
 10
59.031258
 20
50.432816
 11
48.202324
 21
50.094410
  0
LINE
  8
0
 10
60.031261
 20
51.320068
 11
49.030769
 21
50.976303
  0
LINE
  8
0
 10
62.119404
 20
54.936852
 11
60.031258
 21
51.320068
  0
LINE
  8
0
 10
49.030758
 20
50.976311
 11
48.031246
 21
49.912319
  0
LINE
  8
0
 10
60.031261
 20
34.304939
 11
49.030769
 21
34.648705
  0
LINE
  8
0
 10
49.030762
 20
34.648697
 11
48.031242
 21
35.712696
  0
LINE
  8
0
 10
59.031258
 20
35.192192
 11
48.202324
 21
35.530594
  0
LINE
  8
0
 10
62.119400
 20
30.688156
 11
60.031254
 21
34.304935
  0
LINE
  8
0
 10
59.031250
 20
50.432816
 11
59.534546
 21
51.304546
  0
LINE
  8
0
 10
59.031258
 20
34.336189
 11
59.031258
 21
51.288818
  0
LINE
  8
0
 10
59.031246
 20
35.192184
 11
59.534542
 21
34.320454
  0
LINE
  8
0
 10
62.119408
 20
48.874672
 11
82.093445
 21
48.874672
  0
LINE
  8
0
 10
62.119408
 20
36.750336
 11
82.093445
 21
36.750336
  0
LINE
  8
0
 10
60.031258
 20
51.320068
 11
60.031258
 21
34.304939
  0
LINE
  8
0
 10
87.031258
 20
52.312504
 11
87.031258
 21
33.312504
  0
LINE
  8
0
 10
83.031258
 20
53.782158
 11
86.182755
 21
53.782158
  0
LINE
  8
0
 10
83.031258
 20
31.842850
 11
86.182755
 21
31.842850
  0
LINE
  8
0
 10
87.031265
 20
52.312504
 11
86.182755
 21
53.782158
  0
LINE
  8
0
 10
87.031258
 20
33.312504
 11
86.182755
 21
31.842850
  0
LINE
  8
0
 10
49.030769
 20
50.976303
 11
49.030769
 21
34.648705
  0
LINE
  8
0
 10
83.031258
 20
37.327679
 11
86.182755
 21
37.327679
  0
LINE
  8
0
 10
83.031258
 20
48.297329
 11
86.182755
 21
48.297329
  0
ARC
  8
0
 10
82.175186
 20
51.039742
 40
4.856071
 50
325.615845
 51
25.615826
  0
ARC
  8
0
 10
68.879761
 20
42.812504
 40
18.151499
 50
342.412048
 51
17.587942
  0
ARC
  8
0
 10
82.175186
 20
34.585266
 40
4.856074
 50
334.384125
 51
34.384125
  0
ARC
  8
0
 10
62.969002
 20
42.812504
 40
20.062258
 50
342.412140
 51
17.587852
  0
ARC
  8
0
 10
77.663994
 20
51.905758
 40
5.367264
 50
325.616058
 51
25.615936
  0
ARC
  8
0
 10
77.663994
 20
33.719250
 40
5.367267
 50
334.384033
 51
34.383915
  0
ARC
  8
0
 10
66.548851
 20
51.905758
 40
5.367264
 50
154.384003
 51
214.383911
  0
ARC
  8
0
 10
81.243843
 20
42.812504
 40
20.062254
 50
162.412125
 51
197.587814
  0
ARC
  8
0
 10
66.548851
 20
33.719250
 40
5.367264
 50
145.616058
 51
205.615997
  0
CIRCLE
  8
0
 10
66.031258
 20
42.812504
 40
3.500000
  0
POINT
  8
0
 10
54.381256
 20
102.812500
  0
POINT
  8
0
 10
90.381256
 20
102.812500
  0
LINE
  8
0
 10
83.031258
 20
113.312500
 11
83.031258
 21
92.312500
  0
LINE
  8
0
 10
87.031258
 20
94.812500
 11
89.381256
 21
94.812500
  0
LINE
  8
0
 10
87.031258
 20
110.812500
 11
89.381256
 21
110.812500
  0
LINE
  8
0
 10
87.031258
 20
109.729996
 11
90.381256
 21
109.729996
  0
LINE
  8
0
 10
87.031258
 20
95.895004
 11
90.381256
 21
95.895004
  0
LINE
  8
0
 10
89.381256
 20
94.812508
 11
90.381256
 21
95.812515
  0
LINE
  8
0
 10
90.381248
 20
109.812500
 11
89.381248
 21
110.812500
  0
LINE
  8
0
 10
89.381256
 20
110.812500
 11
89.381256
 21
94.812500
  0
LINE
  8
0
 10
90.381256
 20
109.812500
 11
90.381256
 21
95.812500
  0
LINE
  8
0
 10
48.031258
 20
109.912300
 11
48.031258
 21
95.712692
  0
LINE
  8
0
 10
59.031258
 20
110.432800
 11
48.202324
 21
110.094398
  0
LINE
  8
0
 10
60.031258
 20
111.320068
 11
49.030766
 21
110.976303
  0
LINE
  8
0
 10
61.181587
 20
113.312500
 11
60.031254
 21
111.320068
  0
LINE
  8
0
 10
49.030735
 20
110.976326
 11
48.031223
 21
109.912331
  0
LINE
  8
0
 10
60.031258
 20
94.304932
 11
49.030766
 21
94.648697
  0
LINE
  8
0
 10
49.030762
 20
94.648689
 11
48.031246
 21
95.712692
  0
LINE
  8
0
 10
59.031258
 20
95.192192
 11
48.202324
 21
95.530594
  0
LINE
  8
0
 10
61.181583
 20
92.312500
 11
60.031254
 21
94.304932
  0
LINE
  8
0
 10
59.031246
 20
110.432808
 11
59.534538
 21
111.304535
  0
LINE
  8
0
 10
59.031258
 20
94.336182
 11
59.031258
 21
111.288811
  0
LINE
  8
0
 10
59.031246
 20
95.192177
 11
59.534542
 21
94.320450
  0
LINE
  8
0
 10
60.031258
 20
111.320061
 11
60.031258
 21
94.304932
  0
LINE
  8
0
 10
87.031258
 20
112.312500
 11
87.031258
 21
93.312500
  0
LINE
  8
0
 10
49.030769
 20
110.976295
 11
49.030769
 21
94.648697
  0
LINE
  8
0
 10
62.119408
 20
102.812500
 11
82.093445
 21
102.812500
  0
LINE
  8
0
 10
83.031258
 20
102.812500
 11
86.182755
 21
102.812500
  0
LINE
  8
0
 10
82.093445
 20
102.812500
 11
83.031258
 21
102.812500
  0
LINE
  8
0
 10
61.181587
 20
113.312500
 11
83.031258
 21
113.312500
  0
LINE
  8
0
 10
61.181583
 20
92.312500
 11
83.031258
 21
92.312500
  0
LINE
  8
0
 10
83.031258
 20
112.312500
 11
87.031258
 21
112.312500
  0
LINE
  8
0
 10
83.031258
 20
93.312500
 11
87.031258
 21
93.312500
  0
ARC
  8
0
 10
76.345596
 20
108.062500
 40
15.164005
 50
159.744049
 51
200.255920
  0
ARC
  8
0
 10
76.345596
 20
97.562500
 40
15.164005
 50
159.744049
 51
200.255920
  0
ARC
  8
0
 10
67.867241
 20
97.562500
 40
15.164016
 50
339.744049
 51
20.255941
  0
ARC
  8
0
 10
67.867241
 20
108.062500
 40
15.164016
 50
339.744049
 51
20.255941
  0
ARC
  8
0
 10
73.311562
 20
107.562500
 40
13.719698
 50
339.743866
 51
20.256136
  0
ARC
  8
0
 10
73.311562
 20
98.062500
 40
13.719698
 50
339.743866
 51
20.256136
  0
POINT
  8
0
 10
144.381256
 20
42.812504
  0
POINT
  8
0
 10
154.881256
 20
42.812504
  0
LINE
  8
0
 10
144.381271
 20
31.842819
 11
153.881271
 21
37.327652
  0
LINE
  8
0
 10
134.881271
 20
48.297325
 11
144.381256
 21
53.782146
  0
LINE
  8
0
 10
134.881256
 20
48.297340
 11
134.881256
 21
37.327675
  0
LINE
  8
0
 10
153.881256
 20
48.297333
 11
153.881256
 21
37.327675
  0
LINE
  8
0
 10
134.881241
 20
37.327690
 11
144.381241
 21
31.842865
  0
LINE
  8
0
 10
144.381256
 20
53.782177
 11
153.881256
 21
48.297344
  0
LINE
  8
0
 10
136.444000
 20
43.812504
 11
152.318512
 21
43.812504
  0
LINE
  8
0
 10
136.444000
 20
41.812504
 11
152.318512
 21
41.812504
  0
LINE
  8
0
 10
144.381271
 20
30.688107
 11
154.881271
 21
36.750282
  0
LINE
  8
0
 10
133.881271
 20
48.874676
 11
144.381271
 21
54.936852
  0
LINE
  8
0
 10
133.881256
 20
48.874687
 11
133.881256
 21
36.750328
  0
LINE
  8
0
 10
154.881256
 20
48.874687
 11
154.881256
 21
36.750324
  0
LINE
  8
0
 10
133.881256
 20
36.750336
 11
144.381256
 21
30.688164
  0
LINE
  8
0
 10
144.381256
 20
54.936882
 11
154.881256
 21
48.874706
  0
CIRCLE
  8
0
 10
144.381256
 20
42.812504
 40
9.500000
  0
CIRCLE
  8
0
 10
144.381256
 20
42.812504
 40
8.000000
  0
CIRCLE
  8
0
 10
144.381256
 20
42.812504
 40
6.917500
  0
ARC
  8
0
 10
144.381256
 20
42.812504
 40
10.500006
 50
34.791260
 51
85.208694
  0
ARC
  8
0
 10
144.381256
 20
42.812504
 40
10.500001
 50
334.791229
 51
25.208754
  0
ARC
  8
0
 10
144.381256
 20
42.812504
 40
10.500001
 50
274.791229
 51
325.208771
  0
ARC
  8
0
 10
144.381256
 20
42.812504
 40
10.500000
 50
214.791214
 51
265.208710
  0
ARC
  8
0
 10
144.381256
 20
42.812504
 40
10.499999
 50
154.791245
 51
205.208740
  0
ARC
  8
0
 10
144.381256
 20
42.812504
 40
10.499999
 50
94.791389
 51
145.208664
  0
POINT
  8
0
 10
-125.618744
 20
-57.187496
  0
POINT
  8
0
 10
-95.618744
 20
-57.187496
  0
LINE
  8
0
 10
-115.618744
 20
-65.187500
 11
-96.118744
 21
-65.187500
  0
LINE
  8
0
 10
-115.618744
 20
-49.187496
 11
-96.118744
 21
-49.187496
  0
LINE
  8
0
 10
-95.618744
 20
-49.687496
 11
-95.618744
 21
-64.687500
  0
LINE
  8
0
 10
-122.618744
 20
-49.104591
 11
-122.618744
 21
-65.270401
  0
LINE
  8
0
 10
-122.618744
 20
-49.104591
 11
-115.618744
 21
-49.104591
  0
LINE
  8
0
 10
-122.618744
 20
-53.146046
 11
-115.618744
 21
-53.146046
  0
LINE
  8
0
 10
-122.618744
 20
-61.228947
 11
-115.618744
 21
-61.228947
  0
LINE
  8
0
 10
-122.618744
 20
-65.270401
 11
-115.618744
 21
-65.270401
  0
LINE
  8
0
 10
-129.618744
 20
-50.734001
 11
-122.618744
 21
-50.515251
  0
LINE
  8
0
 10
-129.618744
 20
-63.640995
 11
-122.618744
 21
-63.859745
  0
LINE
  8
0
 10
-129.618744
 20
-51.590000
 11
-122.618744
 21
-51.371250
  0
LINE
  8
0
 10
-129.618744
 20
-62.784992
 11
-122.618744
 21
-63.003742
  0
LINE
  8
0
 10
-129.618744
 20
-50.734001
 11
-129.618744
 21
-63.640995
  0
LINE
  8
0
 10
-115.618744
 20
-49.104591
 11
-115.618744
 21
-65.270401
  0
LINE
  8
0
 10
-100.618744
 20
-49.187496
 11
-100.618744
 21
-56.187496
  0
LINE
  8
0
 10
-113.618744
 20
-49.187496
 11
-113.618744
 21
-55.187496
  0
LINE
  8
0
 10
-97.618744
 20
-49.187496
 11
-97.618744
 21
-65.187500
  0
LINE
  8
0
 10
-100.618744
 20
-56.187496
 11
-104.118744
 21
-55.918266
  0
LINE
  8
0
 10
-100.618744
 20
-58.187496
 11
-104.118744
 21
-58.456726
  0
LINE
  8
0
 10
-110.118744
 20
-49.187496
 11
-110.118744
 21
-55.456726
  0
LINE
  8
0
 10
-104.118744
 20
-49.187496
 11
-104.118744
 21
-55.918266
  0
LINE
  8
0
 10
-105.368744
 20
-49.187496
 11
-105.368744
 21
-55.822113
  0
LINE
  8
0
 10
-108.868744
 20
-49.187496
 11
-108.868744
 21
-55.552879
  0
LINE
  8
0
 10
-113.618744
 20
-59.187496
 11
-113.618744
 21
-65.187500
  0
LINE
  8
0
 10
-110.118744
 20
-58.918266
 11
-110.118744
 21
-65.187500
  0
LINE
  8
0
 10
-108.868744
 20
-58.822113
 11
-108.868744
 21
-65.187500
  0
LINE
  8
0
 10
-105.368744
 20
-58.552879
 11
-105.368744
 21
-65.187500
  0
LINE
  8
0
 10
-100.618744
 20
-58.187496
 11
-100.618744
 21
-65.187500
  0
LINE
  8
0
 10
-104.118744
 20
-58.456726
 11
-104.118744
 21
-65.187500
  0
LINE
  8
0
 10
-110.118744
 20
-55.456726
 11
-113.618744
 21
-55.187496
  0
LINE
  8
0
 10
-110.118744
 20
-58.918266
 11
-113.618744
 21
-59.187496
  0
LINE
  8
0
 10
-105.368744
 20
-58.552883
 11
-108.868744
 21
-58.822113
  0
LINE
  8
0
 10
-105.368744
 20
-55.822113
 11
-108.868744
 21
-55.552879
  0
LINE
  8
0
 10
-113.618744
 20
-51.187496
 11
-110.118744
 21
-51.052883
  0
LINE
  8
0
 10
-113.618744
 20
-63.187496
 11
-110.118744
 21
-63.322109
  0
LINE
  8
0
 10
-108.868744
 20
-63.370186
 11
-105.368744
 21
-63.504803
  0
LINE
  8
0
 10
-104.118744
 20
-63.552879
 11
-100.618744
 21
-63.687496
  0
LINE
  8
0
 10
-108.868744
 20
-51.004807
 11
-105.368744
 21
-50.870190
  0
LINE
  8
0
 10
-104.118744
 20
-50.822113
 11
-100.618744
 21
-50.687496
  0
ARC
  8
0
 10
-96.118744
 20
-49.687496
 40
0.500000
 50
0.000000
 51
90.000000
  0
ARC
  8
0
 10
-96.118744
 20
-64.687500
 40
0.500000
 50
270.000000
 51
0.000000
  0
POINT
  8
0
 10
54.381256
 20
-57.187496
  0
POINT
  8
0
 10
116.031258
 20
-57.187496
  0
LINE
  8
0
 10
48.031258
 20
-50.087688
 11
48.031258
 21
-64.287292
  0
LINE
  8
0
 10
59.031254
 20
-49.567177
 11
48.202320
 21
-49.905579
  0
LINE
  8
0
 10
60.031250
 20
-48.679932
 11
49.030762
 21
-49.023697
  0
LINE
  8
0
 10
49.030762
 20
-49.023685
 11
48.031250
 21
-50.087681
  0
LINE
  8
0
 10
60.031250
 20
-65.695061
 11
49.030762
 21
-65.351288
  0
LINE
  8
0
 10
49.030762
 20
-65.351303
 11
48.031242
 21
-64.287300
  0
LINE
  8
0
 10
59.031258
 20
-64.807808
 11
48.202328
 21
-64.469398
  0
LINE
  8
0
 10
59.031254
 20
-49.567181
 11
59.534546
 21
-48.695450
  0
LINE
  8
0
 10
59.031258
 20
-65.663803
 11
59.031258
 21
-48.711178
  0
LINE
  8
0
 10
59.031246
 20
-64.807808
 11
59.534542
 21
-65.679535
  0
LINE
  8
0
 10
60.031258
 20
-44.187489
 11
60.031258
 21
-70.187492
  0
LINE
  8
0
 10
49.030769
 20
-49.023693
 11
49.030769
 21
-65.351288
  0
LINE
  8
0
 10
60.031258
 20
-44.187489
 11
115.031258
 21
-44.187489
  0
LINE
  8
0
 10
60.031258
 20
-70.187492
 11
115.031258
 21
-70.187492
  0
LINE
  8
0
 10
116.031258
 20
-45.187489
 11
116.031258
 21
-69.187492
  0
LINE
  8
0
 10
71.031258
 20
-44.187489
 11
71.031258
 21
-70.187492
  0
LINE
  8
0
 10
60.031258
 20
-52.187489
 11
71.031258
 21
-52.187489
  0
LINE
  8
0
 10
60.031258
 20
-49.295185
 11
71.031258
 21
-49.295185
  0
LINE
  8
0
 10
60.031258
 20
-62.187489
 11
71.031258
 21
-62.187489
  0
LINE
  8
0
 10
60.031258
 20
-65.079796
 11
71.031258
 21
-65.079796
  0
LINE
  8
0
 10
113.031258
 20
-44.187489
 11
113.031258
 21
-70.187492
  0
LINE
  8
0
 10
73.131256
 20
-45.684784
 11
73.131256
 21
-54.190197
  0
LINE
  8
0
 10
73.131256
 20
-54.190197
 11
76.831253
 21
-54.290199
  0
LINE
  8
0
 10
109.731270
 20
-44.695595
 11
106.031273
 21
-44.795593
  0
LINE
  8
0
 10
76.831261
 20
-45.584782
 11
73.131256
 21
-45.684784
  0
LINE
  8
0
 10
81.531258
 20
-45.457756
 11
77.831261
 21
-45.557755
  0
LINE
  8
0
 10
86.231262
 20
-45.330727
 11
82.531265
 21
-45.430729
  0
LINE
  8
0
 10
90.931259
 20
-45.203701
 11
87.231262
 21
-45.303703
  0
LINE
  8
0
 10
95.631264
 20
-45.076675
 11
91.931259
 21
-45.176674
  0
LINE
  8
0
 10
100.331268
 20
-44.949646
 11
96.631271
 21
-45.049648
  0
LINE
  8
0
 10
105.031265
 20
-44.822620
 11
101.331268
 21
-44.922623
  0
LINE
  8
0
 10
106.031265
 20
-55.079388
 11
109.731262
 21
-55.179386
  0
LINE
  8
0
 10
101.331268
 20
-54.952362
 11
105.031265
 21
-55.052361
  0
LINE
  8
0
 10
96.631264
 20
-54.825333
 11
100.331268
 21
-54.925331
  0
LINE
  8
0
 10
91.931259
 20
-54.698307
 11
95.631264
 21
-54.798306
  0
LINE
  8
0
 10
87.231262
 20
-54.571278
 11
90.931259
 21
-54.671280
  0
LINE
  8
0
 10
82.531258
 20
-54.444252
 11
86.231262
 21
-54.544250
  0
LINE
  8
0
 10
77.831261
 20
-54.317226
 11
81.531258
 21
-54.417225
  0
LINE
  8
0
 10
109.731270
 20
-44.695595
 11
109.731270
 21
-55.179390
  0
LINE
  8
0
 10
76.831261
 20
-45.584785
 11
76.831261
 21
-54.290199
  0
LINE
  8
0
 10
77.831261
 20
-45.557758
 11
77.831261
 21
-54.317226
  0
LINE
  8
0
 10
81.531258
 20
-45.457756
 11
81.531258
 21
-54.417225
  0
LINE
  8
0
 10
82.531265
 20
-45.430729
 11
82.531265
 21
-54.444252
  0
LINE
  8
0
 10
86.231262
 20
-45.330730
 11
86.231262
 21
-54.544250
  0
LINE
  8
0
 10
87.231262
 20
-45.303703
 11
87.231262
 21
-54.571281
  0
LINE
  8
0
 10
90.931259
 20
-45.203705
 11
90.931259
 21
-54.671280
  0
LINE
  8
0
 10
91.931259
 20
-45.176678
 11
91.931259
 21
-54.698307
  0
LINE
  8
0
 10
95.631264
 20
-45.076675
 11
95.631264
 21
-54.798306
  0
LINE
  8
0
 10
96.631264
 20
-45.049648
 11
96.631264
 21
-54.825333
  0
LINE
  8
0
 10
100.331268
 20
-44.949650
 11
100.331268
 21
-54.925335
  0
LINE
  8
0
 10
101.331268
 20
-44.922623
 11
101.331268
 21
-54.952362
  0
LINE
  8
0
 10
105.031265
 20
-44.822624
 11
105.031265
 21
-55.052361
  0
LINE
  8
0
 10
106.031273
 20
-44.795597
 11
106.031273
 21
-55.079388
  0
LINE
  8
0
 10
73.131256
 20
-68.690208
 11
73.131256
 21
-60.184795
  0
LINE
  8
0
 10
73.131256
 20
-60.184795
 11
76.831253
 21
-60.084793
  0
LINE
  8
0
 10
109.731277
 20
-69.679398
 11
106.031273
 21
-69.579399
  0
LINE
  8
0
 10
76.831261
 20
-68.790207
 11
73.131256
 21
-68.690208
  0
LINE
  8
0
 10
81.531265
 20
-68.917236
 11
77.831261
 21
-68.817238
  0
LINE
  8
0
 10
86.231262
 20
-69.044266
 11
82.531265
 21
-68.944260
  0
LINE
  8
0
 10
90.931259
 20
-69.171288
 11
87.231262
 21
-69.071289
  0
LINE
  8
0
 10
95.631271
 20
-69.298317
 11
91.931267
 21
-69.198318
  0
LINE
  8
0
 10
100.331268
 20
-69.425346
 11
96.631264
 21
-69.325348
  0
LINE
  8
0
 10
105.031273
 20
-69.552368
 11
101.331268
 21
-69.452370
  0
LINE
  8
0
 10
106.031273
 20
-59.295605
 11
109.731270
 21
-59.195606
  0
LINE
  8
0
 10
101.331268
 20
-59.422630
 11
105.031265
 21
-59.322632
  0
LINE
  8
0
 10
96.631271
 20
-59.549660
 11
100.331268
 21
-59.449661
  0
LINE
  8
0
 10
91.931259
 20
-59.676685
 11
95.631264
 21
-59.576687
  0
LINE
  8
0
 10
87.231262
 20
-59.803715
 11
90.931259
 21
-59.703712
  0
LINE
  8
0
 10
82.531258
 20
-59.930740
 11
86.231262
 21
-59.830738
  0
LINE
  8
0
 10
77.831261
 20
-60.057766
 11
81.531258
 21
-59.957767
  0
LINE
  8
0
 10
109.731270
 20
-69.679398
 11
109.731270
 21
-59.195602
  0
LINE
  8
0
 10
76.831261
 20
-68.790207
 11
76.831261
 21
-60.084793
  0
LINE
  8
0
 10
77.831261
 20
-68.817238
 11
77.831261
 21
-60.057766
  0
LINE
  8
0
 10
81.531258
 20
-68.917236
 11
81.531258
 21
-59.957767
  0
LINE
  8
0
 10
82.531265
 20
-68.944260
 11
82.531265
 21
-59.930740
  0
LINE
  8
0
 10
86.231262
 20
-69.044258
 11
86.231262
 21
-59.830742
  0
LINE
  8
0
 10
87.231262
 20
-69.071289
 11
87.231262
 21
-59.803711
  0
LINE
  8
0
 10
90.931259
 20
-69.171288
 11
90.931259
 21
-59.703712
  0
LINE
  8
0
 10
91.931259
 20
-69.198318
 11
91.931259
 21
-59.676685
  0
LINE
  8
0
 10
95.631264
 20
-69.298317
 11
95.631264
 21
-59.576687
  0
LINE
  8
0
 10
96.631264
 20
-69.325340
 11
96.631264
 21
-59.549660
  0
LINE
  8
0
 10
100.331268
 20
-69.425346
 11
100.331268
 21
-59.449657
  0
LINE
  8
0
 10
101.331268
 20
-69.452370
 11
101.331268
 21
-59.422630
  0
LINE
  8
0
 10
105.031265
 20
-69.552368
 11
105.031265
 21
-59.322632
  0
LINE
  8
0
 10
106.031273
 20
-69.579399
 11
106.031273
 21
-59.295605
  0
LINE
  8
0
 10
76.831261
 20
-47.585514
 11
73.131256
 21
-47.685516
  0
LINE
  8
0
 10
81.531258
 20
-47.458488
 11
77.831261
 21
-47.558487
  0
LINE
  8
0
 10
86.231262
 20
-47.331459
 11
82.531265
 21
-47.431461
  0
LINE
  8
0
 10
90.931259
 20
-47.204433
 11
87.231262
 21
-47.304436
  0
LINE
  8
0
 10
95.631264
 20
-47.077408
 11
91.931259
 21
-47.177406
  0
LINE
  8
0
 10
100.331268
 20
-46.950378
 11
96.631271
 21
-47.050381
  0
LINE
  8
0
 10
105.031265
 20
-46.823353
 11
101.331268
 21
-46.923351
  0
LINE
  8
0
 10
109.731270
 20
-46.696327
 11
106.031273
 21
-46.796326
  0
LINE
  8
0
 10
76.831261
 20
-66.789474
 11
73.131256
 21
-66.689476
  0
LINE
  8
0
 10
81.531258
 20
-66.916504
 11
77.831261
 21
-66.816505
  0
LINE
  8
0
 10
86.231262
 20
-67.043533
 11
82.531258
 21
-66.943535
  0
LINE
  8
0
 10
90.931259
 20
-67.170555
 11
87.231262
 21
-67.070557
  0
LINE
  8
0
 10
95.631271
 20
-67.297585
 11
91.931267
 21
-67.197586
  0
LINE
  8
0
 10
100.331268
 20
-67.424614
 11
96.631271
 21
-67.324615
  0
LINE
  8
0
 10
105.031273
 20
-67.551643
 11
101.331268
 21
-67.451637
  0
LINE
  8
0
 10
109.731262
 20
-67.678665
 11
106.031265
 21
-67.578667
  0
ARC
  8
0
 10
115.031258
 20
-45.187489
 40
1.000000
 50
0.000000
 51
90.000000
  0
ARC
  8
0
 10
115.031258
 20
-69.187492
 40
1.000000
 50
270.000000
 51
0.000000
  0
ENDSEC
  0
EOF
