  0
SECTION
  2
HEADER
  9
$ACADVER
  1
AC1012
  9
$DWGCODEPAGE
  3
dos932
  9
$INSBASE
 10
0.0
 20
0.0
 30
0.0
  9
$EXTMIN
 10
-138.39999389648437
 20
-94.800003051757812
 30
0.0
  9
$EXTMAX
 10
138.35000610351562
 20
94.5
 30
0.0
  9
$LIMMIN
 10
-148.5
 20
-105.00000000000001
  9
$LIMMAX
 10
148.5
 20
105.00000000000001
  9
$ORTHOMODE
 70
               0
  9
$REGENMODE
 70
               1
  9
$FILLMODE
 70
               1
  9
$QTEXTMODE
 70
               0
  9
$MIRRTEXT
 70
               1
  9
$DRAGMODE
 70
               2
  9
$LTSCALE
 40
1.0
  9
$OSMODE
 70
               0
  9
$ATTMODE
 70
               1
  9
$TEXTSIZE
 40
3.2000000476837158
  9
$TRACEWID
 40
0.05
  9
$TEXTSTYLE
  7
MX_NOTE_STANDARD
  9
$CLAYER
  8
0
  9
$CELTYPE
  6
CONTINUOUS
  9
$CECOLOR
 62
             256
  9
$CELTSCALE
 40
1.0
  9
$DELOBJ
 70
               1
  9
$DISPSILH
 70
               0
  9
$DIMSCALE
 40
1.0
  9
$DIMASZ
 40
2.5
  9
$DIMEXO
 40
1.5
  9
$DIMDLI
 40
3.75
  9
$DIMRND
 40
0.0
  9
$DIMDLE
 40
0.0
  9
$DIMEXE
 40
1.5
  9
$DIMTP
 40
0.0
  9
$DIMTM
 40
0.0
  9
$DIMTXT
 40
3.2000000476837158
  9
$DIMCEN
 40
2.5
  9
$DIMTSZ
 40
0.0
  9
$DIMTOL
 70
               0
  9
$DIMLIM
 70
               0
  9
$DIMTIH
 70
               0
  9
$DIMTOH
 70
               0
  9
$DIMSE1
 70
               0
  9
$DIMSE2
 70
               0
  9
$DIMTAD
 70
               1
  9
$DIMZIN
 70
               8
  9
$DIMBLK
  1

  9
$DIMASO
 70
               1
  9
$DIMSHO
 70
               1
  9
$DIMPOST
  1

  9
$DIMAPOST
  1

  9
$DIMALT
 70
               0
  9
$DIMALTD
 70
               4
  9
$DIMALTF
 40
0.03937007874016
  9
$DIMLFAC
 40
1.0
  9
$DIMTOFL
 70
               1
  9
$DIMTVP
 40
0.0
  9
$DIMTIX
 70
               0
  9
$DIMSOXD
 70
               0
  9
$DIMSAH
 70
               1
  9
$DIMBLK1
  1
_OPEN30
  9
$DIMBLK2
  1
_OPEN30
  9
$DIMSTYLE
  2
MXDIMSTYLE
  9
$DIMCLRD
 70
               0
  9
$DIMCLRE
 70
               0
  9
$DIMCLRT
 70
               0
  9
$DIMTFAC
 40
1.0
  9
$DIMGAP
 40
1.0
  9
$DIMJUST
 70
               0
  9
$DIMSD1
 70
               0
  9
$DIMSD2
 70
               0
  9
$DIMTOLJ
 70
               0
  9
$DIMTZIN
 70
               0
  9
$DIMALTZ
 70
               0
  9
$DIMALTTZ
 70
               0
  9
$DIMFIT
 70
               3
  9
$DIMUPT
 70
               1
  9
$DIMUNIT
 70
               2
  9
$DIMDEC
 70
               2
  9
$DIMTDEC
 70
               2
  9
$DIMALTU
 70
               2
  9
$DIMALTTD
 70
               4
  9
$DIMTXSTY
  7
MX_NOTE_STANDARD
  9
$DIMAUNIT
 70
               0
  9
$LUNITS
 70
               2
  9
$LUPREC
 70
               4
  9
$SKETCHINC
 40
0.1
  9
$FILLETRAD
 40
0.0
  9
$AUNITS
 70
               0
  9
$AUPREC
 70
               0
  9
$MENU
  1
acad
  9
$ELEVATION
 40
0.0
  9
$PELEVATION
 40
0.0
  9
$THICKNESS
 40
0.0
  9
$LIMCHECK
 70
               0
  9
$BLIPMODE
 70
               1
  9
$CHAMFERA
 40
0.0
  9
$CHAMFERB
 40
0.0
  9
$CHAMFERC
 40
0.0
  9
$CHAMFERD
 40
0.0
  9
$SKPOLY
 70
               0
  9
$TDCREATE
 40
2454085.536608796
  9
$TDUPDATE
 40
2454085.536608796
  9
$TDINDWG
 40
0.0000000000
  9
$TDUSRTIMER
 40
0.0000000000
  9
$USRTIMER
 70
               1
  9
$ANGBASE
 50
0.0
  9
$ANGDIR
 70
               0
  9
$PDMODE
 70
               0
  9
$PDSIZE
 40
0.0
  9
$PLINEWID
 40
0.0
  9
$COORDS
 70
               1
  9
$SPLFRAME
 70
               0
  9
$SPLINETYPE
 70
               6
  9
$SPLINESEGS
 70
               8
  9
$ATTDIA
 70
               0
  9
$ATTREQ
 70
               1
  9
$HANDLING
 70
               1
  9
$HANDSEED
  5
140
  9
$SURFTAB1
 70
               6
  9
$SURFTAB2
 70
               6
  9
$SURFTYPE
 70
               6
  9
$SURFU
 70
               6
  9
$SURFV
 70
               6
  9
$UCSNAME
  2

  9
$UCSORG
 10
0.0
 20
0.0
 30
0.0
  9
$UCSXDIR
 10
1.0
 20
0.0
 30
0.0
  9
$UCSYDIR
 10
0.0
 20
1.0
 30
0.0
  9
$PUCSNAME
  2

  9
$PUCSORG
 10
0.0
 20
0.0
 30
0.0
  9
$PUCSXDIR
 10
1.0
 20
0.0
 30
0.0
  9
$PUCSYDIR
 10
0.0
 20
1.0
 30
0.0
  9
$USERI1
 70
               0
  9
$USERI2
 70
               0
  9
$USERI3
 70
               0
  9
$USERI4
 70
               0
  9
$USERI5
 70
               0
  9
$USERR1
 40
0.0
  9
$USERR2
 40
0.0
  9
$USERR3
 40
0.0
  9
$USERR4
 40
0.0
  9
$USERR5
 40
0.0
  9
$WORLDVIEW
 70
               1
  9
$SHADEDGE
 70
               3
  9
$SHADEDIF
 70
              70
  9
$TILEMODE
 70
               1
  9
$MAXACTVP
 70
              16
  9
$PINSBASE
 10
0.0
 20
0.0
 30
0.0
  9
$PLIMCHECK
 70
               0
  9
$PEXTMIN
 10
1.0000000000000000E+20
 20
1.0000000000000000E+20
 30
1.0000000000000000E+20
  9
$PEXTMAX
 10
-1.0000000000000000E+20
 20
-1.0000000000000000E+20
 30
-1.0000000000000000E+20
  9
$PLIMMIN
 10
0.0
 20
0.0
  9
$PLIMMAX
 10
12.0
 20
9.0
  9
$UNITMODE
 70
               0
  9
$VISRETAIN
 70
               0
  9
$PLINEGEN
 70
               1
  9
$PSLTSCALE
 70
               0
  9
$TREEDEPTH
 70
            3020
  9
$PICKSTYLE
 70
               1
  9
$CMLSTYLE
  2
Standard
  9
$CMLJUST
 70
               0
  9
$CMLSCALE
 40
1.0
  9
$SAVEIMAGES
 70
               0
  0
ENDSEC
  0
SECTION
  2
CLASSES
  0
CLASS
  1
LWPOLYLINE
  2
AcDbPolyline
  3
"AutoCAD"
 90
    32768
280
               0
281
               1
  0
CLASS
  1
IMAGE
  2
AcDbRasterImage
  3
ISM
 90
    32895
280
               0
281
               1
  0
CLASS
  1
OLE2FRAME
  2
AcDbOle2Frame
  3
""
 90
    32768
280
               0
281
               1
  0
CLASS
  1
HATCH
  2
AcDbHatch
  3
"ACAD_SEDONA"
 90
    32768
280
               0
281
               1
  0
CLASS
  1
DICTIONARYVAR
  2
AcDbDictionaryVar
  3
"AutoCAD"
 90
    32768
280
               0
281
               0
  0
CLASS
  1
RASTERVARIABLES
  2
AcDbRasterVariables
  3
ISM
 90
    32768
280
               0
281
               0
  0
CLASS
  1
IMAGEDEF
  2
AcDbRasterImageDef
  3
ISM
 90
    32768
280
               0
281
               0
  0
CLASS
  1
IMAGEDEF_REACTOR
  2
AcDbRasterImageDefReactor
  3
ISM
 90
    32769
280
               0
281
               0
  0
CLASS
  1
IDBUFFER
  2
AcDbIdBuffer
  3
"Acad"
 90
    32768
280
               0
281
               0
  0
CLASS
  1
SPATIAL_FILTER
  2
AcDbSpatialFilter
  3
"Acad"
 90
    32768
280
               0
281
               0
  0
CLASS
  1
XRECORD
  2
AcDbXrecord
  3
"<Built In>"
 90
    32768
280
               0
281
               0
  0
CLASS
  1
SORTENTSTABLE
  2
AcDbSortentsTable
  3
"AutoCAD"
 90
    32768
280
               0
281
               0
  0
CLASS
  1
LAYER_INDEX
  2
AcDbLayerIndex
  3
"Acad"
 90
    32768
280
               0
281
               0
  0
CLASS
  1
SPATIAL_INDEX
  2
AcDbSpatialIndex
  3
"Acad"
 90
    32768
280
               0
281
               0
  0
CLASS
  1
OBJECT_PTR
  2
CAseDLPNTableRecord
  3
"ASE-LPNTableRecord"
 90
    32769
280
               0
281
               0
  0
CLASS
  1
LAYOUT
  2
AcDbLayout
  3
"AutoCAD 2000"
 90
    32768
280
               0
281
               0
  0
CLASS
  1
PLOTSETTINGS
  2
AcDbPlotSettings
  3
"AutoCAD 2000"
 90
    32768
280
               0
281
               0
  0
CLASS
  1
ACDBDICTIONARYWDFLT
  2
AcDbDictionaryWithDefault
  3
"AutoCAD 2000"
 90
    32768
280
               0
281
               0
  0
CLASS
  1
ACDBPLACEHOLDER
  2
AcDbPlaceHolder
  3
"AutoCAD 2000"
 90
    32768
280
               0
281
               0
  0
ENDSEC
  0
SECTION
  2
TABLES
  0
TABLE
  2
VPORT
  5
7
100
AcDbSymbolTable
 70
               1
  0
VPORT
  5
15
100
AcDbSymbolTableRecord
100
AcDbViewportTableRecord
  2
*ACTIVE
 70
               0
 10
0.0
 20
0.0
 11
1.0
 21
1.0
 12
0.0
 22
0.0
 13
0.0
 23
0.0
 14
1.0
 24
1.0
 15
0.0
 25
0.0
 16
0.0
 26
0.0
 36
1.0
 17
0.0
 27
0.0
 37
0.0
 40
212.10000000000002
 41
1.7320508075688772
 42
50.0
 43
0.0
 44
0.0
 50
0.0
 51
0.0
 71
               0
 72
             100
 73
               1
 74
               1
 75
               0
 76
               0
 77
               0
 78
               0
  0
ENDTAB
  0
TABLE
  2
LTYPE
  5
4
100
AcDbSymbolTable
 70
               5
  0
LTYPE
  5
11
100
AcDbSymbolTableRecord
100
AcDbLinetypeTableRecord
  2
BYBLOCK
 70
              64
  3

 72
              65
 73
               0
 40
0.0
  0
LTYPE
  5
12
100
AcDbSymbolTableRecord
100
AcDbLinetypeTableRecord
  2
BYLAYER
 70
              64
  3

 72
              65
 73
               0
 40
0.0
  0
LTYPE
  5
13
100
AcDbSymbolTableRecord
100
AcDbLinetypeTableRecord
  2
CONTINUOUS
 70
              64
  3
Solid line
 72
              65
 73
               0
 40
0.0
  0
LTYPE
  5
58
100
AcDbSymbolTableRecord
100
AcDbLinetypeTableRecord
  2
CENTER
 70
              64
  3
Center ____ _ ____ _ ____ _ ____ _ ____ _ ____
 72
              65
 73
               4
 40
50.800000000000004
 49
31.75
 74
               0
 49
-6.3499999999999996
 74
               0
 49
6.3499999999999996
 74
               0
 49
-6.3499999999999996
 74
               0
  0
LTYPE
  5
94
100
AcDbSymbolTableRecord
100
AcDbLinetypeTableRecord
  2
DASHED
 70
              64
  3
Dashed __ __ __ __ __ __ __ __ __ __ __ __ __ _
 72
              65
 73
               2
 40
19.049999999999997
 49
12.699999999999999
 74
               0
 49
-6.3499999999999996
 74
               0
  0
ENDTAB
  0
TABLE
  2
LAYER
  5
2
100
AcDbSymbolTable
 70
               2
  0
LAYER
  5
14
100
AcDbSymbolTableRecord
100
AcDbLayerTableRecord
  2
0
 70
               0
 62
               7
  6
CONTINUOUS
  0
LAYER
  5
1D
100
AcDbSymbolTableRecord
100
AcDbLayerTableRecord
  2
DEFPOINTS
 70
               0
 62
               7
  6
CONTINUOUS
  0
ENDTAB
  0
TABLE
  2
STYLE
  5
3
100
AcDbSymbolTable
 70
               1
  0
STYLE
  5
17
100
AcDbSymbolTableRecord
100
AcDbTextStyleTableRecord
  2
MX_NOTE_STANDARD
 70
               0
 40
0.0
 41
1.0
 50
0.0
 71
               0
 42
3.2000000476837158
  3
txt.shx
  4
extfont.shx
  0
ENDTAB
  0
TABLE
  2
VIEW
  5
5
100
AcDbSymbolTable
 70
               0
  0
ENDTAB
  0
TABLE
  2
UCS
  5
6
100
AcDbSymbolTable
 70
               0
  0
ENDTAB
  0
TABLE
  2
APPID
  5
8
100
AcDbSymbolTable
 70
               1
  0
APPID
  5
16
100
AcDbSymbolTableRecord
100
AcDbRegAppTableRecord
  2
ACAD
 70
               0
  0
ENDTAB
  0
TABLE
  2
DIMSTYLE
  5
9
100
AcDbSymbolTable
 70
               1
  0
DIMSTYLE
105
18
100
AcDbSymbolTableRecord
100
AcDbDimStyleTableRecord
  2
MXDIMSTYLE
 70
               0
  3

  4

  5

  6
_OPEN30
  7
_OPEN30
 40
1.0
 41
2.5
 42
1.5
 43
3.75
 44
1.5
 45
0.0
 46
0.0
 47
0.0
 48
0.0
 71
               0
 72
               0
 73
               0
 74
               0
 75
               0
 76
               0
 77
               1
 78
               8
140
3.2000000476837158
141
2.5
142
0.0
143
0.03937007874016
144
1.0
145
0.0
146
1.0
147
1.0
170
               0
171
               4
172
               1
173
               1
174
               0
175
               0
176
               0
177
               0
178
               0
270
               2
271
               2
272
               2
273
               2
274
               4
275
               0
280
               0
281
               0
282
               0
283
               0
284
               0
285
               0
286
               0
287
               3
288
               1
340
17
  0
ENDTAB
  0
TABLE
  2
BLOCK_RECORD
  5
1
100
AcDbSymbolTable
 70
               5
  0
BLOCK_RECORD
  5
A
100
AcDbSymbolTableRecord
100
AcDbBlockTableRecord
  2
*MODEL_SPACE
  0
BLOCK_RECORD
  5
B
100
AcDbSymbolTableRecord
100
AcDbBlockTableRecord
  2
*PAPER_SPACE
  0
BLOCK_RECORD
  5
1E
100
AcDbSymbolTableRecord
100
AcDbBlockTableRecord
  2
4VR-1
  0
BLOCK_RECORD
  5
1F
100
AcDbSymbolTableRecord
100
AcDbBlockTableRecord
  2
4VR-2
  0
BLOCK_RECORD
  5
20
100
AcDbSymbolTableRecord
100
AcDbBlockTableRecord
  2
4VR-3
  0
BLOCK_RECORD
  5
21
100
AcDbSymbolTableRecord
100
AcDbBlockTableRecord
  2
4VR-4
  0
BLOCK_RECORD
  5
22
100
AcDbSymbolTableRecord
100
AcDbBlockTableRecord
  2
_OPEN30
  0
ENDTAB
  0
ENDSEC
  0
SECTION
  2
BLOCKS
  0
BLOCK
  5
D
100
AcDbEntity
  8
0
100
AcDbBlockBegin
  2
*MODEL_SPACE
 70
               0
 10
0.0
 20
0.0
 30
0.0
  3
*MODEL_SPACE
  1

  0
ENDBLK
  5
E
100
AcDbEntity
  8
0
100
AcDbBlockEnd
  0
BLOCK
  5
F
100
AcDbEntity
 67
               1
  8
0
100
AcDbBlockBegin
  2
*PAPER_SPACE
 70
               0
 10
0.0
 20
0.0
 30
0.0
  3
*PAPER_SPACE
  1

  0
ENDBLK
  5
10
100
AcDbEntity
 67
               1
  8
0
100
AcDbBlockEnd
  0
BLOCK
  5
28
100
AcDbEntity
  8
0
100
AcDbBlockBegin
  2
4VR-1
 70
               0
 10
0.0
 20
0.0
 30
0.0
  3
4VR-1
  1

  0
CIRCLE
  5
29
100
AcDbEntity
  8
0
  6
CONTINUOUS
 62
               7
100
AcDbCircle
 10
0.0000000000000906
 20
39.600003051757895
 30
0.0
 40
0.7999998927115541
  0
ARC
  5
2A
100
AcDbEntity
  8
0
  6
CONTINUOUS
 62
               7
100
AcDbCircle
 10
0.3666110807016221
 20
44.880192047683444
 30
0.0
 40
1.5984548431025267
100
AcDbArc
 50
266.1620376867848
 51
324.64641923132621
  0
ARC
  5
2B
100
AcDbEntity
  8
0
  6
CONTINUOUS
 62
               7
100
AcDbCircle
 10
-0.0341373982497917
 20
39.499131006939834
 30
0.0
 40
3.7975695852510363
100
AcDbArc
 50
85.563529845521259
 51
136.67384738125335
  0
ARC
  5
2C
100
AcDbEntity
  8
0
  6
CONTINUOUS
 62
               7
100
AcDbCircle
 10
-7.3999969482375239
 20
33.799996948237535
 30
0.0
 40
1.0000030517671257
100
AcDbArc
 50
90.0
 51
179.99982514742405
  0
ARC
  5
2D
100
AcDbEntity
  8
0
  6
CONTINUOUS
 62
               7
100
AcDbCircle
 10
7.3999969482375345
 20
33.799996948237535
 30
0.0
 40
1.0000030517671257
100
AcDbArc
 50
0.0001748525759521
 51
90.0
  0
ARC
  5
2E
100
AcDbEntity
  8
0
  6
CONTINUOUS
 62
               7
100
AcDbCircle
 10
-7.3999984741106122
 20
1.0000015258893882
 30
0.0
 40
1.0000015258905481
100
AcDbArc
 50
180.00008742688834
 51
269.99995628655586
  0
ARC
  5
2F
100
AcDbEntity
  8
0
  6
CONTINUOUS
 62
               7
100
AcDbCircle
 10
7.3999984741106228
 20
1.0000015258893882
 30
0.0
 40
1.0000015258905481
100
AcDbArc
 50
270.00004371344414
 51
359.99991257311166
  0
LINE
  5
30
100
AcDbEntity
  8
0
  6
CONTINUOUS
 62
               7
100
AcDbLine
 10
4.0955305297738871
 20
42.100000000000001
 30
0.0
 11
12.539884148423786
 21
50.748485847059825
 31
0.0
  0
LINE
  5
31
100
AcDbEntity
  8
0
  6
CONTINUOUS
 62
               7
100
AcDbLine
 10
8.8015872660031729
 20
53.885289382330129
 30
0.0
 11
1.6703058051768007
 21
43.955293160878242
 31
0.0
  0
LINE
  5
32
100
AcDbEntity
  8
0
  6
CONTINUOUS
 62
               7
100
AcDbLine
 10
0.0000000000000053
 20
42.100000000000001
 30
0.0
 11
5.4999999999999485
 21
42.100000000000001
 31
0.0
  0
LINE
  5
33
100
AcDbEntity
  8
0
  6
CONTINUOUS
 62
               7
100
AcDbLine
 10
-5.4999999999999449
 20
42.100000000000001
 30
0.0
 11
-5.9999999999999947
 21
41.600000000000009
 31
0.0
  0
LINE
  5
34
100
AcDbEntity
  8
0
  6
CONTINUOUS
 62
               7
100
AcDbLine
 10
6.0000000000000053
 20
41.600000000000009
 30
0.0
 11
5.4999999999999485
 21
42.100000000000001
 31
0.0
  0
LINE
  5
35
100
AcDbEntity
  8
0
  6
CONTINUOUS
 62
               7
100
AcDbLine
 10
-5.4999999999999449
 20
42.100000000000001
 30
0.0
 11
0.0000000000000053
 21
42.100000000000001
 31
0.0
  0
LINE
  5
36
100
AcDbEntity
  8
0
  6
CONTINUOUS
 62
               7
100
AcDbLine
 10
0.0000000000000053
 20
41.600000000000009
 30
0.0
 11
-5.9999999999999947
 21
41.600000000000009
 31
0.0
  0
LINE
  5
37
100
AcDbEntity
  8
0
  6
CONTINUOUS
 62
               7
100
AcDbLine
 10
-5.9999999999999947
 20
41.600000000000009
 30
0.0
 11
-5.9999999999999947
 21
37.799999999999983
 31
0.0
  0
LINE
  5
38
100
AcDbEntity
  8
0
  6
CONTINUOUS
 62
               7
100
AcDbLine
 10
6.0000000000000053
 20
37.799999999999983
 30
0.0
 11
6.0000000000000053
 21
41.600000000000009
 31
0.0
  0
LINE
  5
39
100
AcDbEntity
  8
0
  6
CONTINUOUS
 62
               7
100
AcDbLine
 10
6.0000000000000053
 20
41.600000000000009
 30
0.0
 11
0.0000000000000053
 21
41.600000000000009
 31
0.0
  0
LINE
  5
3A
100
AcDbEntity
  8
0
  6
CONTINUOUS
 62
               7
100
AcDbLine
 10
-6.9999999999999947
 20
35.799999999999997
 30
0.0
 11
-6.9999999999999947
 21
37.799999999999997
 31
0.0
  0
LINE
  5
3B
100
AcDbEntity
  8
0
  6
CONTINUOUS
 62
               7
100
AcDbLine
 10
-6.9999999999999947
 20
37.799999999999997
 30
0.0
 11
7.0000000000000053
 21
37.799999999999997
 31
0.0
  0
LINE
  5
3C
100
AcDbEntity
  8
0
  6
CONTINUOUS
 62
               7
100
AcDbLine
 10
7.0000000000000053
 20
35.799999999999997
 30
0.0
 11
7.0000000000000053
 21
37.799999999999997
 31
0.0
  0
LINE
  5
3D
100
AcDbEntity
  8
0
  6
CONTINUOUS
 62
               7
100
AcDbLine
 10
-7.4999999999999947
 20
35.799999999999983
 30
0.0
 11
7.5000000000000053
 21
35.799999999999983
 31
0.0
  0
LINE
  5
3E
100
AcDbEntity
  8
0
  6
CONTINUOUS
 62
               7
100
AcDbLine
 10
-7.4999999999999947
 20
35.799999999999983
 30
0.0
 11
-7.4999999999999947
 21
34.80000000000009
 31
0.0
  0
LINE
  5
3F
100
AcDbEntity
  8
0
  6
CONTINUOUS
 62
               7
100
AcDbLine
 10
7.5000000000000053
 20
34.80000000000009
 30
0.0
 11
7.5000000000000053
 21
35.799999999999983
 31
0.0
  0
LINE
  5
40
100
AcDbEntity
  8
0
  6
CONTINUOUS
 62
               7
100
AcDbLine
 10
-7.4999999999999947
 20
34.80000000000009
 30
0.0
 11
7.5000000000000053
 21
34.80000000000009
 31
0.0
  0
LINE
  5
41
100
AcDbEntity
  8
0
  6
CONTINUOUS
 62
               7
100
AcDbLine
 10
0.0000000000000053
 20
37.511887988156076
 30
0.0
 11
0.0000000000000053
 21
36.088112011843926
 31
0.0
  0
LINE
  5
42
100
AcDbEntity
  8
0
  6
CONTINUOUS
 62
               7
100
AcDbLine
 10
-7.4000000000000004
 20
24.639999999999993
 30
0.0
 11
-7.4000000000000004
 21
27.349999999999994
 31
0.0
  0
LINE
  5
43
100
AcDbEntity
  8
0
  6
CONTINUOUS
 62
               7
100
AcDbLine
 10
-7.4000000000000004
 20
27.349999999999994
 30
0.0
 11
-8.3999999999999932
 21
30.199999999999967
 31
0.0
  0
LINE
  5
44
100
AcDbEntity
  8
0
  6
CONTINUOUS
 62
               7
100
AcDbLine
 10
-8.3999999999999932
 20
30.199999999999967
 30
0.0
 11
-8.3999999999999932
 21
33.799999999999997
 31
0.0
  0
LINE
  5
45
100
AcDbEntity
  8
0
  6
CONTINUOUS
 62
               7
100
AcDbLine
 10
-8.3999999999999932
 20
21.800000000000011
 30
0.0
 11
-8.3999999999999932
 21
21.600000000000001
 31
0.0
  0
LINE
  5
46
100
AcDbEntity
  8
0
  6
CONTINUOUS
 62
               7
100
AcDbLine
 10
8.400000000000011
 20
21.600000000000001
 30
0.0
 11
8.3999999999999968
 21
33.799999999999997
 31
0.0
  0
LINE
  5
47
100
AcDbEntity
  8
0
  6
CONTINUOUS
 62
               7
100
AcDbLine
 10
-7.4000000000000004
 20
24.639999999999993
 30
0.0
 11
-8.4000000000000004
 21
21.800000000000008
 31
0.0
  0
LINE
  5
48
100
AcDbEntity
  8
0
  6
CONTINUOUS
 62
               7
100
AcDbLine
 10
7.400000000000011
 20
0.0
 30
0.0
 11
-7.3999999999999932
 21
0.0
 31
0.0
  0
LINE
  5
49
100
AcDbEntity
  8
0
  6
CONTINUOUS
 62
               7
100
AcDbLine
 10
-7.4000000000000004
 20
10.349999999999994
 30
0.0
 11
-7.4000000000000004
 21
7.6499999999999915
 31
0.0
  0
LINE
  5
4A
100
AcDbEntity
  8
0
  6
CONTINUOUS
 62
               7
100
AcDbLine
 10
-7.4000000000000004
 20
7.6499999999999915
 30
0.0
 11
-8.3999999999999932
 21
4.8000000000000114
 31
0.0
  0
LINE
  5
4B
100
AcDbEntity
  8
0
  6
CONTINUOUS
 62
               7
100
AcDbLine
 10
-8.3999999999999932
 20
13.399999999999999
 30
0.0
 11
-8.3999999999999932
 21
13.20000000000001
 31
0.0
  0
LINE
  5
4C
100
AcDbEntity
  8
0
  6
CONTINUOUS
 62
               7
100
AcDbLine
 10
-8.3999999999999932
 20
4.8000000000000114
 30
0.0
 11
-8.3999999999999932
 21
1.0
 31
0.0
  0
LINE
  5
4D
100
AcDbEntity
  8
0
  6
CONTINUOUS
 62
               7
100
AcDbLine
 10
8.400000000000011
 20
1.0
 30
0.0
 11
8.400000000000011
 21
13.400000000000002
 31
0.0
  0
LINE
  5
4E
100
AcDbEntity
  8
0
  6
CONTINUOUS
 62
               7
100
AcDbLine
 10
-8.4000000000000004
 20
13.200000000000017
 30
0.0
 11
-7.4000000000000075
 21
10.349999999999991
 31
0.0
  0
LINE
  5
4F
100
AcDbEntity
  8
0
  6
CONTINUOUS
 62
               7
100
AcDbLine
 10
-8.4999999999999947
 20
13.426056338030943
 30
0.0
 11
-8.4999999999999947
 21
21.573239436616468
 31
0.0
  0
LINE
  5
50
100
AcDbEntity
  8
0
  6
CONTINUOUS
 62
               7
100
AcDbLine
 10
-8.3999999999999932
 20
21.600000000000001
 30
0.0
 11
-8.5000000000000018
 21
21.573239436619716
 31
0.0
  0
LINE
  5
51
100
AcDbEntity
  8
0
  6
CONTINUOUS
 62
               7
100
AcDbLine
 10
8.5000000000000053
 20
21.573239436619719
 30
0.0
 11
8.400000000000011
 21
21.600000000000001
 31
0.0
  0
LINE
  5
52
100
AcDbEntity
  8
0
  6
CONTINUOUS
 62
               7
100
AcDbLine
 10
8.5000000000000053
 20
13.426056338028836
 30
0.0
 11
8.5000000000000053
 21
21.573239436619001
 31
0.0
  0
LINE
  5
53
100
AcDbEntity
  8
0
  6
CONTINUOUS
 62
               7
100
AcDbLine
 10
8.400000000000011
 20
21.600000000000001
 30
0.0
 11
-8.3999999999999932
 21
21.600000000000001
 31
0.0
  0
LINE
  5
54
100
AcDbEntity
  8
0
  6
CONTINUOUS
 62
               7
100
AcDbLine
 10
8.400000000000011
 20
13.400000000000002
 30
0.0
 11
8.5000000000000053
 21
13.426056338028172
 31
0.0
  0
LINE
  5
55
100
AcDbEntity
  8
0
  6
CONTINUOUS
 62
               7
100
AcDbLine
 10
-8.5000000000000018
 20
13.426056338028172
 30
0.0
 11
-8.3999999999999932
 21
13.399999999999999
 31
0.0
  0
LINE
  5
56
100
AcDbEntity
  8
0
  6
CONTINUOUS
 62
               7
100
AcDbLine
 10
8.400000000000011
 20
13.400000000000002
 30
0.0
 11
-8.3999999999999932
 21
13.399999999999999
 31
0.0
  0
LINE
  5
57
100
AcDbEntity
  8
0
  6
CONTINUOUS
 62
               7
100
AcDbLine
 10
0.0000000000000053
 20
13.768685347325878
 30
0.0
 11
0.0000000000000053
 21
21.221350183827479
 31
0.0
  0
LINE
  5
59
100
AcDbEntity
  8
0
  6
CENTER
 62
               2
100
AcDbLine
 10
1.7256481285341376
 20
41.654706030910631
 30
0.0
 11
14.190832669035066
 21
56.503846118677416
 31
0.0
  0
ARC
  5
5A
100
AcDbEntity
  8
0
  6
CONTINUOUS
 62
               7
100
AcDbCircle
 10
4.2500000000000053
 20
-2.440518317579766
 30
0.0
 40
24.040518317579767
100
AcDbArc
 50
79.817456497181198
 51
100.1825435028188
  0
ARC
  5
5B
100
AcDbEntity
  8
0
  6
CONTINUOUS
 62
               7
100
AcDbCircle
 10
4.2500000000000053
 20
38.080162932061668
 30
0.0
 40
24.680162932061663
100
AcDbArc
 50
260.08406461521349
 51
279.91593538478651
  0
ARC
  5
5C
100
AcDbEntity
  8
0
  6
CONTINUOUS
 62
               7
100
AcDbCircle
 10
-4.2500000000000018
 20
38.080162932061384
 30
0.0
 40
24.680162932061386
100
AcDbArc
 50
260.08406461521338
 51
279.91593538478662
  0
ARC
  5
5D
100
AcDbEntity
  8
0
  6
CONTINUOUS
 62
               7
100
AcDbCircle
 10
-4.2499999999999947
 20
-2.4405183175798086
 30
0.0
 40
24.04051831757981
100
AcDbArc
 50
79.817456497181212
 51
100.1825435028188
  0
ARC
  5
5E
100
AcDbEntity
  8
0
  6
CONTINUOUS
 62
               7
100
AcDbCircle
 10
10.708389801550146
 20
52.361760224493665
 30
0.0
 40
2.4407042114801718
100
AcDbArc
 50
318.62474347422517
 51
141.37525244973779
  0
ARC
  5
5F
100
AcDbEntity
  8
0
  6
CONTINUOUS
 62
               7
100
AcDbCircle
 10
-3.5000000000000231
 20
16.396851182224783
 30
0.0
 40
21.403148817775218
100
AcDbArc
 50
80.588304649436296
 51
99.411695350563704
  0
ARC
  5
60
100
AcDbEntity
  8
0
  6
CONTINUOUS
 62
               7
100
AcDbCircle
 10
3.4999999999999769
 20
16.396851182224136
 30
0.0
 40
21.403148817775865
100
AcDbArc
 50
80.588304649436424
 51
99.411695350563576
  0
ARC
  5
61
100
AcDbEntity
  8
0
  6
CONTINUOUS
 62
               7
100
AcDbCircle
 10
3.5000000000000053
 20
57.203148817774462
 30
0.0
 40
21.403148817774479
100
AcDbArc
 50
260.58830464943594
 51
279.41169535056406
  0
ARC
  5
62
100
AcDbEntity
  8
0
  6
CONTINUOUS
 62
               7
100
AcDbCircle
 10
-3.5000000000000231
 20
57.203148817774149
 30
0.0
 40
21.403148817774174
100
AcDbArc
 50
260.58830464943583
 51
279.41169535056417
  0
LINE
  5
63
100
AcDbEntity
  8
0
  6
CENTER
 62
               2
100
AcDbLine
 10
-10.4
 20
25.999996999999993
 30
0.0
 11
-4.4000000000000004
 21
25.999996999999993
 31
0.0
  0
LINE
  5
64
100
AcDbEntity
  8
0
  6
CENTER
 62
               2
100
AcDbLine
 10
-10.4
 20
8.9999969999999934
 30
0.0
 11
-4.4000000000000004
 21
8.9999969999999934
 31
0.0
  0
LINE
  5
65
100
AcDbEntity
  8
0
  6
CONTINUOUS
 62
               2
100
AcDbLine
 10
-5.5000000000000657
 20
42.100000000000001
 30
0.0
 11
-5.5000000000000657
 21
37.799999999999997
 31
0.0
  0
LINE
  5
66
100
AcDbEntity
  8
0
  6
CONTINUOUS
 62
               2
100
AcDbLine
 10
5.4999999999999627
 20
42.100000000000001
 30
0.0
 11
5.4999999999999627
 21
37.799999999999997
 31
0.0
  0
LINE
  5
67
100
AcDbEntity
  8
0
  6
CENTER
 62
               2
100
AcDbLine
 10
-3.0000000000000515
 20
39.600003051757895
 30
0.0
 11
2.9999999999999485
 21
39.600003051757895
 31
0.0
  0
CIRCLE
  5
68
100
AcDbEntity
  8
0
  6
CONTINUOUS
 62
               7
100
AcDbCircle
 10
0.0000000000000764
 20
39.600003051757895
 30
0.0
 40
1.5
  0
LINE
  5
69
100
AcDbEntity
  8
0
  6
CENTER
 62
               2
100
AcDbLine
 10
4.4000000000000039
 20
17.499999999999915
 30
0.0
 11
12.400000000000004
 21
17.499999999999915
 31
0.0
  0
LINE
  5
6A
100
AcDbEntity
  8
0
  6
CENTER
 62
               2
100
AcDbLine
 10
0.0000000000000053
 20
-3.9600000000000009
 30
0.0
 11
-0.0000000000000586
 21
46.296547153856636
 31
0.0
  0
LINE
  5
6B
100
AcDbEntity
  8
0
  6
CENTER
 62
               2
100
AcDbLine
 10
-17.372159201152328
 20
60.200258046167718
 30
0.0
 11
-0.0000000000001932
 21
39.600000000000023
 31
0.0
  0
ENDBLK
  5
6C
100
AcDbEntity
  8
0
100
AcDbBlockEnd
  0
BLOCK
  5
6D
100
AcDbEntity
  8
0
100
AcDbBlockBegin
  2
4VR-2
 70
               0
 10
0.0
 20
0.0
 30
0.0
  3
4VR-2
  1

  0
LINE
  5
6E
100
AcDbEntity
  8
0
  6
CONTINUOUS
 62
               7
100
AcDbLine
 10
4.9074772881118065
 20
13.768685347325878
 30
0.0
 11
4.9074772881118065
 21
21.221350183827479
 31
0.0
  0
LINE
  5
6F
100
AcDbEntity
  8
0
  6
CONTINUOUS
 62
               7
100
AcDbLine
 10
9.8149545762236414
 20
13.768685347325878
 30
0.0
 11
9.8149545762236414
 21
21.221350183827479
 31
0.0
  0
LINE
  5
70
100
AcDbEntity
  8
0
  6
CONTINUOUS
 62
               7
100
AcDbLine
 10
8.3999999999999986
 20
21.600000000000001
 30
0.0
 11
-8.4000000000000057
 21
21.600000000000001
 31
0.0
  0
LINE
  5
71
100
AcDbEntity
  8
0
  6
CONTINUOUS
 62
               7
100
AcDbLine
 10
9.8149545762236414
 20
21.221350183827482
 30
0.0
 11
8.3999999999999986
 21
21.600000000000001
 31
0.0
  0
LINE
  5
72
100
AcDbEntity
  8
0
  6
CONTINUOUS
 62
               7
100
AcDbLine
 10
-8.4000000000000057
 20
21.600000000000001
 30
0.0
 11
-9.8149545762236414
 21
21.221350183827482
 31
0.0
  0
LINE
  5
73
100
AcDbEntity
  8
0
  6
CONTINUOUS
 62
               7
100
AcDbLine
 10
8.3999999999999986
 20
13.399999999999999
 30
0.0
 11
-8.4000000000000057
 21
13.399999999999999
 31
0.0
  0
LINE
  5
74
100
AcDbEntity
  8
0
  6
CONTINUOUS
 62
               7
100
AcDbLine
 10
-9.8149545762236414
 20
13.768685347325878
 30
0.0
 11
-8.4000000000000057
 21
13.399999999999999
 31
0.0
  0
LINE
  5
75
100
AcDbEntity
  8
0
  6
CONTINUOUS
 62
               7
100
AcDbLine
 10
8.3999999999999986
 20
13.399999999999999
 30
0.0
 11
9.8149545762236414
 21
13.768685347325878
 31
0.0
  0
LINE
  5
76
100
AcDbEntity
  8
0
  6
CONTINUOUS
 62
               7
100
AcDbLine
 10
-4.9074772881118349
 20
13.768685347325878
 30
0.0
 11
-4.9074772881118349
 21
21.221350183827482
 31
0.0
  0
LINE
  5
77
100
AcDbEntity
  8
0
  6
CONTINUOUS
 62
               7
100
AcDbLine
 10
-9.8149545762236414
 20
13.768685347325878
 30
0.0
 11
-9.8149545762236414
 21
21.221350183827479
 31
0.0
  0
LINE
  5
78
100
AcDbEntity
  8
0
  6
CONTINUOUS
 62
               7
100
AcDbLine
 10
7.4000000000000057
 20
0.0
 30
0.0
 11
-7.4000000000000057
 21
0.0
 31
0.0
  0
LINE
  5
79
100
AcDbEntity
  8
0
  6
CONTINUOUS
 62
               7
100
AcDbLine
 10
8.3999999999999986
 20
1.0
 30
0.0
 11
8.3999999999999986
 21
13.399999999999999
 31
0.0
  0
LINE
  5
7A
100
AcDbEntity
  8
0
  6
CONTINUOUS
 62
               7
100
AcDbLine
 10
-8.4000000000000057
 20
13.399999999999999
 30
0.0
 11
-8.4000000000000057
 21
1.0
 31
0.0
  0
LINE
  5
7B
100
AcDbEntity
  8
0
  6
CONTINUOUS
 62
               7
100
AcDbLine
 10
3.974921382877028
 20
10.349999999999994
 30
0.0
 11
3.974921382877028
 21
7.6499999999999915
 31
0.0
  0
LINE
  5
7C
100
AcDbEntity
  8
0
  6
CONTINUOUS
 62
               7
100
AcDbLine
 10
-3.974921382877028
 20
7.6499999999999915
 30
0.0
 11
-3.974921382877028
 21
10.349999999999994
 31
0.0
  0
LINE
  5
7D
100
AcDbEntity
  8
0
  6
CONTINUOUS
 62
               7
100
AcDbLine
 10
8.3999999999999986
 20
21.600000000000001
 30
0.0
 11
8.3999999999999986
 21
33.799999999999997
 31
0.0
  0
LINE
  5
7E
100
AcDbEntity
  8
0
  6
CONTINUOUS
 62
               7
100
AcDbLine
 10
-8.4000000000000057
 20
33.799999999999997
 30
0.0
 11
-8.4000000000000057
 21
21.600000000000001
 31
0.0
  0
LINE
  5
7F
100
AcDbEntity
  8
0
  6
CONTINUOUS
 62
               7
100
AcDbLine
 10
-3.974921382877028
 20
27.349999999999994
 30
0.0
 11
-3.974921382877028
 21
24.639999999999993
 31
0.0
  0
LINE
  5
80
100
AcDbEntity
  8
0
  6
CONTINUOUS
 62
               7
100
AcDbLine
 10
3.974921382877028
 20
24.639999999999993
 30
0.0
 11
3.974921382877028
 21
27.349999999999994
 31
0.0
  0
LINE
  5
81
100
AcDbEntity
  8
0
  6
CONTINUOUS
 62
               7
100
AcDbLine
 10
-7.5
 20
34.80000000000009
 30
0.0
 11
7.5
 21
34.80000000000009
 31
0.0
  0
LINE
  5
82
100
AcDbEntity
  8
0
  6
CONTINUOUS
 62
               7
100
AcDbLine
 10
-7.5
 20
35.799999999999983
 30
0.0
 11
7.5
 21
35.799999999999983
 31
0.0
  0
LINE
  5
83
100
AcDbEntity
  8
0
  6
CONTINUOUS
 62
               7
100
AcDbLine
 10
7.5
 20
34.80000000000009
 30
0.0
 11
7.5
 21
35.799999999999983
 31
0.0
  0
LINE
  5
84
100
AcDbEntity
  8
0
  6
CONTINUOUS
 62
               7
100
AcDbLine
 10
-7.5
 20
35.799999999999983
 30
0.0
 11
-7.5
 21
34.80000000000009
 31
0.0
  0
LINE
  5
85
100
AcDbEntity
  8
0
  6
CONTINUOUS
 62
               7
100
AcDbLine
 10
-4.0414518843273868
 20
37.511887988156076
 30
0.0
 11
-4.0414518843273868
 21
36.088112011843918
 31
0.0
  0
LINE
  5
86
100
AcDbEntity
  8
0
  6
CONTINUOUS
 62
               7
100
AcDbLine
 10
4.0414518843273726
 20
37.511887988156076
 30
0.0
 11
4.0414518843273726
 21
36.088112011843926
 31
0.0
  0
LINE
  5
87
100
AcDbEntity
  8
0
  6
CONTINUOUS
 62
               7
100
AcDbLine
 10
8.0829037686547593
 20
37.511887988156076
 30
0.0
 11
8.0829037686547593
 21
36.088112011843926
 31
0.0
  0
LINE
  5
88
100
AcDbEntity
  8
0
  6
CONTINUOUS
 62
               7
100
AcDbLine
 10
-8.0829037686547593
 20
37.511887988156076
 30
0.0
 11
-8.0829037686547593
 21
36.088112011843926
 31
0.0
  0
LINE
  5
89
100
AcDbEntity
  8
0
  6
CONTINUOUS
 62
               7
100
AcDbLine
 10
-5.4999999999999432
 20
42.100000000000001
 30
0.0
 11
5.4999999999999432
 21
42.100000000000001
 31
0.0
  0
LINE
  5
8A
100
AcDbEntity
  8
0
  6
CONTINUOUS
 62
               7
100
AcDbLine
 10
6.0
 20
41.600000000000009
 30
0.0
 11
5.4999999999999432
 21
42.100000000000001
 31
0.0
  0
LINE
  5
8B
100
AcDbEntity
  8
0
  6
CONTINUOUS
 62
               7
100
AcDbLine
 10
-5.4999999999999432
 20
42.100000000000001
 30
0.0
 11
-6.0
 21
41.600000000000009
 31
0.0
  0
LINE
  5
8C
100
AcDbEntity
  8
0
  6
CONTINUOUS
 62
               7
100
AcDbLine
 10
6.0
 20
41.600000000000009
 30
0.0
 11
-6.0
 21
41.600000000000009
 31
0.0
  0
LINE
  5
8D
100
AcDbEntity
  8
0
  6
CONTINUOUS
 62
               7
100
AcDbLine
 10
6.0
 20
37.799999999999983
 30
0.0
 11
6.0
 21
41.600000000000009
 31
0.0
  0
LINE
  5
8E
100
AcDbEntity
  8
0
  6
CONTINUOUS
 62
               7
100
AcDbLine
 10
-6.0
 20
41.600000000000009
 30
0.0
 11
-6.0
 21
37.799999999999983
 31
0.0
  0
LINE
  5
8F
100
AcDbEntity
  8
0
  6
CONTINUOUS
 62
               7
100
AcDbLine
 10
7.0
 20
35.799999999999997
 30
0.0
 11
8.0829037686547593
 21
36.088112011843926
 31
0.0
  0
LINE
  5
90
100
AcDbEntity
  8
0
  6
CONTINUOUS
 62
               7
100
AcDbLine
 10
-7.0
 20
37.799999999999997
 30
0.0
 11
7.0
 21
37.799999999999997
 31
0.0
  0
LINE
  5
91
100
AcDbEntity
  8
0
  6
CONTINUOUS
 62
               7
100
AcDbLine
 10
8.0829037686547593
 20
37.511887988156076
 30
0.0
 11
7.0
 21
37.799999999999997
 31
0.0
  0
LINE
  5
92
100
AcDbEntity
  8
0
  6
CONTINUOUS
 62
               7
100
AcDbLine
 10
-7.0
 20
37.799999999999997
 30
0.0
 11
-8.0829037686547593
 21
37.511887988156076
 31
0.0
  0
LINE
  5
93
100
AcDbEntity
  8
0
  6
CONTINUOUS
 62
               7
100
AcDbLine
 10
-8.0829037686547593
 20
36.088112011843926
 30
0.0
 11
-7.0
 21
35.799999999999997
 31
0.0
  0
LINE
  5
95
100
AcDbEntity
  8
0
  6
DASHED
 62
               7
100
AcDbLine
 10
0.0
 20
40.400002944469449
 30
0.0
 11
0.0
 21
38.80000315904617
 31
0.0
  0
LINE
  5
96
100
AcDbEntity
  8
0
  6
CONTINUOUS
 62
               7
100
AcDbLine
 10
-2.4351028881135619
 20
52.217569285942545
 30
0.0
 11
-1.5223135198658184
 21
42.970726384773712
 31
0.0
  0
LINE
  5
97
100
AcDbEntity
  8
0
  6
DASHED
 62
               7
100
AcDbLine
 10
-1.5223135198658184
 20
42.970726384773712
 30
0.0
 11
-1.5169493401363212
 21
42.916385559849907
 31
0.0
  0
LINE
  5
98
100
AcDbEntity
  8
0
  6
DASHED
 62
               7
100
AcDbLine
 10
1.5169493401363212
 20
42.916385559849907
 30
0.0
 11
1.5223792084097596
 21
42.971391830348985
 31
0.0
  0
LINE
  5
99
100
AcDbEntity
  8
0
  6
CONTINUOUS
 62
               7
100
AcDbLine
 10
1.5225217005329768
 20
42.972835320297364
 30
0.0
 11
2.4351028881135619
 21
52.217569285942545
 31
0.0
  0
ARC
  5
9A
100
AcDbEntity
  8
0
  6
CONTINUOUS
 62
               7
100
AcDbCircle
 10
7.3999984741106175
 20
1.0000015258893882
 30
0.0
 40
1.0000015258905481
100
AcDbArc
 50
270.00004371344414
 51
359.99991257311166
  0
ARC
  5
9B
100
AcDbEntity
  8
0
  6
CONTINUOUS
 62
               7
100
AcDbCircle
 10
-7.3999984741106175
 20
1.0000015258893882
 30
0.0
 40
1.0000015258905481
100
AcDbArc
 50
180.00008742688834
 51
269.99995628655586
  0
ARC
  5
9C
100
AcDbEntity
  8
0
  6
CONTINUOUS
 62
               7
100
AcDbCircle
 10
7.3999969482375292
 20
33.799996948237535
 30
0.0
 40
1.0000030517671257
100
AcDbArc
 50
0.0001748525759638
 51
90.0
  0
ARC
  5
9D
100
AcDbEntity
  8
0
  6
CONTINUOUS
 62
               7
100
AcDbCircle
 10
-7.3999969482375292
 20
33.799996948237535
 30
0.0
 40
1.0000030517671257
100
AcDbArc
 50
90.0
 51
179.99982514742405
  0
ELLIPSE
  5
9E
100
AcDbEntity
  8
0
  6
CONTINUOUS
 62
               7
100
AcDbEllipse
 10
0.0
 20
28.739999999999991
 30
0.0
 11
0.0000000000000015
 21
-23.93999999999998
 31
0.0
210
0.0
220
0.0
230
1.0
 40
0.3508771929824565
 41
5.7902600441933689
 42
0.4929252629862173
  0
ELLIPSE
  5
9F
100
AcDbEntity
  8
0
  6
CONTINUOUS
 62
               7
100
AcDbEllipse
 10
0.0
 20
-10.740000000000229
 30
0.0
 11
0.0000000000000015
 21
-23.940000000000246
 31
0.0
210
0.0
220
0.0
230
1.0
 40
0.3508771929824526
 41
2.6486673906035767
 42
3.63451791657601
  0
ELLIPSE
  5
A0
100
AcDbEntity
  8
0
  6
CONTINUOUS
 62
               7
100
AcDbEllipse
 10
0.0
 20
6.2600000000000122
 30
0.0
 11
0.0000000000000015
 21
-23.939999999999962
 31
0.0
210
0.0
220
0.0
230
1.0
 40
0.3508771929824566
 41
2.6486673906035763
 42
3.6345179165760104
  0
ELLIPSE
  5
A1
100
AcDbEntity
  8
0
  6
CONTINUOUS
 62
               7
100
AcDbEllipse
 10
0.0
 20
45.656000000000034
 30
0.0
 11
0.0000000000000015
 21
-23.856000000000023
 31
0.0
210
0.0
220
0.0
230
1.0
 40
0.3521126760563376
 41
5.7902600441933689
 42
0.4929252629862173
  0
ELLIPSE
  5
A2
100
AcDbEntity
  8
0
  6
DASHED
 62
               7
100
AcDbEllipse
 10
0.0
 20
42.978255994154694
 30
0.0
 11
-1.5200000000000018
 21
0.0000000000000002
 31
0.0
210
0.0
220
0.0
230
1.0
 40
0.6427876096865395
 41
3.0729376356914484
 42
3.1376055544380463
  0
ELLIPSE
  5
A3
100
AcDbEntity
  8
0
  6
DASHED
 62
               7
100
AcDbEllipse
 10
0.0
 20
42.978255994154694
 30
0.0
 11
-1.5200000000000018
 21
0.0000000000000002
 31
0.0
210
0.0
220
0.0
230
1.0
 40
0.6427876096865395
 41
0.0020531587675171
 42
0.0685183624251367
  0
LINE
  5
A4
100
AcDbEntity
  8
0
  6
CENTER
 62
               2
100
AcDbLine
 10
-5.0
 20
25.999996948242188
 30
0.0
 11
5.0
 21
25.999996948242188
 31
0.0
  0
LINE
  5
A5
100
AcDbEntity
  8
0
  6
CENTER
 62
               2
100
AcDbLine
 10
-5.0
 20
8.9999969482421882
 30
0.0
 11
5.0
 21
8.9999969482421882
 31
0.0
  0
CIRCLE
  5
A6
100
AcDbEntity
  8
0
  6
CONTINUOUS
 62
               2
100
AcDbCircle
 10
0.0
 20
25.999996948242188
 30
0.0
 40
2.5
  0
CIRCLE
  5
A7
100
AcDbEntity
  8
0
  6
CONTINUOUS
 62
               7
100
AcDbCircle
 10
0.0
 20
25.999996948242188
 30
0.0
 40
2.0670000000000002
  0
CIRCLE
  5
A8
100
AcDbEntity
  8
0
  6
CONTINUOUS
 62
               2
100
AcDbCircle
 10
0.0
 20
8.9999969482421882
 30
0.0
 40
2.5
  0
CIRCLE
  5
A9
100
AcDbEntity
  8
0
  6
CONTINUOUS
 62
               7
100
AcDbCircle
 10
0.0
 20
8.9999969482421882
 30
0.0
 40
2.0670000000000002
  0
ARC
  5
AA
100
AcDbEntity
  8
0
  6
CONTINUOUS
 62
               7
100
AcDbCircle
 10
0.0006842596627337
 20
52.339491897678627
 30
0.0
 40
2.438836639163168
100
AcDbArc
 50
357.13285994050619
 51
182.86553187502275
  0
ARC
  5
AB
100
AcDbEntity
  8
0
  6
CONTINUOUS
 62
               7
100
AcDbCircle
 10
0.0000001161000114
 20
39.542936829738807
 30
0.0
 40
3.7516661183119315
100
AcDbArc
 50
43.017565245571021
 51
136.96502815001824
  0
ARC
  5
AC
100
AcDbEntity
  8
0
  6
CONTINUOUS
 62
               7
100
AcDbCircle
 10
6.0582227196635259
 20
30.597292436596607
 30
0.0
 40
7.2027075634033926
100
AcDbArc
 50
75.101304565599648
 51
106.26031008882808
  0
ARC
  5
AD
100
AcDbEntity
  8
0
  6
CONTINUOUS
 62
               7
100
AcDbCircle
 10
-0.0000000000000142
 20
9.3104869116062901
 30
0.0
 40
28.489513088393711
100
AcDbArc
 50
81.844652362277202
 51
98.155347637722812
  0
ARC
  5
AE
100
AcDbEntity
  8
0
  6
CONTINUOUS
 62
               7
100
AcDbCircle
 10
-6.0582227196635472
 20
30.597292436596682
 30
0.0
 40
7.2027075634033171
100
AcDbArc
 50
73.739689911171837
 51
104.89869543440038
  0
ARC
  5
AF
100
AcDbEntity
  8
0
  6
CONTINUOUS
 62
               7
100
AcDbCircle
 10
-6.0582227196635188
 20
43.002707563402872
 30
0.0
 40
7.2027075634028943
100
AcDbArc
 50
255.1013045655998
 51
286.26031008882904
  0
ARC
  5
B0
100
AcDbEntity
  8
0
  6
CONTINUOUS
 62
               7
100
AcDbCircle
 10
-0.0000000000000142
 20
64.289513088392297
 30
0.0
 40
28.489513088392318
100
AcDbArc
 50
261.8446523622768
 51
278.1553476377232
  0
ARC
  5
B1
100
AcDbEntity
  8
0
  6
CONTINUOUS
 62
               7
100
AcDbCircle
 10
6.0582227196635259
 20
43.002707563402922
 30
0.0
 40
7.202707563402944
100
AcDbArc
 50
253.7396899111709
 51
284.89869543440022
  0
CIRCLE
  5
B2
100
AcDbEntity
  8
0
  6
CONTINUOUS
 62
               7
100
AcDbCircle
 10
0.0
 20
32.569553470118684
 30
0.0
 40
1.1505232327512012
  0
ARC
  5
B3
100
AcDbEntity
  8
0
  6
CONTINUOUS
 62
               7
100
AcDbCircle
 10
7.3441789521219363
 20
13.570297590337894
 30
0.0
 40
8.0297024096621072
100
AcDbArc
 50
75.018367427609235
 51
107.66559897425262
  0
ARC
  5
B4
100
AcDbEntity
  8
0
  6
CONTINUOUS
 62
               7
100
AcDbCircle
 10
-0.0000000000000142
 20
-10.390916120744265
 30
0.0
 40
31.990916120744266
100
AcDbArc
 50
81.175858480848461
 51
98.824141519151539
  0
ARC
  5
B5
100
AcDbEntity
  8
0
  6
CONTINUOUS
 62
               7
100
AcDbCircle
 10
-7.3441789521219505
 20
13.570297590337987
 30
0.0
 40
8.0297024096620166
100
AcDbArc
 50
72.334401025747312
 51
104.98163257239078
  0
ARC
  5
B6
100
AcDbEntity
  8
0
  6
CONTINUOUS
 62
               7
100
AcDbCircle
 10
-7.3443741275343655
 20
21.637912267708383
 30
0.0
 40
8.2379122677083849
100
AcDbArc
 50
255.39555255320977
 51
287.2064061887736
  0
ARC
  5
B7
100
AcDbEntity
  8
0
  6
CONTINUOUS
 62
               7
100
AcDbCircle
 10
-0.0000000000000142
 20
46.245436351527744
 30
0.0
 40
32.845436351527745
100
AcDbArc
 50
261.40719154422578
 51
278.59280845577422
  0
ARC
  5
B8
100
AcDbEntity
  8
0
  6
CONTINUOUS
 62
               7
100
AcDbCircle
 10
7.3443741275343655
 20
21.637912267708526
 30
0.0
 40
8.237912267708527
100
AcDbArc
 50
252.79359381122657
 51
284.60444744679012
  0
LINE
  5
B9
100
AcDbEntity
  8
0
  6
CENTER
 62
               2
100
AcDbLine
 10
-2.0
 20
32.565000000000111
 30
0.0
 11
2.0
 21
32.565000000000111
 31
0.0
  0
LINE
  5
BA
100
AcDbEntity
  8
0
  6
CONTINUOUS
 62
               2
100
AcDbLine
 10
-5.5000000000000142
 20
42.100000000000001
 30
0.0
 11
-5.5000000000000142
 21
37.799999999999997
 31
0.0
  0
LINE
  5
BB
100
AcDbEntity
  8
0
  6
CONTINUOUS
 62
               2
100
AcDbLine
 10
5.5000000000000142
 20
42.100000000000001
 30
0.0
 11
5.5000000000000142
 21
37.799999999999997
 31
0.0
  0
LINE
  5
BC
100
AcDbEntity
  8
0
  6
CENTER
 62
               2
100
AcDbLine
 10
0.0
 20
-3.9599999999999937
 30
0.0
 11
0.0
 21
56.778322592546061
 31
0.0
  0
ENDBLK
  5
BD
100
AcDbEntity
  8
0
100
AcDbBlockEnd
  0
BLOCK
  5
BE
100
AcDbEntity
  8
0
100
AcDbBlockBegin
  2
4VR-3
 70
               0
 10
0.0
 20
0.0
 30
0.0
  3
4VR-3
  1

  0
ARC
  5
BF
100
AcDbEntity
  8
0
  6
CONTINUOUS
 62
               7
100
AcDbCircle
 10
0.0
 20
44.13287473777207
 30
0.0
 40
1.9444745358429771
100
AcDbArc
 50
218.72721797998898
 51
321.27278202001099
  0
ARC
  5
C0
100
AcDbEntity
  8
0
  6
CONTINUOUS
 62
               7
100
AcDbCircle
 10
0.0006842596627337
 20
52.521855032067577
 30
0.0
 40
2.438836639163168
100
AcDbArc
 50
205.98045303369884
 51
338.44069222193269
  0
ARC
  5
C1
100
AcDbEntity
  8
0
  6
CONTINUOUS
 62
               7
100
AcDbCircle
 10
0.0000001161000114
 20
39.542936829738807
 30
0.0
 40
3.7516661183119315
100
AcDbArc
 50
43.017565245571021
 51
66.058812261515584
  0
LINE
  5
C2
100
AcDbEntity
  8
0
  6
CONTINUOUS
 62
               7
100
AcDbLine
 10
4.9074772881118065
 20
13.768685347325878
 30
0.0
 11
4.9074772881118065
 21
21.221350183827479
 31
0.0
  0
LINE
  5
C3
100
AcDbEntity
  8
0
  6
CONTINUOUS
 62
               7
100
AcDbLine
 10
9.8149545762236414
 20
13.768685347325878
 30
0.0
 11
9.8149545762236414
 21
21.221350183827479
 31
0.0
  0
LINE
  5
C4
100
AcDbEntity
  8
0
  6
CONTINUOUS
 62
               7
100
AcDbLine
 10
8.4000000000000057
 20
21.600000000000001
 30
0.0
 11
-8.3999999999999986
 21
21.600000000000001
 31
0.0
  0
LINE
  5
C5
100
AcDbEntity
  8
0
  6
CONTINUOUS
 62
               7
100
AcDbLine
 10
9.8149545762236414
 20
21.221350183827482
 30
0.0
 11
8.4000000000000057
 21
21.600000000000001
 31
0.0
  0
LINE
  5
C6
100
AcDbEntity
  8
0
  6
CONTINUOUS
 62
               7
100
AcDbLine
 10
-8.3999999999999986
 20
21.600000000000001
 30
0.0
 11
-9.8149545762236414
 21
21.221350183827482
 31
0.0
  0
LINE
  5
C7
100
AcDbEntity
  8
0
  6
CONTINUOUS
 62
               7
100
AcDbLine
 10
8.4000000000000057
 20
13.399999999999999
 30
0.0
 11
-8.3999999999999986
 21
13.399999999999999
 31
0.0
  0
LINE
  5
C8
100
AcDbEntity
  8
0
  6
CONTINUOUS
 62
               7
100
AcDbLine
 10
-9.8149545762236343
 20
13.768685347325878
 30
0.0
 11
-8.3999999999999986
 21
13.399999999999999
 31
0.0
  0
LINE
  5
C9
100
AcDbEntity
  8
0
  6
CONTINUOUS
 62
               7
100
AcDbLine
 10
8.4000000000000057
 20
13.399999999999999
 30
0.0
 11
9.8149545762236414
 21
13.768685347325878
 31
0.0
  0
LINE
  5
CA
100
AcDbEntity
  8
0
  6
CONTINUOUS
 62
               7
100
AcDbLine
 10
-4.9074772881118349
 20
13.768685347325878
 30
0.0
 11
-4.9074772881118349
 21
21.221350183827482
 31
0.0
  0
LINE
  5
CB
100
AcDbEntity
  8
0
  6
CONTINUOUS
 62
               7
100
AcDbLine
 10
-9.8149545762236343
 20
13.768685347325878
 30
0.0
 11
-9.8149545762236414
 21
21.221350183827479
 31
0.0
  0
LINE
  5
CC
100
AcDbEntity
  8
0
  6
CONTINUOUS
 62
               7
100
AcDbLine
 10
7.4000000000000057
 20
0.0
 30
0.0
 11
-7.4000000000000057
 21
0.0
 31
0.0
  0
LINE
  5
CD
100
AcDbEntity
  8
0
  6
CONTINUOUS
 62
               7
100
AcDbLine
 10
8.4000000000000057
 20
1.0
 30
0.0
 11
8.4000000000000057
 21
13.399999999999999
 31
0.0
  0
LINE
  5
CE
100
AcDbEntity
  8
0
  6
CONTINUOUS
 62
               7
100
AcDbLine
 10
-8.3999999999999986
 20
13.399999999999999
 30
0.0
 11
-8.3999999999999986
 21
1.0
 31
0.0
  0
LINE
  5
CF
100
AcDbEntity
  8
0
  6
CONTINUOUS
 62
               7
100
AcDbLine
 10
8.4000000000000057
 20
21.600000000000001
 30
0.0
 11
8.4000000000000057
 21
33.799999999999997
 31
0.0
  0
LINE
  5
D0
100
AcDbEntity
  8
0
  6
CONTINUOUS
 62
               7
100
AcDbLine
 10
-8.3999999999999986
 20
33.799999999999997
 30
0.0
 11
-8.3999999999999986
 21
21.600000000000001
 31
0.0
  0
LINE
  5
D1
100
AcDbEntity
  8
0
  6
CONTINUOUS
 62
               7
100
AcDbLine
 10
-7.5
 20
34.80000000000009
 30
0.0
 11
7.5
 21
34.80000000000009
 31
0.0
  0
LINE
  5
D2
100
AcDbEntity
  8
0
  6
CONTINUOUS
 62
               7
100
AcDbLine
 10
-7.5
 20
35.799999999999983
 30
0.0
 11
7.5
 21
35.799999999999983
 31
0.0
  0
LINE
  5
D3
100
AcDbEntity
  8
0
  6
CONTINUOUS
 62
               7
100
AcDbLine
 10
7.5
 20
34.80000000000009
 30
0.0
 11
7.5
 21
35.799999999999983
 31
0.0
  0
LINE
  5
D4
100
AcDbEntity
  8
0
  6
CONTINUOUS
 62
               7
100
AcDbLine
 10
-7.5
 20
35.799999999999983
 30
0.0
 11
-7.5
 21
34.80000000000009
 31
0.0
  0
LINE
  5
D5
100
AcDbEntity
  8
0
  6
CONTINUOUS
 62
               7
100
AcDbLine
 10
-4.0414518843273868
 20
37.511887988156076
 30
0.0
 11
-4.0414518843273868
 21
36.088112011843918
 31
0.0
  0
LINE
  5
D6
100
AcDbEntity
  8
0
  6
CONTINUOUS
 62
               7
100
AcDbLine
 10
4.0414518843273726
 20
37.511887988156076
 30
0.0
 11
4.0414518843273726
 21
36.088112011843926
 31
0.0
  0
LINE
  5
D7
100
AcDbEntity
  8
0
  6
CONTINUOUS
 62
               7
100
AcDbLine
 10
8.0829037686547593
 20
37.511887988156076
 30
0.0
 11
8.0829037686547593
 21
36.088112011843926
 31
0.0
  0
LINE
  5
D8
100
AcDbEntity
  8
0
  6
CONTINUOUS
 62
               7
100
AcDbLine
 10
-8.0829037686547593
 20
37.511887988156076
 30
0.0
 11
-8.0829037686547593
 21
36.088112011843926
 31
0.0
  0
LINE
  5
D9
100
AcDbEntity
  8
0
  6
CONTINUOUS
 62
               7
100
AcDbLine
 10
-5.4999999999999432
 20
42.100000000000001
 30
0.0
 11
5.4999999999999432
 21
42.100000000000001
 31
0.0
  0
LINE
  5
DA
100
AcDbEntity
  8
0
  6
CONTINUOUS
 62
               7
100
AcDbLine
 10
6.0
 20
41.600000000000009
 30
0.0
 11
5.4999999999999432
 21
42.100000000000001
 31
0.0
  0
LINE
  5
DB
100
AcDbEntity
  8
0
  6
CONTINUOUS
 62
               7
100
AcDbLine
 10
-5.4999999999999432
 20
42.100000000000001
 30
0.0
 11
-6.0
 21
41.600000000000009
 31
0.0
  0
LINE
  5
DC
100
AcDbEntity
  8
0
  6
CONTINUOUS
 62
               7
100
AcDbLine
 10
6.0
 20
41.600000000000009
 30
0.0
 11
-6.0
 21
41.600000000000009
 31
0.0
  0
LINE
  5
DD
100
AcDbEntity
  8
0
  6
CONTINUOUS
 62
               7
100
AcDbLine
 10
6.0
 20
37.799999999999983
 30
0.0
 11
6.0
 21
41.600000000000009
 31
0.0
  0
LINE
  5
DE
100
AcDbEntity
  8
0
  6
CONTINUOUS
 62
               7
100
AcDbLine
 10
-6.0
 20
41.600000000000009
 30
0.0
 11
-6.0
 21
37.799999999999983
 31
0.0
  0
LINE
  5
DF
100
AcDbEntity
  8
0
  6
CONTINUOUS
 62
               7
100
AcDbLine
 10
7.0
 20
35.799999999999997
 30
0.0
 11
8.0829037686547593
 21
36.088112011843926
 31
0.0
  0
LINE
  5
E0
100
AcDbEntity
  8
0
  6
CONTINUOUS
 62
               7
100
AcDbLine
 10
-7.0
 20
37.799999999999997
 30
0.0
 11
7.0
 21
37.799999999999997
 31
0.0
  0
LINE
  5
E1
100
AcDbEntity
  8
0
  6
CONTINUOUS
 62
               7
100
AcDbLine
 10
8.0829037686547593
 20
37.511887988156076
 30
0.0
 11
7.0
 21
37.799999999999997
 31
0.0
  0
LINE
  5
E2
100
AcDbEntity
  8
0
  6
CONTINUOUS
 62
               7
100
AcDbLine
 10
-7.0
 20
37.799999999999997
 30
0.0
 11
-8.0829037686547593
 21
37.511887988156076
 31
0.0
  0
LINE
  5
E3
100
AcDbEntity
  8
0
  6
CONTINUOUS
 62
               7
100
AcDbLine
 10
-8.0829037686547593
 20
36.088112011843926
 30
0.0
 11
-7.0
 21
35.799999999999997
 31
0.0
  0
LINE
  5
E4
100
AcDbEntity
  8
0
  6
DASHED
 62
               7
100
AcDbLine
 10
0.0
 20
40.400002944469449
 30
0.0
 11
0.0
 21
38.80000315904617
 31
0.0
  0
LINE
  5
E5
100
AcDbEntity
  8
0
  6
CONTINUOUS
 62
               7
100
AcDbLine
 10
-2.4351028881135619
 20
52.217569285942545
 30
0.0
 11
-1.5169493401363254
 21
42.916385559849914
 31
0.0
  0
LINE
  5
E6
100
AcDbEntity
  8
0
  6
CONTINUOUS
 62
               7
100
AcDbLine
 10
1.516949340136321
 20
42.916385559849907
 30
0.0
 11
2.4351028881135619
 21
52.217569285942545
 31
0.0
  0
ARC
  5
E7
100
AcDbEntity
  8
0
  6
CONTINUOUS
 62
               7
100
AcDbCircle
 10
7.3999984741106175
 20
1.0000015258893882
 30
0.0
 40
1.0000015258905481
100
AcDbArc
 50
270.00004371344414
 51
359.99991257311166
  0
ARC
  5
E8
100
AcDbEntity
  8
0
  6
CONTINUOUS
 62
               7
100
AcDbCircle
 10
-7.3999984741106175
 20
1.0000015258893882
 30
0.0
 40
1.0000015258905481
100
AcDbArc
 50
180.00008742688834
 51
269.99995628655586
  0
ARC
  5
E9
100
AcDbEntity
  8
0
  6
CONTINUOUS
 62
               7
100
AcDbCircle
 10
7.3999969482375292
 20
33.799996948237535
 30
0.0
 40
1.0000030517671257
100
AcDbArc
 50
0.0001748525759638
 51
90.0
  0
ARC
  5
EA
100
AcDbEntity
  8
0
  6
CONTINUOUS
 62
               7
100
AcDbCircle
 10
-7.3999969482375292
 20
33.799996948237535
 30
0.0
 40
1.0000030517671257
100
AcDbArc
 50
90.0
 51
179.99982514742405
  0
ARC
  5
EB
100
AcDbEntity
  8
0
  6
CONTINUOUS
 62
               7
100
AcDbCircle
 10
0.0006842596627337
 20
52.339491897678627
 30
0.0
 40
2.438836639163168
100
AcDbArc
 50
357.13285994050625
 51
182.86553187502275
  0
ARC
  5
EC
100
AcDbEntity
  8
0
  6
CONTINUOUS
 62
               7
100
AcDbCircle
 10
0.0000001161000114
 20
39.542936829738807
 30
0.0
 40
3.7516661183119315
100
AcDbArc
 50
113.94119145557455
 51
136.96502815001824
  0
ARC
  5
ED
100
AcDbEntity
  8
0
  6
CONTINUOUS
 62
               7
100
AcDbCircle
 10
6.058222719663533
 20
30.597292436596607
 30
0.0
 40
7.2027075634033926
100
AcDbArc
 50
75.101304565599648
 51
106.26031008882808
  0
ARC
  5
EE
100
AcDbEntity
  8
0
  6
CONTINUOUS
 62
               7
100
AcDbCircle
 10
-0.0000000000000142
 20
9.3104869116062901
 30
0.0
 40
28.489513088393711
100
AcDbArc
 50
81.844652362277202
 51
98.155347637722812
  0
ARC
  5
EF
100
AcDbEntity
  8
0
  6
CONTINUOUS
 62
               7
100
AcDbCircle
 10
-6.0582227196635401
 20
30.597292436596682
 30
0.0
 40
7.2027075634033171
100
AcDbArc
 50
73.739689911171837
 51
104.89869543440038
  0
ARC
  5
F0
100
AcDbEntity
  8
0
  6
CONTINUOUS
 62
               7
100
AcDbCircle
 10
-6.0582227196635259
 20
43.002707563402872
 30
0.0
 40
7.2027075634028943
100
AcDbArc
 50
255.1013045655998
 51
286.26031008882904
  0
ARC
  5
F1
100
AcDbEntity
  8
0
  6
CONTINUOUS
 62
               7
100
AcDbCircle
 10
-0.0000000000000142
 20
64.289513088392297
 30
0.0
 40
28.489513088392318
100
AcDbArc
 50
261.8446523622768
 51
278.1553476377232
  0
ARC
  5
F2
100
AcDbEntity
  8
0
  6
CONTINUOUS
 62
               7
100
AcDbCircle
 10
6.0582227196635188
 20
43.002707563402922
 30
0.0
 40
7.202707563402944
100
AcDbArc
 50
253.7396899111709
 51
284.89869543440022
  0
CIRCLE
  5
F3
100
AcDbEntity
  8
0
  6
CONTINUOUS
 62
               7
100
AcDbCircle
 10
0.0
 20
32.569553470118684
 30
0.0
 40
1.1505232327512012
  0
ARC
  5
F4
100
AcDbEntity
  8
0
  6
CONTINUOUS
 62
               7
100
AcDbCircle
 10
7.3441789521219363
 20
13.570297590337894
 30
0.0
 40
8.0297024096621072
100
AcDbArc
 50
75.018367427609235
 51
107.66559897425262
  0
ARC
  5
F5
100
AcDbEntity
  8
0
  6
CONTINUOUS
 62
               7
100
AcDbCircle
 10
-0.0000000000000142
 20
-10.390916120744265
 30
0.0
 40
31.990916120744266
100
AcDbArc
 50
81.175858480848461
 51
98.824141519151539
  0
ARC
  5
F6
100
AcDbEntity
  8
0
  6
CONTINUOUS
 62
               7
100
AcDbCircle
 10
-7.3441789521219505
 20
13.570297590337987
 30
0.0
 40
8.0297024096620166
100
AcDbArc
 50
72.334401025747312
 51
104.98163257239078
  0
ARC
  5
F7
100
AcDbEntity
  8
0
  6
CONTINUOUS
 62
               7
100
AcDbCircle
 10
-7.3443741275343726
 20
21.637912267708383
 30
0.0
 40
8.2379122677083849
100
AcDbArc
 50
255.39555255320977
 51
287.2064061887736
  0
ARC
  5
F8
100
AcDbEntity
  8
0
  6
CONTINUOUS
 62
               7
100
AcDbCircle
 10
-0.0000000000000142
 20
46.245436351527744
 30
0.0
 40
32.845436351527745
100
AcDbArc
 50
261.40719154422578
 51
278.59280845577422
  0
ARC
  5
F9
100
AcDbEntity
  8
0
  6
CONTINUOUS
 62
               7
100
AcDbCircle
 10
7.3443741275343655
 20
21.637912267708526
 30
0.0
 40
8.237912267708527
100
AcDbArc
 50
252.79359381122657
 51
284.60444744679012
  0
LINE
  5
FA
100
AcDbEntity
  8
0
  6
CENTER
 62
               2
100
AcDbLine
 10
-2.0
 20
32.565000000000111
 30
0.0
 11
2.0
 21
32.565000000000111
 31
0.0
  0
LINE
  5
FB
100
AcDbEntity
  8
0
  6
CONTINUOUS
 62
               2
100
AcDbLine
 10
-5.5000000000000142
 20
42.100000000000001
 30
0.0
 11
-5.5000000000000142
 21
37.799999999999997
 31
0.0
  0
LINE
  5
FC
100
AcDbEntity
  8
0
  6
CONTINUOUS
 62
               2
100
AcDbLine
 10
5.5000000000000142
 20
42.100000000000001
 30
0.0
 11
5.5000000000000142
 21
37.799999999999997
 31
0.0
  0
LINE
  5
FD
100
AcDbEntity
  8
0
  6
CENTER
 62
               2
100
AcDbLine
 10
-4.0
 20
17.5
 30
0.0
 11
4.0
 21
17.5
 31
0.0
  0
CIRCLE
  5
FE
100
AcDbEntity
  8
0
  6
CONTINUOUS
 62
               2
100
AcDbCircle
 10
0.0
 20
17.5
 30
0.0
 40
2.5
  0
CIRCLE
  5
FF
100
AcDbEntity
  8
0
  6
CONTINUOUS
 62
               7
100
AcDbCircle
 10
0.0
 20
17.5
 30
0.0
 40
2.0670000000000002
  0
LINE
  5
100
100
AcDbEntity
  8
0
  6
CENTER
 62
               2
100
AcDbLine
 10
0.0
 20
-3.9599999999999937
 30
0.0
 11
0.0
 21
56.778322592546061
 31
0.0
  0
ENDBLK
  5
101
100
AcDbEntity
  8
0
100
AcDbBlockEnd
  0
BLOCK
  5
102
100
AcDbEntity
  8
0
100
AcDbBlockBegin
  2
4VR-4
 70
               0
 10
0.0
 20
0.0
 30
0.0
  3
4VR-4
  1

  0
LINE
  5
103
100
AcDbEntity
  8
0
  6
CONTINUOUS
 62
               7
100
AcDbLine
 10
10.502627540357267
 20
2.4301114915715942
 30
0.0
 11
2.7299702383809858
 21
1.5138399455691953
 31
0.0
  0
LINE
  5
104
100
AcDbEntity
  8
0
  6
CONTINUOUS
 62
               7
100
AcDbLine
 10
2.7299702383809858
 20
-1.5138399455691953
 30
0.0
 11
10.502627540357267
 21
-2.4301114915715942
 31
0.0
  0
LINE
  5
105
100
AcDbEntity
  8
0
  6
CONTINUOUS
 62
               7
100
AcDbLine
 10
-7.0000000000000142
 20
-4.0414518843273726
 30
0.0
 11
0.0
 21
-8.0829037686547593
 31
0.0
  0
LINE
  5
106
100
AcDbEntity
  8
0
  6
CONTINUOUS
 62
               7
100
AcDbLine
 10
7.0000000000000142
 20
-4.0414518843273797
 30
0.0
 11
7.0000000000000142
 21
-2.0172124493914652
 31
0.0
  0
LINE
  5
107
100
AcDbEntity
  8
0
  6
CONTINUOUS
 62
               7
100
AcDbLine
 10
0.0
 20
-8.0829037686547593
 30
0.0
 11
7.0000000000000142
 21
-4.0414518843273797
 31
0.0
  0
LINE
  5
108
100
AcDbEntity
  8
0
  6
CONTINUOUS
 62
               7
100
AcDbLine
 10
0.0
 20
8.0829037686547593
 30
0.0
 11
7.0
 21
4.0414518843273868
 31
0.0
  0
LINE
  5
109
100
AcDbEntity
  8
0
  6
CONTINUOUS
 62
               7
100
AcDbLine
 10
7.0000000000000142
 20
2.0173678890985514
 30
0.0
 11
7.0
 21
4.0414518843273868
 31
0.0
  0
LINE
  5
10A
100
AcDbEntity
  8
0
  6
CONTINUOUS
 62
               7
100
AcDbLine
 10
-7.0
 20
4.0414518843273868
 30
0.0
 11
0.0
 21
8.0829037686547593
 31
0.0
  0
LINE
  5
10B
100
AcDbEntity
  8
0
  6
CONTINUOUS
 62
               7
100
AcDbLine
 10
-7.0
 20
4.0414518843273868
 30
0.0
 11
-7.0000000000000142
 21
-4.0414518843273726
 31
0.0
  0
LINE
  5
10C
100
AcDbEntity
  8
0
  6
DASHED
 62
               7
100
AcDbLine
 10
-7.3999999999999631
 20
2.0977150189567269
 30
0.0
 11
-7.3999999999999631
 21
2.1041644992103414
 31
0.0
  0
LINE
  5
10D
100
AcDbEntity
  8
0
  6
DASHED
 62
               7
100
AcDbLine
 10
-7.3999999999999631
 20
-2.1041605832836581
 30
0.0
 11
-7.3999999999999631
 21
-2.097715018956734
 31
0.0
  0
LINE
  5
10E
100
AcDbEntity
  8
0
  6
CONTINUOUS
 62
               7
100
AcDbLine
 10
8.5000000000000142
 20
2.1942929489763969
 30
0.0
 11
8.5000000000000142
 21
4.9074772881118207
 31
0.0
  0
LINE
  5
10F
100
AcDbEntity
  8
0
  6
CONTINUOUS
 62
               7
100
AcDbLine
 10
8.5000000000000142
 20
-4.9074772881118207
 30
0.0
 11
8.5000000000000142
 21
-2.1943109862256733
 31
0.0
  0
LINE
  5
110
100
AcDbEntity
  8
0
  6
CONTINUOUS
 62
               7
100
AcDbLine
 10
0.0
 20
-9.8149545762236414
 30
0.0
 11
8.5000000000000142
 21
-4.9074772881118207
 31
0.0
  0
LINE
  5
111
100
AcDbEntity
  8
0
  6
CONTINUOUS
 62
               7
100
AcDbLine
 10
0.0
 20
-9.8149545762236414
 30
0.0
 11
-8.5000000000000142
 21
-4.9074772881118065
 31
0.0
  0
LINE
  5
112
100
AcDbEntity
  8
0
  6
CONTINUOUS
 62
               7
100
AcDbLine
 10
-8.5000000000000142
 20
-4.9074772881118065
 30
0.0
 11
-8.5
 21
4.9074772881118349
 31
0.0
  0
LINE
  5
113
100
AcDbEntity
  8
0
  6
CONTINUOUS
 62
               7
100
AcDbLine
 10
-8.5
 20
4.9074772881118349
 30
0.0
 11
0.0
 21
9.8149545762236414
 31
0.0
  0
LINE
  5
114
100
AcDbEntity
  8
0
  6
CONTINUOUS
 62
               7
100
AcDbLine
 10
8.5000000000000142
 20
4.9074772881118207
 30
0.0
 11
0.0
 21
9.8149545762236414
 31
0.0
  0
ARC
  5
115
100
AcDbEntity
  8
0
  6
CONTINUOUS
 62
               7
100
AcDbCircle
 10
0.0
 20
0.0
 30
0.0
 40
7.0
100
AcDbArc
 50
16.459741426489749
 51
343.54025857351024
  0
ARC
  5
116
100
AcDbEntity
  8
0
  6
CONTINUOUS
 62
               7
100
AcDbCircle
 10
0.0
 20
0.0
 30
0.0
 40
7.5
100
AcDbArc
 50
279.15824471084903
 51
320.84596713098
  0
ARC
  5
117
100
AcDbEntity
  8
0
  6
CONTINUOUS
 62
               7
100
AcDbCircle
 10
0.0
 20
0.0
 30
0.0
 40
7.5
100
AcDbArc
 50
339.13299010241775
 51
344.19505317726362
  0
ARC
  5
118
100
AcDbEntity
  8
0
  6
CONTINUOUS
 62
               7
100
AcDbCircle
 10
0.0
 20
0.0
 30
0.0
 40
7.5
100
AcDbArc
 50
15.804946822736367
 51
20.883542824412174
  0
ARC
  5
119
100
AcDbEntity
  8
0
  6
CONTINUOUS
 62
               7
100
AcDbCircle
 10
0.0
 20
0.0
 30
0.0
 40
7.5
100
AcDbArc
 50
39.081612827841766
 51
80.959054899988402
  0
ARC
  5
11A
100
AcDbEntity
  8
0
  6
CONTINUOUS
 62
               7
100
AcDbCircle
 10
0.0
 20
0.0
 30
0.0
 40
7.5
100
AcDbArc
 50
99.006999259117052
 51
141.01314402202885
  0
ARC
  5
11B
100
AcDbEntity
  8
0
  6
CONTINUOUS
 62
               7
100
AcDbCircle
 10
0.0
 20
0.0
 30
0.0
 40
7.5
100
AcDbArc
 50
159.01770285385274
 51
200.93356115664534
  0
ARC
  5
11C
100
AcDbEntity
  8
0
  6
CONTINUOUS
 62
               7
100
AcDbCircle
 10
0.0
 20
0.0
 30
0.0
 40
7.5
100
AcDbArc
 50
219.10265479397134
 51
260.87660800151849
  0
ARC
  5
11D
100
AcDbEntity
  8
0
  6
CONTINUOUS
 62
               7
100
AcDbCircle
 10
0.0
 20
0.0
 30
0.0
 40
8.3999999999999986
100
AcDbArc
 50
14.824965236951179
 51
345.17503476304881
  0
ELLIPSE
  5
11E
100
AcDbEntity
  8
0
  6
CONTINUOUS
 62
               7
100
AcDbEllipse
 10
2.8346933587176437
 20
0.0
 30
0.0
 11
0.0000000000000001
 21
1.5200000000000018
 31
0.0
210
0.0
220
0.0
230
1.0
 40
0.7660444431189781
 41
3.0443699648728475
 42
3.0515325880446627
  0
ELLIPSE
  5
11F
100
AcDbEntity
  8
0
  6
CONTINUOUS
 62
               7
100
AcDbEllipse
 10
2.8346933587176437
 20
0.0
 30
0.0
 11
0.0000000000000001
 21
1.5200000000000018
 31
0.0
210
0.0
220
0.0
230
1.0
 40
0.7660444431189781
 41
0.0900600655451305
 42
0.0972082714752369
  0
ARC
  5
120
100
AcDbEntity
  8
0
  6
CONTINUOUS
 62
               7
100
AcDbCircle
 10
10.687547953900065
 20
0.0000000000000284
 30
0.0
 40
2.4371371362344432
100
AcDbArc
 50
265.64843853654526
 51
94.351561463454672
  0
ARC
  5
121
100
AcDbEntity
  8
0
  6
CONTINUOUS
 62
               7
100
AcDbCircle
 10
-0.0506925858746143
 20
-0.0014548092160283
 30
0.0
 40
2.7504306892023749
100
AcDbArc
 50
51.251501437240186
 51
308.78643574367936
  0
ARC
  5
122
100
AcDbEntity
  8
0
  6
CONTINUOUS
 62
               7
100
AcDbCircle
 10
6.6287434320618246
 20
9.7896980508086102
 30
0.0
 40
9.1105792755038806
100
AcDbArc
 50
237.04096282482968
 51
245.15659777106353
  0
ARC
  5
123
100
AcDbEntity
  8
0
  6
CONTINUOUS
 62
               7
100
AcDbCircle
 10
12.503480082754173
 20
-20.532689174642847
 30
0.0
 40
21.340318457421677
100
AcDbArc
 50
117.02668629058857
 51
120.50068405463813
  0
ARC
  5
124
100
AcDbEntity
  8
0
  6
CONTINUOUS
 62
               7
100
AcDbCircle
 10
0.0
 20
0.0
 30
0.0
 40
6.0
100
AcDbArc
 50
18.102563418348716
 51
341.89743658165128
  0
ARC
  5
125
100
AcDbEntity
  8
0
  6
CONTINUOUS
 62
               2
100
AcDbCircle
 10
0.0
 20
0.0
 30
0.0
 40
5.4999999999999512
100
AcDbArc
 50
19.152864795565225
 51
340.84713520443478
  0
LINE
  5
126
100
AcDbEntity
  8
0
  6
CENTER
 62
               2
100
AcDbLine
 10
15.11999999999999
 20
0.0
 30
0.0
 11
-11.500000000000007
 21
0.0
 31
0.0
  0
LINE
  5
127
100
AcDbEntity
  8
0
  6
CENTER
 62
               2
100
AcDbLine
 10
0.0
 20
-13.5
 30
0.0
 11
0.0
 21
13.5
 31
0.0
  0
ENDBLK
  5
128
100
AcDbEntity
  8
0
100
AcDbBlockEnd
  0
BLOCK
  5
23
100
AcDbEntity
  8
0
  6
ByBlock
 62
               0
100
AcDbBlockBegin
  2
_OPEN30
 70
               2
 10
0.0
 20
0.0
 30
0.0
  3
_OPEN30
  1

  0
LINE
  5
24
100
AcDbEntity
  8
0
  6
ByBlock
 62
               0
100
AcDbLine
 10
-1.0
 20
0.267949
 30
0.0
 11
0.0
 21
0.0
 31
0.0
  0
LINE
  5
25
100
AcDbEntity
  8
0
  6
ByBlock
 62
               0
100
AcDbLine
 10
0.0
 20
0.0
 30
0.0
 11
-1.0
 21
-0.267949
 31
0.0
  0
LINE
  5
26
100
AcDbEntity
  8
0
  6
ByBlock
 62
               0
100
AcDbLine
 10
0.0
 20
0.0
 30
0.0
 11
-1.0
 21
0.0
 31
0.0
  0
ENDBLK
  5
27
100
AcDbEntity
  8
0
  6
ByBlock
 62
               0
100
AcDbBlockEnd
  0
ENDSEC
  0
SECTION
  2
ENTITIES
  0
INSERT
  5
129
100
AcDbEntity
  8
0
  6
ByBlock
100
AcDbBlockReference
  2
4VR-1
 10
-0.0000000000000053
 20
-40.0
 30
0.0
  0
MTEXT
  5
12A
100
AcDbEntity
  8
0
  6
CONTINUOUS
 62
               7
100
AcDbMText
 10
15.226635480597254
 20
23.728049834389566
 30
0.0
 40
3.2000000476837158
 41
0.0
 71
               4
 72
               1
  1
\A1;OFF
  0
MTEXT
  5
12B
100
AcDbEntity
  8
0
  6
CONTINUOUS
 62
               7
100
AcDbMText
 10
-21.639433094112686
 20
23.974627197200796
 30
0.0
 40
3.2000000476837158
 41
0.0
 71
               4
 72
               1
  1
\A1;ON
  0
INSERT
  5
12C
100
AcDbEntity
  8
0
  6
ByBlock
100
AcDbBlockReference
  2
4VR-4
 10
0.0
 20
60.0
 30
0.0
  0
INSERT
  5
12D
100
AcDbEntity
  8
0
  6
ByBlock
100
AcDbBlockReference
  2
4VR-3
 10
70.0
 20
-40.0
 30
0.0
  0
INSERT
  5
12E
100
AcDbEntity
  8
0
  6
ByBlock
100
AcDbBlockReference
  2
4VR-2
 10
-70.0
 20
-40.0
 30
0.0
  0
MTEXT
  5
12F
100
AcDbEntity
  8
0
  6
CONTINUOUS
 62
               7
100
AcDbMText
 10
-110.21999364471435
 20
89.099999904632568
 30
0.0
 40
3.1999998092651367
 41
0.0
 71
               1
 72
               1
  1
\W0.900;\A1;4VR
  0
LINE
  5
130
100
AcDbEntity
  8
0
  6
CONTINUOUS
 62
               7
100
AcDbLine
 10
-138.39999389648437
 20
94.5
 30
0.0
 11
138.35000610351562
 21
94.5
 31
0.0
  0
LINE
  5
131
100
AcDbEntity
  8
0
  6
CONTINUOUS
 62
               7
100
AcDbLine
 10
138.35000610351562
 20
94.5
 30
0.0
 11
138.35000610351562
 21
-94.800003051757812
 31
0.0
  0
LINE
  5
132
100
AcDbEntity
  8
0
  6
CONTINUOUS
 62
               7
100
AcDbLine
 10
-138.39999389648437
 20
-94.800003051757812
 30
0.0
 11
138.35000610351562
 21
-94.800003051757812
 31
0.0
  0
LINE
  5
133
100
AcDbEntity
  8
0
  6
CONTINUOUS
 62
               7
100
AcDbLine
 10
-138.39999389648437
 20
94.5
 30
0.0
 11
-138.39999389648437
 21
-94.800003051757812
 31
0.0
  0
LINE
  5
134
100
AcDbEntity
  8
0
  6
CONTINUOUS
 62
               7
100
AcDbLine
 10
73.350006103515625
 20
-84.800003051757813
 30
0.0
 11
138.35000610351562
 21
-84.800003051757813
 31
0.0
  0
LINE
  5
135
100
AcDbEntity
  8
0
  6
CONTINUOUS
 62
               7
100
AcDbLine
 10
-138.39999389648437
 20
84.5
 30
0.0
 11
-73.399993896484375
 21
84.5
 31
0.0
  0
LINE
  5
136
100
AcDbEntity
  8
0
  6
CONTINUOUS
 62
               7
100
AcDbLine
 10
73.350006103515625
 20
84.5
 30
0.0
 11
138.35000610351562
 21
84.5
 31
0.0
  0
LINE
  5
137
100
AcDbEntity
  8
0
  6
CONTINUOUS
 62
               7
100
AcDbLine
 10
73.350006103515625
 20
-84.800003051757813
 30
0.0
 11
73.350006103515625
 21
-94.800003051757812
 31
0.0
  0
LINE
  5
138
100
AcDbEntity
  8
0
  6
CONTINUOUS
 62
               7
100
AcDbLine
 10
73.350006103515625
 20
94.5
 30
0.0
 11
73.350006103515625
 21
84.5
 31
0.0
  0
LINE
  5
139
100
AcDbEntity
  8
0
  6
CONTINUOUS
 62
               7
100
AcDbLine
 10
-73.399993896484375
 20
94.5
 30
0.0
 11
-73.399993896484375
 21
84.5
 31
0.0
  0
MTEXT
  5
13A
100
AcDbEntity
  8
0
  6
CONTINUOUS
 62
               7
100
AcDbMText
 10
77.440523342735503
 20
-89.800003051757812
 30
0.0
 40
4.5
 41
0.0
 71
               4
 72
               1
  1
\W1.121;\A1;KOGANEI CORP.
  0
MTEXT
  5
13B
100
AcDbEntity
  8
0
  6
CONTINUOUS
 62
               7
100
AcDbMText
 10
93.749460369842424
 20
89.5
 30
0.0
 40
3.1999998092651367
 41
0.0
 71
               4
 72
               1
  1
\W1.311;\A1;Ver. 1.0
  0
MTEXT
  5
13C
100
AcDbEntity
  8
0
  6
CONTINUOUS
 62
               7
100
AcDbMText
 10
-119.7820074619834
 20
93.099999904632568
 30
0.0
 40
3.1999998092651367
 41
0.0
 71
               1
 72
               1
  1
\W0.971;\A1;TAC VALVE
  0
MTEXT
  5
13D
100
AcDbEntity
  8
0
  6
CONTINUOUS
 62
               7
100
AcDbMText
 10
-129.44614776140133
 20
74.5
 30
0.0
 40
3.2000000476837158
 41
0.0
 71
               4
 72
               1
  1
\W1.038;\A1;MODEL:4VR
  0
ENDSEC
  0
SECTION
  2
OBJECTS
  0
DICTIONARY
  5
19
100
AcDbDictionary
  3
ACAD_GROUP
350
1A
  3
ACAD_MLINESTYLE
350
1B
  0
DICTIONARY
  5
1A
102
{ACAD_REACTORS
330
19
102
}
100
AcDbDictionary
  0
DICTIONARY
  5
1B
102
{ACAD_REACTORS
330
19
102
}
100
AcDbDictionary
  3
STANDARD
350
1C
  0
MLINESTYLE
  5
1C
102
{ACAD_REACTORS
330
1B
102
}
100
AcDbMlineStyle
  2
Standard
 70
               0
  3

 62
               0
 51
90.0
 52
90.0
 71
               2
 49
0.5
 62
             256
  6
ByLayer
 49
-0.5
 62
             256
  6
ByLayer
  0
ENDSEC
  0
EOF
