  0
SECTION
  2
HEADER
  9
$ACADVER
  1
AC1009
  9
$INSBASE
 10
0.0
 20
0.0
 30
0.0
  9
$EXTMIN
 10
-194.25
 20
-133.5
 30
0.0
  9
$EXTMAX
 10
194.80000305
 20
132.6000061
 30
0.0
  9
$LIMMIN
 10
-194.25
 20
-133.5
  9
$LIMMAX
 10
194.80000305
 20
132.6000061
  9
$ORTHOMODE
 70
       0
  9
$REGENMODE
 70
       1
  9
$FILLMODE
 70
       1
  9
$QTEXTMODE
 70
       0
  9
$MIRRTEXT
 70
       1
  9
$DRAGMODE
 70
       2
  9
$LTSCALE
 40
1.0
  9
$OSMODE
 70
       0
  9
$ATTMODE
 70
       1
  9
$TEXTSIZE
 40
3.20000005
  9
$TRACEWID
 40
0.05
  9
$TEXTSTYLE
  7
MX_NOTE_STANDARD
  9
$CLAYER
  8
0
  9
$CELTYPE
  6
CONTINUOUS
  9
$CECOLOR
 62
     256
  9
$DIMSCALE
 40
1.0
  9
$DIMASZ
 40
2.5
  9
$DIMEXO
 40
1.5
  9
$DIMDLI
 40
3.75
  9
$DIMRND
 40
0.0
  9
$DIMDLE
 40
0.0
  9
$DIMEXE
 40
1.5
  9
$DIMTP
 40
0.0
  9
$DIMTM
 40
0.0
  9
$DIMTXT
 40
3.20000005
  9
$DIMCEN
 40
2.5
  9
$DIMTSZ
 40
0.0
  9
$DIMTOL
 70
       0
  9
$DIMLIM
 70
       0
  9
$DIMTIH
 70
       0
  9
$DIMTOH
 70
       0
  9
$DIMSE1
 70
       0
  9
$DIMSE2
 70
       0
  9
$DIMTAD
 70
       1
  9
$DIMZIN
 70
       8
  9
$DIMBLK
  1

  9
$DIMASO
 70
       1
  9
$DIMSHO
 70
       1
  9
$DIMPOST
  1

  9
$DIMAPOST
  1

  9
$DIMALT
 70
       0
  9
$DIMALTD
 70
       4
  9
$DIMALTF
 40
0.0394
  9
$DIMLFAC
 40
1.0
  9
$DIMTOFL
 70
       1
  9
$DIMTVP
 40
0.0
  9
$DIMTIX
 70
       0
  9
$DIMSOXD
 70
       0
  9
$DIMSAH
 70
       0
  9
$DIMBLK1
  1

  9
$DIMBLK2
  1

  9
$DIMSTYLE
  2
MXDIMSTYLE
  9
$DIMCLRD
 70
       0
  9
$DIMCLRE
 70
       0
  9
$DIMCLRT
 70
       0
  9
$DIMTFAC
 40
1.0
  9
$DIMGAP
 40
1.0
  9
$LUNITS
 70
       2
  9
$LUPREC
 70
       4
  9
$AXISMODE
 70
       0
  9
$AXISUNIT
 10
0.0
 20
0.0
  9
$SKETCHINC
 40
0.1
  9
$FILLETRAD
 40
0.0
  9
$AUNITS
 70
       0
  9
$AUPREC
 70
       0
  9
$MENU
  1
acad
  9
$ELEVATION
 40
0.0
  9
$PELEVATION
 40
0.0
  9
$THICKNESS
 40
0.0
  9
$LIMCHECK
 70
       0
  9
$BLIPMODE
 70
       1
  9
$CHAMFERA
 40
0.0
  9
$CHAMFERB
 40
0.0
  9
$SKPOLY
 70
       0
  9
$TDCREATE
 40
2452251.609027778
  9
$TDUPDATE
 40
2452251.609027778
  9
$TDINDWG
 40
0.0000000000
  9
$TDUSRTIMER
 40
0.0000000000
  9
$USRTIMER
 70
       1
  9
$ANGBASE
 50
0.0
  9
$ANGDIR
 70
       0
  9
$PDMODE
 70
       0
  9
$PDSIZE
 40
0.0
  9
$PLINEWID
 40
0.0
  9
$COORDS
 70
       1
  9
$SPLFRAME
 70
       0
  9
$SPLINETYPE
 70
       6
  9
$SPLINESEGS
 70
       8
  9
$ATTDIA
 70
       0
  9
$ATTREQ
 70
       1
  9
$HANDLING
 70
       1
  9
$HANDSEED
  5
12E
  9
$SURFTAB1
 70
       6
  9
$SURFTAB2
 70
       6
  9
$SURFTYPE
 70
       6
  9
$SURFU
 70
       6
  9
$SURFV
 70
       6
  9
$UCSNAME
  2

  9
$UCSORG
 10
0.0
 20
0.0
 30
0.0
  9
$UCSXDIR
 10
1.0
 20
0.0
 30
0.0
  9
$UCSYDIR
 10
0.0
 20
1.0
 30
0.0
  9
$PUCSNAME
  2

  9
$PUCSORG
 10
0.0
 20
0.0
 30
0.0
  9
$PUCSXDIR
 10
1.0
 20
0.0
 30
0.0
  9
$PUCSYDIR
 10
0.0
 20
1.0
 30
0.0
  9
$USERI1
 70
       0
  9
$USERI2
 70
       0
  9
$USERI3
 70
       0
  9
$USERI4
 70
       0
  9
$USERI5
 70
       0
  9
$USERR1
 40
0.0
  9
$USERR2
 40
0.0
  9
$USERR3
 40
0.0
  9
$USERR4
 40
0.0
  9
$USERR5
 40
0.0
  9
$WORLDVIEW
 70
       1
  9
$SHADEDGE
 70
       3
  9
$SHADEDIF
 70
      70
  9
$TILEMODE
 70
       1
  9
$MAXACTVP
 70
      16
  9
$PINSBASE
 10
0.0
 20
0.0
 30
0.0
  9
$PLIMCHECK
 70
       0
  9
$PEXTMIN
 10
1.00000000E+20
 20
1.00000000E+20
 30
1.00000000E+20
  9
$PEXTMAX
 10
-1.00000000E+20
 20
-1.00000000E+20
 30
-1.00000000E+20
  9
$PLIMMIN
 10
0.0
 20
0.0
  9
$PLIMMAX
 10
12.0
 20
9.0
  9
$UNITMODE
 70
       0
  9
$VISRETAIN
 70
       0
  9
$PLINEGEN
 70
       1
  9
$PSLTSCALE
 70
       0
  9
$TREEDEPTH
 70
    3020
  9
$DWGCODEPAGE
  3
dos932
  0
ENDSEC
  0
SECTION
  2
TABLES
  0
TABLE
  2
VPORT
 70
       1
  0
VPORT
  2
*ACTIVE
 70
       0
 10
0.0
 20
0.0
 11
1.0
 21
1.0
 12
0.27500153
 22
-0.44999695
 13
0.0
 23
0.0
 14
1.0
 24
1.0
 15
0.0
 25
0.0
 16
0.0
 26
0.0
 36
1.0
 17
0.0
 27
0.0
 37
0.0
 40
268.76100616
 41
1.73205081
 42
50.0
 43
0.0
 44
0.0
 50
0.0
 51
0.0
 71
       0
 72
     100
 73
       1
 74
       1
 75
       0
 76
       0
 77
       0
 78
       0
  0
ENDTAB
  0
TABLE
  2
LTYPE
 70
       4
  0
LTYPE
  2
CONTINUOUS
 70
      64
  3
Solid line
 72
      65
 73
       0
 40
0.0
  0
LTYPE
  2
CENTER
 70
      64
  3
Center ____ _ ____ _ ____ _ ____ _ ____ _ ____
 72
      65
 73
       4
 40
50.8
 49
31.75
 49
-6.35
 49
6.35
 49
-6.35
  0
LTYPE
  2
PHANTOM
 70
      64
  3
Phantom ______  __  __  ______  __  __  ______
 72
      65
 73
       6
 40
63.5
 49
31.75
 49
-6.35
 49
6.35
 49
-6.35
 49
6.35
 49
-6.35
  0
LTYPE
  2
DASHED
 70
      64
  3
Dashed __ __ __ __ __ __ __ __ __ __ __ __ __ _
 72
      65
 73
       2
 40
19.05
 49
12.7
 49
-6.35
  0
ENDTAB
  0
TABLE
  2
LAYER
 70
       2
  0
LAYER
  2
0
 70
       0
 62
       7
  6
CONTINUOUS
  0
LAYER
  2
DEFPOINTS
 70
       0
 62
       7
  6
CONTINUOUS
  0
ENDTAB
  0
TABLE
  2
STYLE
 70
       1
  0
STYLE
  2
MX_NOTE_STANDARD
 70
       0
 40
3.20000005
 41
1.0
 50
0.0
 71
       0
 42
3.20000005
  3
txt.shx
  4
extfont.shx
  0
ENDTAB
  0
TABLE
  2
VIEW
 70
       0
  0
ENDTAB
  0
TABLE
  2
UCS
 70
       0
  0
ENDTAB
  0
TABLE
  2
APPID
 70
       1
  0
APPID
  2
ACAD
 70
       0
  0
ENDTAB
  0
TABLE
  2
DIMSTYLE
 70
       1
  0
DIMSTYLE
  2
MXDIMSTYLE
 70
       0
  3

  4

  5

  6

  7

 40
1.0
 41
2.5
 42
1.5
 43
3.75
 44
1.5
 45
0.0
 46
0.0
 47
0.0
 48
0.0
 71
       0
 72
       0
 73
       0
 74
       0
 75
       0
 76
       0
 77
       1
 78
       8
140
3.20000005
141
2.5
142
0.0
143
0.0394
144
1.0
145
0.0
146
1.0
147
1.0
170
       0
171
       4
172
       1
173
       0
174
       0
175
       0
176
       0
177
       0
178
       0
  0
ENDTAB
  0
ENDSEC
  0
SECTION
  2
BLOCKS
  0
BLOCK
  8
0
  6
BYBLOCK
 62
       0
  5
20
  2
_OPEN30
 70
       2
 10
0.0
 20
0.0
 30
0.0
  3
_OPEN30
  0
LINE
  8
0
  6
BYBLOCK
 62
       0
  5
21
 10
-1.0
 20
0.267949
 30
0.0
 11
0.0
 21
0.0
 31
0.0
  0
LINE
  8
0
  6
BYBLOCK
 62
       0
  5
22
 10
0.0
 20
0.0
 30
0.0
 11
-1.0
 21
-0.267949
 31
0.0
  0
LINE
  8
0
  6
BYBLOCK
 62
       0
  5
23
 10
0.0
 20
0.0
 30
0.0
 11
-1.0
 21
0.0
 31
0.0
  0
ENDBLK
  8
0
  6
BYBLOCK
 62
       0
  5
24
  0
ENDSEC
  0
SECTION
  2
ENTITIES
  0
POLYLINE
  8
0
 62
       2
  5
1E
 66
       1
 10
0.0
 20
0.0
 30
0.0
  0
VERTEX
  8
0
 62
       2
  5
129
 10
22.84141637
 20
67.26484786
 30
0.0
  0
VERTEX
  8
0
 62
       2
  5
12A
 10
31.72293424
 20
80.94477575
 30
0.0
  0
VERTEX
  8
0
 62
       2
  5
12B
 10
41.02027582
 20
80.94477575
 30
0.0
  0
SEQEND
  8
0
 62
       2
  5
12C
  0
INSERT
  8
0
 62
       2
  5
25
  2
_OPEN30
 10
22.84141637
 20
67.26484786
 30
0.0
 41
2.77
 42
2.77
 50
237.00686799
 43
2.77
  0
TEXT
  8
0
 62
       2
  5
26
 10
35.15360907
 20
82.94477563
 30
0.0
 40
3.20000005
  1
-2
  7
MX_NOTE_STANDARD
 11
35.15360907
 21
84.54477565
 31
0.0
 73
       2
  0
LINE
  8
0
  6
CONTINUOUS
 62
       7
  5
27
 10
124.67427359
 20
86.51874368
 30
0.0
 11
59.67427359
 21
86.51874368
 31
0.0
  0
LINE
  8
0
  6
CONTINUOUS
 62
       7
  5
28
 10
58.67427359
 20
85.51874368
 30
0.0
 11
58.67427359
 21
74.51874368
 31
0.0
  0
LINE
  8
0
  6
CONTINUOUS
 62
       7
  5
29
 10
125.67427359
 20
85.51874368
 30
0.0
 11
125.67427359
 21
75.41874368
 31
0.0
  0
LINE
  8
0
  6
CONTINUOUS
 62
       7
  5
2A
 10
125.67427359
 20
85.51874368
 30
0.0
 11
124.67427359
 21
86.51874368
 31
0.0
  0
LINE
  8
0
  6
CONTINUOUS
 62
       7
  5
2B
 10
59.67427359
 20
86.51874368
 30
0.0
 11
58.67427359
 21
85.51874368
 31
0.0
  0
LINE
  8
0
  6
CONTINUOUS
 62
       7
  5
2C
 10
58.67427359
 20
85.51874368
 30
0.0
 11
125.67427359
 21
85.51874368
 31
0.0
  0
LINE
  8
0
  6
CONTINUOUS
 62
       7
  5
2D
 10
130.17427359
 20
27.51874368
 30
0.0
 11
54.17427359
 21
27.51874368
 31
0.0
  0
LINE
  8
0
  6
CONTINUOUS
 62
       7
  5
2E
 10
73.74094025
 20
39.01874368
 30
0.0
 11
54.67427359
 21
39.01874368
 31
0.0
  0
LINE
  8
0
  6
CENTER
 62
       2
  5
30
 10
122.76788955
 20
57.01874368
 30
0.0
 11
12.71107149
 21
57.01874368
 31
0.0
  0
LINE
  8
0
  6
CONTINUOUS
 62
       7
  5
31
 10
55.67427359
 20
71.51874368
 30
0.0
 11
55.67427359
 21
42.51874368
 31
0.0
  0
LINE
  8
0
  6
PHANTOM
 62
       2
  5
33
 10
58.67427359
 20
39.51874368
 30
0.0
 11
58.67427359
 21
28.51874368
 31
0.0
  0
LINE
  8
0
  6
CONTINUOUS
 62
       7
  5
34
 10
53.17427359
 20
37.51874368
 30
0.0
 11
53.17427359
 21
28.51874368
 31
0.0
  0
LINE
  8
0
  6
CONTINUOUS
 62
       7
  5
35
 10
131.17427359
 20
37.51874368
 30
0.0
 11
131.17427359
 21
28.51874368
 31
0.0
  0
LINE
  8
0
  6
CONTINUOUS
 62
       7
  5
36
 10
54.17427359
 20
27.51874368
 30
0.0
 11
53.17427359
 21
28.51874368
 31
0.0
  0
LINE
  8
0
  6
CONTINUOUS
 62
       7
  5
37
 10
130.17427359
 20
27.51874368
 30
0.0
 11
131.17427359
 21
28.51874368
 31
0.0
  0
LINE
  8
0
  6
CONTINUOUS
 62
       7
  5
38
 10
131.17427359
 20
28.51874368
 30
0.0
 11
53.17427359
 21
28.51874368
 31
0.0
  0
LINE
  8
0
  6
PHANTOM
 62
       2
  5
39
 10
59.67427359
 20
27.51874368
 30
0.0
 11
58.67427359
 21
28.51874368
 31
0.0
  0
LINE
  8
0
  6
PHANTOM
 62
       2
  5
3A
 10
125.67427359
 20
28.51874368
 30
0.0
 11
125.67427359
 21
38.61874368
 31
0.0
  0
LINE
  8
0
  6
PHANTOM
 62
       2
  5
3B
 10
125.67427359
 20
28.51874368
 30
0.0
 11
124.67427359
 21
27.51874368
 31
0.0
  0
LINE
  8
0
  6
CONTINUOUS
 62
       7
  5
3C
 10
110.60760692
 20
39.01874368
 30
0.0
 11
129.67427359
 21
39.01874368
 31
0.0
  0
LINE
  8
0
  6
CONTINUOUS
 62
       7
  5
3D
 10
120.47427359
 20
70.51874368
 30
0.0
 11
104.54094025
 21
70.51874368
 31
0.0
  0
LINE
  8
0
  6
CONTINUOUS
 62
       7
  5
3E
 10
120.47427359
 20
43.51874368
 30
0.0
 11
109.14094025
 21
43.51874368
 31
0.0
  0
LINE
  8
0
  6
CONTINUOUS
 62
       7
  5
3F
 10
64.07427359
 20
43.51874368
 30
0.0
 11
75.20760692
 21
43.51874368
 31
0.0
  0
LINE
  8
0
  6
CONTINUOUS
 62
       7
  5
40
 10
63.87427359
 20
70.51874368
 30
0.0
 11
78.50760692
 21
70.51874368
 31
0.0
  0
LINE
  8
0
  6
CONTINUOUS
 62
       7
  5
41
 10
115.64094025
 20
65.68541035
 30
0.0
 11
113.79094025
 21
65.68541035
 31
0.0
  0
LINE
  8
0
  6
CONTINUOUS
 62
       7
  5
42
 10
115.64094025
 20
48.35207702
 30
0.0
 11
113.79094025
 21
48.35207702
 31
0.0
  0
LINE
  8
0
  6
CONTINUOUS
 62
       7
  5
43
 10
70.22427359
 20
48.35207702
 30
0.0
 11
72.70760692
 21
48.35207702
 31
0.0
  0
LINE
  8
0
  6
CONTINUOUS
 62
       7
  5
44
 10
70.22427359
 20
65.68541035
 30
0.0
 11
72.87427359
 21
65.68541035
 31
0.0
  0
LINE
  8
0
  6
DASHED
 62
       2
  5
46
 10
62.07427359
 20
66.31874368
 30
0.0
 11
55.67427359
 21
66.31874368
 31
0.0
  0
LINE
  8
0
  6
DASHED
 62
       2
  5
47
 10
61.52427359
 20
67.33541035
 30
0.0
 11
55.67427359
 21
67.63541035
 31
0.0
  0
LINE
  8
0
  6
DASHED
 62
       2
  5
48
 10
62.27427359
 20
47.71874368
 30
0.0
 11
55.67427359
 21
47.71874368
 31
0.0
  0
LINE
  8
0
  6
DASHED
 62
       2
  5
49
 10
62.47427359
 20
46.75207702
 30
0.0
 11
55.67427359
 21
46.40207702
 31
0.0
  0
LINE
  8
0
  6
CONTINUOUS
 62
       7
  5
4A
 10
126.67427359
 20
84.01874368
 30
0.0
 11
126.67427359
 21
79.01874368
 31
0.0
  0
LINE
  8
0
  6
CONTINUOUS
 62
       7
  5
4B
 10
126.67427359
 20
84.01874368
 30
0.0
 11
125.67427359
 21
84.01874368
 31
0.0
  0
LINE
  8
0
  6
CONTINUOUS
 62
       7
  5
4C
 10
126.67427359
 20
79.01874368
 30
0.0
 11
125.67427359
 21
79.01874368
 31
0.0
  0
LINE
  8
0
  6
CENTER
 62
       2
  5
4D
 10
-113.60250371
 20
-72.19792298
 30
0.0
 11
-29.91867266
 21
-72.19792298
 31
0.0
  0
LINE
  8
0
  6
CENTER
 62
       2
  5
4E
 10
-44.82572641
 20
-47.94792298
 30
0.0
 11
-44.82572641
 21
-34.99792298
 31
0.0
  0
LINE
  8
0
  6
CENTER
 62
       2
  5
4F
 10
-100.80905975
 20
-48.5615988
 30
0.0
 11
-100.80905975
 21
-34.99792298
 31
0.0
  0
LINE
  8
0
  6
CENTER
 62
       2
  5
50
 10
-33.82146334
 20
-41.19792298
 30
0.0
 11
-53.07723649
 21
-41.19792298
 31
0.0
  0
LINE
  8
0
  6
CENTER
 62
       2
  5
51
 10
-94.05905975
 20
-41.19792298
 30
0.0
 11
-107.29239308
 21
-41.19792298
 31
0.0
  0
LINE
  8
0
  6
CONTINUOUS
 62
       7
  5
52
 10
-36.32572641
 20
-72.19792298
 30
0.0
 11
-36.82572641
 21
-41.19792298
 31
0.0
  0
LINE
  8
0
  6
CONTINUOUS
 62
       7
  5
53
 10
-58.32572641
 20
-35.69792298
 30
0.0
 11
-87.30905975
 21
-35.69792298
 31
0.0
  0
LINE
  8
0
  6
CONTINUOUS
 62
       7
  5
54
 10
-109.30905975
 20
-72.19792298
 30
0.0
 11
-108.80905975
 21
-41.19792298
 31
0.0
  0
LINE
  8
0
  6
CENTER
 62
       2
  5
55
 10
-44.82572641
 20
-95.44522039
 30
0.0
 11
-44.82572641
 21
-110.01263139
 31
0.0
  0
LINE
  8
0
  6
CENTER
 62
       2
  5
56
 10
-33.65402183
 20
-103.19792298
 30
0.0
 11
-52.07258746
 21
-103.19792298
 31
0.0
  0
LINE
  8
0
  6
CONTINUOUS
 62
       7
  5
57
 10
-36.32572641
 20
-72.19792298
 30
0.0
 11
-36.82572641
 21
-103.19792298
 31
0.0
  0
LINE
  8
0
  6
CENTER
 62
       2
  5
58
 10
-100.80905975
 20
-94.94289588
 30
0.0
 11
-100.80905975
 21
-110.18007289
 31
0.0
  0
LINE
  8
0
  6
CENTER
 62
       2
  5
59
 10
-94.05905975
 20
-103.19792298
 30
0.0
 11
-107.32828433
 21
-103.19792298
 31
0.0
  0
LINE
  8
0
  6
CONTINUOUS
 62
       7
  5
5A
 10
-109.30905975
 20
-72.19792298
 30
0.0
 11
-108.80905975
 21
-103.19792298
 31
0.0
  0
LINE
  8
0
  6
CONTINUOUS
 62
       7
  5
5B
 10
-88.80905975
 20
-39.43125632
 30
0.0
 11
-88.80905975
 21
-37.19792298
 31
0.0
  0
LINE
  8
0
  6
CONTINUOUS
 62
       7
  5
5C
 10
-56.82572641
 20
-39.43125632
 30
0.0
 11
-56.82572641
 21
-37.19792298
 31
0.0
  0
LINE
  8
0
  6
CONTINUOUS
 62
       7
  5
5D
 10
-74.80905975
 20
-105.63125632
 30
0.0
 11
-74.80905975
 21
-100.81458965
 31
0.0
  0
LINE
  8
0
  6
CONTINUOUS
 62
       7
  5
5E
 10
-70.80905975
 20
-105.63125632
 30
0.0
 11
-70.80905975
 21
-100.81458965
 31
0.0
  0
LINE
  8
0
  6
CONTINUOUS
 62
       7
  5
5F
 10
-74.80905975
 20
-43.56458965
 30
0.0
 11
-74.80905975
 21
-38.76458965
 31
0.0
  0
LINE
  8
0
  6
CONTINUOUS
 62
       7
  5
60
 10
-70.80905975
 20
-43.56458965
 30
0.0
 11
-70.80905975
 21
-38.76458965
 31
0.0
  0
LINE
  8
0
  6
CONTINUOUS
 62
       7
  5
61
 10
-72.80905975
 20
-105.63125632
 30
0.0
 11
-72.80905975
 21
-100.81458965
 31
0.0
  0
LINE
  8
0
  6
CONTINUOUS
 62
       7
  5
62
 10
-72.80905975
 20
-43.56458965
 30
0.0
 11
-72.80905975
 21
-38.76458965
 31
0.0
  0
LINE
  8
0
  6
CONTINUOUS
 62
       7
  5
63
 10
-77.05905975
 20
90.21874368
 30
0.0
 11
-69.07421126
 21
97.7338952
 31
0.0
  0
LINE
  8
0
  6
CONTINUOUS
 62
       7
  5
64
 10
-64.30905975
 20
98.21874368
 30
0.0
 11
-81.30905975
 21
98.21874368
 31
0.0
  0
LINE
  8
0
  6
CONTINUOUS
 62
       7
  5
65
 10
-82.30905975
 20
97.21874368
 30
0.0
 11
-82.30905975
 21
88.71874368
 31
0.0
  0
LINE
  8
0
  6
CONTINUOUS
 62
       7
  5
66
 10
-63.30905975
 20
97.21874368
 30
0.0
 11
-63.30905975
 21
88.71874368
 31
0.0
  0
LINE
  8
0
  6
CONTINUOUS
 62
       7
  5
67
 10
111.17427359
 20
88.71874368
 30
0.0
 11
73.17427359
 21
88.71874368
 31
0.0
  0
LINE
  8
0
  6
CONTINUOUS
 62
       7
  5
68
 10
111.17427359
 20
88.71874368
 30
0.0
 11
111.17427359
 21
86.51874368
 31
0.0
  0
LINE
  8
0
  6
CONTINUOUS
 62
       7
  5
69
 10
73.17427359
 20
88.71874368
 30
0.0
 11
73.17427359
 21
86.51874368
 31
0.0
  0
LINE
  8
0
  6
CONTINUOUS
 62
       7
  5
6A
 10
-68.55905975
 20
97.21874368
 30
0.0
 11
-68.55905975
 21
90.21874368
 31
0.0
  0
LINE
  8
0
  6
CONTINUOUS
 62
       7
  5
6B
 10
-77.05905975
 20
97.21874368
 30
0.0
 11
-77.05905975
 21
90.21874368
 31
0.0
  0
LINE
  8
0
  6
CONTINUOUS
 62
       7
  5
6C
 10
-68.55905975
 20
90.21874368
 30
0.0
 11
-77.05905975
 21
90.21874368
 31
0.0
  0
LINE
  8
0
  6
CONTINUOUS
 62
       7
  5
6D
 10
-68.55905975
 20
90.21874368
 30
0.0
 11
-76.54390823
 21
97.7338952
 31
0.0
  0
LINE
  8
0
  6
DASHED
 62
       2
  5
6E
 10
88.17427359
 20
98.21874368
 30
0.0
 11
88.17427359
 21
92.61874368
 31
0.0
  0
LINE
  8
0
  6
DASHED
 62
       2
  5
6F
 10
87.47427359
 20
92.41874368
 30
0.0
 11
87.17427359
 21
98.21874368
 31
0.0
  0
LINE
  8
0
  6
DASHED
 62
       2
  5
70
 10
96.17427359
 20
98.21874368
 30
0.0
 11
96.17427359
 21
92.61874368
 31
0.0
  0
LINE
  8
0
  6
DASHED
 62
       2
  5
71
 10
96.87427359
 20
92.41874368
 30
0.0
 11
97.17427359
 21
98.21874368
 31
0.0
  0
LINE
  8
0
  6
CONTINUOUS
 62
       7
  5
72
 10
-40.32572641
 20
86.51874368
 30
0.0
 11
-105.30905975
 21
86.51874368
 31
0.0
  0
LINE
  8
0
  6
CONTINUOUS
 62
       7
  5
73
 10
-39.32572641
 20
85.51874368
 30
0.0
 11
-39.32572641
 21
75.41874368
 31
0.0
  0
LINE
  8
0
  6
CONTINUOUS
 62
       7
  5
74
 10
-39.32572641
 20
85.51874368
 30
0.0
 11
-40.32572641
 21
86.51874368
 31
0.0
  0
LINE
  8
0
  6
CONTINUOUS
 62
       7
  5
75
 10
-39.32572641
 20
85.51874368
 30
0.0
 11
-106.30905975
 21
85.51874368
 31
0.0
  0
LINE
  8
0
  6
CONTINUOUS
 62
       7
  5
76
 10
-37.32572641
 20
27.51874368
 30
0.0
 11
-108.30905975
 21
27.51874368
 31
0.0
  0
LINE
  8
0
  6
CONTINUOUS
 62
       7
  5
77
 10
-91.24239308
 20
39.01874368
 30
0.0
 11
-107.80905975
 21
39.01874368
 31
0.0
  0
LINE
  8
0
  6
CENTER
 62
       2
  5
78
 10
-29.91867266
 20
57.01874368
 30
0.0
 11
-113.60250371
 21
57.01874368
 31
0.0
  0
LINE
  8
0
  6
CONTINUOUS
 62
       7
  5
79
 10
-109.30905975
 20
71.51874368
 30
0.0
 11
-109.30905975
 21
28.51874368
 31
0.0
  0
LINE
  8
0
  6
CONTINUOUS
 62
       7
  5
7A
 10
-36.32572641
 20
28.51874368
 30
0.0
 11
-109.30905975
 21
28.51874368
 31
0.0
  0
LINE
  8
0
  6
CONTINUOUS
 62
       7
  5
7B
 10
-44.22572641
 20
70.51874368
 30
0.0
 11
-56.27572641
 21
70.51874368
 31
0.0
  0
LINE
  8
0
  6
CONTINUOUS
 62
       7
  5
7C
 10
-44.05905975
 20
43.51874368
 30
0.0
 11
-54.77572641
 21
43.51874368
 31
0.0
  0
LINE
  8
0
  6
CONTINUOUS
 62
       7
  5
7D
 10
-100.92572641
 20
43.51874368
 30
0.0
 11
-89.77572641
 21
43.51874368
 31
0.0
  0
LINE
  8
0
  6
CONTINUOUS
 62
       7
  5
7E
 10
-101.10905975
 20
70.51874368
 30
0.0
 11
-86.47572641
 21
70.51874368
 31
0.0
  0
LINE
  8
0
  6
CONTINUOUS
 62
       7
  5
7F
 10
-50.75905975
 20
65.68541035
 30
0.0
 11
-54.25905975
 21
65.68541035
 31
0.0
  0
LINE
  8
0
  6
CONTINUOUS
 62
       7
  5
80
 10
-51.42572641
 20
48.35207702
 30
0.0
 11
-54.94239308
 21
48.35207702
 31
0.0
  0
LINE
  8
0
  6
CONTINUOUS
 62
       7
  5
81
 10
-94.75905975
 20
48.35207702
 30
0.0
 11
-92.27572641
 21
48.35207702
 31
0.0
  0
LINE
  8
0
  6
CONTINUOUS
 62
       7
  5
82
 10
-94.75905975
 20
65.68541035
 30
0.0
 11
-92.10905975
 21
65.68541035
 31
0.0
  0
LINE
  8
0
  6
DASHED
 62
       2
  5
83
 10
-102.90905975
 20
66.31874368
 30
0.0
 11
-109.30905975
 21
66.31874368
 31
0.0
  0
LINE
  8
0
  6
DASHED
 62
       2
  5
84
 10
-103.45905975
 20
67.33541035
 30
0.0
 11
-109.30905975
 21
67.63541035
 31
0.0
  0
LINE
  8
0
  6
DASHED
 62
       2
  5
85
 10
-102.70905975
 20
47.71874368
 30
0.0
 11
-109.30905975
 21
47.71874368
 31
0.0
  0
LINE
  8
0
  6
DASHED
 62
       2
  5
86
 10
-102.50905975
 20
46.75207702
 30
0.0
 11
-109.30905975
 21
46.40207702
 31
0.0
  0
LINE
  8
0
  6
CONTINUOUS
 62
       7
  5
87
 10
-106.30905975
 20
85.51874368
 30
0.0
 11
-106.30905975
 21
74.51874368
 31
0.0
  0
LINE
  8
0
  6
CONTINUOUS
 62
       7
  5
88
 10
-106.30905975
 20
85.51874368
 30
0.0
 11
-105.30905975
 21
86.51874368
 31
0.0
  0
LINE
  8
0
  6
CONTINUOUS
 62
       7
  5
89
 10
-109.30905975
 20
28.51874368
 30
0.0
 11
-108.30905975
 21
27.51874368
 31
0.0
  0
LINE
  8
0
  6
CONTINUOUS
 62
       7
  5
8A
 10
-93.30905975
 20
37.51874368
 30
0.0
 11
-93.30905975
 21
28.51874368
 31
0.0
  0
LINE
  8
0
  6
CONTINUOUS
 62
       7
  5
8B
 10
-36.32572641
 20
71.51874368
 30
0.0
 11
-36.32572641
 21
28.51874368
 31
0.0
  0
LINE
  8
0
  6
DASHED
 62
       2
  5
8C
 10
-42.17572641
 20
67.33541035
 30
0.0
 11
-36.32572641
 21
67.63541035
 31
0.0
  0
LINE
  8
0
  6
DASHED
 62
       2
  5
8D
 10
-42.72572641
 20
66.31874368
 30
0.0
 11
-36.32572641
 21
66.31874368
 31
0.0
  0
LINE
  8
0
  6
DASHED
 62
       2
  5
8E
 10
-42.92572641
 20
47.71874368
 30
0.0
 11
-36.32572641
 21
47.71874368
 31
0.0
  0
LINE
  8
0
  6
CONTINUOUS
 62
       7
  5
8F
 10
-54.39239308
 20
39.01874368
 30
0.0
 11
-37.82572641
 21
39.01874368
 31
0.0
  0
LINE
  8
0
  6
CONTINUOUS
 62
       7
  5
90
 10
-52.32572641
 20
37.51874368
 30
0.0
 11
-52.32572641
 21
28.51874368
 31
0.0
  0
LINE
  8
0
  6
DASHED
 62
       2
  5
91
 10
-43.12572641
 20
46.75207702
 30
0.0
 11
-36.32572641
 21
46.40207702
 31
0.0
  0
LINE
  8
0
  6
CONTINUOUS
 62
       7
  5
92
 10
-36.32572641
 20
28.51874368
 30
0.0
 11
-37.32572641
 21
27.51874368
 31
0.0
  0
LINE
  8
0
  6
CONTINUOUS
 62
       7
  5
93
 10
100.65760692
 20
98.21874368
 30
0.0
 11
83.67427359
 21
98.21874368
 31
0.0
  0
LINE
  8
0
  6
CONTINUOUS
 62
       7
  5
94
 10
82.67427359
 20
90.21874368
 30
0.0
 11
82.67427359
 21
88.71874368
 31
0.0
  0
LINE
  8
0
  6
CONTINUOUS
 62
       7
  5
95
 10
101.65760692
 20
90.21874368
 30
0.0
 11
101.65760692
 21
88.71874368
 31
0.0
  0
LINE
  8
0
  6
CONTINUOUS
 62
       7
  5
96
 10
-53.82572641
 20
88.71874368
 30
0.0
 11
-91.80905975
 21
88.71874368
 31
0.0
  0
LINE
  8
0
  6
CONTINUOUS
 62
       7
  5
97
 10
-53.82572641
 20
88.71874368
 30
0.0
 11
-53.82572641
 21
86.51874368
 31
0.0
  0
LINE
  8
0
  6
CONTINUOUS
 62
       7
  5
98
 10
-91.80905975
 20
88.71874368
 30
0.0
 11
-91.80905975
 21
86.51874368
 31
0.0
  0
LINE
  8
0
  6
CONTINUOUS
 62
       7
  5
99
 10
101.65760692
 20
90.21874368
 30
0.0
 11
100.65760692
 21
90.21874368
 31
0.0
  0
LINE
  8
0
  6
CONTINUOUS
 62
       7
  5
9A
 10
100.65760692
 20
98.21874368
 30
0.0
 11
100.65760692
 21
90.21874368
 31
0.0
  0
LINE
  8
0
  6
CONTINUOUS
 62
       7
  5
9B
 10
83.67427359
 20
98.21874368
 30
0.0
 11
83.67427359
 21
90.21874368
 31
0.0
  0
LINE
  8
0
  6
CONTINUOUS
 62
       7
  5
9C
 10
83.67427359
 20
90.21874368
 30
0.0
 11
82.67427359
 21
90.21874368
 31
0.0
  0
LINE
  8
0
  6
DASHED
 62
       2
  5
9D
 10
96.15760692
 20
98.21874368
 30
0.0
 11
96.15760692
 21
92.61874368
 31
0.0
  0
LINE
  8
0
  6
DASHED
 62
       2
  5
9E
 10
96.85760692
 20
92.41874368
 30
0.0
 11
97.15760692
 21
98.21874368
 31
0.0
  0
LINE
  8
0
  6
CENTER
 62
       2
  5
9F
 10
92.17427359
 20
104.26166544
 30
0.0
 11
92.17427359
 21
12.22666953
 31
0.0
  0
LINE
  8
0
  6
CENTER
 62
       2
  5
A0
 10
-72.80905975
 20
-32.54792298
 30
0.0
 11
-72.80905975
 21
-112.69368883
 31
0.0
  0
ARC
  8
0
  6
CONTINUOUS
 62
       7
  5
A1
 10
120.68260333
 20
57.01874368
 30
0.0
 40
9.50032382
 50
114.18189445
 51
245.81810555
  0
ARC
  8
0
  6
CONTINUOUS
 62
       7
  5
A2
 10
92.18497004
 20
57.01006063
 30
0.0
 40
15.99498546
 50
326.94378696
 51
49.02064847
  0
ARC
  8
0
  6
CONTINUOUS
 62
       7
  5
A3
 10
57.17430691
 20
71.51871036
 30
0.0
 40
1.50003332
 50
90.00127274
 51
179.99872726
  0
ARC
  8
0
  6
CONTINUOUS
 62
       7
  5
A4
 10
57.18259929
 20
42.52706939
 30
0.0
 40
1.50834868
 50
180.31625985
 51
269.68374015
  0
ARC
  8
0
  6
CONTINUOUS
 62
       7
  5
A5
 10
57.17425805
 20
74.51875922
 30
0.0
 40
1.50001553
 50
270.00059332
 51
359.99940668
  0
ARC
  8
0
  6
CONTINUOUS
 62
       7
  5
A6
 10
57.18260946
 20
39.52707956
 30
0.0
 40
1.49168742
 50
359.67981695
 51
90.32018305
  0
ARC
  8
0
  6
CONTINUOUS
 62
       7
  5
A7
 10
54.67430185
 20
37.51871542
 30
0.0
 40
1.50002826
 50
90.00107955
 51
179.99892045
  0
ARC
  8
0
  6
CONTINUOUS
 62
       7
  5
A8
 10
129.68261201
 20
37.5270821
 30
0.0
 40
1.49168489
 50
359.67971872
 51
90.32028128
  0
ARC
  8
0
  6
CONTINUOUS
 62
       7
  5
A9
 10
73.73578564
 20
45.01279621
 30
0.0
 40
5.99405474
 50
270.04927177
 51
33.09143215
  0
ARC
  8
0
  6
CONTINUOUS
 62
       7
  5
AA
 10
110.62562029
 20
45.01975752
 30
0.0
 40
6.00104087
 50
147.03128152
 51
269.82801455
  0
ARC
  8
0
  6
CONTINUOUS
 62
       7
  5
AB
 10
115.9778102
 20
70.52222317
 30
0.0
 40
4.90468539
 50
279.54292019
 51
351.16297371
  0
ARC
  8
0
  6
CONTINUOUS
 62
       7
  5
AC
 10
120.77951183
 20
75.42339342
 30
0.0
 40
4.89476397
 50
279.93813775
 51
359.94557234
  0
ARC
  8
0
  6
CONTINUOUS
 62
       7
  5
AD
 10
121.81384902
 20
69.61941793
 30
0.0
 40
1.00077855
 50
100.91940202
 51
171.41887664
  0
ARC
  8
0
  6
CONTINUOUS
 62
       7
  5
AE
 10
115.98613908
 20
43.52349109
 30
0.0
 40
4.89519632
 50
8.75685384
 51
80.53725227
  0
ARC
  8
0
  6
CONTINUOUS
 62
       7
  5
AF
 10
120.77866046
 20
38.63138136
 30
0.0
 40
4.89429955
 50
4.53945701
 51
80.05079102
  0
ARC
  8
0
  6
CONTINUOUS
 62
       7
  5
B0
 10
121.81225201
 20
44.43638921
 30
0.0
 40
1.00210099
 50
189.63052632
 51
259.18815925
  0
ARC
  8
0
  6
CONTINUOUS
 62
       7
  5
B1
 10
117.67577412
 20
57.02136678
 30
0.0
 40
9.49513481
 50
114.15078541
 51
145.60288352
  0
ARC
  8
0
  6
CONTINUOUS
 62
       7
  5
B2
 10
117.68396708
 20
57.02592731
 30
0.0
 40
9.50743586
 50
214.41798915
 51
245.82834192
  0
ARC
  8
0
  6
CONTINUOUS
 62
       7
  5
B3
 10
63.58347762
 20
75.42662179
 30
0.0
 40
4.9090929
 50
217.54039434
 51
268.72533549
  0
ARC
  8
0
  6
CONTINUOUS
 62
       7
  5
B4
 10
68.38906947
 20
70.52050889
 30
0.0
 40
4.90606847
 50
188.81425496
 51
260.24262594
  0
ARC
  8
0
  6
CONTINUOUS
 62
       7
  5
B5
 10
63.68299158
 20
57.01713529
 30
0.0
 40
9.50093901
 50
300.75129293
 51
63.71105629
  0
ARC
  8
0
  6
CONTINUOUS
 62
       7
  5
B6
 10
68.38073775
 20
43.52517418
 30
0.0
 40
4.89658405
 50
99.67754599
 51
171.26557312
  0
ARC
  8
0
  6
CONTINUOUS
 62
       7
  5
B7
 10
63.5767747
 20
38.62409656
 30
0.0
 40
4.89572027
 50
91.19968258
 51
142.5345876
  0
ARC
  8
0
  6
CONTINUOUS
 62
       7
  5
B8
 10
-44.82588806
 20
-41.19472269
 30
0.0
 40
8.00016228
 50
359.97708002
 51
135.60622018
  0
ARC
  8
0
  6
CONTINUOUS
 62
       7
  5
B9
 10
-72.81739308
 20
-72.19819357
 30
0.0
 40
33.50077791
 50
76.19892522
 51
103.80107478
  0
ARC
  8
0
  6
CONTINUOUS
 62
       7
  5
BA
 10
-61.25145449
 20
-25.10151332
 30
0.0
 40
14.99528633
 50
256.21025136
 51
315.57455167
  0
ARC
  8
0
  6
CONTINUOUS
 62
       7
  5
BB
 10
-58.32169707
 20
-37.19389364
 30
0.0
 40
1.49597608
 50
359.84567629
 51
90.15432371
  0
ARC
  8
0
  6
CONTINUOUS
 62
       7
  5
BC
 10
-87.31308766
 20
-37.19389507
 30
0.0
 40
1.49597751
 50
89.84573107
 51
180.15426893
  0
CIRCLE
  8
0
  6
CONTINUOUS
 62
       7
  5
BD
 10
-44.81739054
 20
-41.19818976
 30
0.0
 40
4.49999968
  0
ARC
  8
0
  6
CONTINUOUS
 62
       7
  5
BE
 10
-100.80889701
 20
-41.19472535
 30
0.0
 40
8.00016337
 50
44.39379892
 51
180.02290087
  0
CIRCLE
  8
0
  6
CONTINUOUS
 62
       7
  5
BF
 10
-100.81738799
 20
-41.19818976
 30
0.0
 40
4.49999968
  0
ARC
  8
0
  6
CONTINUOUS
 62
       7
  5
C0
 10
-44.82568976
 20
-103.20157332
 30
0.0
 40
7.99998915
 50
224.39048319
 51
0.14551014
  0
ARC
  8
0
  6
CONTINUOUS
 62
       7
  5
C1
 10
-61.26731496
 20
-119.29033679
 30
0.0
 40
15.00382273
 50
44.37215499
 51
103.71939385
  0
CIRCLE
  8
0
  6
CONTINUOUS
 62
       7
  5
C2
 10
-44.81739371
 20
-103.19817832
 30
0.0
 40
4.49999968
  0
ARC
  8
0
  6
CONTINUOUS
 62
       7
  5
C3
 10
-100.80907975
 20
-103.20156821
 30
0.0
 40
7.99998083
 50
179.97389295
 51
315.60940725
  0
ARC
  8
0
  6
CONTINUOUS
 62
       7
  5
C4
 10
-84.36747194
 20
-119.29033419
 30
0.0
 40
15.00382039
 50
76.28060106
 51
135.6278501
  0
CIRCLE
  8
0
  6
CONTINUOUS
 62
       7
  5
C5
 10
-100.81738799
 20
-103.19817832
 30
0.0
 40
4.49999968
  0
ARC
  8
0
  6
CONTINUOUS
 62
       7
  5
C6
 10
-84.3833311
 20
-25.10151131
 30
0.0
 40
14.99528814
 50
224.42545228
 51
283.78974469
  0
ARC
  8
0
  6
CONTINUOUS
 62
       7
  5
C7
 10
-72.81739308
 20
-72.19819357
 30
0.0
 40
33.48406711
 50
256.19190108
 51
283.80809892
  0
CIRCLE
  8
0
  6
CONTINUOUS
 62
       7
  5
C8
 10
-72.81739403
 20
-72.19819357
 30
0.0
 40
28.70000203
  0
CIRCLE
  8
0
  6
CONTINUOUS
 62
       7
  5
C9
 10
-81.81739658
 20
-97.76007305
 30
0.0
 40
1.25
  0
ARC
  8
0
  6
CONTINUOUS
 62
       7
  5
CA
 10
-81.81279774
 20
-97.76250412
 30
0.0
 40
3.39857377
 50
315.81445646
 51
168.43666154
  0
ARC
  8
0
  6
CONTINUOUS
 62
       7
  5
CB
 10
-72.81739308
 20
-73.45488201
 30
0.0
 40
26.64791151
 50
297.54937273
 51
242.45062727
  0
ARC
  8
0
  6
CONTINUOUS
 62
       7
  5
CC
 10
-63.82198987
 20
-97.76250136
 30
0.0
 40
3.39857465
 50
11.563288
 51
224.18559399
  0
CIRCLE
  8
0
  6
CONTINUOUS
 62
       7
  5
CD
 10
-63.81739626
 20
-97.76007305
 30
0.0
 40
1.25
  0
ARC
  8
0
  6
CONTINUOUS
 62
       7
  5
CE
 10
-44.3171998
 20
57.02212566
 30
0.0
 40
9.50285751
 50
127.42571216
 51
237.00311908
  0
CIRCLE
  8
0
  6
CONTINUOUS
 62
       7
  5
CF
 10
-72.81739403
 20
57.02707193
 30
0.0
 40
16.00000064
  0
ARC
  8
0
  6
CONTINUOUS
 62
       7
  5
D0
 10
-107.81738291
 20
71.52706684
 30
0.0
 40
1.49170006
 50
89.68030808
 51
180.31969192
  0
ARC
  8
0
  6
CONTINUOUS
 62
       7
  5
D1
 10
-91.26042759
 20
45.01976896
 30
0.0
 40
6.00105237
 50
270.17218691
 51
32.96851702
  0
ARC
  8
0
  6
CONTINUOUS
 62
       7
  5
D2
 10
-54.37436005
 20
45.01976816
 30
0.0
 40
6.00105157
 50
147.03146892
 51
269.82782715
  0
CIRCLE
  8
0
  6
CONTINUOUS
 62
       2
  5
D3
 10
-72.81739403
 20
57.02707193
 30
0.0
 40
10.50000032
  0
CIRCLE
  8
0
  6
CONTINUOUS
 62
       7
  5
D4
 10
-72.81739403
 20
57.02707193
 30
0.0
 40
9.29999987
  0
ARC
  8
0
  6
CONTINUOUS
 62
       7
  5
D5
 10
-49.02245358
 20
70.52054602
 30
0.0
 40
4.90468867
 50
293.38524066
 51
351.18280665
  0
ARC
  8
0
  6
CONTINUOUS
 62
       7
  5
D6
 10
-44.22048445
 20
75.42339029
 30
0.0
 40
4.89476025
 50
279.93810116
 51
359.94560894
  0
ARC
  8
0
  6
CONTINUOUS
 62
       7
  5
D7
 10
-49.01010795
 20
43.51686885
 30
0.0
 40
4.89250044
 50
8.8401937
 51
62.38627155
  0
ARC
  8
0
  6
CONTINUOUS
 62
       7
  5
D8
 10
-44.22133606
 20
38.63138453
 30
0.0
 40
4.89429584
 50
4.53942332
 51
80.0508247
  0
ARC
  8
0
  6
CONTINUOUS
 62
       7
  5
D9
 10
-101.40324923
 20
75.41992328
 30
0.0
 40
4.90232162
 50
217.50248399
 51
268.76324583
  0
ARC
  8
0
  6
CONTINUOUS
 62
       7
  5
DA
 10
-96.61258607
 20
70.52223333
 30
0.0
 40
4.90469711
 50
188.83712511
 51
260.45698099
  0
ARC
  8
0
  6
CONTINUOUS
 62
       7
  5
DB
 10
-101.3169835
 20
57.01648691
 30
0.0
 40
9.50890219
 50
300.83946608
 51
63.62288314
  0
ARC
  8
0
  6
CONTINUOUS
 62
       7
  5
DC
 10
-96.62091493
 20
43.52348091
 30
0.0
 40
4.89520805
 50
99.46284713
 51
171.24304677
  0
ARC
  8
0
  6
CONTINUOUS
 62
       7
  5
DD
 10
-101.40996144
 20
38.6308134
 30
0.0
 40
4.88893474
 50
91.16146032
 51
142.57280986
  0
ARC
  8
0
  6
CONTINUOUS
 62
       7
  5
DE
 10
-107.81738545
 20
74.52706939
 30
0.0
 40
1.50834868
 50
270.31625984
 51
359.68374016
  0
ARC
  8
0
  6
CONTINUOUS
 62
       7
  5
DF
 10
-94.80908401
 20
37.51871941
 30
0.0
 40
1.50002427
 50
0.00092693
 51
89.99907307
  0
ARC
  8
0
  6
CONTINUOUS
 62
       7
  5
E0
 10
-107.81738799
 20
37.52707193
 30
0.0
 40
1.491695
 50
89.68011163
 51
180.31988837
  0
ARC
  8
0
  6
CONTINUOUS
 62
       7
  5
E1
 10
-37.81740579
 20
71.5270643
 30
0.0
 40
1.49170259
 50
359.6804063
 51
90.3195937
  0
ARC
  8
0
  6
CONTINUOUS
 62
       7
  5
E2
 10
-37.81740325
 20
74.52706684
 30
0.0
 40
1.50834612
 50
180.31616378
 51
269.68383622
  0
ARC
  8
0
  6
CONTINUOUS
 62
       7
  5
E3
 10
-37.81740071
 20
37.52706939
 30
0.0
 40
1.49169753
 50
359.68020985
 51
90.31979015
  0
ARC
  8
0
  6
CONTINUOUS
 62
       7
  5
E4
 10
-50.8257039
 20
37.51872117
 30
0.0
 40
1.50002251
 50
90.00085977
 51
179.99914023
  0
ARC
  8
0
  6
CONTINUOUS
 62
       7
  5
E5
 10
92.18020738
 20
57.0082946
 30
0.0
 40
16.00796404
 50
49.01191983
 51
326.9583921
  0
CIRCLE
  8
0
  6
CONTINUOUS
 62
       2
  5
E6
 10
92.1659393
 20
57.02707193
 30
0.0
 40
10.50000032
  0
CIRCLE
  8
0
  6
CONTINUOUS
 62
       7
  5
E7
 10
92.1659393
 20
57.02707193
 30
0.0
 40
9.29999987
  0
LINE
  8
0
  6
CENTER
 62
       2
  5
E8
 10
-72.80905975
 20
10.76505306
 30
0.0
 11
-72.80905975
 21
104.69306
 31
0.0
  0
LINE
  8
0
  6
CONTINUOUS
 62
       7
  5
E9
 10
29.44481378
 20
48.29339157
 30
0.0
 11
29.44481378
 21
65.74409579
 31
0.0
  0
LINE
  8
0
  6
CONTINUOUS
 62
       7
  5
EA
 10
17.2757997
 20
47.48212397
 30
0.0
 11
17.2757997
 21
66.5553634
 31
0.0
  0
LINE
  8
0
  6
CONTINUOUS
 62
       7
  5
EB
 10
17.98565885
 20
46.51874368
 30
0.0
 11
17.98565885
 21
67.51874368
 31
0.0
  0
LINE
  8
0
  6
CONTINUOUS
 62
       7
  5
EC
 10
28.02509547
 20
47.04268735
 30
0.0
 11
28.02509547
 21
66.99480002
 31
0.0
  0
LINE
  8
0
  6
CONTINUOUS
 62
       7
  5
ED
 10
28.32932082
 20
66.97789861
 30
0.0
 11
29.44481378
 21
65.74409579
 31
0.0
  0
LINE
  8
0
  6
CONTINUOUS
 62
       7
  5
EE
 10
17.98565885
 20
67.51874368
 30
0.0
 11
28.32932082
 21
66.97789861
 31
0.0
  0
LINE
  8
0
  6
CONTINUOUS
 62
       2
  5
EF
 10
17.2757997
 20
66.5553634
 30
0.0
 11
29.44481378
 21
65.91310988
 31
0.0
  0
LINE
  8
0
  6
CONTINUOUS
 62
       7
  5
F0
 10
17.2757997
 20
66.30184227
 30
0.0
 11
17.98565885
 21
67.51874368
 31
0.0
  0
LINE
  8
0
  6
CONTINUOUS
 62
       7
  5
F1
 10
17.98565885
 20
46.51874368
 30
0.0
 11
28.32932082
 21
47.05958875
 31
0.0
  0
LINE
  8
0
  6
CONTINUOUS
 62
       7
  5
F2
 10
17.2757997
 20
47.73564509
 30
0.0
 11
17.98565885
 21
46.51874368
 31
0.0
  0
LINE
  8
0
  6
CONTINUOUS
 62
       2
  5
F3
 10
17.2757997
 20
47.48212397
 30
0.0
 11
29.44481378
 21
48.12437749
 31
0.0
  0
LINE
  8
0
  6
CONTINUOUS
 62
       7
  5
F4
 10
28.32932082
 20
47.05958875
 30
0.0
 11
29.44481378
 21
48.29339157
 31
0.0
  0
LINE
  8
0
  6
CONTINUOUS
 62
       7
  5
F5
 10
-64.30905975
 20
98.21874368
 30
0.0
 11
-63.30905975
 21
97.21874368
 31
0.0
  0
LINE
  8
0
  6
CONTINUOUS
 62
       7
  5
F6
 10
-81.30905975
 20
98.21874368
 30
0.0
 11
-82.30905975
 21
97.21874368
 31
0.0
  0
LINE
  8
0
  6
CONTINUOUS
 62
       7
  5
F7
 10
-82.30905975
 20
97.21874368
 30
0.0
 11
-77.05905975
 21
97.21874368
 31
0.0
  0
LINE
  8
0
  6
CONTINUOUS
 62
       7
  5
F8
 10
-63.30905975
 20
97.21874368
 30
0.0
 11
-68.55905975
 21
97.21874368
 31
0.0
  0
LINE
  8
0
  6
CONTINUOUS
 62
       7
  5
F9
 10
-69.55905975
 20
98.21874368
 30
0.0
 11
-68.55905975
 21
97.21874368
 31
0.0
  0
LINE
  8
0
  6
CONTINUOUS
 62
       7
  5
FA
 10
-76.05905975
 20
98.21874368
 30
0.0
 11
-77.05905975
 21
97.21874368
 31
0.0
  0
LINE
  8
0
  6
CONTINUOUS
 62
       7
  5
FB
 10
-53.82572641
 20
25.31874368
 30
0.0
 11
-53.82572641
 21
27.51874368
 31
0.0
  0
LINE
  8
0
  6
CONTINUOUS
 62
       7
  5
FC
 10
-91.80905975
 20
25.31874368
 30
0.0
 11
-91.80905975
 21
27.51874368
 31
0.0
  0
LINE
  8
0
  6
CONTINUOUS
 62
       7
  5
FD
 10
-76.05905975
 20
15.81874368
 30
0.0
 11
-77.05905975
 21
16.81874368
 31
0.0
  0
LINE
  8
0
  6
CONTINUOUS
 62
       7
  5
FE
 10
-69.55905975
 20
15.81874368
 30
0.0
 11
-68.55905975
 21
16.81874368
 31
0.0
  0
LINE
  8
0
  6
CONTINUOUS
 62
       7
  5
FF
 10
-63.30905975
 20
16.81874368
 30
0.0
 11
-68.55905975
 21
16.81874368
 31
0.0
  0
LINE
  8
0
  6
CONTINUOUS
 62
       7
  5
100
 10
-82.30905975
 20
16.81874368
 30
0.0
 11
-77.05905975
 21
16.81874368
 31
0.0
  0
LINE
  8
0
  6
CONTINUOUS
 62
       7
  5
101
 10
-81.30905975
 20
15.81874368
 30
0.0
 11
-82.30905975
 21
16.81874368
 31
0.0
  0
LINE
  8
0
  6
CONTINUOUS
 62
       7
  5
102
 10
-64.30905975
 20
15.81874368
 30
0.0
 11
-63.30905975
 21
16.81874368
 31
0.0
  0
LINE
  8
0
  6
CONTINUOUS
 62
       7
  5
103
 10
-53.82572641
 20
25.31874368
 30
0.0
 11
-91.80905975
 21
25.31874368
 31
0.0
  0
LINE
  8
0
  6
CONTINUOUS
 62
       7
  5
104
 10
-68.55905975
 20
23.81874368
 30
0.0
 11
-76.54390823
 21
16.30359217
 31
0.0
  0
LINE
  8
0
  6
CONTINUOUS
 62
       7
  5
105
 10
-68.55905975
 20
23.81874368
 30
0.0
 11
-77.05905975
 21
23.81874368
 31
0.0
  0
LINE
  8
0
  6
CONTINUOUS
 62
       7
  5
106
 10
-77.05905975
 20
16.81874368
 30
0.0
 11
-77.05905975
 21
23.81874368
 31
0.0
  0
LINE
  8
0
  6
CONTINUOUS
 62
       7
  5
107
 10
-68.55905975
 20
16.81874368
 30
0.0
 11
-68.55905975
 21
23.81874368
 31
0.0
  0
LINE
  8
0
  6
CONTINUOUS
 62
       7
  5
108
 10
-63.30905975
 20
16.81874368
 30
0.0
 11
-63.30905975
 21
25.31874368
 31
0.0
  0
LINE
  8
0
  6
CONTINUOUS
 62
       7
  5
109
 10
-82.30905975
 20
16.81874368
 30
0.0
 11
-82.30905975
 21
25.31874368
 31
0.0
  0
LINE
  8
0
  6
CONTINUOUS
 62
       7
  5
10A
 10
-64.30905975
 20
15.81874368
 30
0.0
 11
-81.30905975
 21
15.81874368
 31
0.0
  0
LINE
  8
0
  6
CONTINUOUS
 62
       7
  5
10B
 10
-77.05905975
 20
23.81874368
 30
0.0
 11
-69.07421126
 21
16.30359217
 31
0.0
  0
LINE
  8
0
  6
CONTINUOUS
 62
       7
  5
10C
 10
111.17427359
 20
25.31874368
 30
0.0
 11
111.17427359
 21
27.51874368
 31
0.0
  0
LINE
  8
0
  6
CONTINUOUS
 62
       7
  5
10D
 10
73.17427359
 20
25.31874368
 30
0.0
 11
73.17427359
 21
27.51874368
 31
0.0
  0
LINE
  8
0
  6
DASHED
 62
       2
  5
10E
 10
87.47427359
 20
21.61874368
 30
0.0
 11
87.17427359
 21
15.81874368
 31
0.0
  0
LINE
  8
0
  6
DASHED
 62
       2
  5
10F
 10
88.17427359
 20
15.81874368
 30
0.0
 11
88.17427359
 21
21.41874368
 31
0.0
  0
LINE
  8
0
  6
DASHED
 62
       2
  5
110
 10
96.85760692
 20
21.61874368
 30
0.0
 11
97.15760692
 21
15.81874368
 31
0.0
  0
LINE
  8
0
  6
DASHED
 62
       2
  5
111
 10
96.15760692
 20
15.81874368
 30
0.0
 11
96.15760692
 21
21.41874368
 31
0.0
  0
LINE
  8
0
  6
CONTINUOUS
 62
       7
  5
112
 10
83.67427359
 20
23.81874368
 30
0.0
 11
82.67427359
 21
23.81874368
 31
0.0
  0
LINE
  8
0
  6
CONTINUOUS
 62
       7
  5
113
 10
83.67427359
 20
15.81874368
 30
0.0
 11
83.67427359
 21
23.81874368
 31
0.0
  0
LINE
  8
0
  6
CONTINUOUS
 62
       7
  5
114
 10
100.65760692
 20
15.81874368
 30
0.0
 11
100.65760692
 21
23.81874368
 31
0.0
  0
LINE
  8
0
  6
CONTINUOUS
 62
       7
  5
115
 10
101.65760692
 20
23.81874368
 30
0.0
 11
100.65760692
 21
23.81874368
 31
0.0
  0
LINE
  8
0
  6
CONTINUOUS
 62
       7
  5
116
 10
101.65760692
 20
23.81874368
 30
0.0
 11
101.65760692
 21
25.31874368
 31
0.0
  0
LINE
  8
0
  6
CONTINUOUS
 62
       7
  5
117
 10
82.67427359
 20
23.81874368
 30
0.0
 11
82.67427359
 21
25.31874368
 31
0.0
  0
LINE
  8
0
  6
CONTINUOUS
 62
       7
  5
118
 10
100.65760692
 20
15.81874368
 30
0.0
 11
83.67427359
 21
15.81874368
 31
0.0
  0
LINE
  8
0
  6
DASHED
 62
       2
  5
119
 10
96.87427359
 20
21.61874368
 30
0.0
 11
97.17427359
 21
15.81874368
 31
0.0
  0
LINE
  8
0
  6
DASHED
 62
       2
  5
11A
 10
96.17427359
 20
15.81874368
 30
0.0
 11
96.17427359
 21
21.41874368
 31
0.0
  0
LINE
  8
0
  6
CONTINUOUS
 62
       7
  5
11B
 10
111.17427359
 20
25.31874368
 30
0.0
 11
73.17427359
 21
25.31874368
 31
0.0
  0
CIRCLE
  8
0
  6
CONTINUOUS
 62
       7
  5
11C
 10
-72.80905975
 20
-72.19792298
 30
0.0
 40
19.0
  0
CIRCLE
  8
0
  6
CONTINUOUS
 62
       7
  5
11D
 10
-72.80905975
 20
-72.19792298
 30
0.0
 40
9.5
  0
CIRCLE
  8
0
  6
CONTINUOUS
 62
       7
  5
11E
 10
-72.80905975
 20
-72.19792298
 30
0.0
 40
8.5
  0
LINE
  8
0
  6
CONTINUOUS
 62
       7
  5
11F
 10
-77.05170043
 20
-63.69792298
 30
0.0
 11
-68.56641906
 21
-63.69792298
 31
0.0
  0
LINE
  8
0
  6
CONTINUOUS
 62
       7
  5
120
 10
-77.05170043
 20
-80.69792298
 30
0.0
 11
-68.56641906
 21
-80.69792298
 31
0.0
  0
CIRCLE
  8
0
  6
CONTINUOUS
 62
       7
  5
121
 10
-72.80905975
 20
-72.19792298
 30
0.0
 40
5.0
  0
CIRCLE
  8
0
  6
CONTINUOUS
 62
       2
  5
122
 10
-72.80905975
 20
-72.19792298
 30
0.0
 40
4.2
  0
TEXT
  8
0
  6
CONTINUOUS
 62
       7
  5
123
 10
-185.675
 20
105.3500061
 30
0.0
 40
4.5
  1
MODEL:500A2
 41
1.1
  7
MX_NOTE_STANDARD
 11
-185.675
 21
107.6000061
 31
0.0
 73
       2
  0
LINE
  8
0
  6
CONTINUOUS
 62
       7
  5
124
 10
-194.25
 20
132.6000061
 30
0.0
 11
194.80000305
 21
132.6000061
 31
0.0
  0
LINE
  8
0
  6
CONTINUOUS
 62
       7
  5
125
 10
194.80000305
 20
132.6000061
 30
0.0
 11
194.80000305
 21
-133.5
 31
0.0
  0
LINE
  8
0
  6
CONTINUOUS
 62
       7
  5
126
 10
-194.25
 20
132.6000061
 30
0.0
 11
-194.25
 21
-133.5
 31
0.0
  0
LINE
  8
0
  6
CONTINUOUS
 62
       7
  5
127
 10
-194.25
 20
-133.5
 30
0.0
 11
194.80000305
 21
-133.5
 31
0.0
  0
ENDSEC
  0
EOF
