  0
SECTION
  2
HEADER
  0
ENDSEC
  0
SECTION
  2
TABLES
  0
TABLE
  2
LTYPE
 70
     4
  0
LTYPE
  2
CONTINUOUS
 70
    64
  3
Solid line
 72
    65
 73
     0
 40
0.000000
  0
LTYPE
  2
DASHED
 70
    64
  3
__ __ __ __ __ __ __ __ __ __ __ __ __ __ __
 72
    65
 73
     2
 40
3.500000
 49
2.000000
 49
-1.500000
  0
LTYPE
  2
CENTER
 70
    64
  3
____ _ ____ _ ____ _ ____ _ ____ _ ____ _ ____
 72
    65
 73
     4
 40
17.500000
 49
13.000000
 49
-1.500000
 49
1.500000
 49
-1.500000
  0
LTYPE
  2
PHANTOM
 70
    64
  3
_____ _ _ _____ _ _ _____ _ _ _____ _ _ ____  
 72
    65
 73
     6
 40
15.500000
 49
8.000000
 49
-1.500000
 49
1.500000
 49
-1.500000
 49
1.500000
 49
-1.500000
  0
LTYPE
  2
DASHED1
 70
    64
  3
__ __ __ __ __ __ __ __ __ __ __ __ __ __ __
 72
    65
 73
     2
 40
1.500000
 49
1.000000
 49
-0.500000
  0
LTYPE
  2
DASHED2
 70
    64
  3
__ __ __ __ __ __ __ __ __ __ __ __ __ __ __
 72
    65
 73
     2
 40
3.500000
 49
2.500000
 49
-1.000000
  0
LTYPE
  2
DASHED3
 70
    64
  3
__ __ __ __ __ __ __ __ __ __ __ __ __ __ __
 72
    65
 73
     2
 40
6.000000
 49
4.000000
 49
-2.000000
  0
LTYPE
  2
DASHED4
 70
    64
  3
__ __ __ __ __ __ __ __ __ __ __ __ __ __ __
 72
    65
 73
     2
 40
12.000000
 49
10.000000
 49
-2.000000
  0
LTYPE
  2
DASHED5
 70
    64
  3
__ __ __ __ __ __ __ __ __ __ __ __ __ __ __
 72
    65
 73
     2
 40
17.000000
 49
15.000000
 49
-2.000000
  0
LTYPE
  2
DASHED6
 70
    64
  3
__ __ __ __ __ __ __ __ __ __ __ __ __ __ __
 72
    65
 73
     2
 40
29.000000
 49
27.000000
 49
-2.000000
  0
LTYPE
  2
PHANTOM1
 70
    64
  3
_____ _ _ _____ _ _ _____ _ _ _____ _ _ ____  
 72
    65
 73
     6
 40
31.000000
 49
25.000000
 49
-1.500000
 49
1.000000
 49
-1.000000
 49
1.000000
 49
-1.500000
  0
LTYPE
  2
PHANTOM2
 70
    64
  3
_____ _ _ _____ _ _ _____ _ _ _____ _ _ ____  
 72
    65
 73
     6
 40
36.000000
 49
27.000000
 49
-1.500000
 49
2.500000
 49
-1.000000
 49
2.500000
 49
-1.500000
  0
LTYPE
  2
PHANTOM3
 70
    64
  3
_____ _ _ _____ _ _ _____ _ _ _____ _ _ ____  
 72
    65
 73
     6
 40
78.000000
 49
64.000000
 49
-2.000000
 49
4.000000
 49
-2.000000
 49
4.000000
 49
-2.000000
  0
LTYPE
  2
CENTER1
 70
    64
  3
____ _ ____ _ ____ _ ____ _ ____ _ ____ _ ____
 72
    65
 73
     4
 40
19.000000
 49
14.000000
 49
-1.000000
 49
3.000000
 49
-1.000000
  0
LTYPE
  2
CENTER2
 70
    64
  3
____ _ ____ _ ____ _ ____ _ ____ _ ____ _ ____
 72
    65
 73
     4
 40
28.500000
 49
25.000000
 49
-1.000000
 49
1.500000
 49
-1.000000
  0
LTYPE
  2
CENTER3
 70
    64
  3
____ _ ____ _ ____ _ ____ _ ____ _ ____ _ ____
 72
    65
 73
     4
 40
31.500000
 49
27.000000
 49
-1.000000
 49
2.500000
 49
-1.000000
  0
LTYPE
  2
CENTER4
 70
    64
  3
____ _ ____ _ ____ _ ____ _ ____ _ ____ _ ____
 72
    65
 73
     4
 40
50.000000
 49
45.000000
 49
-1.000000
 49
3.000000
 49
-1.000000
  0
LTYPE
  2
CENTER5
 70
    64
  3
____ _ ____ _ ____ _ ____ _ ____ _ ____ _ ____
 72
    65
 73
     4
 40
100.000000
 49
92.000000
 49
-2.000000
 49
4.000000
 49
-2.000000
  0
LTYPE
  2
SBK1
 70
    64
  3
______ _ _ _ ______ _ _ _ ______ _ _ _ _____  
 72
    65
 73
     8
 40
60.500000
 49
45.000000
 49
-2.000000
 49
2.500000
 49
-2.000000
 49
2.500000
 49
-2.000000
 49
2.500000
 49
-2.000000
  0
LTYPE
  2
SBK2
 70
    64
  3
______ _ _ _ ______ _ _ _ ______ _ _ _ _____  
 72
    65
 73
     8
 40
84.000000
 49
64.000000
 49
-2.000000
 49
4.000000
 49
-2.000000
 49
4.000000
 49
-2.000000
 49
4.000000
 49
-2.000000
  0
LTYPE
  2
STCH
 70
    64
  3
__ __ __ __ __ __ __ __ __ __ __ __ __ __ __
 72
    65
 73
     2
 40
3.000000
 49
1.000000
 49
-2.000000
  0
LTYPE
  2
MTCH
 70
    64
  3
_____ _ _ _____ _ _ _____ _ _ _____ _ _ ____  
 72
    65
 73
     6
 40
80.000000
 49
66.000000
 49
-2.000000
 49
4.000000
 49
-2.000000
 49
4.000000
 49
-2.000000
  0
ENDTAB
  0
TABLE
  2
LAYER
 70
     1
  0
LAYER
  2
0
 70
     0
 62
     7
  6
CONTINUOUS
  0
ENDTAB
  0
TABLE
  2
STYLE
 70
     1
  0
STYLE
  2
STANDARD
 70
     0
 40
0.000000
 41
1.000000
 50
0.000000
 71
     0
 42
0.200000
  3
txt
  4
BIGFONT
  0
ENDTAB
  0
TABLE
  2
VIEW
 70
     0
  0
ENDTAB
  0
ENDSEC
  0
SECTION
  2
BLOCKS
  0
ENDSEC
  0
SECTION
  2
ENTITIES
  0
LINE
  8
0
 10
-26.500000
 20
-45.000000
 11
26.500000
 21
-45.000000
  0
LINE
  8
0
 10
-127.500000
 20
-53.000000
 11
-72.500000
 21
-53.000000
  0
LINE
  8
0
 10
45.000000
 20
105.500000
 11
45.000000
 21
76.500000
  0
LINE
  8
0
 10
-45.000000
 20
105.500000
 11
-45.000000
 21
76.500000
  0
LINE
  8
0
 10
-42.000000
 20
-46.500000
 11
-30.500000
 21
-46.500000
  0
LINE
  8
0
 10
30.500000
 20
-46.500000
 11
42.000000
 21
-46.500000
  0
LINE
  8
0
 10
73.500000
 20
-45.000000
 11
92.911278
 21
-45.000000
  0
LINE
  8
0
 10
72.500000
 20
-46.000000
 11
72.500000
 21
-53.000000
  0
LINE
  8
0
 10
127.500000
 20
-46.000000
 11
127.500000
 21
-53.000000
  0
LINE
  8
0
 10
107.000000
 20
18.000000
 11
107.000000
 21
-12.960983
  0
LINE
  8
0
 10
93.000000
 20
18.000000
 11
93.000000
 21
-12.960983
  0
LINE
  8
0
 10
114.000000
 20
-6.757511
 11
114.000000
 21
-18.500000
  0
LINE
  8
0
 10
86.000000
 20
-6.757511
 11
86.000000
 21
-18.500000
  0
LINE
  8
0
 10
120.000000
 20
-23.500000
 11
120.000000
 21
-45.000000
  0
LINE
  8
0
 10
80.000000
 20
-23.500000
 11
80.000000
 21
-45.000000
  0
LINE
  8
0
 10
86.000000
 20
-39.500000
 11
86.000000
 21
-45.000000
  0
LINE
  8
0
 10
114.000000
 20
-39.500000
 11
114.000000
 21
-45.000000
  0
LINE
  8
0
 10
107.088722
 20
-45.000000
 11
126.500000
 21
-45.000000
  0
LINE
  8
0
 10
-93.000000
 20
1.960983
 11
-93.000000
 21
-11.500000
  0
LINE
  8
0
 10
-107.000000
 20
1.960983
 11
-107.000000
 21
-11.500000
  0
LINE
  8
0
 10
-127.500000
 20
-46.000000
 11
-127.500000
 21
-53.000000
  0
LINE
  8
0
 10
-72.500000
 20
-46.000000
 11
-72.500000
 21
-53.000000
  0
LINE
  8
0
 10
-126.500000
 20
-45.000000
 11
-107.088722
 21
-45.000000
  0
LINE
  8
0
 10
-80.000000
 20
-23.500000
 11
-80.000000
 21
-45.000000
  0
LINE
  8
0
 10
-120.000000
 20
-23.500000
 11
-120.000000
 21
-45.000000
  0
LINE
  8
0
 10
-92.911278
 20
-45.000000
 11
-73.500000
 21
-45.000000
  0
LINE
  8
0
 10
-114.000000
 20
-39.500000
 11
-114.000000
 21
-44.000000
  0
LINE
  8
0
 10
-86.000000
 20
-39.500000
 11
-86.000000
 21
-44.000000
  0
LINE
  8
0
 10
-117.000000
 20
-20.500000
 11
-115.297058
 21
-20.500000
  0
LINE
  8
0
 10
-116.000000
 20
-8.500000
 11
-110.000000
 21
-8.500000
  0
LINE
  8
0
 10
-120.000000
 20
18.000000
 11
-117.500000
 21
18.000000
  0
LINE
  8
0
 10
-13.282857
 20
-20.500000
 11
13.282857
 21
-20.500000
  0
LINE
  8
0
 10
83.000000
 20
-20.500000
 11
84.702942
 21
-20.500000
  0
LINE
  8
0
 10
-17.463865
 20
-8.500000
 11
13.282857
 21
-8.500000
  0
LINE
  8
0
 10
-84.702942
 20
-20.500000
 11
-83.000000
 21
-20.500000
  0
LINE
  8
0
 10
-84.000000
 20
-10.696152
 11
-84.000000
 21
-17.843147
  0
LINE
  8
0
 10
-116.000000
 20
-10.696152
 11
-116.000000
 21
-17.843147
  0
LINE
  8
0
 10
116.000000
 20
-10.696152
 11
116.000000
 21
-17.843147
  0
LINE
  8
0
 10
84.000000
 20
-10.696152
 11
84.000000
 21
-17.843147
  0
LINE
  8
0
 10
115.297058
 20
-20.500000
 11
117.000000
 21
-20.500000
  0
LINE
  8
0
 10
84.000000
 20
-8.500000
 11
86.000000
 21
-8.500000
  0
LINE
  8
0
 10
120.000000
 20
25.000000
 11
120.000000
 21
18.000000
  0
LINE
  8
0
 10
80.000000
 20
25.000000
 11
80.000000
 21
18.000000
  0
LINE
  8
0
 10
114.000000
 20
-8.500000
 11
116.000000
 21
-8.500000
  0
LINE
  8
0
 10
80.000000
 20
18.000000
 11
120.000000
 21
18.000000
  0
LINE
  8
0
 10
72.500000
 20
-53.000000
 11
127.500000
 21
-53.000000
  0
LINE
  8
0
 10
119.000000
 20
18.000000
 11
119.000000
 21
-5.500000
  0
LINE
  8
0
 10
81.000000
 20
18.000000
 11
81.000000
 21
-5.500000
  0
LINE
  8
0
 10
121.000000
 20
25.500000
 11
121.000000
 21
20.500000
  0
LINE
  8
0
 10
79.000000
 20
25.500000
 11
79.000000
 21
20.500000
  0
LINE
  8
0
 10
-81.000000
 20
18.000000
 11
-81.000000
 21
-5.500000
  0
LINE
  8
0
 10
-119.000000
 20
18.000000
 11
-119.000000
 21
-5.500000
  0
LINE
  8
0
 10
-120.000000
 20
25.000000
 11
-120.000000
 21
18.000000
  0
LINE
  8
0
 10
-21.000000
 20
18.000000
 11
21.000000
 21
18.000000
  0
LINE
  8
0
 10
-79.000000
 20
25.500000
 11
-79.000000
 21
20.500000
  0
LINE
  8
0
 10
-121.000000
 20
25.500000
 11
-121.000000
 21
20.500000
  0
LINE
  8
0
 10
-82.500000
 20
18.000000
 11
-80.000000
 21
18.000000
  0
LINE
  8
0
 10
-90.000000
 20
-8.500000
 11
-84.000000
 21
-8.500000
  0
LINE
  8
0
 10
-27.500000
 20
-53.000000
 11
27.500000
 21
-53.000000
  0
LINE
  8
0
 10
-42.000000
 20
108.500000
 11
-27.500000
 21
108.500000
  0
LINE
  8
0
 10
-42.000000
 20
73.500000
 11
-27.500000
 21
73.500000
  0
LINE
  8
0
 10
-23.531372
 20
105.000000
 11
-20.490910
 21
105.000000
  0
LINE
  8
0
 10
-23.531372
 20
77.000000
 11
-20.490910
 21
77.000000
  0
LINE
  8
0
 10
-45.000000
 20
32.500000
 11
-45.000000
 21
3.500000
  0
LINE
  8
0
 10
45.000000
 20
-14.500000
 11
45.000000
 21
-43.500000
  0
LINE
  8
0
 10
-14.282857
 20
18.000000
 11
-14.282857
 21
-2.180016
  0
LINE
  8
0
 10
14.282857
 20
-5.746315
 11
14.282857
 21
-7.500000
  0
LINE
  8
0
 10
-25.500000
 20
-18.500000
 11
-14.330573
 21
-18.500000
  0
LINE
  8
0
 10
-27.500000
 20
-46.000000
 11
-27.500000
 21
-53.000000
  0
LINE
  8
0
 10
27.500000
 20
-46.000000
 11
27.500000
 21
-53.000000
  0
LINE
  8
0
 10
-23.607109
 20
118.500000
 11
23.607109
 21
118.500000
  0
LINE
  8
0
 10
-23.607107
 20
63.500000
 11
23.607107
 21
63.500000
  0
LINE
  8
0
 10
-26.863644
 20
73.500008
 11
-26.605135
 21
66.390999
  0
LINE
  8
0
 10
-26.863649
 20
108.500015
 11
-26.605139
 21
115.609024
  0
LINE
  8
0
 10
26.605139
 20
115.609024
 11
26.863649
 21
108.500015
  0
LINE
  8
0
 10
26.605135
 20
66.390999
 11
26.863644
 21
73.500008
  0
LINE
  8
0
 10
25.500000
 20
-18.500000
 11
25.500000
 21
-45.000000
  0
LINE
  8
0
 10
-42.000000
 20
-11.500000
 11
-16.833548
 21
-11.500000
  0
LINE
  8
0
 10
-25.500000
 20
-18.500000
 11
-25.500000
 21
-45.000000
  0
LINE
  8
0
 10
8.745967
 20
-18.500000
 11
13.282857
 21
-18.500000
  0
LINE
  8
0
 10
25.500000
 20
-18.500000
 11
29.888544
 21
-18.500000
  0
LINE
  8
0
 10
7.745967
 20
-9.500000
 11
7.745967
 21
-17.500000
  0
LINE
  8
0
 10
20.745455
 20
98.000000
 11
35.167294
 21
98.000000
  0
LINE
  8
0
 10
20.745455
 20
84.000000
 11
35.167294
 21
84.000000
  0
LINE
  8
0
 10
21.000000
 20
37.000000
 11
21.000000
 21
18.000000
  0
LINE
  8
0
 10
21.000006
 20
18.000008
 11
33.948376
 21
-9.767858
  0
LINE
  8
0
 10
28.522711
 20
-11.500000
 11
42.000000
 21
-11.500000
  0
LINE
  8
0
 10
-21.000000
 20
37.000000
 11
-21.000000
 21
18.000000
  0
LINE
  8
0
 10
-14.282857
 20
-21.500000
 11
-14.282857
 21
-45.000000
  0
LINE
  8
0
 10
14.282857
 20
-19.500000
 11
14.282857
 21
-45.000000
  0
LINE
  8
0
 10
-43.000000
 20
0.500000
 11
-43.000000
 21
-11.500000
  0
LINE
  8
0
 10
-42.000000
 20
0.500000
 11
-28.282856
 21
0.500000
  0
LINE
  8
0
 10
-45.000000
 20
-14.500000
 11
-45.000000
 21
-43.500000
  0
LINE
  8
0
 10
-29.588457
 20
7.500000
 11
-25.500000
 21
7.500000
  0
LINE
  8
0
 10
-25.500000
 20
28.000000
 11
-25.500000
 21
7.500000
  0
LINE
  8
0
 10
-42.000000
 20
35.500000
 11
-21.000000
 21
35.500000
  0
LINE
  8
0
 10
-127.500000
 20
34.000000
 11
-107.088722
 21
34.000000
  0
LINE
  8
0
 10
-127.500000
 20
28.000000
 11
-123.000000
 21
28.000000
  0
LINE
  8
0
 10
-21.000000
 20
34.000000
 11
21.000000
 21
34.000000
  0
LINE
  8
0
 10
-25.500000
 20
28.000000
 11
21.000000
 21
28.000000
  0
LINE
  8
0
 10
72.500000
 20
34.000000
 11
127.500000
 21
34.000000
  0
LINE
  8
0
 10
72.500000
 20
28.000000
 11
77.000000
 21
28.000000
  0
LINE
  8
0
 10
-72.500000
 20
34.000000
 11
-72.500000
 21
28.000000
  0
LINE
  8
0
 10
-127.500000
 20
34.000000
 11
-127.500000
 21
28.000000
  0
LINE
  8
0
 10
-121.000000
 20
25.500000
 11
-120.000000
 21
25.500000
  0
LINE
  8
0
 10
-121.000000
 20
20.500000
 11
-120.000000
 21
20.500000
  0
LINE
  8
0
 10
-16.000000
 20
25.500000
 11
16.000000
 21
25.500000
  0
LINE
  8
0
 10
-16.000000
 20
20.500000
 11
16.000000
 21
20.500000
  0
LINE
  8
0
 10
-80.025314
 20
20.500000
 11
-79.000000
 21
20.500000
  0
LINE
  8
0
 10
-80.196899
 20
25.500000
 11
-79.000000
 21
25.500000
  0
LINE
  8
0
 10
-80.000000
 20
18.000000
 11
-80.000000
 21
25.000000
  0
LINE
  8
0
 10
-77.000000
 20
28.000000
 11
-72.500000
 21
28.000000
  0
LINE
  8
0
 10
-92.911278
 20
34.000000
 11
-72.500000
 21
34.000000
  0
LINE
  8
0
 10
16.000000
 20
25.500000
 11
16.000000
 21
20.500000
  0
LINE
  8
0
 10
-16.000000
 20
25.500000
 11
-16.000000
 21
20.500000
  0
LINE
  8
0
 10
79.000000
 20
25.500000
 11
80.000000
 21
25.500000
  0
LINE
  8
0
 10
79.000000
 20
20.500000
 11
80.000000
 21
20.500000
  0
LINE
  8
0
 10
127.500000
 20
34.000000
 11
127.500000
 21
28.000000
  0
LINE
  8
0
 10
72.500000
 20
34.000000
 11
72.500000
 21
28.000000
  0
LINE
  8
0
 10
123.000000
 20
28.000000
 11
127.500000
 21
28.000000
  0
LINE
  8
0
 10
120.000000
 20
25.500000
 11
121.000000
 21
25.500000
  0
LINE
  8
0
 10
120.000000
 20
20.500000
 11
121.000000
 21
20.500000
  0
LINE
  8
0
 10
88.000000
 20
-4.757511
 11
91.000000
 21
-4.757511
  0
LINE
  8
0
 10
109.000000
 20
-4.757511
 11
112.000000
 21
-4.757511
  0
LINE
  8
0
 10
-21.000000
 20
37.000000
 11
21.000000
 21
37.000000
  0
LINE
  8
0
 10
19.750000
 20
47.500000
 11
19.750000
 21
37.000000
  0
LINE
  8
0
 10
-19.750000
 20
47.500000
 11
-19.750000
 21
37.000000
  0
LINE
  8
0
 10
-19.249989
 20
47.999996
 11
-19.749990
 21
47.499996
  0
LINE
  8
0
 10
19.249989
 20
47.999996
 11
19.749990
 21
47.499996
  0
LINE
  8
0
 10
-19.250000
 20
48.000000
 11
19.250000
 21
48.000000
  0
LINE
  8
0
 10
-19.750000
 20
47.500000
 11
19.750000
 21
47.500000
  0
LINE
  8
0
 10
-119.750000
 20
47.500000
 11
-80.250000
 21
47.500000
  0
LINE
  8
0
 10
-79.000000
 20
37.000000
 11
-79.000000
 21
34.000000
  0
LINE
  8
0
 10
-121.000000
 20
37.000000
 11
-121.000000
 21
34.000000
  0
LINE
  8
0
 10
-119.250000
 20
48.000000
 11
-80.750000
 21
48.000000
  0
LINE
  8
0
 10
-121.000000
 20
37.000000
 11
-79.000000
 21
37.000000
  0
LINE
  8
0
 10
-80.250000
 20
47.500000
 11
-80.250000
 21
37.000000
  0
LINE
  8
0
 10
-119.750000
 20
47.500000
 11
-119.750000
 21
37.000000
  0
LINE
  8
0
 10
-119.249992
 20
48.000000
 11
-119.749985
 21
47.500000
  0
LINE
  8
0
 10
-80.750008
 20
48.000004
 11
-80.250008
 21
47.500000
  0
LINE
  8
0
 10
80.250000
 20
47.500000
 11
119.750000
 21
47.500000
  0
LINE
  8
0
 10
121.000000
 20
37.000000
 11
121.000000
 21
34.000000
  0
LINE
  8
0
 10
79.000000
 20
37.000000
 11
79.000000
 21
34.000000
  0
LINE
  8
0
 10
80.750000
 20
48.000000
 11
119.250000
 21
48.000000
  0
LINE
  8
0
 10
79.000000
 20
37.000000
 11
121.000000
 21
37.000000
  0
LINE
  8
0
 10
119.750000
 20
47.500000
 11
119.750000
 21
37.000000
  0
LINE
  8
0
 10
80.250000
 20
47.500000
 11
80.250000
 21
37.000000
  0
LINE
  8
0
 10
80.750015
 20
48.000000
 11
80.250015
 21
47.500000
  0
LINE
  8
0
 10
119.249985
 20
48.000004
 11
119.749985
 21
47.500004
  0
LINE
  8
0
 10
-7.000000
 20
52.300003
 11
7.000000
 21
52.300003
  0
LINE
  8
0
 10
-7.000000
 20
53.300003
 11
7.000000
 21
53.300003
  0
LINE
  8
0
 10
-94.750000
 20
52.300003
 11
-91.250000
 21
52.300003
  0
LINE
  8
0
 10
-91.250000
 20
52.300003
 11
-91.250000
 21
48.000000
  0
LINE
  8
0
 10
-108.750000
 20
52.300003
 11
-108.750000
 21
48.000000
  0
LINE
  8
0
 10
-108.749969
 20
52.299999
 11
-107.749985
 21
53.299992
  0
LINE
  8
0
 10
-91.249992
 20
52.299988
 11
-92.249992
 21
53.299988
  0
LINE
  8
0
 10
-108.750000
 20
52.300003
 11
-105.250000
 21
52.300003
  0
LINE
  8
0
 10
-105.250000
 20
53.300003
 11
-105.250000
 21
48.000000
  0
LINE
  8
0
 10
-107.750008
 20
53.300003
 11
-92.250000
 21
53.300003
  0
LINE
  8
0
 10
-94.750000
 20
53.300003
 11
-94.750000
 21
48.000000
  0
LINE
  8
0
 10
-105.249992
 20
53.299992
 11
-96.688469
 21
47.999996
  0
LINE
  8
0
 10
-103.311531
 20
48.000000
 11
-94.749992
 21
53.300003
  0
LINE
  8
0
 10
96.688461
 20
48.000000
 11
105.250008
 21
53.300003
  0
LINE
  8
0
 10
105.250000
 20
52.300003
 11
108.750000
 21
52.300003
  0
LINE
  8
0
 10
108.750000
 20
52.300003
 11
108.750000
 21
48.000000
  0
LINE
  8
0
 10
91.250000
 20
52.300003
 11
91.250000
 21
48.000000
  0
LINE
  8
0
 10
91.250000
 20
52.300014
 11
92.249992
 21
53.300007
  0
LINE
  8
0
 10
108.749992
 20
52.299999
 11
107.749992
 21
53.299999
  0
LINE
  8
0
 10
91.250000
 20
52.300003
 11
94.750000
 21
52.300003
  0
LINE
  8
0
 10
94.750000
 20
53.300003
 11
94.750000
 21
48.000000
  0
LINE
  8
0
 10
92.249992
 20
53.300003
 11
107.750000
 21
53.300003
  0
LINE
  8
0
 10
105.250000
 20
53.300003
 11
105.250000
 21
48.000000
  0
LINE
  8
0
 10
94.749992
 20
53.299995
 11
103.311523
 21
48.000000
  0
LINE
  8
0
 10
7.000000
 20
53.300003
 11
7.000000
 21
48.000000
  0
LINE
  8
0
 10
-7.000000
 20
53.300003
 11
-7.000000
 21
48.000000
  0
LINE
  8
0
 10
7.000000
 20
96.250000
 11
7.000000
 21
85.750000
  0
LINE
  8
0
 10
-7.000000
 20
96.250000
 11
-7.000000
 21
85.750000
  0
LINE
  8
0
 10
-21.000004
 20
91.000015
 11
-20.070089
 21
116.572678
  0
LINE
  8
0
 10
21.000004
 20
91.000015
 11
20.070089
 21
116.572678
  0
LINE
  8
0
 10
21.000006
 20
91.000008
 11
20.070091
 21
65.427322
  0
LINE
  8
0
 10
-20.070091
 20
65.427322
 11
-21.000006
 21
91.000008
  0
LINE
  8
0
 10
36.667294
 20
96.500000
 11
36.667294
 21
85.500000
  0
LINE
  8
0
 10
28.648832
 20
98.000008
 11
31.391249
 21
102.750008
  0
LINE
  8
0
 10
28.648846
 20
84.000000
 11
31.391260
 21
79.250000
  0
LINE
  8
0
 10
20.490910
 20
105.000000
 11
30.070213
 21
105.000000
  0
LINE
  8
0
 10
20.490910
 20
77.000000
 11
30.092215
 21
77.000000
  0
LINE
  8
0
 10
27.500000
 20
108.500000
 11
42.000000
 21
108.500000
  0
LINE
  8
0
 10
27.500000
 20
73.500000
 11
42.000000
 21
73.500000
  0
LINE
  8
0
 10
25.500000
 20
106.500000
 11
25.500000
 21
105.000000
  0
LINE
  8
0
 10
25.500000
 20
77.000000
 11
25.500000
 21
75.500000
  0
LINE
  8
0
  6
CENTER
 10
-25.000000
 20
111.000000
 11
-15.000000
 21
111.000000
  0
LINE
  8
0
  6
CENTER
 10
-20.000000
 20
116.000000
 11
-20.000000
 21
106.000000
  0
LINE
  8
0
  6
CENTER
 10
25.000000
 20
111.000000
 11
15.000000
 21
111.000000
  0
LINE
  8
0
  6
CENTER
 10
20.000000
 20
116.000000
 11
20.000000
 21
106.000000
  0
LINE
  8
0
  6
CENTER
 10
25.000000
 20
71.000000
 11
15.000000
 21
71.000000
  0
LINE
  8
0
  6
CENTER
 10
20.000000
 20
66.000000
 11
20.000000
 21
76.000000
  0
LINE
  8
0
  6
CENTER
 10
-25.000000
 20
71.000000
 11
-15.000000
 21
71.000000
  0
LINE
  8
0
  6
CENTER
 10
-20.000000
 20
66.000000
 11
-20.000000
 21
76.000000
  0
LINE
  8
0
 10
45.000000
 20
-105.199997
 11
45.000000
 21
-76.199997
  0
LINE
  8
0
 10
-45.000000
 20
-105.199997
 11
-45.000000
 21
-76.199997
  0
LINE
  8
0
 10
-42.000000
 20
-108.199997
 11
-26.863642
 21
-108.199997
  0
LINE
  8
0
 10
-42.000000
 20
-73.199997
 11
-26.863636
 21
-73.199997
  0
LINE
  8
0
 10
-23.607109
 20
-118.199997
 11
23.607109
 21
-118.199997
  0
LINE
  8
0
 10
-23.607107
 20
-63.199997
 11
23.607107
 21
-63.199997
  0
LINE
  8
0
 10
-27.499989
 20
-90.699989
 11
-26.605120
 21
-66.090981
  0
LINE
  8
0
 10
-27.499998
 20
-90.699989
 11
-26.605122
 21
-115.308998
  0
LINE
  8
0
 10
26.605122
 20
-115.309006
 11
27.499998
 21
-90.699989
  0
LINE
  8
0
 10
26.605120
 20
-66.090981
 11
27.499989
 21
-90.699989
  0
LINE
  8
0
 10
26.863642
 20
-108.199997
 11
42.000000
 21
-108.199997
  0
LINE
  8
0
 10
26.863636
 20
-73.199997
 11
42.000000
 21
-73.199997
  0
LINE
  8
0
  6
CENTER
 10
-25.000000
 20
-110.699997
 11
-15.000000
 21
-110.699997
  0
LINE
  8
0
  6
CENTER
 10
-20.000000
 20
-115.699997
 11
-20.000000
 21
-105.699997
  0
LINE
  8
0
  6
CENTER
 10
25.000000
 20
-110.699997
 11
15.000000
 21
-110.699997
  0
LINE
  8
0
  6
CENTER
 10
20.000000
 20
-115.699997
 11
20.000000
 21
-105.699997
  0
LINE
  8
0
  6
CENTER
 10
25.000000
 20
-70.699997
 11
15.000000
 21
-70.699997
  0
LINE
  8
0
  6
CENTER
 10
20.000000
 20
-65.699997
 11
20.000000
 21
-75.699997
  0
LINE
  8
0
  6
CENTER
 10
-25.000000
 20
-70.699997
 11
-15.000000
 21
-70.699997
  0
LINE
  8
0
  6
CENTER
 10
-20.000000
 20
-65.699997
 11
-20.000000
 21
-75.699997
  0
LINE
  8
0
  6
CENTER
 10
-100.000000
 20
70.150002
 11
-100.000000
 21
-69.849998
  0
LINE
  8
0
  6
CENTER
 10
100.000000
 20
70.150002
 11
100.000000
 21
-69.849998
  0
LINE
  8
0
  6
CENTER
 10
0.000000
 20
70.150002
 11
0.000000
 21
-69.849998
  0
LINE
  8
0
  6
CENTER
 10
0.000000
 20
-56.699997
 11
0.000000
 21
-123.333328
  0
LINE
  8
0
  6
CENTER
 10
0.000000
 20
124.000000
 11
0.000000
 21
57.000000
  0
LINE
  8
0
  6
CENTER
 10
-60.000000
 20
91.000000
 11
60.000000
 21
91.000000
  0
LINE
  8
0
  6
CENTER
 10
-60.000000
 20
-90.699997
 11
60.000000
 21
-90.699997
  0
LINE
  8
0
  6
CENTER
 10
-125.000000
 20
18.000000
 11
-75.192863
 21
18.000000
  0
LINE
  8
0
  6
CENTER
 10
-125.000000
 20
-29.000000
 11
-71.596420
 21
-29.000000
  0
LINE
  8
0
  6
CENTER
 10
33.499512
 20
-29.000000
 11
50.282894
 21
-29.000000
  0
LINE
  8
0
 10
-185.436783
 20
-127.279236
 11
-185.436783
 21
127.279236
  0
LINE
  8
0
 10
185.436783
 20
127.279236
 11
185.436783
 21
-127.279236
  0
LINE
  8
0
 10
-185.436783
 20
-127.279236
 11
185.436783
 21
-127.279236
  0
LINE
  8
0
 10
-185.436783
 20
127.279236
 11
185.436783
 21
127.279236
  0
LINE
  8
0
 10
-185.436783
 20
112.978195
 11
-109.164589
 21
112.978195
  0
LINE
  8
0
 10
-109.164589
 20
112.978195
 11
-109.164589
 21
127.279236
  0
LINE
  8
0
 10
109.164581
 20
-112.978210
 11
185.436783
 21
-112.978210
  0
LINE
  8
0
 10
109.164581
 20
112.978195
 11
185.436783
 21
112.978195
  0
LINE
  8
0
 10
109.164581
 20
127.279236
 11
109.164581
 21
112.978195
  0
LINE
  8
0
 10
109.164581
 20
-112.978210
 11
109.164581
 21
-127.279236
  0
LINE
  8
0
  6
CENTER
 10
-49.618183
 20
18.000000
 11
-32.435200
 21
18.000000
  0
LINE
  8
0
  6
CENTER
 10
-50.417393
 20
-29.000000
 11
-33.234409
 21
-29.000000
  0
LINE
  8
0
  6
CENTER
 10
73.459946
 20
-29.000000
 11
125.000000
 21
-29.000000
  0
CIRCLE
  8
0
 10
100.000000
 20
-29.000000
 40
17.500000
  0
CIRCLE
  8
0
 10
-100.000000
 20
-29.000000
 40
17.500000
  0
CIRCLE
  8
0
 10
-100.000000
 20
18.000000
 40
17.500000
  0
ARC
  8
0
 10
42.000000
 20
-43.500000
 40
3.000000
 50
270.000000
 51
0.000000
  0
ARC
  8
0
 10
-42.000000
 20
-43.500000
 40
3.000000
 50
180.000000
 51
270.000000
  0
ARC
  8
0
 10
73.500000
 20
-46.000000
 40
1.000000
 50
90.000000
 51
180.000000
  0
ARC
  8
0
 10
-117.000000
 20
-23.500000
 40
3.000000
 50
90.000000
 51
179.999969
  0
ARC
  8
0
 10
-83.000000
 20
-23.500000
 40
3.000000
 50
0.000000
 51
90.000000
  0
ARC
  8
0
 10
-126.500000
 20
-46.000000
 40
1.000000
 50
90.000000
 51
180.000000
  0
ARC
  8
0
 10
-73.500000
 20
-46.000000
 40
1.000000
 50
0.000000
 51
90.000000
  0
ARC
  8
0
 10
-119.000000
 20
-17.843147
 40
2.999999
 50
289.471222
 51
0.000000
  0
ARC
  8
0
 10
-81.000000
 20
-17.843147
 40
3.000000
 50
179.999969
 51
250.528778
  0
ARC
  8
0
 10
83.000000
 20
-23.500000
 40
3.000000
 50
90.000000
 51
179.999969
  0
ARC
  8
0
 10
117.000000
 20
-23.500000
 40
3.000000
 50
0.000000
 51
90.000000
  0
ARC
  8
0
 10
81.000000
 20
-17.843147
 40
2.999999
 50
289.471222
 51
0.000000
  0
ARC
  8
0
 10
119.000000
 20
-17.843147
 40
3.000000
 50
179.999969
 51
250.528778
  0
ARC
  8
0
 10
126.500000
 20
-46.000000
 40
1.000000
 50
0.000000
 51
90.000000
  0
ARC
  8
0
 10
84.000000
 20
-5.500000
 40
3.000000
 50
179.999985
 51
270.000000
  0
ARC
  8
0
 10
116.000000
 20
-5.500000
 40
3.000000
 50
270.000000
 51
0.000000
  0
ARC
  8
0
 10
119.000000
 20
-10.696152
 40
3.000000
 50
120.000000
 51
179.999969
  0
ARC
  8
0
 10
81.000000
 20
-10.696152
 40
3.000000
 50
0.000000
 51
59.999996
  0
ARC
  8
0
 10
-116.000000
 20
-5.500000
 40
3.000000
 50
179.999985
 51
270.000000
  0
ARC
  8
0
 10
-84.000000
 20
-5.500000
 40
3.000000
 50
270.000000
 51
0.000000
  0
ARC
  8
0
 10
-81.000000
 20
-10.696152
 40
3.000000
 50
120.000000
 51
179.999969
  0
ARC
  8
0
 10
-119.000000
 20
-10.696152
 40
3.000000
 50
0.000000
 51
59.999996
  0
ARC
  8
0
 10
-110.000000
 20
-11.500000
 40
3.000003
 50
5.638331
 51
90.000000
  0
ARC
  8
0
 10
-90.000000
 20
-11.500000
 40
3.000000
 50
90.000000
 51
179.999969
  0
ARC
  8
0
 10
-90.000000
 20
-11.104469
 40
3.000000
 50
179.999985
 51
240.803543
  0
ARC
  8
0
 10
-110.000000
 20
-11.104469
 40
3.000000
 50
299.196442
 51
0.000000
  0
ARC
  8
0
 10
-115.000000
 20
-44.000000
 40
1.000000
 50
270.000000
 51
0.000000
  0
ARC
  8
0
 10
-85.000000
 20
-44.000000
 40
1.000000
 50
180.000000
 51
270.000000
  0
ARC
  8
0
 10
-13.282857
 20
-21.500000
 40
1.000000
 50
90.000000
 51
180.000000
  0
ARC
  8
0
 10
13.282857
 20
-21.500000
 40
1.000000
 50
0.000000
 51
90.000000
  0
ARC
  8
0
 10
-26.500000
 20
-46.000000
 40
1.000000
 50
90.000000
 51
180.000000
  0
ARC
  8
0
 10
26.500000
 20
-46.000000
 40
1.000000
 50
0.000000
 51
90.000000
  0
ARC
  8
0
 10
-30.500000
 20
-49.500000
 40
3.000000
 50
0.000000
 51
90.000000
  0
ARC
  8
0
 10
30.500000
 20
-49.500000
 40
3.000000
 50
90.000000
 51
180.000000
  0
ARC
  8
0
 10
-23.607109
 20
115.500000
 40
3.000000
 50
90.000000
 51
177.917328
  0
ARC
  8
0
 10
23.607109
 20
115.500000
 40
3.000000
 50
2.082664
 51
90.000000
  0
ARC
  8
0
 10
-23.607107
 20
66.500000
 40
3.000000
 50
182.082520
 51
270.000000
  0
ARC
  8
0
 10
23.607107
 20
66.500000
 40
3.000000
 50
270.000000
 51
357.917480
  0
ARC
  8
0
 10
-42.000000
 20
-14.500000
 40
3.000000
 50
90.000000
 51
179.999969
  0
ARC
  8
0
 10
12.000000
 20
-27.500000
 40
23.000000
 50
31.588137
 51
81.418228
  0
ARC
  8
0
 10
29.888544
 20
-16.500000
 40
2.000000
 50
270.000000
 51
31.588137
  0
ARC
  8
0
 10
8.745967
 20
-17.500000
 40
1.000000
 50
180.000000
 51
270.000000
  0
ARC
  8
0
 10
13.282857
 20
-19.500000
 40
1.000000
 50
0.000000
 51
90.000000
  0
ARC
  8
0
 10
36.667294
 20
-8.500000
 40
3.000002
 50
204.999985
 51
270.000000
  0
ARC
  8
0
 10
42.000000
 20
-14.500000
 40
3.000000
 50
0.000000
 51
90.000000
  0
ARC
  8
0
 10
-14.000000
 20
14.500000
 40
20.000000
 50
209.999969
 51
258.865692
  0
ARC
  8
0
 10
-17.282856
 20
-2.180016
 40
3.000000
 50
258.865692
 51
0.000000
  0
ARC
  8
0
 10
8.745967
 20
-9.500000
 40
1.000000
 50
90.000000
 51
179.999939
  0
ARC
  8
0
 10
15.282857
 20
-5.746315
 40
1.000000
 50
81.418243
 51
179.999969
  0
ARC
  8
0
 10
13.282857
 20
-7.500000
 40
1.000000
 50
270.000000
 51
0.000000
  0
ARC
  8
0
 10
-28.641428
 20
-19.669609
 40
14.358572
 50
352.735291
 51
34.678497
  0
ARC
  8
0
 10
-17.463865
 20
-10.000000
 40
1.500000
 50
270.000000
 51
90.000000
  0
ARC
  8
0
 10
-15.277791
 20
-5.639774
 40
3.599976
 50
166.231766
 51
254.135330
  0
ARC
  8
0
 10
-42.000000
 20
3.500000
 40
3.000000
 50
179.999985
 51
270.000000
  0
ARC
  8
0
 10
-29.588457
 20
5.500000
 40
2.000000
 50
90.000000
 51
209.999939
  0
ARC
  8
0
 10
-42.000000
 20
32.500000
 40
3.000000
 50
90.000000
 51
180.000000
  0
ARC
  8
0
 10
-77.000000
 20
25.000000
 40
3.000000
 50
90.000000
 51
179.999969
  0
ARC
  8
0
 10
-123.000000
 20
25.000000
 40
3.000000
 50
0.000000
 51
90.000000
  0
ARC
  8
0
 10
123.000000
 20
25.000000
 40
3.000000
 50
90.000000
 51
179.999969
  0
ARC
  8
0
 10
77.000000
 20
25.000000
 40
3.000000
 50
0.000000
 51
90.000000
  0
ARC
  8
0
 10
88.000000
 20
-6.757511
 40
2.000000
 50
90.000000
 51
179.999954
  0
ARC
  8
0
 10
112.000000
 20
-6.757511
 40
2.000000
 50
0.000000
 51
90.000000
  0
ARC
  8
0
 10
91.000000
 20
-2.757511
 40
2.000000
 50
270.000000
 51
0.000000
  0
ARC
  8
0
 10
109.000000
 20
-2.757511
 40
2.000000
 50
179.999985
 51
270.000000
  0
CIRCLE
  8
0
 10
0.000000
 20
91.000000
 40
8.750000
  0
ARC
  8
0
 10
0.000000
 20
91.000000
 40
8.250000
 50
31.952717
 51
148.047287
  0
ARC
  8
0
 10
0.000000
 20
91.000000
 40
8.250001
 50
211.952713
 51
328.047272
  0
CIRCLE
  8
0
 10
0.000000
 20
91.000000
 40
15.900000
  0
CIRCLE
  8
0
 10
0.000000
 20
91.000000
 40
19.750000
  0
CIRCLE
  8
0
 10
0.000000
 20
91.000000
 40
19.250000
  0
CIRCLE
  8
0
 10
0.000000
 20
91.000000
 40
21.000000
  0
ARC
  8
0
 10
-18.071405
 20
116.500000
 40
2.000000
 50
90.000000
 51
177.917480
  0
ARC
  8
0
 10
18.071405
 20
116.500000
 40
2.000000
 50
0.000000
 51
90.000000
  0
ARC
  8
0
 10
18.071405
 20
65.500000
 40
2.000000
 50
270.000000
 51
0.000000
  0
ARC
  8
0
 10
-18.071405
 20
65.500000
 40
1.999999
 50
182.082520
 51
270.000000
  0
ARC
  8
0
 10
35.167294
 20
85.500000
 40
1.500000
 50
270.000000
 51
0.000000
  0
ARC
  8
0
 10
35.167294
 20
96.500000
 40
1.500000
 50
0.000000
 51
90.000000
  0
ARC
  8
0
 10
30.092215
 20
103.500000
 40
1.500000
 50
330.000000
 51
90.000000
  0
ARC
  8
0
 10
30.092215
 20
78.500000
 40
1.500000
 50
270.000000
 51
30.000004
  0
ARC
  8
0
 10
42.000000
 20
105.500000
 40
3.000000
 50
0.000000
 51
90.000000
  0
ARC
  8
0
 10
42.000000
 20
76.500000
 40
3.000000
 50
270.000000
 51
0.000000
  0
ARC
  8
0
 10
-42.000000
 20
105.500000
 40
3.000000
 50
90.000000
 51
180.000000
  0
ARC
  8
0
 10
-42.000000
 20
76.500000
 40
3.000000
 50
180.000000
 51
270.000000
  0
ARC
  8
0
 10
27.500000
 20
106.500000
 40
2.000000
 50
90.000000
 51
180.000000
  0
ARC
  8
0
 10
27.500000
 20
75.500000
 40
2.000000
 50
180.000000
 51
270.000000
  0
ARC
  8
0
 10
-27.500000
 20
106.500000
 40
2.000000
 50
7.180754
 51
90.000000
  0
ARC
  8
0
 10
-27.500000
 20
75.500000
 40
2.000000
 50
270.000000
 51
352.819244
  0
ARC
  8
0
 10
-23.531372
 20
107.000000
 40
2.000000
 50
187.180756
 51
270.000000
  0
ARC
  8
0
 10
-23.531372
 20
75.000000
 40
2.000000
 50
90.000000
 51
172.819244
  0
ARC
  8
0
 10
-20.000000
 20
111.000000
 40
2.999997
 50
93.129898
 51
262.704926
  0
ARC
  8
0
 10
20.000000
 20
111.000000
 40
2.999999
 50
277.295044
 51
86.870071
  0
ARC
  8
0
 10
20.000000
 20
71.000000
 40
2.999997
 50
273.129883
 51
82.704933
  0
ARC
  8
0
 10
-20.000000
 20
71.000000
 40
2.999999
 50
97.294998
 51
266.870026
  0
ARC
  8
0
 10
-23.607109
 20
-115.199997
 40
3.000000
 50
182.082520
 51
269.999969
  0
ARC
  8
0
 10
23.607109
 20
-115.199997
 40
3.000000
 50
269.999969
 51
357.917328
  0
ARC
  8
0
 10
-23.607107
 20
-66.199997
 40
3.000000
 50
89.999924
 51
177.917480
  0
ARC
  8
0
 10
23.607107
 20
-66.199997
 40
3.000000
 50
2.082519
 51
89.999924
  0
CIRCLE
  8
0
 10
0.000000
 20
-90.699997
 40
15.900000
  0
ARC
  8
0
 10
42.000000
 20
-105.199997
 40
3.000000
 50
269.999939
 51
0.000000
  0
ARC
  8
0
 10
42.000000
 20
-76.199997
 40
3.000000
 50
0.000000
 51
89.999924
  0
ARC
  8
0
 10
-42.000000
 20
-105.199997
 40
3.000000
 50
180.000000
 51
269.999939
  0
ARC
  8
0
 10
-42.000000
 20
-76.199997
 40
3.000000
 50
89.999924
 51
180.000000
  0
CIRCLE
  8
0
 10
-20.000000
 20
-110.699997
 40
3.000000
  0
CIRCLE
  8
0
 10
20.000000
 20
-110.699997
 40
3.000000
  0
CIRCLE
  8
0
 10
20.000000
 20
-70.699997
 40
3.000000
  0
CIRCLE
  8
0
 10
-20.000000
 20
-70.699997
 40
3.000000
  0
CIRCLE
  8
0
 10
0.000000
 20
-90.699997
 40
8.000000
  0
CIRCLE
  8
0
 10
100.000000
 20
-29.000000
 40
10.497500
  0
CIRCLE
  8
0
 10
100.000000
 20
-29.000000
 40
9.315500
  0
CIRCLE
  8
0
 10
-100.000000
 20
18.000000
 40
9.315500
  0
CIRCLE
  8
0
 10
-100.000000
 20
18.000000
 40
10.497500
  0
CIRCLE
  8
0
 10
-100.000000
 20
-29.000000
 40
9.315500
  0
CIRCLE
  8
0
 10
-100.000000
 20
-29.000000
 40
10.497500
  0
CIRCLE
  8
0
 10
0.000000
 20
91.000000
 40
4.864000
  0
CIRCLE
  8
0
 10
0.000000
 20
91.000000
 40
4.283000
  0
TEXT
  8
0
 10
113.360985
 20
117.310349
 40
4.242641
  1
DATE : AUG ,1992
 50
0.000000
 41
1.052631
 51
0.000000
  7
STANDARD
  0
TEXT
  8
0
 10
-157.764954
 20
116.628723
 40
5.000000
  1
501A
 50
0.000000
 41
1.052632
 51
0.000000
  7
STANDARD
  0
TEXT
  8
0
 10
116.836403
 20
-123.628723
 40
5.000000
  1
KOGANEI,CORP
 50
0.000000
 41
1.052632
 51
0.000000
  7
STANDARD
  0
TEXT
  8
0
 10
-167.585922
 20
86.613739
 40
5.000000
  1
MODEL : 501A
 50
0.000000
 41
1.052632
 51
0.000000
  7
STANDARD
  0
TEXT
  8
0
 10
-60.277325
 20
20.476259
 40
5.000000
  1
NO
 50
0.000000
 41
1.052632
 51
0.000000
  7
STANDARD
  0
TEXT
  8
0
 10
-58.279301
 20
-26.677050
 40
5.000000
  1
NC
 50
0.000000
 41
1.052632
 51
0.000000
  7
STANDARD
  0
TEXT
  8
0
 10
49.716236
 20
-25.877842
 40
5.000000
  1
A
 50
0.000000
 41
1.052632
 51
0.000000
  7
STANDARD
  0
LINE
  8
0
 10
3.129585
 20
87.513344
 11
28.129589
 21
44.212074
  0
LINE
  8
0
 10
28.129589
 20
44.212074
 11
49.214981
 21
44.212074
  0
LINE
  8
0
 10
3.129585
 20
87.513344
 11
3.906042
 21
84.615570
  0
LINE
  8
0
 10
3.129585
 20
87.513344
 11
5.250905
 21
85.392021
  0
TEXT
  8
0
 10
32.550697
 20
45.212074
 40
3.200000
  1
RC1/8
 50
0.000000
 41
1.052632
 51
0.000000
  7
STANDARD
  0
LINE
  8
0
 10
107.426315
 20
-35.964390
 11
127.426323
 21
-70.605408
  0
LINE
  8
0
 10
127.426323
 20
-70.605408
 11
154.716858
 21
-70.605408
  0
LINE
  8
0
 10
107.426315
 20
-35.964390
 11
108.202774
 21
-38.862167
  0
LINE
  8
0
 10
107.426315
 20
-35.964390
 11
109.547638
 21
-38.085709
  0
TEXT
  8
0
 10
131.652573
 20
-69.605408
 40
3.200000
  1
3-RC1/2
 50
0.000000
 41
1.052632
 51
0.000000
  7
STANDARD
  0
ENDSEC
  0
EOF
