  0
SECTION
  2
HEADER
  0
ENDSEC
  0
SECTION
  2
TABLES
  0
TABLE
  2
LTYPE
 70
     4
  0
LTYPE
  2
CONTINUOUS
 70
    64
  3
Solid line
 72
    65
 73
     0
 40
0.000000
  0
LTYPE
  2
DASHED
 70
    64
  3
__ __ __ __ __ __ __ __ __ __ __ __ __ __ __
 72
    65
 73
     2
 40
3.500000
 49
2.000000
 49
-1.500000
  0
LTYPE
  2
CENTER
 70
    64
  3
____ _ ____ _ ____ _ ____ _ ____ _ ____ _ ____
 72
    65
 73
     4
 40
17.500000
 49
13.000000
 49
-1.500000
 49
1.500000
 49
-1.500000
  0
LTYPE
  2
PHANTOM
 70
    64
  3
_____ _ _ _____ _ _ _____ _ _ _____ _ _ ____  
 72
    65
 73
     6
 40
15.500000
 49
8.000000
 49
-1.500000
 49
1.500000
 49
-1.500000
 49
1.500000
 49
-1.500000
  0
LTYPE
  2
DASHED1
 70
    64
  3
__ __ __ __ __ __ __ __ __ __ __ __ __ __ __
 72
    65
 73
     2
 40
1.500000
 49
1.000000
 49
-0.500000
  0
LTYPE
  2
DASHED2
 70
    64
  3
__ __ __ __ __ __ __ __ __ __ __ __ __ __ __
 72
    65
 73
     2
 40
3.500000
 49
2.500000
 49
-1.000000
  0
LTYPE
  2
DASHED3
 70
    64
  3
__ __ __ __ __ __ __ __ __ __ __ __ __ __ __
 72
    65
 73
     2
 40
6.000000
 49
4.000000
 49
-2.000000
  0
LTYPE
  2
DASHED4
 70
    64
  3
__ __ __ __ __ __ __ __ __ __ __ __ __ __ __
 72
    65
 73
     2
 40
12.000000
 49
10.000000
 49
-2.000000
  0
LTYPE
  2
DASHED5
 70
    64
  3
__ __ __ __ __ __ __ __ __ __ __ __ __ __ __
 72
    65
 73
     2
 40
17.000000
 49
15.000000
 49
-2.000000
  0
LTYPE
  2
DASHED6
 70
    64
  3
__ __ __ __ __ __ __ __ __ __ __ __ __ __ __
 72
    65
 73
     2
 40
29.000000
 49
27.000000
 49
-2.000000
  0
LTYPE
  2
PHANTOM1
 70
    64
  3
_____ _ _ _____ _ _ _____ _ _ _____ _ _ ____  
 72
    65
 73
     6
 40
31.000000
 49
25.000000
 49
-1.500000
 49
1.000000
 49
-1.000000
 49
1.000000
 49
-1.500000
  0
LTYPE
  2
PHANTOM2
 70
    64
  3
_____ _ _ _____ _ _ _____ _ _ _____ _ _ ____  
 72
    65
 73
     6
 40
36.000000
 49
27.000000
 49
-1.500000
 49
2.500000
 49
-1.000000
 49
2.500000
 49
-1.500000
  0
LTYPE
  2
PHANTOM3
 70
    64
  3
_____ _ _ _____ _ _ _____ _ _ _____ _ _ ____  
 72
    65
 73
     6
 40
78.000000
 49
64.000000
 49
-2.000000
 49
4.000000
 49
-2.000000
 49
4.000000
 49
-2.000000
  0
LTYPE
  2
CENTER1
 70
    64
  3
____ _ ____ _ ____ _ ____ _ ____ _ ____ _ ____
 72
    65
 73
     4
 40
19.000000
 49
14.000000
 49
-1.000000
 49
3.000000
 49
-1.000000
  0
LTYPE
  2
CENTER2
 70
    64
  3
____ _ ____ _ ____ _ ____ _ ____ _ ____ _ ____
 72
    65
 73
     4
 40
28.500000
 49
25.000000
 49
-1.000000
 49
1.500000
 49
-1.000000
  0
LTYPE
  2
CENTER3
 70
    64
  3
____ _ ____ _ ____ _ ____ _ ____ _ ____ _ ____
 72
    65
 73
     4
 40
31.500000
 49
27.000000
 49
-1.000000
 49
2.500000
 49
-1.000000
  0
LTYPE
  2
CENTER4
 70
    64
  3
____ _ ____ _ ____ _ ____ _ ____ _ ____ _ ____
 72
    65
 73
     4
 40
50.000000
 49
45.000000
 49
-1.000000
 49
3.000000
 49
-1.000000
  0
LTYPE
  2
CENTER5
 70
    64
  3
____ _ ____ _ ____ _ ____ _ ____ _ ____ _ ____
 72
    65
 73
     4
 40
100.000000
 49
92.000000
 49
-2.000000
 49
4.000000
 49
-2.000000
  0
LTYPE
  2
SBK1
 70
    64
  3
______ _ _ _ ______ _ _ _ ______ _ _ _ _____  
 72
    65
 73
     8
 40
60.500000
 49
45.000000
 49
-2.000000
 49
2.500000
 49
-2.000000
 49
2.500000
 49
-2.000000
 49
2.500000
 49
-2.000000
  0
LTYPE
  2
SBK2
 70
    64
  3
______ _ _ _ ______ _ _ _ ______ _ _ _ _____  
 72
    65
 73
     8
 40
84.000000
 49
64.000000
 49
-2.000000
 49
4.000000
 49
-2.000000
 49
4.000000
 49
-2.000000
 49
4.000000
 49
-2.000000
  0
LTYPE
  2
STCH
 70
    64
  3
__ __ __ __ __ __ __ __ __ __ __ __ __ __ __
 72
    65
 73
     2
 40
3.000000
 49
1.000000
 49
-2.000000
  0
LTYPE
  2
MTCH
 70
    64
  3
_____ _ _ _____ _ _ _____ _ _ _____ _ _ ____  
 72
    65
 73
     6
 40
80.000000
 49
66.000000
 49
-2.000000
 49
4.000000
 49
-2.000000
 49
4.000000
 49
-2.000000
  0
ENDTAB
  0
TABLE
  2
LAYER
 70
     1
  0
LAYER
  2
0
 70
     0
 62
     7
  6
CONTINUOUS
  0
ENDTAB
  0
TABLE
  2
STYLE
 70
     1
  0
STYLE
  2
STANDARD
 70
     0
 40
0.000000
 41
1.000000
 50
0.000000
 71
     0
 42
0.200000
  3
txt
  4
BIGFONT
  0
ENDTAB
  0
TABLE
  2
VIEW
 70
     0
  0
ENDTAB
  0
ENDSEC
  0
SECTION
  2
BLOCKS
  0
ENDSEC
  0
SECTION
  2
ENTITIES
  0
LINE
  8
0
 10
-299.250000
 20
276.250000
 11
-299.250000
 21
261.250000
  0
LINE
  8
0
 10
299.799988
 20
276.250000
 11
299.799988
 21
261.250000
  0
LINE
  8
0
 10
-399.250000
 20
261.250000
 11
-299.250000
 21
261.250000
  0
LINE
  8
0
 10
299.799988
 20
-256.750000
 11
299.799988
 21
-276.750000
  0
LINE
  8
0
 10
299.799988
 20
261.250000
 11
399.799988
 21
261.250000
  0
LINE
  8
0
 10
299.799988
 20
-256.750000
 11
399.799988
 21
-256.750000
  0
LINE
  8
0
 10
-420.500000
 20
297.000000
 11
420.500000
 21
297.000000
  0
LINE
  8
0
 10
-420.500000
 20
-297.000000
 11
420.500000
 21
-297.000000
  0
LINE
  8
0
 10
420.500000
 20
297.000000
 11
420.500000
 21
-297.000000
  0
LINE
  8
0
 10
-420.500000
 20
297.000000
 11
-420.500000
 21
-297.000000
  0
LINE
  8
0
 10
399.799988
 20
276.250000
 11
399.799988
 21
-276.750000
  0
LINE
  8
0
 10
-399.250000
 20
276.250000
 11
-399.250000
 21
-276.750000
  0
LINE
  8
0
 10
-399.250000
 20
276.250000
 11
399.799988
 21
276.250000
  0
LINE
  8
0
 10
-399.250000
 20
-276.750000
 11
399.799988
 21
-276.750000
  0
TEXT
  8
0
 10
-390.142517
 20
262.549988
 40
8.000000
  1
630-4E2-39
 50
0.000000
 41
1.052632
 51
0.000000
  7
STANDARD
  0
TEXT
  8
0
 10
305.721680
 20
264.529999
 40
5.800000
  1
DATE: MAY ,1992
 50
0.000000
 41
1.052632
 51
0.000000
  7
STANDARD
  0
TEXT
  8
0
 10
295.700867
 20
-272.049988
 40
7.000000
  1
ＫＯＧＡＮＥＩ，ＣＯＲＰ．
 50
0.000000
 41
0.902367
 51
15.000000
  7
STANDARD
  0
TEXT
  8
0
 10
-394.142487
 20
232.550003
 40
8.000000
  1
MODEL: 630-4E2-263-39
 50
0.000000
 41
1.052632
 51
0.000000
  7
STANDARD
  0
TEXT
  8
0
 10
-394.142487
 20
217.550003
 40
8.000000
  1
       633-4E2-263-39
 50
0.000000
 41
1.052632
 51
0.000000
  7
STANDARD
  0
POINT
  8
0
 10
-26.500000
 20
-50.249985
  0
POINT
  8
0
 10
31.000000
 20
-50.249985
  0
LINE
  8
0
 10
0.000000
 20
-71.747025
 11
0.000000
 21
95.749985
  0
LINE
  8
0
 10
28.000000
 20
-60.249985
 11
21.000000
 21
-60.249985
  0
LINE
  8
0
 10
30.999969
 20
45.750015
 11
16.000000
 21
45.750015
  0
LINE
  8
0
 10
-31.000000
 20
45.750000
 11
-31.000000
 21
-57.249985
  0
LINE
  8
0
 10
31.000000
 20
45.750015
 11
31.000000
 21
-57.249985
  0
LINE
  8
0
 10
-26.500000
 20
-55.749985
 11
-31.000000
 21
-55.749985
  0
LINE
  8
0
 10
-26.500000
 20
-44.749985
 11
-31.000000
 21
-44.749985
  0
LINE
  8
0
 10
30.999969
 20
29.250015
 11
26.499969
 21
29.250015
  0
LINE
  8
0
 10
30.999969
 20
40.250015
 11
26.499969
 21
40.250015
  0
LINE
  8
0
 10
-24.300018
 20
-3.949966
 11
-27.700012
 21
-3.949966
  0
LINE
  8
0
 10
-24.300018
 20
5.450008
 11
-27.700012
 21
5.450008
  0
LINE
  8
0
 10
-28.700012
 20
4.449993
 11
-28.700012
 21
-2.949997
  0
LINE
  8
0
 10
-23.300018
 20
4.449997
 11
-23.300018
 21
-2.949997
  0
LINE
  8
0
 10
-24.299988
 20
-35.949966
 11
-27.700012
 21
-35.949966
  0
LINE
  8
0
 10
-24.300018
 20
-26.549973
 11
-27.700012
 21
-26.549973
  0
LINE
  8
0
 10
-28.700012
 20
-27.550003
 11
-28.700012
 21
-34.949997
  0
LINE
  8
0
 10
-23.300018
 20
-27.550003
 11
-23.300018
 21
-34.949997
  0
LINE
  8
0
 10
27.699982
 20
-19.949966
 11
24.299988
 21
-19.949966
  0
LINE
  8
0
 10
27.699982
 20
-10.549973
 11
24.299988
 21
-10.549973
  0
LINE
  8
0
 10
23.299988
 20
-11.549973
 11
23.299988
 21
-18.949966
  0
LINE
  8
0
 10
28.699982
 20
-11.549973
 11
28.699982
 21
-18.949966
  0
LINE
  8
0
 10
24.300018
 20
-40.549973
 11
27.700012
 21
-40.549973
  0
LINE
  8
0
 10
24.300018
 20
-49.949966
 11
27.700012
 21
-49.949966
  0
LINE
  8
0
 10
28.699982
 20
-48.949966
 11
28.699982
 21
-41.549973
  0
LINE
  8
0
 10
23.299988
 20
-48.949966
 11
23.299988
 21
-41.549973
  0
LINE
  8
0
 10
24.299988
 20
19.450012
 11
27.699982
 21
19.450012
  0
LINE
  8
0
 10
24.299988
 20
10.050014
 11
27.699982
 21
10.050014
  0
LINE
  8
0
 10
28.699982
 20
11.050018
 11
28.699982
 21
18.450012
  0
LINE
  8
0
 10
23.299988
 20
11.050018
 11
23.299988
 21
18.450012
  0
LINE
  8
0
 10
-26.500000
 20
-42.249985
 11
-26.500000
 21
-58.249985
  0
LINE
  8
0
 10
26.500000
 20
42.750015
 11
26.500000
 21
26.750015
  0
LINE
  8
0
 10
34.499969
 20
34.750015
 11
18.499969
 21
34.750015
  0
LINE
  8
0
 10
-18.500000
 20
-50.249985
 11
-34.500000
 21
-50.249985
  0
LINE
  8
0
 10
-21.000000
 20
-60.249985
 11
-28.000000
 21
-60.249985
  0
LINE
  8
0
 10
-16.000000
 20
45.750015
 11
-31.000031
 21
45.750015
  0
LINE
  8
0
 10
-5.000031
 20
-44.249985
 11
-5.000031
 21
13.750015
  0
LINE
  8
0
 10
4.999969
 20
-44.249954
 11
4.999969
 21
13.750023
  0
LINE
  8
0
 10
-6.000031
 20
-44.249985
 11
-6.000031
 21
13.750015
  0
LINE
  8
0
 10
5.999969
 20
-44.249954
 11
5.999969
 21
13.750031
  0
LINE
  8
0
 10
17.249969
 20
-37.249954
 11
17.249969
 21
-26.249954
  0
LINE
  8
0
 10
-16.000031
 20
-86.749985
 11
-16.000031
 21
-65.749985
  0
LINE
  8
0
 10
15.999969
 20
-86.749954
 11
15.999969
 21
-65.749954
  0
LINE
  8
0
 10
-5.000031
 20
4.750027
 11
5.000000
 21
4.750027
  0
LINE
  8
0
 10
-5.000000
 20
-35.249954
 11
5.000000
 21
-35.249954
  0
LINE
  8
0
 10
-4.000031
 20
14.750031
 11
3.999969
 21
14.750031
  0
LINE
  8
0
 10
-3.999969
 20
-45.249954
 11
4.000031
 21
-45.249954
  0
LINE
  8
0
 10
-4.000031
 20
15.750031
 11
3.999969
 21
15.750031
  0
LINE
  8
0
 10
-3.999969
 20
-46.249954
 11
4.000031
 21
-46.249954
  0
LINE
  8
0
 10
18.499969
 20
15.250031
 11
18.499969
 21
22.250031
  0
LINE
  8
0
 10
12.699982
 20
22.250031
 11
18.499969
 21
22.250031
  0
LINE
  8
0
 10
12.699982
 20
15.250031
 11
12.699982
 21
22.250031
  0
LINE
  8
0
 10
12.699982
 20
15.250031
 11
18.499969
 21
15.250031
  0
LINE
  8
0
 10
-12.699982
 20
-45.749954
 11
-18.499969
 21
-45.749954
  0
LINE
  8
0
 10
-12.700012
 20
-45.749985
 11
-12.700012
 21
-52.749985
  0
LINE
  8
0
 10
-12.699982
 20
-52.749954
 11
-18.499969
 21
-52.749954
  0
LINE
  8
0
 10
-18.500031
 20
-45.749985
 11
-18.500031
 21
-52.749985
  0
LINE
  8
0
 10
-20.999969
 20
-55.749954
 11
21.000031
 21
-55.749954
  0
LINE
  8
0
 10
-21.000031
 20
25.250031
 11
20.999969
 21
25.250031
  0
LINE
  8
0
 10
-19.499969
 20
-65.749954
 11
19.500031
 21
-65.749954
  0
LINE
  8
0
 10
-19.500031
 20
35.250046
 11
19.499969
 21
35.250046
  0
LINE
  8
0
 10
-12.999969
 20
-89.749985
 11
13.000061
 21
-89.749985
  0
LINE
  8
0
 10
20.999969
 20
-64.249954
 11
20.999969
 21
33.750046
  0
LINE
  8
0
 10
-21.000031
 20
-64.249985
 11
-21.000031
 21
33.750015
  0
LINE
  8
0
 10
17.250000
 20
-35.749954
 11
21.000000
 21
-35.749954
  0
LINE
  8
0
 10
17.250000
 20
-27.749954
 11
21.000000
 21
-27.749954
  0
LINE
  8
0
 10
17.249969
 20
6.750031
 11
17.249969
 21
-4.249954
  0
LINE
  8
0
 10
17.250000
 20
5.250027
 11
21.000000
 21
5.250027
  0
LINE
  8
0
 10
17.250000
 20
-2.749985
 11
21.000000
 21
-2.749985
  0
LINE
  8
0
 10
-17.250031
 20
-37.249985
 11
-17.250031
 21
-26.249985
  0
LINE
  8
0
 10
-11.750000
 20
-31.749954
 11
-22.750000
 21
-31.749954
  0
LINE
  8
0
 10
-17.250000
 20
-35.749954
 11
-21.000000
 21
-35.749954
  0
LINE
  8
0
 10
-17.250000
 20
-27.749954
 11
-21.000000
 21
-27.749954
  0
LINE
  8
0
 10
-17.250031
 20
6.750011
 11
-17.250031
 21
-4.249985
  0
LINE
  8
0
 10
-11.750000
 20
1.250027
 11
-22.750000
 21
1.250027
  0
LINE
  8
0
 10
-17.250031
 20
5.250027
 11
-21.000031
 21
5.250027
  0
LINE
  8
0
 10
-17.250000
 20
-2.749985
 11
-21.000000
 21
-2.749985
  0
LINE
  8
0
 10
-15.750031
 20
-32.616013
 11
-15.750031
 21
-30.883957
  0
LINE
  8
0
 10
-18.750031
 20
-32.616013
 11
-18.750031
 21
-30.883957
  0
LINE
  8
0
 10
-15.750044
 20
-30.884005
 11
-17.250023
 21
-30.017994
  0
LINE
  8
0
 10
-17.250061
 20
-33.482273
 11
-18.750067
 21
-32.616249
  0
LINE
  8
0
 10
-17.249821
 20
-33.482368
 11
-15.749846
 21
-32.616348
  0
LINE
  8
0
 10
-17.249844
 20
-30.018183
 11
-18.749847
 21
-30.884212
  0
LINE
  8
0
 10
17.250168
 20
-30.018181
 11
15.750164
 21
-30.884211
  0
LINE
  8
0
 10
17.250198
 20
-33.482292
 11
18.750198
 21
-32.616264
  0
LINE
  8
0
 10
18.749969
 20
-32.615982
 11
18.749969
 21
-30.883926
  0
LINE
  8
0
 10
15.749969
 20
-32.615982
 11
15.749969
 21
-30.883926
  0
LINE
  8
0
 10
18.749996
 20
-30.883966
 11
17.249992
 21
-30.017939
  0
LINE
  8
0
 10
17.249939
 20
-33.482204
 11
15.749935
 21
-32.616180
  0
LINE
  8
0
 10
-17.249908
 20
2.981823
 11
-18.749912
 21
2.115791
  0
LINE
  8
0
 10
-17.249855
 20
-0.482296
 11
-15.749851
 21
0.383732
  0
LINE
  8
0
 10
-15.750031
 20
0.383987
 11
-15.750031
 21
2.116039
  0
LINE
  8
0
 10
-18.750031
 20
0.383987
 11
-18.750031
 21
2.116039
  0
LINE
  8
0
 10
-15.750009
 20
2.116020
 11
-17.249987
 21
2.982033
  0
LINE
  8
0
 10
-17.250038
 20
-0.482212
 11
-18.750042
 21
0.383816
  0
LINE
  8
0
 10
17.250153
 20
-0.482327
 11
18.750156
 21
0.383701
  0
LINE
  8
0
 10
17.249996
 20
-0.482090
 11
15.749989
 21
0.383938
  0
LINE
  8
0
 10
15.749969
 20
0.384018
 11
15.749969
 21
2.116058
  0
LINE
  8
0
 10
17.250149
 20
2.981853
 11
15.750145
 21
2.115826
  0
LINE
  8
0
 10
18.749989
 20
2.116058
 11
17.249985
 21
2.982086
  0
LINE
  8
0
 10
18.749969
 20
0.384018
 11
18.749969
 21
2.116062
  0
LINE
  8
0
 10
2.149994
 20
-89.749954
 11
2.149994
 21
-90.449966
  0
LINE
  8
0
 10
-2.149994
 20
-89.749954
 11
-2.149994
 21
-90.449966
  0
LINE
  8
0
 10
-2.149933
 20
-90.449966
 11
2.150055
 21
-90.449966
  0
LINE
  8
0
 10
11.749939
 20
-31.749954
 11
22.749939
 21
-31.749954
  0
LINE
  8
0
 10
11.749939
 20
1.250027
 11
22.749939
 21
1.250027
  0
LINE
  8
0
 10
-13.000000
 20
59.250015
 11
13.000000
 21
59.250015
  0
LINE
  8
0
 10
-16.000000
 20
35.249985
 11
-16.000000
 21
56.249985
  0
LINE
  8
0
 10
16.000000
 20
35.250008
 11
16.000000
 21
56.250015
  0
LINE
  8
0
 10
2.149963
 20
59.950027
 11
-2.150024
 21
59.950027
  0
LINE
  8
0
 10
2.149994
 20
59.250015
 11
2.149994
 21
59.950027
  0
LINE
  8
0
 10
-2.149994
 20
59.250015
 11
-2.149994
 21
59.950027
  0
LINE
  8
0
 10
-30.850006
 20
45.750015
 11
-30.850006
 21
56.750015
  0
LINE
  8
0
 10
30.849976
 20
45.750015
 11
30.849976
 21
56.750015
  0
LINE
  8
0
 10
27.849976
 20
59.750015
 11
2.149994
 21
59.750015
  0
LINE
  8
0
 10
-2.149994
 20
59.750015
 11
-27.850006
 21
59.750015
  0
LINE
  8
0
 10
39.249969
 20
70.373764
 11
39.249969
 21
89.426315
  0
LINE
  8
0
 10
33.249969
 20
77.800034
 11
39.249969
 21
77.800034
  0
LINE
  8
0
 10
33.249969
 20
77.550339
 11
39.249969
 21
77.550339
  0
LINE
  8
0
 10
33.249969
 20
73.096115
 11
39.249969
 21
73.096115
  0
LINE
  8
0
 10
33.249969
 20
72.473740
 11
39.249969
 21
72.473740
  0
LINE
  8
0
 10
33.249969
 20
70.373764
 11
39.249969
 21
70.373764
  0
LINE
  8
0
 10
33.249969
 20
82.000046
 11
39.249969
 21
82.000046
  0
LINE
  8
0
 10
33.249969
 20
82.249741
 11
39.249969
 21
82.249741
  0
LINE
  8
0
 10
33.249969
 20
86.703964
 11
39.249969
 21
86.703964
  0
LINE
  8
0
 10
33.249969
 20
87.326340
 11
39.249969
 21
87.326340
  0
LINE
  8
0
 10
33.249969
 20
89.426315
 11
39.249969
 21
89.426315
  0
LINE
  8
0
 10
33.249969
 20
79.900040
 11
39.249969
 21
79.900040
  0
LINE
  8
0
 10
-10.750000
 20
91.150040
 11
28.250000
 21
91.150040
  0
LINE
  8
0
 10
13.750000
 20
88.150040
 11
13.750000
 21
60.650040
  0
LINE
  8
0
 10
-13.750000
 20
88.150040
 11
-13.750000
 21
60.650040
  0
LINE
  8
0
 10
-13.750000
 20
85.150040
 11
13.750000
 21
85.150040
  0
LINE
  8
0
 10
-13.750000
 20
82.150040
 11
13.750000
 21
82.150040
  0
LINE
  8
0
 10
-13.750000
 20
80.650040
 11
13.750000
 21
80.650040
  0
LINE
  8
0
 10
-13.750000
 20
79.150040
 11
13.750000
 21
79.150040
  0
LINE
  8
0
 10
-13.750000
 20
77.650040
 11
13.750000
 21
77.650040
  0
LINE
  8
0
 10
-13.750000
 20
74.650040
 11
13.750000
 21
74.650040
  0
LINE
  8
0
 10
-13.750000
 20
73.150040
 11
13.750000
 21
73.150040
  0
LINE
  8
0
 10
-13.750000
 20
71.650040
 11
13.750000
 21
71.650040
  0
LINE
  8
0
 10
-13.750000
 20
70.150040
 11
13.750000
 21
70.150040
  0
LINE
  8
0
 10
-13.750000
 20
60.650040
 11
13.750000
 21
60.650040
  0
LINE
  8
0
 10
-13.500000
 20
60.650040
 11
-13.500000
 21
59.750015
  0
LINE
  8
0
 10
13.500000
 20
60.650040
 11
13.500000
 21
59.750015
  0
LINE
  8
0
 10
-13.750000
 20
86.650040
 11
13.750000
 21
86.650040
  0
LINE
  8
0
 10
27.786362
 20
79.900040
 11
42.721588
 21
79.900040
  0
LINE
  8
0
 10
13.750000
 20
68.650040
 11
28.250000
 21
68.650040
  0
LINE
  8
0
 10
29.250000
 20
90.150040
 11
29.250000
 21
69.650040
  0
LINE
  8
0
 10
33.250000
 20
89.426315
 11
33.250000
 21
70.373764
  0
LINE
  8
0
 10
29.250000
 20
71.400040
 11
33.250000
 21
71.400040
  0
LINE
  8
0
 10
29.250000
 20
88.400040
 11
33.250000
 21
88.400040
  0
LINE
  8
0
 10
29.250000
 20
86.900040
 11
33.250000
 21
86.900040
  0
LINE
  8
0
 10
29.250000
 20
72.900040
 11
33.250000
 21
72.900040
  0
CIRCLE
  8
0
 10
-26.500000
 20
-50.249985
 40
3.500000
  0
CIRCLE
  8
0
 10
26.499969
 20
34.750015
 40
3.500000
  0
ARC
  8
0
 10
26.499969
 20
34.750015
 40
5.500000
 50
90.000000
 51
270.000000
  0
ARC
  8
0
 10
-26.500000
 20
-50.249985
 40
5.500000
 50
270.000031
 51
89.999977
  0
ARC
  8
0
 10
-24.300018
 20
-2.949997
 40
1.000000
 50
270.000000
 51
0.000000
  0
ARC
  8
0
 10
-27.700012
 20
-2.949997
 40
1.000000
 50
180.000000
 51
270.000000
  0
ARC
  8
0
 10
-27.700012
 20
4.449993
 40
1.000000
 50
90.000000
 51
180.000000
  0
ARC
  8
0
 10
-24.300018
 20
4.449997
 40
1.000000
 50
0.000000
 51
90.000000
  0
ARC
  8
0
 10
-24.299988
 20
-34.949997
 40
1.000000
 50
270.000000
 51
0.000000
  0
ARC
  8
0
 10
-27.700012
 20
-34.949997
 40
1.000000
 50
180.000000
 51
270.000000
  0
ARC
  8
0
 10
-27.700012
 20
-27.550003
 40
1.000000
 50
90.000000
 51
180.000000
  0
ARC
  8
0
 10
-24.300018
 20
-27.550003
 40
1.000000
 50
0.000000
 51
90.000000
  0
ARC
  8
0
 10
27.699982
 20
-18.949966
 40
1.000000
 50
270.000000
 51
0.000000
  0
ARC
  8
0
 10
24.299988
 20
-18.949966
 40
1.000000
 50
180.000000
 51
270.000000
  0
ARC
  8
0
 10
24.299988
 20
-11.549973
 40
1.000000
 50
90.000000
 51
180.000000
  0
ARC
  8
0
 10
27.699982
 20
-11.549973
 40
1.000000
 50
0.000000
 51
90.000000
  0
ARC
  8
0
 10
24.299988
 20
-41.549973
 40
1.000000
 50
90.000000
 51
180.000000
  0
ARC
  8
0
 10
27.700012
 20
-41.549973
 40
1.000000
 50
0.000000
 51
90.000000
  0
ARC
  8
0
 10
27.700012
 20
-48.949966
 40
1.000000
 50
270.000000
 51
0.000000
  0
ARC
  8
0
 10
24.300018
 20
-48.949966
 40
1.000000
 50
180.000000
 51
270.000000
  0
ARC
  8
0
 10
24.299988
 20
18.450012
 40
1.000000
 50
90.000000
 51
180.000000
  0
ARC
  8
0
 10
27.699982
 20
18.450012
 40
1.000000
 50
0.000000
 51
90.000000
  0
ARC
  8
0
 10
27.699982
 20
11.050018
 40
1.000000
 50
270.000000
 51
0.000000
  0
ARC
  8
0
 10
24.299988
 20
11.050018
 40
1.000000
 50
180.000000
 51
270.000000
  0
ARC
  8
0
 10
28.000000
 20
-57.249985
 40
3.000000
 50
270.000000
 51
0.000000
  0
ARC
  8
0
 10
-28.000000
 20
-57.249985
 40
3.000000
 50
180.000000
 51
270.000000
  0
ARC
  8
0
 10
-17.250000
 20
1.250011
 40
4.000000
 50
270.000000
 51
89.999947
  0
CIRCLE
  8
0
 10
-17.250000
 20
1.250011
 40
3.500000
  0
ARC
  8
0
 10
3.999969
 20
13.750023
 40
2.000000
 50
0.000000
 51
90.000000
  0
ARC
  8
0
 10
-4.000031
 20
13.750023
 40
2.000000
 50
90.000000
 51
180.000000
  0
ARC
  8
0
 10
-3.999969
 20
-44.249985
 40
2.000000
 50
180.000000
 51
270.000000
  0
ARC
  8
0
 10
4.000031
 20
-44.249954
 40
2.000000
 50
270.000000
 51
0.000000
  0
ARC
  8
0
 10
3.999969
 20
13.750023
 40
1.000000
 50
0.000000
 51
90.000000
  0
ARC
  8
0
 10
-4.000031
 20
13.750023
 40
1.000000
 50
90.000000
 51
180.000000
  0
ARC
  8
0
 10
-3.999969
 20
-44.249985
 40
1.000000
 50
180.000000
 51
270.000000
  0
ARC
  8
0
 10
4.000031
 20
-44.249954
 40
1.000000
 50
270.000000
 51
0.000000
  0
ARC
  8
0
 10
-12.999969
 20
-86.749985
 40
3.000000
 50
180.000000
 51
270.000031
  0
ARC
  8
0
 10
13.000031
 20
-86.749954
 40
3.000000
 50
270.000000
 51
0.000000
  0
ARC
  8
0
 10
-19.500031
 20
33.750015
 40
1.500000
 50
90.000000
 51
180.000000
  0
ARC
  8
0
 10
-19.499969
 20
-64.249985
 40
1.500000
 50
180.000000
 51
270.000000
  0
ARC
  8
0
 10
19.500031
 20
-64.249954
 40
1.500000
 50
270.000000
 51
0.000000
  0
ARC
  8
0
 10
19.499969
 20
33.750046
 40
1.500000
 50
0.000000
 51
90.000000
  0
CIRCLE
  8
0
 10
17.250000
 20
-31.749954
 40
3.500000
  0
ARC
  8
0
 10
17.250000
 20
-31.749954
 40
4.000000
 50
90.000000
 51
269.999939
  0
CIRCLE
  8
0
 10
17.250000
 20
1.250031
 40
3.500000
  0
ARC
  8
0
 10
17.250000
 20
1.250031
 40
4.000000
 50
90.000000
 51
269.999939
  0
CIRCLE
  8
0
 10
-17.250000
 20
-31.749985
 40
3.500000
  0
ARC
  8
0
 10
-17.250000
 20
-31.749985
 40
4.000000
 50
270.000000
 51
89.999947
  0
ARC
  8
0
 10
28.250000
 20
69.650040
 40
1.000000
 50
270.000000
 51
0.000000
  0
ARC
  8
0
 10
28.250000
 20
90.150040
 40
1.000000
 50
0.000000
 51
90.000000
  0
ARC
  8
0
 10
13.000000
 20
56.250015
 40
3.000000
 50
0.000000
 51
90.000000
  0
ARC
  8
0
 10
-13.000000
 20
56.249985
 40
3.000000
 50
89.999985
 51
180.000000
  0
ARC
  8
0
 10
-27.850006
 20
56.750015
 40
3.000000
 50
90.000000
 51
180.000000
  0
ARC
  8
0
 10
27.849976
 20
56.750015
 40
3.000000
 50
0.000000
 51
90.000000
  0
ARC
  8
0
 10
-10.750000
 20
88.150040
 40
3.000000
 50
89.999985
 51
180.000000
  0
ARC
  8
0
 10
10.750000
 20
88.150040
 40
3.000000
 50
0.000000
 51
90.000000
  0
TEXT
  8
0
 10
-26.800001
 20
1.785640
 40
2.000000
  1
A
 50
-90.000000
 41
1.052632
 51
0.000000
  7
STANDARD
  0
TEXT
  8
0
 10
-26.800001
 20
-30.214359
 40
2.000000
  1
B
 50
-90.000000
 41
1.052632
 51
0.000000
  7
STANDARD
  0
TEXT
  8
0
 10
26.799999
 20
11.714390
 40
2.000000
  1
R
 50
90.000000
 41
1.052632
 51
0.000000
  7
STANDARD
  0
TEXT
  8
0
 10
26.799999
 20
-48.285610
 40
2.000000
  1
R
 50
90.000000
 41
1.052632
 51
0.000000
  7
STANDARD
  0
TEXT
  8
0
 10
26.799999
 20
-16.285610
 40
2.000000
  1
P
 50
90.000000
 41
1.052632
 51
0.000000
  7
STANDARD
  0
TEXT
  8
0
 10
26.799999
 20
-44.285610
 40
2.000000
  1
2
 50
90.000000
 41
1.052632
 51
0.000000
  7
STANDARD
  0
TEXT
  8
0
 10
26.799969
 20
15.714390
 40
2.000000
  1
1
 50
90.000000
 41
1.052632
 51
0.000000
  7
STANDARD
  0
TEXT
  8
0
 10
-14.307226
 20
-48.089985
 40
2.400000
  1
B
 50
-180.000000
 41
1.052632
 51
0.000000
  7
STANDARD
  0
TEXT
  8
0
 10
14.307226
 20
17.590031
 40
2.400000
  1
A
 50
0.000000
 41
1.052632
 51
0.000000
  7
STANDARD
  0
POINT
  8
0
 10
-26.500000
 20
236.250000
  0
POINT
  8
0
 10
26.500000
 20
236.250000
  0
POINT
  8
0
 10
-26.500000
 20
236.250000
  0
LINE
  8
0
 10
19.500031
 20
135.649994
 11
-19.499969
 21
135.649994
  0
LINE
  8
0
 10
14.500000
 20
190.649994
 11
-14.500000
 21
190.649994
  0
LINE
  8
0
 10
16.000031
 20
145.649994
 11
-15.999969
 21
145.649994
  0
LINE
  8
0
 10
16.000031
 20
175.649994
 11
-15.999969
 21
175.649994
  0
LINE
  8
0
 10
-16.000000
 20
137.149994
 11
-16.000000
 21
189.149994
  0
LINE
  8
0
 10
16.000000
 20
184.149994
 11
12.500000
 21
184.149994
  0
LINE
  8
0
 10
9.500000
 20
187.149994
 11
9.500000
 21
190.649994
  0
LINE
  8
0
 10
-16.000000
 20
184.149994
 11
-12.500000
 21
184.149994
  0
LINE
  8
0
 10
-9.500000
 20
187.149994
 11
-9.500000
 21
190.649994
  0
LINE
  8
0
 10
16.000031
 20
147.049988
 11
-15.999969
 21
147.049988
  0
LINE
  8
0
 10
16.000031
 20
149.049988
 11
-15.999969
 21
149.049988
  0
LINE
  8
0
 10
16.000031
 20
150.649994
 11
0.000031
 21
150.649994
  0
LINE
  8
0
 10
16.000031
 20
152.649994
 11
0.000031
 21
152.649994
  0
LINE
  8
0
 10
16.000031
 20
154.250000
 11
-15.999969
 21
154.250000
  0
LINE
  8
0
 10
16.000031
 20
156.250000
 11
-15.999969
 21
156.250000
  0
LINE
  8
0
 10
16.000031
 20
157.850006
 11
-15.999969
 21
157.850006
  0
LINE
  8
0
 10
16.000031
 20
159.850006
 11
-15.999969
 21
159.850006
  0
LINE
  8
0
 10
16.000031
 20
161.449982
 11
-15.999969
 21
161.449982
  0
LINE
  8
0
 10
16.000031
 20
163.449982
 11
-15.999969
 21
163.449982
  0
LINE
  8
0
 10
16.000031
 20
165.049988
 11
-15.999969
 21
165.049988
  0
LINE
  8
0
 10
16.000031
 20
167.049988
 11
-15.999969
 21
167.049988
  0
LINE
  8
0
 10
16.000031
 20
168.649994
 11
-15.999969
 21
168.649994
  0
LINE
  8
0
 10
16.000031
 20
170.649994
 11
-15.999969
 21
170.649994
  0
LINE
  8
0
 10
16.000031
 20
172.250000
 11
-15.999969
 21
172.250000
  0
LINE
  8
0
 10
16.000031
 20
174.250000
 11
-15.999969
 21
174.250000
  0
LINE
  8
0
 10
16.000000
 20
137.150024
 11
16.000000
 21
189.149994
  0
LINE
  8
0
 10
-13.000000
 20
150.649994
 11
-13.000000
 21
152.649994
  0
LINE
  8
0
 10
-12.999969
 20
150.649994
 11
-15.999969
 21
150.649994
  0
LINE
  8
0
 10
-12.999969
 20
152.649994
 11
-15.999969
 21
152.649994
  0
LINE
  8
0
 10
0.000000
 20
150.649994
 11
0.000000
 21
152.649994
  0
LINE
  8
0
 10
21.000000
 20
195.649994
 11
-21.000000
 21
195.649994
  0
LINE
  8
0
 10
21.000000
 20
137.150024
 11
21.000000
 21
196.250000
  0
LINE
  8
0
 10
-21.000000
 20
137.149994
 11
-21.000000
 21
196.250000
  0
LINE
  8
0
 10
17.232334
 20
180.650146
 11
16.366306
 21
182.150146
  0
LINE
  8
0
 10
16.366028
 20
182.149994
 11
16.000000
 21
182.149994
  0
LINE
  8
0
 10
16.366028
 20
179.149994
 11
16.000000
 21
179.149994
  0
LINE
  8
0
 10
17.232128
 20
180.649948
 11
16.366116
 21
179.149963
  0
LINE
  8
0
 10
-12.699982
 20
185.449982
 11
-12.699982
 21
186.949982
  0
LINE
  8
0
 10
-12.299988
 20
185.449982
 11
-12.299988
 21
186.949982
  0
LINE
  8
0
 10
-10.799988
 20
187.350006
 11
-12.299988
 21
187.350006
  0
LINE
  8
0
 10
-10.799988
 20
186.950012
 11
-12.299988
 21
186.950012
  0
LINE
  8
0
 10
-14.199982
 20
186.949982
 11
-14.199982
 21
187.349976
  0
LINE
  8
0
 10
-10.799988
 20
186.950012
 11
-10.799988
 21
187.350006
  0
LINE
  8
0
 10
-12.299988
 20
185.450012
 11
-12.699982
 21
185.450012
  0
LINE
  8
0
 10
-12.299988
 20
188.850006
 11
-12.699982
 21
188.850006
  0
LINE
  8
0
 10
-12.699982
 20
187.350006
 11
-14.199982
 21
187.350006
  0
LINE
  8
0
 10
-12.699982
 20
186.950012
 11
-14.199982
 21
186.950012
  0
LINE
  8
0
 10
-12.299988
 20
187.349976
 11
-12.299988
 21
188.849976
  0
LINE
  8
0
 10
-12.699982
 20
187.349976
 11
-12.699982
 21
188.849976
  0
LINE
  8
0
 10
12.300018
 20
187.350006
 11
12.300018
 21
188.850006
  0
LINE
  8
0
 10
12.700012
 20
187.350006
 11
12.700012
 21
188.850006
  0
LINE
  8
0
 10
12.300018
 20
185.450012
 11
12.300018
 21
186.950012
  0
LINE
  8
0
 10
12.700012
 20
185.450012
 11
12.700012
 21
186.950012
  0
LINE
  8
0
 10
14.200012
 20
187.350006
 11
12.700012
 21
187.350006
  0
LINE
  8
0
 10
14.200012
 20
186.950012
 11
12.700012
 21
186.950012
  0
LINE
  8
0
 10
10.800018
 20
186.950012
 11
10.800018
 21
187.350006
  0
LINE
  8
0
 10
14.200012
 20
186.950012
 11
14.200012
 21
187.350006
  0
LINE
  8
0
 10
12.700012
 20
185.450012
 11
12.300018
 21
185.450012
  0
LINE
  8
0
 10
12.700012
 20
188.850006
 11
12.300018
 21
188.850006
  0
LINE
  8
0
 10
12.300018
 20
187.350006
 11
10.800018
 21
187.350006
  0
LINE
  8
0
 10
12.300018
 20
186.950012
 11
10.800018
 21
186.950012
  0
LINE
  8
0
 10
-15.999969
 20
152.149994
 11
-16.365997
 21
152.149994
  0
LINE
  8
0
 10
-17.231863
 20
153.650070
 11
-16.365833
 21
152.150070
  0
LINE
  8
0
 10
-16.365971
 20
155.149994
 11
-17.231998
 21
153.649994
  0
LINE
  8
0
 10
-15.999969
 20
155.149994
 11
-16.365997
 21
155.149994
  0
LINE
  8
0
 10
4.000000
 20
179.750000
 11
-4.000000
 21
179.750000
  0
LINE
  8
0
 10
-12.500000
 20
183.149994
 11
-12.500000
 21
191.149994
  0
LINE
  8
0
 10
-8.500000
 20
187.149994
 11
-16.500000
 21
187.149994
  0
LINE
  8
0
 10
12.500000
 20
183.150024
 11
12.500000
 21
191.150024
  0
LINE
  8
0
 10
16.500000
 20
187.149994
 11
8.500000
 21
187.149994
  0
LINE
  8
0
 10
-21.000000
 20
196.250000
 11
21.000000
 21
196.250000
  0
LINE
  8
0
 10
21.000000
 20
196.250000
 11
21.000000
 21
197.250000
  0
LINE
  8
0
 10
-21.000000
 20
196.250000
 11
-21.000000
 21
197.250000
  0
LINE
  8
0
 10
-31.000000
 20
236.250000
 11
31.000000
 21
236.250000
  0
LINE
  8
0
 10
30.999969
 20
200.249969
 11
30.999969
 21
207.750000
  0
LINE
  8
0
 10
-31.000031
 20
200.250000
 11
-31.000031
 21
236.250000
  0
LINE
  8
0
 10
-28.000031
 20
197.250000
 11
-21.000031
 21
197.250000
  0
LINE
  8
0
 10
20.999969
 20
197.250000
 11
27.999969
 21
197.250000
  0
LINE
  8
0
 10
-25.000031
 20
207.250000
 11
-25.000031
 21
199.250000
  0
LINE
  8
0
 10
-25.000031
 20
233.250000
 11
-25.000031
 21
225.250000
  0
LINE
  8
0
 10
24.999969
 20
233.250000
 11
24.999969
 21
227.500000
  0
LINE
  8
0
 10
24.999969
 20
205.000000
 11
24.999969
 21
199.250000
  0
LINE
  8
0
 10
-29.000031
 20
203.250000
 11
-21.000031
 21
203.250000
  0
LINE
  8
0
 10
-29.000031
 20
229.250000
 11
-21.000031
 21
229.250000
  0
LINE
  8
0
 10
20.999969
 20
229.250000
 11
28.999969
 21
229.250000
  0
LINE
  8
0
 10
20.999969
 20
203.250000
 11
28.999969
 21
203.250000
  0
LINE
  8
0
 10
-13.750031
 20
227.000000
 11
-13.750031
 21
205.500000
  0
LINE
  8
0
 10
13.749969
 20
227.000000
 11
13.749969
 21
205.500000
  0
LINE
  8
0
 10
-10.750031
 20
202.500000
 11
10.749969
 21
202.500000
  0
LINE
  8
0
 10
-10.750031
 20
230.000000
 11
10.749969
 21
230.000000
  0
LINE
  8
0
 10
-1.272825
 20
215.401474
 11
-0.848579
 21
215.825729
  0
LINE
  8
0
 10
-0.848555
 20
214.977234
 11
-0.424309
 21
215.401474
  0
LINE
  8
0
 10
-1.272789
 20
215.401505
 11
-0.848520
 21
214.977234
  0
LINE
  8
0
 10
0.848515
 20
217.522827
 11
1.272783
 21
217.098557
  0
LINE
  8
0
 10
-1.967140
 20
217.792847
 11
-0.848562
 21
216.674271
  0
LINE
  8
0
 10
-1.542854
 20
218.217133
 11
-0.424276
 21
217.098557
  0
LINE
  8
0
 10
0.424227
 20
217.098526
 11
0.848495
 21
217.522797
  0
LINE
  8
0
 10
0.848497
 20
216.674286
 11
1.272766
 21
217.098541
  0
LINE
  8
0
 10
0.424244
 20
215.401459
 11
1.542843
 21
214.282867
  0
LINE
  8
0
 10
0.848530
 20
215.825745
 11
1.967129
 21
214.707153
  0
LINE
  8
0
 10
13.749969
 20
227.500000
 11
28.249969
 21
227.500000
  0
LINE
  8
0
 10
13.708008
 20
205.000000
 11
28.249969
 21
205.000000
  0
LINE
  8
0
 10
29.249969
 20
226.500000
 11
29.249969
 21
206.000000
  0
LINE
  8
0
 10
33.249969
 20
227.250000
 11
33.249969
 21
205.250000
  0
LINE
  8
0
 10
29.249969
 20
207.750000
 11
33.249969
 21
207.750000
  0
LINE
  8
0
 10
29.249969
 20
224.750000
 11
33.249969
 21
224.750000
  0
LINE
  8
0
 10
39.250000
 20
205.250000
 11
39.250000
 21
227.250000
  0
LINE
  8
0
 10
33.250000
 20
227.250000
 11
39.250000
 21
227.250000
  0
LINE
  8
0
 10
33.250000
 20
205.250000
 11
39.250000
 21
205.250000
  0
LINE
  8
0
 10
33.250000
 20
221.750000
 11
39.250000
 21
221.750000
  0
LINE
  8
0
 10
33.250000
 20
210.750000
 11
39.250000
 21
210.750000
  0
LINE
  8
0
 10
33.250000
 20
207.114685
 11
39.250000
 21
207.114685
  0
LINE
  8
0
 10
33.250000
 20
206.462433
 11
39.250000
 21
206.462433
  0
LINE
  8
0
 10
33.250000
 20
209.537567
 11
39.250000
 21
209.537567
  0
LINE
  8
0
 10
33.250000
 20
213.174866
 11
39.250000
 21
213.174866
  0
LINE
  8
0
 10
33.250000
 20
213.600586
 11
39.250000
 21
213.600586
  0
LINE
  8
0
 10
33.250000
 20
225.385315
 11
39.250000
 21
225.385315
  0
LINE
  8
0
 10
33.250000
 20
226.037567
 11
39.250000
 21
226.037567
  0
LINE
  8
0
 10
33.250000
 20
222.962433
 11
39.250000
 21
222.962433
  0
LINE
  8
0
 10
33.250000
 20
219.325134
 11
39.250000
 21
219.325134
  0
LINE
  8
0
 10
33.250000
 20
218.899414
 11
39.250000
 21
218.899414
  0
LINE
  8
0
 10
23.727192
 20
204.098526
 11
24.151459
 21
204.522797
  0
LINE
  8
0
 10
25.848518
 20
201.977203
 11
26.272785
 21
202.401459
  0
LINE
  8
0
 10
23.727184
 20
202.401474
 11
24.151455
 21
202.825745
  0
LINE
  8
0
 10
24.151455
 20
201.977203
 11
24.575726
 21
202.401474
  0
LINE
  8
0
 10
23.727196
 20
202.401489
 11
24.151463
 21
201.977219
  0
LINE
  8
0
 10
25.848518
 20
204.522812
 11
26.272785
 21
204.098541
  0
LINE
  8
0
 10
23.727207
 20
204.098526
 11
24.151451
 21
203.674286
  0
LINE
  8
0
 10
24.151470
 20
204.522812
 11
24.575718
 21
204.098557
  0
LINE
  8
0
 10
25.424236
 20
204.098526
 11
25.848507
 21
204.522797
  0
LINE
  8
0
 10
25.848507
 20
203.674255
 11
26.272778
 21
204.098526
  0
LINE
  8
0
 10
25.424259
 20
202.401474
 11
25.848526
 21
201.977203
  0
LINE
  8
0
 10
25.848522
 20
202.825745
 11
26.272793
 21
202.401489
  0
LINE
  8
0
 10
23.727188
 20
230.098557
 11
24.151459
 21
230.522827
  0
LINE
  8
0
 10
25.848511
 20
227.977219
 11
26.272781
 21
228.401474
  0
LINE
  8
0
 10
23.727173
 20
228.401474
 11
24.151443
 21
228.825745
  0
LINE
  8
0
 10
24.151451
 20
227.977203
 11
24.575718
 21
228.401474
  0
LINE
  8
0
 10
23.727219
 20
228.401505
 11
24.151489
 21
227.977234
  0
LINE
  8
0
 10
25.848530
 20
230.522812
 11
26.272797
 21
230.098541
  0
LINE
  8
0
 10
23.727211
 20
230.098557
 11
24.151478
 21
229.674286
  0
LINE
  8
0
 10
24.151466
 20
230.522812
 11
24.575733
 21
230.098541
  0
LINE
  8
0
 10
25.424229
 20
230.098526
 11
25.848495
 21
230.522797
  0
LINE
  8
0
 10
25.848503
 20
229.674255
 11
26.272770
 21
230.098526
  0
LINE
  8
0
 10
25.424263
 20
228.401505
 11
25.848530
 21
227.977234
  0
LINE
  8
0
 10
25.848515
 20
228.825760
 11
26.272785
 21
228.401489
  0
LINE
  8
0
 10
30.999969
 20
224.750000
 11
30.999969
 21
236.249969
  0
LINE
  8
0
 10
29.249969
 20
223.250000
 11
33.249969
 21
223.250000
  0
LINE
  8
0
 10
29.249969
 20
209.250000
 11
33.249969
 21
209.250000
  0
LINE
  8
0
 10
-26.272831
 20
204.098541
 11
-25.848564
 21
204.522812
  0
LINE
  8
0
 10
-24.151512
 20
201.977219
 11
-23.727245
 21
202.401489
  0
LINE
  8
0
 10
-26.272835
 20
202.401459
 11
-25.848566
 21
202.825745
  0
LINE
  8
0
 10
-25.848577
 20
201.977203
 11
-25.424309
 21
202.401489
  0
LINE
  8
0
 10
-26.272808
 20
202.401489
 11
-25.848539
 21
201.977219
  0
LINE
  8
0
 10
-24.151495
 20
204.522797
 11
-23.727226
 21
204.098526
  0
LINE
  8
0
 10
-26.272808
 20
204.098541
 11
-25.848545
 21
203.674286
  0
LINE
  8
0
 10
-25.848547
 20
204.522797
 11
-25.424284
 21
204.098526
  0
LINE
  8
0
 10
-24.575783
 20
204.098511
 11
-24.151514
 21
204.522781
  0
LINE
  8
0
 10
-24.151525
 20
203.674255
 11
-23.727257
 21
204.098541
  0
LINE
  8
0
 10
-24.575752
 20
202.401489
 11
-24.151489
 21
201.977219
  0
LINE
  8
0
 10
-24.151489
 20
202.825729
 11
-23.727226
 21
202.401474
  0
LINE
  8
0
 10
-26.272823
 20
230.098511
 11
-25.848555
 21
230.522781
  0
LINE
  8
0
 10
-24.151508
 20
227.977203
 11
-23.727240
 21
228.401474
  0
LINE
  8
0
 10
-26.272831
 20
228.401474
 11
-25.848564
 21
228.825745
  0
LINE
  8
0
 10
-25.848558
 20
227.977219
 11
-25.424290
 21
228.401489
  0
LINE
  8
0
 10
-26.272816
 20
228.401505
 11
-25.848547
 21
227.977234
  0
LINE
  8
0
 10
-24.151497
 20
230.522797
 11
-23.727228
 21
230.098526
  0
LINE
  8
0
 10
-26.272814
 20
230.098557
 11
-25.848551
 21
229.674286
  0
LINE
  8
0
 10
-25.848549
 20
230.522797
 11
-25.424286
 21
230.098526
  0
LINE
  8
0
 10
-24.575779
 20
230.098526
 11
-24.151512
 21
230.522797
  0
LINE
  8
0
 10
-24.151506
 20
229.674271
 11
-23.727238
 21
230.098541
  0
LINE
  8
0
 10
-24.575756
 20
228.401489
 11
-24.151493
 21
227.977234
  0
LINE
  8
0
 10
-24.151491
 20
228.825745
 11
-23.727228
 21
228.401474
  0
ARC
  8
0
 10
-14.499969
 20
137.149994
 40
1.500000
 50
180.000000
 51
270.000000
  0
ARC
  8
0
 10
14.500031
 20
137.149994
 40
1.500000
 50
270.000000
 51
0.000000
  0
CIRCLE
  8
0
 10
12.500000
 20
187.149994
 40
2.500000
  0
ARC
  8
0
 10
14.500000
 20
189.149994
 40
1.500000
 50
0.000000
 51
90.000000
  0
ARC
  8
0
 10
-14.500000
 20
189.149994
 40
1.500000
 50
90.000038
 51
180.000000
  0
ARC
  8
0
 10
12.500000
 20
187.149994
 40
3.000000
 50
180.000000
 51
270.000000
  0
CIRCLE
  8
0
 10
0.000000
 20
179.750000
 40
2.150000
  0
CIRCLE
  8
0
 10
0.000000
 20
179.750000
 40
1.500000
  0
CIRCLE
  8
0
 10
-12.500000
 20
187.149994
 40
2.500000
  0
ARC
  8
0
 10
-12.500000
 20
187.149994
 40
3.000000
 50
270.000031
 51
0.000000
  0
ARC
  8
0
 10
-19.499969
 20
137.149994
 40
1.500000
 50
180.000000
 51
270.000000
  0
ARC
  8
0
 10
19.500031
 20
137.149994
 40
1.500000
 50
270.000000
 51
0.000000
  0
ARC
  8
0
 10
15.500000
 20
180.649994
 40
3.499995
 50
278.213287
 51
81.786774
  0
ARC
  8
0
 10
-15.499969
 20
153.649994
 40
3.499999
 50
98.213715
 51
261.786224
  0
ARC
  8
0
 10
15.500000
 20
180.649994
 40
4.000002
 50
277.180878
 51
82.819191
  0
ARC
  8
0
 10
-15.499969
 20
153.649994
 40
4.000005
 50
97.181190
 51
262.818756
  0
ARC
  8
0
 10
-26.272823
 20
229.250000
 40
0.600005
 50
314.999603
 51
45.000385
  0
ARC
  8
0
 10
-23.727238
 20
229.250000
 40
0.600004
 50
134.999481
 51
225.000381
  0
ARC
  8
0
 10
-25.000031
 20
227.977203
 40
0.600005
 50
45.000385
 51
134.999481
  0
ARC
  8
0
 10
-28.000031
 20
200.250000
 40
3.000000
 50
180.000000
 51
269.999939
  0
ARC
  8
0
 10
27.999969
 20
200.249969
 40
3.000000
 50
269.999939
 51
0.000000
  0
ARC
  8
0
 10
10.749969
 20
227.000000
 40
3.000000
 50
0.000000
 51
90.000000
  0
ARC
  8
0
 10
10.749969
 20
205.500000
 40
3.000000
 50
270.000000
 51
0.000000
  0
ARC
  8
0
 10
-10.750031
 20
205.500000
 40
3.000000
 50
180.000000
 51
270.000031
  0
ARC
  8
0
 10
-10.750031
 20
227.000000
 40
3.000000
 50
89.999985
 51
180.000000
  0
CIRCLE
  8
0
 10
-0.000031
 20
216.250000
 40
2.799999
  0
ARC
  8
0
 10
-0.000031
 20
217.522797
 40
0.600005
 50
225.000381
 51
314.999603
  0
ARC
  8
0
 10
-1.272827
 20
216.250000
 40
0.600005
 50
314.999603
 51
45.000385
  0
ARC
  8
0
 10
1.272766
 20
216.250000
 40
0.600004
 50
134.999481
 51
224.999359
  0
ARC
  8
0
 10
-0.000031
 20
214.977203
 40
0.600005
 50
45.000385
 51
134.999481
  0
CIRCLE
  8
0
 10
-0.000031
 20
216.250000
 40
3.500000
  0
ARC
  8
0
 10
-0.000031
 20
216.250000
 40
2.500007
 50
128.107803
 51
141.892136
  0
ARC
  8
0
 10
-0.000031
 20
216.250000
 40
2.500002
 50
308.107666
 51
321.892059
  0
ARC
  8
0
 10
28.249969
 20
226.500000
 40
1.000000
 50
0.000000
 51
90.000000
  0
ARC
  8
0
 10
28.249969
 20
206.000000
 40
1.000000
 50
270.000000
 51
0.000000
  0
ARC
  8
0
 10
24.999969
 20
204.522797
 40
0.599993
 50
224.999481
 51
315.000519
  0
ARC
  8
0
 10
23.727173
 20
203.250000
 40
0.599993
 50
315.000519
 51
44.999485
  0
ARC
  8
0
 10
26.272766
 20
203.250000
 40
0.599993
 50
135.000519
 51
224.999481
  0
ARC
  8
0
 10
24.999969
 20
201.977203
 40
0.599993
 50
44.999485
 51
135.000519
  0
ARC
  8
0
 10
24.999969
 20
229.250000
 40
2.799997
 50
321.317749
 51
218.682190
  0
ARC
  8
0
 10
24.999969
 20
230.522797
 40
0.600004
 50
225.000519
 51
314.999481
  0
ARC
  8
0
 10
23.727173
 20
229.250000
 40
0.600004
 50
314.999481
 51
45.000515
  0
ARC
  8
0
 10
26.272766
 20
229.250000
 40
0.600004
 50
134.999481
 51
225.000519
  0
ARC
  8
0
 10
24.999969
 20
227.977203
 40
0.600004
 50
45.000515
 51
134.999481
  0
ARC
  8
0
 10
24.999969
 20
203.250000
 40
2.800000
 50
141.317810
 51
38.682190
  0
CIRCLE
  8
0
 10
-25.000031
 20
203.250000
 40
2.799999
  0
ARC
  8
0
 10
-25.000031
 20
204.522797
 40
0.599994
 50
224.999359
 51
315.000641
  0
ARC
  8
0
 10
-26.272823
 20
203.250000
 40
0.599994
 50
315.000641
 51
44.999355
  0
ARC
  8
0
 10
-23.727238
 20
203.250000
 40
0.599993
 50
135.000519
 51
224.999359
  0
ARC
  8
0
 10
-25.000031
 20
201.977203
 40
0.599994
 50
44.999355
 51
135.000519
  0
CIRCLE
  8
0
 10
-25.000031
 20
229.250000
 40
2.799999
  0
ARC
  8
0
 10
-25.000031
 20
230.522797
 40
0.600005
 50
225.000381
 51
314.999603
  0
TEXT
  8
0
 10
-3.638963
 20
152.089996
 40
1.599999
  1
AC200V
 50
-180.000000
 41
0.651237
 51
0.000000
  7
STANDARD
  0
POINT
  8
0
 10
-26.500000
 20
-236.750000
  0
POINT
  8
0
 10
26.500000
 20
-236.750000
  0
POINT
  8
0
 10
-26.500000
 20
-236.750000
  0
LINE
  8
0
 10
-21.000000
 20
-196.750000
 11
21.000000
 21
-196.750000
  0
LINE
  8
0
 10
-31.000000
 20
-236.750000
 11
31.000000
 21
-236.750000
  0
LINE
  8
0
 10
31.000000
 20
-200.750000
 11
31.000000
 21
-236.750000
  0
LINE
  8
0
 10
-31.000000
 20
-200.750000
 11
-31.000000
 21
-236.750000
  0
LINE
  8
0
 10
-28.000000
 20
-197.750000
 11
-21.000000
 21
-197.750000
  0
LINE
  8
0
 10
21.000000
 20
-196.750000
 11
21.000000
 21
-197.750000
  0
LINE
  8
0
 10
-21.000000
 20
-196.750000
 11
-21.000000
 21
-197.750000
  0
LINE
  8
0
 10
21.000000
 20
-197.750000
 11
28.000000
 21
-197.750000
  0
LINE
  8
0
 10
-6.700012
 20
-215.049988
 11
-6.700012
 21
-218.450012
  0
LINE
  8
0
 10
2.700012
 20
-215.049988
 11
2.700012
 21
-218.450012
  0
LINE
  8
0
 10
1.700012
 20
-219.449982
 11
-5.699951
 21
-219.449982
  0
LINE
  8
0
 10
1.700012
 20
-214.049988
 11
-5.699951
 21
-214.049988
  0
LINE
  8
0
 10
-4.000000
 20
-228.250000
 11
6.225159
 21
-228.250000
  0
LINE
  8
0
 10
0.000000
 20
-131.150024
 11
0.000000
 21
-241.750000
  0
LINE
  8
0
 10
-2.000000
 20
-221.250000
 11
-2.000000
 21
-235.250000
  0
LINE
  8
0
 10
-19.500000
 20
-136.150024
 11
19.500000
 21
-136.150024
  0
LINE
  8
0
 10
-16.000000
 20
-191.150024
 11
16.000000
 21
-191.150024
  0
LINE
  8
0
 10
-16.000000
 20
-146.150024
 11
16.000000
 21
-146.150024
  0
LINE
  8
0
 10
-16.000000
 20
-176.150024
 11
16.000000
 21
-176.150024
  0
LINE
  8
0
 10
-16.000000
 20
-184.650024
 11
-12.500000
 21
-184.650024
  0
LINE
  8
0
 10
-9.500000
 20
-187.650024
 11
-9.500000
 21
-191.150024
  0
LINE
  8
0
 10
8.000000
 20
-187.650024
 11
17.000000
 21
-187.650024
  0
LINE
  8
0
 10
16.000000
 20
-184.650024
 11
12.500000
 21
-184.650024
  0
LINE
  8
0
 10
9.500000
 20
-187.650024
 11
9.500000
 21
-191.150024
  0
LINE
  8
0
 10
-16.000000
 20
-147.550018
 11
16.000000
 21
-147.550018
  0
LINE
  8
0
 10
-16.000000
 20
-149.550018
 11
16.000000
 21
-149.550018
  0
LINE
  8
0
 10
-16.000000
 20
-151.150024
 11
0.000000
 21
-151.150024
  0
LINE
  8
0
 10
-16.000000
 20
-153.150024
 11
0.000000
 21
-153.150024
  0
LINE
  8
0
 10
-16.000000
 20
-154.750031
 11
16.000000
 21
-154.750031
  0
LINE
  8
0
 10
-16.000000
 20
-156.750031
 11
16.000000
 21
-156.750031
  0
LINE
  8
0
 10
-16.000000
 20
-158.350006
 11
16.000000
 21
-158.350006
  0
LINE
  8
0
 10
-16.000000
 20
-160.350006
 11
16.000000
 21
-160.350006
  0
LINE
  8
0
 10
-16.000000
 20
-161.950012
 11
16.000000
 21
-161.950012
  0
LINE
  8
0
 10
-16.000000
 20
-163.950012
 11
16.000000
 21
-163.950012
  0
LINE
  8
0
 10
-16.000000
 20
-165.550018
 11
16.000000
 21
-165.550018
  0
LINE
  8
0
 10
-16.000000
 20
-167.550018
 11
16.000000
 21
-167.550018
  0
LINE
  8
0
 10
-16.000000
 20
-169.149994
 11
16.000000
 21
-169.149994
  0
LINE
  8
0
 10
-16.000000
 20
-171.149994
 11
16.000000
 21
-171.149994
  0
LINE
  8
0
 10
-16.000000
 20
-172.750000
 11
16.000000
 21
-172.750000
  0
LINE
  8
0
 10
-16.000000
 20
-174.750000
 11
16.000000
 21
-174.750000
  0
LINE
  8
0
 10
-16.000000
 20
-137.650024
 11
-16.000000
 21
-191.150024
  0
LINE
  8
0
 10
16.000000
 20
-137.650024
 11
16.000000
 21
-191.150024
  0
LINE
  8
0
 10
13.000000
 20
-151.150024
 11
13.000000
 21
-153.150024
  0
LINE
  8
0
 10
13.000000
 20
-151.150024
 11
16.000000
 21
-151.150024
  0
LINE
  8
0
 10
13.000000
 20
-153.150024
 11
16.000000
 21
-153.150024
  0
LINE
  8
0
 10
0.000000
 20
-151.150024
 11
0.000000
 21
-153.150024
  0
LINE
  8
0
 10
-21.000000
 20
-196.150024
 11
21.000000
 21
-196.150024
  0
LINE
  8
0
 10
-21.000000
 20
-137.650024
 11
-21.000000
 21
-197.750000
  0
LINE
  8
0
 10
21.000000
 20
-137.650024
 11
21.000000
 21
-197.750000
  0
LINE
  8
0
 10
-17.231724
 20
-181.149826
 11
-16.365692
 21
-182.649826
  0
LINE
  8
0
 10
-16.366028
 20
-182.650024
 11
-16.000000
 21
-182.650024
  0
LINE
  8
0
 10
-16.366028
 20
-179.650024
 11
-16.000000
 21
-179.650024
  0
LINE
  8
0
 10
-17.231886
 20
-181.150162
 11
-16.365875
 21
-179.650177
  0
LINE
  8
0
 10
12.700012
 20
-185.950012
 11
12.700012
 21
-187.450012
  0
LINE
  8
0
 10
12.300018
 20
-185.950012
 11
12.300018
 21
-187.450012
  0
LINE
  8
0
 10
10.800018
 20
-187.850006
 11
12.300018
 21
-187.850006
  0
LINE
  8
0
 10
10.800018
 20
-187.450012
 11
12.300018
 21
-187.450012
  0
LINE
  8
0
 10
14.200012
 20
-187.450012
 11
14.200012
 21
-187.850006
  0
LINE
  8
0
 10
10.800018
 20
-187.450012
 11
10.800018
 21
-187.850006
  0
LINE
  8
0
 10
12.300018
 20
-185.950012
 11
12.700012
 21
-185.950012
  0
LINE
  8
0
 10
12.300018
 20
-189.350006
 11
12.700012
 21
-189.350006
  0
LINE
  8
0
 10
12.700012
 20
-187.850006
 11
14.200012
 21
-187.850006
  0
LINE
  8
0
 10
12.700012
 20
-187.450012
 11
14.200012
 21
-187.450012
  0
LINE
  8
0
 10
12.300018
 20
-187.850006
 11
12.300018
 21
-189.350006
  0
LINE
  8
0
 10
12.700012
 20
-187.850006
 11
12.700012
 21
-189.350006
  0
LINE
  8
0
 10
-12.299988
 20
-187.850006
 11
-12.299988
 21
-189.350006
  0
LINE
  8
0
 10
-12.699982
 20
-187.850006
 11
-12.699982
 21
-189.350006
  0
LINE
  8
0
 10
-12.299988
 20
-185.950012
 11
-12.299988
 21
-187.450012
  0
LINE
  8
0
 10
-12.699982
 20
-185.950012
 11
-12.699982
 21
-187.450012
  0
LINE
  8
0
 10
-14.199982
 20
-187.850006
 11
-12.699982
 21
-187.850006
  0
LINE
  8
0
 10
-14.199982
 20
-187.450012
 11
-12.699982
 21
-187.450012
  0
LINE
  8
0
 10
-10.799988
 20
-187.450012
 11
-10.799988
 21
-187.850006
  0
LINE
  8
0
 10
-14.199982
 20
-187.450012
 11
-14.199982
 21
-187.850006
  0
LINE
  8
0
 10
-12.699982
 20
-185.950012
 11
-12.299988
 21
-185.950012
  0
LINE
  8
0
 10
-12.699982
 20
-189.350006
 11
-12.299988
 21
-189.350006
  0
LINE
  8
0
 10
-12.299988
 20
-187.850006
 11
-10.799988
 21
-187.850006
  0
LINE
  8
0
 10
-12.299988
 20
-187.450012
 11
-10.799988
 21
-187.450012
  0
LINE
  8
0
 10
16.000000
 20
-152.650024
 11
16.366028
 21
-152.650024
  0
LINE
  8
0
 10
17.232399
 20
-154.149765
 11
16.366371
 21
-152.649765
  0
LINE
  8
0
 10
16.366043
 20
-155.650024
 11
17.232071
 21
-154.150024
  0
LINE
  8
0
 10
16.000000
 20
-155.650024
 11
16.366028
 21
-155.650024
  0
LINE
  8
0
 10
-4.000000
 20
-180.250000
 11
4.000000
 21
-180.250000
  0
LINE
  8
0
 10
33.249969
 20
-205.750000
 11
33.249969
 21
-227.750000
  0
LINE
  8
0
 10
30.999969
 20
-225.250000
 11
33.249969
 21
-225.250000
  0
LINE
  8
0
 10
30.999969
 20
-208.250000
 11
33.249969
 21
-208.250000
  0
LINE
  8
0
 10
39.250000
 20
-227.750000
 11
39.250000
 21
-205.750000
  0
LINE
  8
0
 10
33.250000
 20
-205.750000
 11
39.250000
 21
-205.750000
  0
LINE
  8
0
 10
33.250000
 20
-227.750000
 11
39.250000
 21
-227.750000
  0
LINE
  8
0
 10
33.250000
 20
-211.250000
 11
39.250000
 21
-211.250000
  0
LINE
  8
0
 10
33.250000
 20
-222.250000
 11
39.250000
 21
-222.250000
  0
LINE
  8
0
 10
33.250000
 20
-225.885315
 11
39.250000
 21
-225.885315
  0
LINE
  8
0
 10
33.250000
 20
-226.537567
 11
39.250000
 21
-226.537567
  0
LINE
  8
0
 10
33.250000
 20
-223.462433
 11
39.250000
 21
-223.462433
  0
LINE
  8
0
 10
33.250000
 20
-219.825134
 11
39.250000
 21
-219.825134
  0
LINE
  8
0
 10
33.250000
 20
-219.399414
 11
39.250000
 21
-219.399414
  0
LINE
  8
0
 10
33.250000
 20
-207.614685
 11
39.250000
 21
-207.614685
  0
LINE
  8
0
 10
33.250000
 20
-206.962433
 11
39.250000
 21
-206.962433
  0
LINE
  8
0
 10
33.250000
 20
-210.037567
 11
39.250000
 21
-210.037567
  0
LINE
  8
0
 10
33.250000
 20
-213.674866
 11
39.250000
 21
-213.674866
  0
LINE
  8
0
 10
33.250000
 20
-214.100586
 11
39.250000
 21
-214.100586
  0
LINE
  8
0
 10
30.999969
 20
-209.750000
 11
33.249969
 21
-209.750000
  0
LINE
  8
0
 10
30.999969
 20
-223.750000
 11
33.249969
 21
-223.750000
  0
LINE
  8
0
 10
25.515869
 20
-216.750000
 11
43.977692
 21
-216.750000
  0
ARC
  8
0
 10
-28.000000
 20
-200.750000
 40
3.000000
 50
90.000000
 51
180.000000
  0
ARC
  8
0
 10
28.000000
 20
-200.749969
 40
3.000000
 50
0.000000
 51
90.000000
  0
ARC
  8
0
 10
-5.700012
 20
-215.049988
 40
1.000000
 50
89.999893
 51
180.000000
  0
ARC
  8
0
 10
-5.700012
 20
-218.449982
 40
1.000000
 50
180.000000
 51
269.999878
  0
ARC
  8
0
 10
1.700012
 20
-218.449982
 40
1.000000
 50
270.000000
 51
0.000000
  0
ARC
  8
0
 10
1.700012
 20
-215.049988
 40
1.000000
 50
0.000000
 51
89.999893
  0
CIRCLE
  8
0
 10
-2.000000
 20
-228.250000
 40
4.282999
  0
CIRCLE
  8
0
 10
-2.000000
 20
-228.250000
 40
4.863998
  0
ARC
  8
0
 10
15.500000
 20
-154.150024
 40
4.000001
 50
277.180756
 51
82.819244
  0
ARC
  8
0
 10
14.500000
 20
-137.650024
 40
1.500000
 50
0.000000
 51
90.000000
  0
ARC
  8
0
 10
-14.500000
 20
-137.650024
 40
1.500000
 50
90.000000
 51
180.000000
  0
CIRCLE
  8
0
 10
-12.500000
 20
-187.650024
 40
2.500000
  0
ARC
  8
0
 10
-12.500000
 20
-187.650024
 40
3.000000
 50
0.000000
 51
89.999985
  0
CIRCLE
  8
0
 10
0.000000
 20
-180.250000
 40
2.150000
  0
CIRCLE
  8
0
 10
0.000000
 20
-180.250000
 40
1.500000
  0
CIRCLE
  8
0
 10
12.500000
 20
-187.650024
 40
2.500000
  0
ARC
  8
0
 10
12.500000
 20
-187.650024
 40
3.000000
 50
90.000000
 51
180.000000
  0
ARC
  8
0
 10
19.500000
 20
-137.650024
 40
1.500000
 50
0.000000
 51
90.000000
  0
ARC
  8
0
 10
-19.500000
 20
-137.650024
 40
1.500000
 50
90.000000
 51
180.000000
  0
ARC
  8
0
 10
-15.500000
 20
-181.150024
 40
3.499994
 50
98.213211
 51
261.786713
  0
ARC
  8
0
 10
15.500000
 20
-154.150024
 40
3.500010
 50
278.213196
 51
81.786812
  0
ARC
  8
0
 10
-15.500000
 20
-181.150024
 40
4.000001
 50
97.180756
 51
262.819183
  0
TEXT
  8
0
 10
-5.035625
 20
-217.550003
 40
2.000000
  1
P
 50
0.000000
 41
1.052632
 51
0.000000
  7
STANDARD
  0
TEXT
  8
0
 10
-0.856426
 20
-217.540756
 40
2.000000
  1
R
 50
0.000000
 41
1.052632
 51
0.000000
  7
STANDARD
  0
TEXT
  8
0
 10
3.725090
 20
-152.230026
 40
1.200000
  1
AC200V
 50
0.000000
 41
0.844285
 51
0.000000
  7
STANDARD
  0
POINT
  8
0
 10
-227.500000
 20
-50.249985
  0
POINT
  8
0
 10
-126.899994
 20
-50.249985
  0
POINT
  8
0
 10
-227.500000
 20
-50.249985
  0
LINE
  8
0
 10
-227.500031
 20
-60.249985
 11
-186.899994
 21
-60.249985
  0
LINE
  8
0
 10
-227.500000
 20
45.750031
 11
-227.500000
 21
-60.249954
  0
LINE
  8
0
 10
-227.500000
 20
45.750015
 11
-188.500000
 21
45.750015
  0
LINE
  8
0
 10
-188.500000
 20
45.750015
 11
-188.500000
 21
-57.249985
  0
LINE
  8
0
 10
-198.862000
 20
-50.249985
 11
-183.773285
 21
-50.249985
  0
LINE
  8
0
 10
-196.500000
 20
-55.749985
 11
-188.500000
 21
-55.749985
  0
LINE
  8
0
 10
-196.500000
 20
-44.749985
 11
-188.500000
 21
-44.749985
  0
LINE
  8
0
 10
-196.500000
 20
-44.749985
 11
-196.500000
 21
-55.749985
  0
LINE
  8
0
 10
-188.500000
 20
34.750015
 11
-186.899994
 21
34.750015
  0
LINE
  8
0
 10
-219.800018
 20
2.450012
 11
-219.800018
 21
-4.949966
  0
LINE
  8
0
 10
-225.200012
 20
2.450012
 11
-225.200012
 21
-4.949966
  0
LINE
  8
0
 10
-220.800018
 20
-5.949966
 11
-224.200012
 21
-5.949966
  0
LINE
  8
0
 10
-220.800018
 20
3.450012
 11
-224.200012
 21
3.450012
  0
LINE
  8
0
 10
-220.800018
 20
-35.949966
 11
-224.200012
 21
-35.949966
  0
LINE
  8
0
 10
-220.800018
 20
-26.549973
 11
-224.200012
 21
-26.549973
  0
LINE
  8
0
 10
-219.800018
 20
-27.549973
 11
-219.800018
 21
-34.949966
  0
LINE
  8
0
 10
-225.200012
 20
-27.549973
 11
-225.200012
 21
-34.949966
  0
LINE
  8
0
 10
-217.500031
 20
-31.249985
 11
-197.500031
 21
-31.249985
  0
LINE
  8
0
 10
-207.500031
 20
8.750015
 11
-207.500031
 21
-41.249985
  0
LINE
  8
0
 10
-217.500031
 20
-1.249985
 11
-197.500031
 21
-1.249985
  0
LINE
  8
0
 10
-178.599976
 20
57.250015
 11
-178.599976
 21
58.250015
  0
LINE
  8
0
 10
-177.400024
 20
59.249985
 11
-179.400024
 21
59.249985
  0
LINE
  8
0
 10
-178.200012
 20
57.249985
 11
-178.600006
 21
57.249985
  0
LINE
  8
0
 10
-168.849976
 20
-90.449997
 11
-173.149963
 21
-90.449997
  0
LINE
  8
0
 10
-168.849976
 20
-89.749985
 11
-168.849976
 21
-90.449997
  0
LINE
  8
0
 10
-173.149994
 20
-89.749985
 11
-173.149994
 21
-90.449997
  0
LINE
  8
0
 10
-178.199982
 20
57.250015
 11
-178.199982
 21
58.250015
  0
LINE
  8
0
 10
-126.899994
 20
-88.249954
 11
-126.899994
 21
57.750015
  0
LINE
  8
0
 10
-181.899994
 20
-88.249985
 11
-181.899994
 21
-65.749985
  0
LINE
  8
0
 10
-126.899994
 20
-35.749985
 11
-154.899994
 21
-35.749985
  0
LINE
  8
0
 10
-126.899994
 20
-27.749985
 11
-154.899994
 21
-27.749985
  0
LINE
  8
0
 10
-154.899994
 20
-35.749954
 11
-154.899994
 21
-27.749954
  0
LINE
  8
0
 10
-150.899994
 20
-35.249954
 11
-150.899994
 21
-28.249954
  0
LINE
  8
0
 10
-126.899963
 20
-65.749985
 11
-186.899963
 21
-65.749985
  0
LINE
  8
0
 10
-126.899994
 20
35.250015
 11
-186.899994
 21
35.250015
  0
LINE
  8
0
 10
-136.899994
 20
-55.749954
 11
-136.899994
 21
25.250031
  0
LINE
  8
0
 10
-150.137451
 20
-31.749985
 11
-156.505188
 21
-31.749985
  0
LINE
  8
0
 10
-150.899994
 20
-28.249985
 11
-154.899994
 21
-28.249985
  0
LINE
  8
0
 10
-150.899994
 20
-35.249985
 11
-154.899994
 21
-35.249985
  0
LINE
  8
0
 10
-178.399994
 20
54.170151
 11
-178.399994
 21
59.995865
  0
LINE
  8
0
 10
-175.400024
 20
55.249985
 11
-181.900024
 21
55.249985
  0
LINE
  8
0
 10
-177.400024
 20
58.249985
 11
-179.400024
 21
58.249985
  0
LINE
  8
0
 10
-175.399994
 20
55.250015
 11
-175.399994
 21
59.250015
  0
LINE
  8
0
 10
-180.899994
 20
55.249985
 11
-180.899994
 21
56.749985
  0
LINE
  8
0
 10
-175.899994
 20
55.250015
 11
-175.899994
 21
56.750015
  0
LINE
  8
0
 10
-175.900024
 20
56.249985
 11
-180.900024
 21
56.249985
  0
LINE
  8
0
 10
-173.149994
 20
59.250015
 11
-173.149994
 21
59.950027
  0
LINE
  8
0
 10
-168.849976
 20
59.250015
 11
-168.849976
 21
59.950027
  0
LINE
  8
0
 10
-168.850006
 20
59.949997
 11
-173.150024
 21
59.949997
  0
LINE
  8
0
 10
-178.399994
 20
-84.670120
 11
-178.399994
 21
-90.495834
  0
LINE
  8
0
 10
-175.399963
 20
-85.749985
 11
-181.899963
 21
-85.749985
  0
LINE
  8
0
 10
-177.399963
 20
-88.749985
 11
-179.399963
 21
-88.749985
  0
LINE
  8
0
 10
-175.399994
 20
-85.749985
 11
-175.399994
 21
-89.749985
  0
LINE
  8
0
 10
-180.899994
 20
-85.749985
 11
-180.899994
 21
-87.249985
  0
LINE
  8
0
 10
-175.899994
 20
-85.749985
 11
-175.899994
 21
-87.249985
  0
LINE
  8
0
 10
-175.899963
 20
-86.749985
 11
-180.899963
 21
-86.749985
  0
LINE
  8
0
 10
-128.400024
 20
59.249985
 11
-180.400024
 21
59.249985
  0
LINE
  8
0
 10
-138.299988
 20
59.250015
 11
-138.299988
 21
35.250046
  0
LINE
  8
0
 10
-140.299988
 20
59.250015
 11
-140.299988
 21
35.250046
  0
LINE
  8
0
 10
-141.899994
 20
59.250015
 11
-141.899994
 21
35.250046
  0
LINE
  8
0
 10
-143.899994
 20
59.250015
 11
-143.899994
 21
35.250046
  0
LINE
  8
0
 10
-145.500000
 20
59.250015
 11
-145.500000
 21
35.250015
  0
LINE
  8
0
 10
-147.500000
 20
59.250015
 11
-147.500000
 21
35.250015
  0
LINE
  8
0
 10
-149.099976
 20
59.250015
 11
-149.099976
 21
35.250015
  0
LINE
  8
0
 10
-151.099976
 20
59.250015
 11
-151.099976
 21
35.250015
  0
LINE
  8
0
 10
-152.699982
 20
59.250015
 11
-152.699982
 21
35.250015
  0
LINE
  8
0
 10
-154.699982
 20
59.250015
 11
-154.699982
 21
35.250015
  0
LINE
  8
0
 10
-156.299988
 20
59.250015
 11
-156.299988
 21
35.250015
  0
LINE
  8
0
 10
-158.299988
 20
59.250015
 11
-158.299988
 21
35.250015
  0
LINE
  8
0
 10
-159.899994
 20
59.250015
 11
-159.899994
 21
35.250015
  0
LINE
  8
0
 10
-161.899994
 20
59.250015
 11
-161.899994
 21
35.250015
  0
LINE
  8
0
 10
-163.499969
 20
59.250015
 11
-163.499969
 21
35.250015
  0
LINE
  8
0
 10
-165.499969
 20
59.250015
 11
-165.499969
 21
35.250015
  0
LINE
  8
0
 10
-136.899994
 20
59.250015
 11
-136.899994
 21
35.250046
  0
LINE
  8
0
 10
-166.899994
 20
59.250015
 11
-166.899994
 21
35.250015
  0
LINE
  8
0
 10
-128.399963
 20
-89.749985
 11
-180.399963
 21
-89.749985
  0
LINE
  8
0
 10
-138.299988
 20
-89.749954
 11
-138.299988
 21
-65.749954
  0
LINE
  8
0
 10
-140.299988
 20
-89.749954
 11
-140.299988
 21
-65.749954
  0
LINE
  8
0
 10
-141.899994
 20
-89.749954
 11
-141.899994
 21
-65.749954
  0
LINE
  8
0
 10
-143.899994
 20
-89.749954
 11
-143.899994
 21
-65.749954
  0
LINE
  8
0
 10
-145.500000
 20
-89.749954
 11
-145.500000
 21
-65.749954
  0
LINE
  8
0
 10
-147.500000
 20
-89.749954
 11
-147.500000
 21
-65.749954
  0
LINE
  8
0
 10
-149.099976
 20
-89.749954
 11
-149.099976
 21
-65.749954
  0
LINE
  8
0
 10
-151.099976
 20
-89.749954
 11
-151.099976
 21
-65.749954
  0
LINE
  8
0
 10
-152.699982
 20
-89.749954
 11
-152.699982
 21
-65.749954
  0
LINE
  8
0
 10
-154.699982
 20
-89.749954
 11
-154.699982
 21
-65.749954
  0
LINE
  8
0
 10
-156.299988
 20
-89.749954
 11
-156.299988
 21
-65.749954
  0
LINE
  8
0
 10
-158.299988
 20
-89.749985
 11
-158.299988
 21
-65.749985
  0
LINE
  8
0
 10
-159.899994
 20
-89.749985
 11
-159.899994
 21
-65.749985
  0
LINE
  8
0
 10
-161.899994
 20
-89.749985
 11
-161.899994
 21
-65.749985
  0
LINE
  8
0
 10
-163.499969
 20
-89.749985
 11
-163.499969
 21
-65.749985
  0
LINE
  8
0
 10
-165.499969
 20
-89.749985
 11
-165.499969
 21
-65.749985
  0
LINE
  8
0
 10
-136.899994
 20
-89.749954
 11
-136.899994
 21
-65.749954
  0
LINE
  8
0
 10
-166.899994
 20
-89.749985
 11
-166.899994
 21
-65.749985
  0
LINE
  8
0
 10
-126.899994
 20
5.250011
 11
-154.899994
 21
5.250011
  0
LINE
  8
0
 10
-126.899994
 20
-2.749985
 11
-154.899994
 21
-2.749985
  0
LINE
  8
0
 10
-154.899994
 20
5.250023
 11
-154.899994
 21
-2.749985
  0
LINE
  8
0
 10
-150.899994
 20
4.750023
 11
-150.899994
 21
-2.249985
  0
LINE
  8
0
 10
-150.137451
 20
1.250011
 11
-156.505219
 21
1.250011
  0
LINE
  8
0
 10
-150.899994
 20
-2.249985
 11
-154.899994
 21
-2.249985
  0
LINE
  8
0
 10
-150.899994
 20
4.750011
 11
-154.899994
 21
4.750011
  0
LINE
  8
0
 10
-126.899994
 20
-55.749985
 11
-186.899994
 21
-55.749985
  0
LINE
  8
0
 10
-126.899994
 20
25.250015
 11
-186.899994
 21
25.250015
  0
LINE
  8
0
 10
-186.899994
 20
-65.749985
 11
-186.899994
 21
35.250015
  0
LINE
  8
0
 10
-181.899994
 20
35.250015
 11
-181.899994
 21
57.749985
  0
LINE
  8
0
 10
-178.599976
 20
-87.749985
 11
-178.599976
 21
-88.749985
  0
LINE
  8
0
 10
-178.199982
 20
-87.749985
 11
-178.199982
 21
-88.749985
  0
LINE
  8
0
 10
-178.199982
 20
-87.749985
 11
-178.599976
 21
-87.749985
  0
LINE
  8
0
 10
-177.399963
 20
-89.749985
 11
-179.399963
 21
-89.749985
  0
LINE
  8
0
 10
-171.000000
 20
62.400017
 11
-171.000000
 21
56.800018
  0
LINE
  8
0
 10
-171.000000
 20
-87.300003
 11
-171.000000
 21
-92.899979
  0
LINE
  8
0
 10
-226.350006
 20
58.250015
 11
-226.350006
 21
45.750015
  0
LINE
  8
0
 10
-188.649994
 20
56.750015
 11
-188.649994
 21
45.750015
  0
LINE
  8
0
 10
-207.500000
 20
99.259903
 11
-207.500000
 21
50.387360
  0
LINE
  8
0
 10
-224.850006
 20
59.750015
 11
-191.649994
 21
59.750015
  0
LINE
  8
0
 10
-207.500000
 20
94.147141
 11
-207.500000
 21
52.025894
  0
LINE
  8
0
 10
-218.250000
 20
91.150040
 11
-196.750000
 21
91.150040
  0
LINE
  8
0
 10
-193.750000
 20
88.150040
 11
-193.750000
 21
60.650040
  0
LINE
  8
0
 10
-221.250000
 20
86.650040
 11
-215.500000
 21
86.650040
  0
LINE
  8
0
 10
-221.250000
 20
85.150040
 11
-215.500000
 21
85.150040
  0
LINE
  8
0
 10
-221.250000
 20
82.150040
 11
-215.500000
 21
82.150040
  0
LINE
  8
0
 10
-221.250000
 20
80.650040
 11
-215.500000
 21
80.650040
  0
LINE
  8
0
 10
-221.250000
 20
79.150040
 11
-215.500000
 21
79.150040
  0
LINE
  8
0
 10
-221.250000
 20
77.650040
 11
-215.500000
 21
77.650040
  0
LINE
  8
0
 10
-221.250000
 20
74.650040
 11
-215.500000
 21
74.650040
  0
LINE
  8
0
 10
-221.250000
 20
73.150040
 11
-215.500000
 21
73.150040
  0
LINE
  8
0
 10
-221.250000
 20
71.650040
 11
-215.500000
 21
71.650040
  0
LINE
  8
0
 10
-221.250000
 20
70.150040
 11
-215.500000
 21
70.150040
  0
LINE
  8
0
 10
-221.250000
 20
60.650040
 11
-193.750000
 21
60.650040
  0
LINE
  8
0
 10
-221.000000
 20
60.650040
 11
-221.000000
 21
59.750015
  0
LINE
  8
0
 10
-194.000000
 20
60.650040
 11
-194.000000
 21
59.750015
  0
LINE
  8
0
 10
-221.250000
 20
88.150040
 11
-221.250000
 21
60.650040
  0
LINE
  8
0
 10
-201.250000
 20
85.650040
 11
-201.250000
 21
71.150040
  0
LINE
  8
0
 10
-213.750000
 20
85.650040
 11
-213.750000
 21
71.150040
  0
LINE
  8
0
 10
-199.500000
 20
86.650040
 11
-199.500000
 21
85.150040
  0
LINE
  8
0
 10
-215.500000
 20
86.650040
 11
-215.500000
 21
85.150040
  0
LINE
  8
0
 10
-197.500000
 20
67.150040
 11
-197.500000
 21
63.150040
  0
LINE
  8
0
 10
-217.500000
 20
67.150040
 11
-217.500000
 21
63.150040
  0
LINE
  8
0
 10
-216.500000
 20
68.150040
 11
-198.500000
 21
68.150040
  0
LINE
  8
0
 10
-216.500000
 20
62.150040
 11
-198.500000
 21
62.150040
  0
LINE
  8
0
 10
-215.500000
 20
82.150040
 11
-215.500000
 21
80.650040
  0
LINE
  8
0
 10
-199.500000
 20
82.150040
 11
-199.500000
 21
80.650040
  0
LINE
  8
0
 10
-215.500000
 20
79.150040
 11
-215.500000
 21
77.650040
  0
LINE
  8
0
 10
-199.500000
 20
79.150040
 11
-199.500000
 21
77.650040
  0
LINE
  8
0
 10
-215.500000
 20
74.650040
 11
-215.500000
 21
73.150040
  0
LINE
  8
0
 10
-199.500000
 20
74.650040
 11
-199.500000
 21
73.150040
  0
LINE
  8
0
 10
-215.500000
 20
71.650040
 11
-215.500000
 21
70.150040
  0
LINE
  8
0
 10
-199.500000
 20
71.650040
 11
-199.500000
 21
70.150040
  0
LINE
  8
0
 10
-212.750000
 20
86.650040
 11
-202.250000
 21
86.650040
  0
LINE
  8
0
 10
-199.500000
 20
86.650040
 11
-193.750000
 21
86.650040
  0
LINE
  8
0
 10
-212.750000
 20
70.150040
 11
-202.250000
 21
70.150040
  0
LINE
  8
0
 10
-199.500000
 20
70.150040
 11
-193.750000
 21
70.150040
  0
LINE
  8
0
 10
-199.500000
 20
85.150040
 11
-193.750000
 21
85.150040
  0
LINE
  8
0
 10
-199.500000
 20
82.150040
 11
-193.750000
 21
82.150040
  0
LINE
  8
0
 10
-199.500000
 20
80.650040
 11
-193.750000
 21
80.650040
  0
LINE
  8
0
 10
-199.500000
 20
79.150040
 11
-193.750000
 21
79.150040
  0
LINE
  8
0
 10
-199.500000
 20
77.650040
 11
-193.750000
 21
77.650040
  0
LINE
  8
0
 10
-199.500000
 20
74.650040
 11
-193.750000
 21
74.650040
  0
LINE
  8
0
 10
-199.500000
 20
73.150040
 11
-193.750000
 21
73.150040
  0
LINE
  8
0
 10
-199.500000
 20
71.650040
 11
-193.750000
 21
71.650040
  0
ARC
  8
0
 10
-191.500031
 20
-57.249985
 40
3.000000
 50
270.000000
 51
0.000000
  0
ARC
  8
0
 10
-224.200012
 20
-4.949966
 40
1.000000
 50
180.000000
 51
270.000000
  0
ARC
  8
0
 10
-220.800018
 20
-4.949966
 40
1.000000
 50
270.000000
 51
0.000000
  0
ARC
  8
0
 10
-224.200012
 20
2.450012
 40
1.000000
 50
90.000000
 51
180.000000
  0
ARC
  8
0
 10
-220.800018
 20
2.450012
 40
1.000000
 50
0.000000
 51
90.000000
  0
ARC
  8
0
 10
-220.800018
 20
-34.949966
 40
1.000000
 50
270.000000
 51
0.000000
  0
ARC
  8
0
 10
-220.800018
 20
-27.549973
 40
1.000000
 50
0.000000
 51
90.000000
  0
ARC
  8
0
 10
-224.200012
 20
-34.949966
 40
1.000000
 50
180.000000
 51
270.000000
  0
ARC
  8
0
 10
-224.200012
 20
-27.549973
 40
1.000000
 50
90.000000
 51
180.000000
  0
CIRCLE
  8
0
 10
-207.500031
 20
-31.249985
 40
8.330999
  0
CIRCLE
  8
0
 10
-207.500031
 20
-31.249985
 40
7.474998
  0
CIRCLE
  8
0
 10
-207.500031
 20
-1.249985
 40
8.330999
  0
CIRCLE
  8
0
 10
-207.500031
 20
-1.249985
 40
7.474998
  0
ARC
  8
0
 10
-180.399963
 20
-88.249985
 40
1.500000
 50
180.000000
 51
270.000000
  0
ARC
  8
0
 10
-180.400024
 20
57.749985
 40
1.500000
 50
90.000000
 51
180.000000
  0
ARC
  8
0
 10
-128.399963
 20
-88.249954
 40
1.500000
 50
270.000000
 51
0.000000
  0
ARC
  8
0
 10
-128.400024
 20
57.750015
 40
1.500000
 50
0.000000
 51
90.000000
  0
ARC
  8
0
 10
-179.399963
 20
-87.249985
 40
1.500000
 50
180.000000
 51
270.000000
  0
ARC
  8
0
 10
-177.399963
 20
-87.249985
 40
1.500000
 50
270.000000
 51
0.000000
  0
ARC
  8
0
 10
-179.400024
 20
56.749985
 40
1.500000
 50
90.000000
 51
180.000000
  0
ARC
  8
0
 10
-128.399994
 20
33.750046
 40
1.500000
 50
0.000000
 51
90.000000
  0
ARC
  8
0
 10
-177.400024
 20
56.749985
 40
1.500000
 50
0.000000
 51
90.000000
  0
ARC
  8
0
 10
-224.850006
 20
58.250015
 40
1.500000
 50
90.000000
 51
180.000000
  0
ARC
  8
0
 10
-191.649994
 20
56.750015
 40
3.000000
 50
0.000000
 51
90.000000
  0
ARC
  8
0
 10
-218.250000
 20
88.150040
 40
3.000000
 50
90.000000
 51
180.000000
  0
ARC
  8
0
 10
-196.750000
 20
88.150040
 40
3.000000
 50
0.000000
 51
90.000000
  0
ARC
  8
0
 10
-216.500000
 20
67.150040
 40
1.000000
 50
90.000000
 51
180.000000
  0
ARC
  8
0
 10
-198.500000
 20
67.150040
 40
1.000000
 50
0.000000
 51
90.000000
  0
ARC
  8
0
 10
-198.500000
 20
63.150040
 40
1.000000
 50
270.000000
 51
0.000000
  0
ARC
  8
0
 10
-216.500000
 20
63.150040
 40
1.000000
 50
180.000000
 51
270.000000
  0
ARC
  8
0
 10
-212.750000
 20
71.150040
 40
1.000000
 50
180.000000
 51
270.000000
  0
ARC
  8
0
 10
-202.250000
 20
71.150040
 40
1.000000
 50
270.000000
 51
0.000000
  0
ARC
  8
0
 10
-202.250000
 20
85.650040
 40
1.000000
 50
0.000000
 51
90.000000
  0
ARC
  8
0
 10
-212.750000
 20
85.650040
 40
1.000000
 50
90.000000
 51
180.000000
  0
TEXT
  8
0
 10
-223.300034
 20
-0.214360
 40
2.000000
  1
A
 50
-90.000000
 41
1.052632
 51
0.000000
  7
STANDARD
  0
TEXT
  8
0
 10
-223.300034
 20
-30.214359
 40
2.000000
  1
B
 50
-90.000000
 41
1.052632
 51
0.000000
  7
STANDARD
  0
TEXT
  8
0
 10
-212.333908
 20
72.938110
 40
2.000000
  1
ＧＤＢ
 50
0.000000
 41
0.833333
 51
0.000000
  7
STANDARD
  0
TEXT
  8
0
 10
-209.305389
 20
77.358116
 40
3.199999
  1
Ｂ
 50
0.000000
 41
0.833333
 51
0.000000
  7
STANDARD
  0
TEXT
  8
0
 10
-209.419724
 20
84.008881
 40
1.200000
  1
１２
 50
0.000000
 41
0.833333
 51
0.000000
  7
STANDARD
  0
POINT
  8
0
 10
227.500000
 20
-50.249985
  0
POINT
  8
0
 10
247.500000
 20
-50.249985
  0
LINE
  8
0
 10
227.500031
 20
-60.249985
 11
186.899994
 21
-60.249985
  0
LINE
  8
0
 10
227.500000
 20
45.750031
 11
227.500000
 21
-60.249954
  0
LINE
  8
0
 10
227.500000
 20
45.750015
 11
188.500000
 21
45.750015
  0
LINE
  8
0
 10
188.500000
 20
45.750015
 11
188.500000
 21
-57.249985
  0
LINE
  8
0
 10
198.862000
 20
34.750015
 11
183.773285
 21
34.750015
  0
LINE
  8
0
 10
196.500000
 20
29.250015
 11
188.500000
 21
29.250015
  0
LINE
  8
0
 10
196.500000
 20
40.250015
 11
188.500000
 21
40.250015
  0
LINE
  8
0
 10
196.500000
 20
40.250015
 11
196.500000
 21
29.250015
  0
LINE
  8
0
 10
219.800018
 20
19.450012
 11
223.199982
 21
19.450012
  0
LINE
  8
0
 10
219.800018
 20
10.050018
 11
223.200012
 21
10.050018
  0
LINE
  8
0
 10
224.199982
 20
11.050030
 11
224.199982
 21
18.450027
  0
LINE
  8
0
 10
218.800018
 20
11.050026
 11
218.800018
 21
18.450020
  0
LINE
  8
0
 10
219.800018
 20
-10.549973
 11
223.200012
 21
-10.549973
  0
LINE
  8
0
 10
219.800018
 20
-19.949966
 11
223.200012
 21
-19.949966
  0
LINE
  8
0
 10
224.199982
 20
-18.949966
 11
224.199982
 21
-11.549973
  0
LINE
  8
0
 10
218.800018
 20
-18.949966
 11
218.800018
 21
-11.549973
  0
LINE
  8
0
 10
219.800018
 20
-40.549973
 11
223.200043
 21
-40.549973
  0
LINE
  8
0
 10
219.800018
 20
-49.949966
 11
223.200043
 21
-49.949966
  0
LINE
  8
0
 10
224.199982
 20
-48.949966
 11
224.199982
 21
-41.549973
  0
LINE
  8
0
 10
218.800018
 20
-48.949966
 11
218.800018
 21
-41.549973
  0
LINE
  8
0
 10
188.500000
 20
34.750015
 11
186.899994
 21
34.750015
  0
LINE
  8
0
 10
195.500031
 20
-45.249985
 11
215.500031
 21
-45.249985
  0
LINE
  8
0
 10
205.500031
 20
24.750015
 11
205.500031
 21
-55.249985
  0
LINE
  8
0
 10
195.500000
 20
14.750015
 11
215.500000
 21
14.750015
  0
LINE
  8
0
 10
195.500031
 20
-15.249985
 11
215.500031
 21
-15.249985
  0
LINE
  8
0
 10
126.899994
 20
-88.249954
 11
126.899994
 21
57.750015
  0
LINE
  8
0
 10
181.899994
 20
-88.249985
 11
181.899994
 21
-65.749985
  0
LINE
  8
0
 10
126.899994
 20
-35.749985
 11
154.899994
 21
-35.749985
  0
LINE
  8
0
 10
126.899994
 20
-27.749985
 11
154.899994
 21
-27.749985
  0
LINE
  8
0
 10
154.899994
 20
-35.749954
 11
154.899994
 21
-27.749954
  0
LINE
  8
0
 10
150.899994
 20
-35.249954
 11
150.899994
 21
-28.249954
  0
LINE
  8
0
 10
128.399963
 20
-89.749985
 11
180.399963
 21
-89.749985
  0
LINE
  8
0
 10
128.400024
 20
59.249985
 11
180.400024
 21
59.249985
  0
LINE
  8
0
 10
126.899963
 20
-65.749985
 11
186.899963
 21
-65.749985
  0
LINE
  8
0
 10
126.899994
 20
35.250015
 11
186.899994
 21
35.250015
  0
LINE
  8
0
 10
136.899994
 20
-55.749954
 11
136.899994
 21
25.250031
  0
LINE
  8
0
 10
150.137451
 20
-31.749985
 11
156.505188
 21
-31.749985
  0
LINE
  8
0
 10
150.899994
 20
-28.249985
 11
154.899994
 21
-28.249985
  0
LINE
  8
0
 10
150.899994
 20
-35.249985
 11
154.899994
 21
-35.249985
  0
LINE
  8
0
 10
178.399994
 20
54.170151
 11
178.399994
 21
59.995865
  0
LINE
  8
0
 10
175.400024
 20
55.249985
 11
181.900024
 21
55.249985
  0
LINE
  8
0
 10
177.400024
 20
58.249985
 11
179.400024
 21
58.249985
  0
LINE
  8
0
 10
175.399994
 20
55.250015
 11
175.399994
 21
59.250015
  0
LINE
  8
0
 10
180.899994
 20
55.249985
 11
180.899994
 21
56.749985
  0
LINE
  8
0
 10
175.899994
 20
55.250015
 11
175.899994
 21
56.750015
  0
LINE
  8
0
 10
175.900024
 20
56.249985
 11
180.900024
 21
56.249985
  0
LINE
  8
0
 10
173.149994
 20
59.250015
 11
173.149994
 21
59.950027
  0
LINE
  8
0
 10
168.849976
 20
59.250015
 11
168.849976
 21
59.950027
  0
LINE
  8
0
 10
168.850006
 20
59.949997
 11
173.150024
 21
59.949997
  0
LINE
  8
0
 10
178.399994
 20
-84.670120
 11
178.399994
 21
-90.495834
  0
LINE
  8
0
 10
175.399963
 20
-85.749985
 11
181.899963
 21
-85.749985
  0
LINE
  8
0
 10
177.399963
 20
-88.749985
 11
179.399963
 21
-88.749985
  0
LINE
  8
0
 10
175.399994
 20
-85.749985
 11
175.399994
 21
-89.749985
  0
LINE
  8
0
 10
180.899994
 20
-85.749985
 11
180.899994
 21
-87.249985
  0
LINE
  8
0
 10
175.899994
 20
-85.749985
 11
175.899994
 21
-87.249985
  0
LINE
  8
0
 10
175.899963
 20
-86.749985
 11
180.899963
 21
-86.749985
  0
LINE
  8
0
 10
138.299988
 20
59.250015
 11
138.299988
 21
35.250046
  0
LINE
  8
0
 10
140.299988
 20
59.250015
 11
140.299988
 21
35.250046
  0
LINE
  8
0
 10
141.899994
 20
59.250015
 11
141.899994
 21
35.250046
  0
LINE
  8
0
 10
143.899994
 20
59.250015
 11
143.899994
 21
35.250046
  0
LINE
  8
0
 10
145.500000
 20
59.250015
 11
145.500000
 21
35.250015
  0
LINE
  8
0
 10
147.500000
 20
59.250015
 11
147.500000
 21
35.250015
  0
LINE
  8
0
 10
149.099976
 20
59.250015
 11
149.099976
 21
35.250015
  0
LINE
  8
0
 10
151.099976
 20
59.250015
 11
151.099976
 21
35.250015
  0
LINE
  8
0
 10
152.699982
 20
59.250015
 11
152.699982
 21
35.250015
  0
LINE
  8
0
 10
154.699982
 20
59.250015
 11
154.699982
 21
35.250015
  0
LINE
  8
0
 10
156.299988
 20
59.250015
 11
156.299988
 21
35.250015
  0
LINE
  8
0
 10
158.299988
 20
59.250015
 11
158.299988
 21
35.250015
  0
LINE
  8
0
 10
159.899994
 20
59.250015
 11
159.899994
 21
35.250015
  0
LINE
  8
0
 10
161.899994
 20
59.250015
 11
161.899994
 21
35.250015
  0
LINE
  8
0
 10
163.499969
 20
59.250015
 11
163.499969
 21
35.250015
  0
LINE
  8
0
 10
165.499969
 20
59.250015
 11
165.499969
 21
35.250015
  0
LINE
  8
0
 10
136.899994
 20
59.250015
 11
136.899994
 21
35.250046
  0
LINE
  8
0
 10
166.899994
 20
59.250015
 11
166.899994
 21
35.250015
  0
LINE
  8
0
 10
138.299988
 20
-89.749954
 11
138.299988
 21
-65.749954
  0
LINE
  8
0
 10
140.299988
 20
-89.749954
 11
140.299988
 21
-65.749954
  0
LINE
  8
0
 10
141.899994
 20
-89.749954
 11
141.899994
 21
-65.749954
  0
LINE
  8
0
 10
143.899994
 20
-89.749954
 11
143.899994
 21
-65.749954
  0
LINE
  8
0
 10
145.500000
 20
-89.749954
 11
145.500000
 21
-65.749954
  0
LINE
  8
0
 10
147.500000
 20
-89.749954
 11
147.500000
 21
-65.749954
  0
LINE
  8
0
 10
149.099976
 20
-89.749954
 11
149.099976
 21
-65.749954
  0
LINE
  8
0
 10
151.099976
 20
-89.749954
 11
151.099976
 21
-65.749954
  0
LINE
  8
0
 10
152.699982
 20
-89.749954
 11
152.699982
 21
-65.749954
  0
LINE
  8
0
 10
154.699982
 20
-89.749954
 11
154.699982
 21
-65.749954
  0
LINE
  8
0
 10
156.299988
 20
-89.749954
 11
156.299988
 21
-65.749954
  0
LINE
  8
0
 10
158.299988
 20
-89.749985
 11
158.299988
 21
-65.749985
  0
LINE
  8
0
 10
159.899994
 20
-89.749985
 11
159.899994
 21
-65.749985
  0
LINE
  8
0
 10
161.899994
 20
-89.749985
 11
161.899994
 21
-65.749985
  0
LINE
  8
0
 10
163.499969
 20
-89.749985
 11
163.499969
 21
-65.749985
  0
LINE
  8
0
 10
165.499969
 20
-89.749985
 11
165.499969
 21
-65.749985
  0
LINE
  8
0
 10
136.899994
 20
-89.749954
 11
136.899994
 21
-65.749954
  0
LINE
  8
0
 10
166.899994
 20
-89.749985
 11
166.899994
 21
-65.749985
  0
LINE
  8
0
 10
126.899994
 20
5.250011
 11
154.899994
 21
5.250011
  0
LINE
  8
0
 10
126.899994
 20
-2.749985
 11
154.899994
 21
-2.749985
  0
LINE
  8
0
 10
154.899994
 20
5.250023
 11
154.899994
 21
-2.749985
  0
LINE
  8
0
 10
150.899994
 20
4.750023
 11
150.899994
 21
-2.249985
  0
LINE
  8
0
 10
150.137451
 20
1.250011
 11
156.505219
 21
1.250011
  0
LINE
  8
0
 10
150.899994
 20
-2.249985
 11
154.899994
 21
-2.249985
  0
LINE
  8
0
 10
150.899994
 20
4.750011
 11
154.899994
 21
4.750011
  0
LINE
  8
0
 10
126.899994
 20
-55.749985
 11
186.899994
 21
-55.749985
  0
LINE
  8
0
 10
126.899994
 20
25.250015
 11
186.899994
 21
25.250015
  0
LINE
  8
0
 10
186.899994
 20
-65.749985
 11
186.899994
 21
35.250015
  0
LINE
  8
0
 10
181.899994
 20
35.250015
 11
181.899994
 21
57.749985
  0
LINE
  8
0
 10
178.599976
 20
-87.749985
 11
178.599976
 21
-88.749985
  0
LINE
  8
0
 10
178.199982
 20
-87.749985
 11
178.199982
 21
-88.749985
  0
LINE
  8
0
 10
178.199982
 20
-87.749985
 11
178.599976
 21
-87.749985
  0
LINE
  8
0
 10
177.399963
 20
-89.749985
 11
179.399963
 21
-89.749985
  0
LINE
  8
0
 10
178.199982
 20
57.250015
 11
178.199982
 21
58.250015
  0
LINE
  8
0
 10
178.599976
 20
57.250015
 11
178.599976
 21
58.250015
  0
LINE
  8
0
 10
177.400024
 20
59.249985
 11
179.400024
 21
59.249985
  0
LINE
  8
0
 10
178.200012
 20
57.249985
 11
178.600006
 21
57.249985
  0
LINE
  8
0
 10
168.849976
 20
-90.449997
 11
173.149963
 21
-90.449997
  0
LINE
  8
0
 10
168.849976
 20
-89.749985
 11
168.849976
 21
-90.449997
  0
LINE
  8
0
 10
173.149994
 20
-89.749985
 11
173.149994
 21
-90.449997
  0
LINE
  8
0
 10
171.000000
 20
-87.300003
 11
171.000000
 21
-92.899979
  0
LINE
  8
0
 10
171.000000
 20
62.400017
 11
171.000000
 21
56.800018
  0
LINE
  8
0
 10
226.350006
 20
58.250015
 11
226.350006
 21
45.750015
  0
LINE
  8
0
 10
188.649994
 20
56.750015
 11
188.649994
 21
45.750015
  0
LINE
  8
0
 10
207.500000
 20
96.150040
 11
207.500000
 21
65.150040
  0
LINE
  8
0
 10
224.850006
 20
59.750015
 11
191.649994
 21
59.750015
  0
LINE
  8
0
 10
196.750000
 20
91.150040
 11
218.250000
 21
91.150040
  0
LINE
  8
0
 10
193.750000
 20
88.150040
 11
193.750000
 21
60.650040
  0
LINE
  8
0
 10
193.750000
 20
85.150040
 11
197.833710
 21
85.150040
  0
LINE
  8
0
 10
193.750000
 20
82.150040
 11
196.732574
 21
82.150040
  0
LINE
  8
0
 10
193.750000
 20
80.650040
 11
196.525604
 21
80.650040
  0
LINE
  8
0
 10
193.750000
 20
79.150040
 11
196.525604
 21
79.150040
  0
LINE
  8
0
 10
193.750000
 20
77.650040
 11
196.732574
 21
77.650040
  0
LINE
  8
0
 10
193.750000
 20
74.650040
 11
197.833710
 21
74.650040
  0
LINE
  8
0
 10
193.750000
 20
73.150040
 11
198.814545
 21
73.150040
  0
LINE
  8
0
 10
193.750000
 20
71.650040
 11
200.224182
 21
71.650040
  0
LINE
  8
0
 10
193.750000
 20
70.150040
 11
202.407135
 21
70.150040
  0
LINE
  8
0
 10
193.750000
 20
60.650040
 11
221.250000
 21
60.650040
  0
LINE
  8
0
 10
194.000000
 20
60.650040
 11
194.000000
 21
59.750015
  0
LINE
  8
0
 10
221.000000
 20
60.650040
 11
221.000000
 21
59.750015
  0
LINE
  8
0
 10
221.250000
 20
88.150040
 11
221.250000
 21
60.650040
  0
LINE
  8
0
 10
193.750000
 20
86.650040
 11
198.814545
 21
86.650040
  0
LINE
  8
0
 10
196.500000
 20
79.900070
 11
197.712418
 21
82.000031
  0
LINE
  8
0
 10
197.712433
 20
77.800018
 11
196.500000
 21
79.900024
  0
LINE
  8
0
 10
198.398407
 20
82.249695
 11
197.712418
 21
82.000015
  0
LINE
  8
0
 10
198.364731
 20
77.685020
 11
197.712463
 21
77.800034
  0
LINE
  8
0
 10
202.000000
 20
89.426315
 11
204.424866
 21
89.426315
  0
LINE
  8
0
 10
200.787552
 20
87.326324
 11
201.999985
 21
89.426315
  0
LINE
  8
0
 10
204.984024
 20
88.957092
 11
204.424805
 21
89.426331
  0
LINE
  8
0
 10
201.014099
 20
86.703903
 11
200.787567
 21
87.326279
  0
LINE
  8
0
 10
213.000000
 20
89.426300
 11
214.212433
 21
87.326309
  0
LINE
  8
0
 10
210.575134
 20
89.426315
 11
213.000000
 21
89.426315
  0
LINE
  8
0
 10
214.085709
 20
86.607407
 11
214.212479
 21
87.326324
  0
LINE
  8
0
 10
210.149338
 20
88.918961
 11
210.575073
 21
89.426331
  0
LINE
  8
0
 10
218.499985
 20
79.900040
 11
217.287552
 21
77.800034
  0
LINE
  8
0
 10
217.287567
 20
82.000015
 11
218.500000
 21
79.900024
  0
LINE
  8
0
 10
216.601593
 20
77.550301
 11
217.287582
 21
77.799973
  0
LINE
  8
0
 10
216.635315
 20
82.115036
 11
217.287582
 21
82.000031
  0
LINE
  8
0
 10
213.000000
 20
70.373764
 11
210.575134
 21
70.373764
  0
LINE
  8
0
 10
214.212418
 20
72.473747
 11
213.000000
 21
70.373779
  0
LINE
  8
0
 10
210.015793
 20
70.842949
 11
210.575012
 21
70.373703
  0
LINE
  8
0
 10
213.985901
 20
73.096100
 11
214.212433
 21
72.473717
  0
LINE
  8
0
 10
202.000000
 20
70.373741
 11
200.787567
 21
72.473740
  0
LINE
  8
0
 10
204.424866
 20
70.373764
 11
202.000000
 21
70.373764
  0
LINE
  8
0
 10
200.914337
 20
73.192703
 11
200.787567
 21
72.473785
  0
LINE
  8
0
 10
204.850525
 20
70.881149
 11
204.424789
 21
70.373787
  0
LINE
  8
0
 10
216.185486
 20
86.650040
 11
221.250000
 21
86.650040
  0
LINE
  8
0
 10
217.166321
 20
85.150040
 11
221.250000
 21
85.150040
  0
LINE
  8
0
 10
218.267426
 20
82.150040
 11
221.250000
 21
82.150040
  0
LINE
  8
0
 10
218.474396
 20
80.650040
 11
221.250000
 21
80.650040
  0
LINE
  8
0
 10
218.474396
 20
79.150040
 11
221.250000
 21
79.150040
  0
LINE
  8
0
 10
218.267426
 20
77.650040
 11
221.250000
 21
77.650040
  0
LINE
  8
0
 10
217.166321
 20
74.650040
 11
221.250000
 21
74.650040
  0
LINE
  8
0
 10
216.185486
 20
73.150040
 11
221.250000
 21
73.150040
  0
LINE
  8
0
 10
214.775818
 20
71.650040
 11
221.250000
 21
71.650040
  0
LINE
  8
0
 10
212.315948
 20
70.150040
 11
221.250000
 21
70.150040
  0
LINE
  8
0
 10
194.641479
 20
79.900040
 11
219.951080
 21
79.900040
  0
ARC
  8
0
 10
219.800018
 20
18.450020
 40
1.000000
 50
90.000000
 51
180.000000
  0
ARC
  8
0
 10
223.200012
 20
18.450027
 40
1.000000
 50
0.000000
 51
90.000000
  0
ARC
  8
0
 10
223.200012
 20
11.050030
 40
1.000000
 50
270.000000
 51
0.000000
  0
ARC
  8
0
 10
219.800018
 20
11.050026
 40
1.000000
 50
180.000000
 51
270.000000
  0
ARC
  8
0
 10
219.800018
 20
-11.549973
 40
1.000000
 50
90.000000
 51
180.000000
  0
ARC
  8
0
 10
223.200012
 20
-11.549973
 40
1.000000
 50
0.000000
 51
90.000000
  0
ARC
  8
0
 10
223.200012
 20
-18.949966
 40
1.000000
 50
270.000000
 51
0.000000
  0
ARC
  8
0
 10
219.800018
 20
-18.949966
 40
1.000000
 50
180.000000
 51
270.000000
  0
ARC
  8
0
 10
219.800018
 20
-41.549973
 40
1.000000
 50
90.000000
 51
180.000000
  0
ARC
  8
0
 10
223.200012
 20
-41.549973
 40
1.000000
 50
0.000000
 51
90.000000
  0
ARC
  8
0
 10
223.200012
 20
-48.949966
 40
1.000000
 50
270.000000
 51
0.000000
  0
ARC
  8
0
 10
219.800018
 20
-48.949966
 40
1.000000
 50
180.000000
 51
270.000000
  0
ARC
  8
0
 10
191.500031
 20
-57.249985
 40
3.000000
 50
180.000000
 51
270.000000
  0
CIRCLE
  8
0
 10
205.500031
 20
-45.249985
 40
8.330999
  0
CIRCLE
  8
0
 10
205.500031
 20
-45.249985
 40
7.474998
  0
CIRCLE
  8
0
 10
205.500000
 20
14.750015
 40
8.330999
  0
CIRCLE
  8
0
 10
205.500000
 20
14.750015
 40
7.474998
  0
CIRCLE
  8
0
 10
205.500031
 20
-15.249985
 40
8.330999
  0
CIRCLE
  8
0
 10
205.500031
 20
-15.249985
 40
7.474998
  0
ARC
  8
0
 10
177.400024
 20
56.749985
 40
1.500000
 50
90.000000
 51
180.000000
  0
ARC
  8
0
 10
128.399994
 20
33.750046
 40
1.500000
 50
90.000000
 51
180.000000
  0
ARC
  8
0
 10
179.400024
 20
56.749985
 40
1.500000
 50
0.000000
 51
90.000000
  0
ARC
  8
0
 10
177.399963
 20
-87.249985
 40
1.500000
 50
180.000000
 51
270.000000
  0
ARC
  8
0
 10
179.399963
 20
-87.249985
 40
1.500000
 50
270.000000
 51
0.000000
  0
ARC
  8
0
 10
128.400024
 20
57.750015
 40
1.500000
 50
90.000000
 51
180.000000
  0
ARC
  8
0
 10
128.399963
 20
-88.249954
 40
1.500000
 50
180.000000
 51
270.000000
  0
ARC
  8
0
 10
180.400024
 20
57.749985
 40
1.500000
 50
0.000000
 51
90.000000
  0
ARC
  8
0
 10
180.399963
 20
-88.249985
 40
1.500000
 50
270.000000
 51
0.000000
  0
ARC
  8
0
 10
191.649994
 20
56.750015
 40
3.000000
 50
90.000000
 51
180.000000
  0
ARC
  8
0
 10
224.850006
 20
58.250015
 40
1.500000
 50
0.000000
 51
90.000000
  0
ARC
  8
0
 10
196.750000
 20
88.150040
 40
3.000000
 50
90.000000
 51
180.000000
  0
ARC
  8
0
 10
218.250000
 20
88.150040
 40
3.000000
 50
0.000000
 51
90.000000
  0
CIRCLE
  8
0
 10
207.500000
 20
79.900040
 40
11.000000
  0
CIRCLE
  8
0
 10
207.500000
 20
79.900040
 40
6.500000
  0
ARC
  8
0
 10
207.500000
 20
79.900040
 40
9.399994
 50
90.000000
 51
105.524323
  0
CIRCLE
  8
0
 10
207.500000
 20
79.900040
 40
3.799999
  0
ARC
  8
0
 10
207.500000
 20
79.900040
 40
9.400002
 50
193.629410
 51
225.524521
  0
ARC
  8
0
 10
207.500000
 20
79.900040
 40
9.400005
 50
133.629242
 51
165.524475
  0
ARC
  8
0
 10
207.500000
 20
79.900040
 40
9.400009
 50
73.629410
 51
90.000000
  0
ARC
  8
0
 10
207.500000
 20
79.900040
 40
9.399995
 50
13.629235
 51
45.524227
  0
ARC
  8
0
 10
207.500000
 20
79.900040
 40
9.400004
 50
313.629364
 51
345.524261
  0
ARC
  8
0
 10
207.500000
 20
79.900040
 40
9.399996
 50
253.629196
 51
285.524231
  0
TEXT
  8
0
 10
222.300003
 20
11.714397
 40
2.000000
  1
R
 50
90.000000
 41
1.052632
 51
0.000000
  7
STANDARD
  0
TEXT
  8
0
 10
222.300034
 20
-48.285580
 40
2.000000
  1
R
 50
90.000000
 41
1.052632
 51
0.000000
  7
STANDARD
  0
TEXT
  8
0
 10
222.300003
 20
15.714397
 40
2.000000
  1
1
 50
90.000000
 41
1.052632
 51
0.000000
  7
STANDARD
  0
TEXT
  8
0
 10
222.300034
 20
-44.285580
 40
2.000000
  1
2
 50
90.000000
 41
1.052632
 51
0.000000
  7
STANDARD
  0
TEXT
  8
0
 10
222.300034
 20
-16.285580
 40
2.000000
  1
P
 50
90.000000
 41
1.052632
 51
0.000000
  7
STANDARD
  0
ENDSEC
  0
EOF
