  0
SECTION
  2
HEADER
  0
ENDSEC
  0
SECTION
  2
TABLES
  0
TABLE
  2
LTYPE
 70
     4
  0
LTYPE
  2
CONTINUOUS
 70
    64
  3
Solid line
 72
    65
 73
     0
 40
0.000000
  0
LTYPE
  2
DASHED
 70
    64
  3
__ __ __ __ __ __ __ __ __ __ __ __ __ __ __
 72
    65
 73
     2
 40
3.500000
 49
2.000000
 49
-1.500000
  0
LTYPE
  2
CENTER
 70
    64
  3
____ _ ____ _ ____ _ ____ _ ____ _ ____ _ ____
 72
    65
 73
     4
 40
17.500000
 49
13.000000
 49
-1.500000
 49
1.500000
 49
-1.500000
  0
LTYPE
  2
PHANTOM
 70
    64
  3
_____ _ _ _____ _ _ _____ _ _ _____ _ _ ____  
 72
    65
 73
     6
 40
15.500000
 49
8.000000
 49
-1.500000
 49
1.500000
 49
-1.500000
 49
1.500000
 49
-1.500000
  0
LTYPE
  2
DASHED1
 70
    64
  3
__ __ __ __ __ __ __ __ __ __ __ __ __ __ __
 72
    65
 73
     2
 40
1.500000
 49
1.000000
 49
-0.500000
  0
LTYPE
  2
DASHED2
 70
    64
  3
__ __ __ __ __ __ __ __ __ __ __ __ __ __ __
 72
    65
 73
     2
 40
3.500000
 49
2.500000
 49
-1.000000
  0
LTYPE
  2
DASHED3
 70
    64
  3
__ __ __ __ __ __ __ __ __ __ __ __ __ __ __
 72
    65
 73
     2
 40
6.000000
 49
4.000000
 49
-2.000000
  0
LTYPE
  2
DASHED4
 70
    64
  3
__ __ __ __ __ __ __ __ __ __ __ __ __ __ __
 72
    65
 73
     2
 40
12.000000
 49
10.000000
 49
-2.000000
  0
LTYPE
  2
DASHED5
 70
    64
  3
__ __ __ __ __ __ __ __ __ __ __ __ __ __ __
 72
    65
 73
     2
 40
17.000000
 49
15.000000
 49
-2.000000
  0
LTYPE
  2
DASHED6
 70
    64
  3
__ __ __ __ __ __ __ __ __ __ __ __ __ __ __
 72
    65
 73
     2
 40
29.000000
 49
27.000000
 49
-2.000000
  0
LTYPE
  2
PHANTOM1
 70
    64
  3
_____ _ _ _____ _ _ _____ _ _ _____ _ _ ____  
 72
    65
 73
     6
 40
31.000000
 49
25.000000
 49
-1.500000
 49
1.000000
 49
-1.000000
 49
1.000000
 49
-1.500000
  0
LTYPE
  2
PHANTOM2
 70
    64
  3
_____ _ _ _____ _ _ _____ _ _ _____ _ _ ____  
 72
    65
 73
     6
 40
36.000000
 49
27.000000
 49
-1.500000
 49
2.500000
 49
-1.000000
 49
2.500000
 49
-1.500000
  0
LTYPE
  2
PHANTOM3
 70
    64
  3
_____ _ _ _____ _ _ _____ _ _ _____ _ _ ____  
 72
    65
 73
     6
 40
78.000000
 49
64.000000
 49
-2.000000
 49
4.000000
 49
-2.000000
 49
4.000000
 49
-2.000000
  0
LTYPE
  2
CENTER1
 70
    64
  3
____ _ ____ _ ____ _ ____ _ ____ _ ____ _ ____
 72
    65
 73
     4
 40
19.000000
 49
14.000000
 49
-1.000000
 49
3.000000
 49
-1.000000
  0
LTYPE
  2
CENTER2
 70
    64
  3
____ _ ____ _ ____ _ ____ _ ____ _ ____ _ ____
 72
    65
 73
     4
 40
28.500000
 49
25.000000
 49
-1.000000
 49
1.500000
 49
-1.000000
  0
LTYPE
  2
CENTER3
 70
    64
  3
____ _ ____ _ ____ _ ____ _ ____ _ ____ _ ____
 72
    65
 73
     4
 40
31.500000
 49
27.000000
 49
-1.000000
 49
2.500000
 49
-1.000000
  0
LTYPE
  2
CENTER4
 70
    64
  3
____ _ ____ _ ____ _ ____ _ ____ _ ____ _ ____
 72
    65
 73
     4
 40
50.000000
 49
45.000000
 49
-1.000000
 49
3.000000
 49
-1.000000
  0
LTYPE
  2
CENTER5
 70
    64
  3
____ _ ____ _ ____ _ ____ _ ____ _ ____ _ ____
 72
    65
 73
     4
 40
100.000000
 49
92.000000
 49
-2.000000
 49
4.000000
 49
-2.000000
  0
LTYPE
  2
SBK1
 70
    64
  3
______ _ _ _ ______ _ _ _ ______ _ _ _ _____  
 72
    65
 73
     8
 40
60.500000
 49
45.000000
 49
-2.000000
 49
2.500000
 49
-2.000000
 49
2.500000
 49
-2.000000
 49
2.500000
 49
-2.000000
  0
LTYPE
  2
SBK2
 70
    64
  3
______ _ _ _ ______ _ _ _ ______ _ _ _ _____  
 72
    65
 73
     8
 40
84.000000
 49
64.000000
 49
-2.000000
 49
4.000000
 49
-2.000000
 49
4.000000
 49
-2.000000
 49
4.000000
 49
-2.000000
  0
LTYPE
  2
STCH
 70
    64
  3
__ __ __ __ __ __ __ __ __ __ __ __ __ __ __
 72
    65
 73
     2
 40
3.000000
 49
1.000000
 49
-2.000000
  0
LTYPE
  2
MTCH
 70
    64
  3
_____ _ _ _____ _ _ _____ _ _ _____ _ _ ____  
 72
    65
 73
     6
 40
80.000000
 49
66.000000
 49
-2.000000
 49
4.000000
 49
-2.000000
 49
4.000000
 49
-2.000000
  0
ENDTAB
  0
TABLE
  2
LAYER
 70
     1
  0
LAYER
  2
0
 70
     0
 62
     7
  6
CONTINUOUS
  0
ENDTAB
  0
TABLE
  2
STYLE
 70
     1
  0
STYLE
  2
STANDARD
 70
     0
 40
0.000000
 41
1.000000
 50
0.000000
 71
     0
 42
0.200000
  3
txt
  4
BIGFONT
  0
ENDTAB
  0
TABLE
  2
VIEW
 70
     0
  0
ENDTAB
  0
ENDSEC
  0
SECTION
  2
BLOCKS
  0
ENDSEC
  0
SECTION
  2
ENTITIES
  0
LINE
  8
0
 10
118.527802
 20
118.298965
 11
194.800003
 21
118.298965
  0
LINE
  8
0
 10
118.527802
 20
132.600006
 11
118.527802
 21
118.298965
  0
LINE
  8
0
 10
-194.250000
 20
118.298965
 11
-92.977806
 21
118.298965
  0
LINE
  8
0
 10
-194.250000
 20
132.600006
 11
194.800003
 21
132.600006
  0
LINE
  8
0
 10
194.800003
 20
132.600006
 11
194.800003
 21
-133.500000
  0
LINE
  8
0
 10
-194.250000
 20
132.600006
 11
-194.250000
 21
-133.500000
  0
LINE
  8
0
 10
-194.250000
 20
-133.500000
 11
194.800003
 21
-133.500000
  0
LINE
  8
0
 10
118.527802
 20
-119.198959
 11
194.800003
 21
-119.198959
  0
LINE
  8
0
 10
210.000000
 20
148.500000
 11
210.000000
 21
-148.500000
  0
LINE
  8
0
 10
-210.000000
 20
148.500000
 11
-210.000000
 21
-148.500000
  0
LINE
  8
0
 10
-210.000000
 20
148.500000
 11
210.000000
 21
148.500000
  0
LINE
  8
0
 10
-210.000000
 20
-148.500000
 11
210.000000
 21
-148.500000
  0
LINE
  8
0
 10
118.527802
 20
-119.198959
 11
118.527802
 21
-133.500000
  0
LINE
  8
0
 10
-92.977806
 20
118.298965
 11
-92.977806
 21
132.600006
  0
LINE
  8
0
 10
-194.250000
 20
-0.449997
 11
194.800003
 21
-0.449997
  0
LINE
  8
0
 10
0.275002
 20
132.600006
 11
0.275002
 21
-133.500000
  0
LINE
  8
0
 10
-194.250000
 20
9.550003
 11
194.800003
 21
9.550003
  0
LINE
  8
0
 10
-194.250000
 20
-123.500000
 11
118.527802
 21
-123.500000
  0
TEXT
  8
0
 10
122.724205
 20
122.631119
 40
4.242641
  1
DATE : MAR ,1987
 50
0.000000
 41
1.052631
 51
0.000000
  7
STANDARD
  0
TEXT
  8
0
 10
-191.078186
 20
121.949493
 40
5.000000
  1
630 ADDITIONAL PART
 50
0.000000
 41
1.052632
 51
0.000000
  7
STANDARD
  0
TEXT
  8
0
 10
123.699844
 20
-129.849472
 40
5.000000
  1
KOGANEI CORP.
 50
0.000000
 41
1.052632
 51
15.000000
  7
STANDARD
  0
TEXT
  8
0
 10
-147.737320
 20
1.770003
 40
4.200000
  1
SPEED CONTROLER : SCE-03
 50
0.000000
 41
1.052632
 51
0.000000
  7
STANDARD
  0
TEXT
  8
0
 10
46.787697
 20
1.770003
 40
4.200000
  1
SPEED CONTROLER : SCE-04
 50
0.000000
 41
1.052632
 51
0.000000
  7
STANDARD
  0
TEXT
  8
0
 10
-128.837311
 20
-131.279999
 40
4.200000
  1
MUFFLER : KM-31
 50
0.000000
 41
1.052632
 51
0.000000
  7
STANDARD
  0
TEXT
  8
0
 10
27.551592
 20
-131.279999
 40
4.200000
  1
MUFFLER : KM-41
 50
0.000000
 41
1.052632
 51
0.000000
  7
STANDARD
  0
POINT
  8
0
 10
-145.618744
 20
42.812504
  0
POINT
  8
0
 10
-109.618744
 20
42.812504
  0
LINE
  8
0
 10
-116.968742
 20
53.782158
 11
-116.968742
 21
31.842850
  0
LINE
  8
0
 10
-137.880585
 20
54.936848
 11
-117.906555
 21
54.936848
  0
LINE
  8
0
 10
-137.880585
 20
30.688147
 11
-117.906570
 21
30.688147
  0
LINE
  8
0
 10
-116.968742
 20
53.312504
 11
-117.906555
 21
54.936848
  0
LINE
  8
0
 10
-117.906563
 20
30.688145
 11
-116.968735
 21
32.312504
  0
LINE
  8
0
 10
-109.618744
 20
49.812504
 11
-109.618744
 21
43.812504
  0
LINE
  8
0
 10
-112.968742
 20
34.812504
 11
-110.618744
 21
34.812504
  0
LINE
  8
0
 10
-112.968742
 20
50.812504
 11
-110.618744
 21
50.812504
  0
LINE
  8
0
 10
-112.968742
 20
49.730003
 11
-109.618744
 21
49.730003
  0
LINE
  8
0
 10
-112.968742
 20
35.895004
 11
-109.618744
 21
35.895004
  0
LINE
  8
0
 10
-110.618736
 20
34.812500
 11
-109.618736
 21
35.812500
  0
LINE
  8
0
 10
-109.618752
 20
49.812500
 11
-110.618744
 21
50.812500
  0
LINE
  8
0
 10
-110.618744
 20
50.812504
 11
-110.618744
 21
43.812504
  0
LINE
  8
0
 10
-111.618744
 20
43.812504
 11
-111.618744
 21
41.812504
  0
LINE
  8
0
 10
-111.618744
 20
41.812504
 11
-109.618744
 21
41.812504
  0
LINE
  8
0
 10
-111.618744
 20
43.812504
 11
-109.618744
 21
43.812504
  0
LINE
  8
0
 10
-110.618744
 20
41.812504
 11
-110.618744
 21
34.812504
  0
LINE
  8
0
 10
-109.618744
 20
41.812504
 11
-109.618744
 21
35.812504
  0
LINE
  8
0
 10
-151.968750
 20
49.976791
 11
-151.968750
 21
35.648216
  0
LINE
  8
0
 10
-140.968750
 20
50.432816
 11
-151.852844
 21
50.092690
  0
LINE
  8
0
 10
-139.968735
 20
51.320068
 11
-150.969238
 21
50.976303
  0
LINE
  8
0
 10
-137.880600
 20
54.936852
 11
-139.968750
 21
51.320068
  0
LINE
  8
0
 10
-139.968735
 20
34.304939
 11
-150.969238
 21
34.648705
  0
LINE
  8
0
 10
-140.968750
 20
35.192192
 11
-151.852844
 21
35.532318
  0
LINE
  8
0
 10
-137.880600
 20
30.688156
 11
-139.968750
 21
34.304935
  0
LINE
  8
0
 10
-140.968750
 20
50.432816
 11
-140.465454
 21
51.304546
  0
LINE
  8
0
 10
-140.968750
 20
34.336189
 11
-140.968750
 21
51.288818
  0
LINE
  8
0
 10
-140.968750
 20
35.192184
 11
-140.465454
 21
34.320454
  0
LINE
  8
0
 10
-137.880585
 20
48.874672
 11
-117.906555
 21
48.874672
  0
LINE
  8
0
 10
-137.880585
 20
36.750336
 11
-117.906555
 21
36.750336
  0
LINE
  8
0
 10
-139.968750
 20
51.320068
 11
-139.968750
 21
34.304939
  0
LINE
  8
0
 10
-112.968742
 20
52.312504
 11
-112.968742
 21
33.312504
  0
LINE
  8
0
 10
-116.968742
 20
53.782158
 11
-113.817245
 21
53.782158
  0
LINE
  8
0
 10
-116.968742
 20
31.842850
 11
-113.817245
 21
31.842850
  0
LINE
  8
0
 10
-112.968735
 20
52.312504
 11
-113.817245
 21
53.782158
  0
LINE
  8
0
 10
-112.968742
 20
33.312504
 11
-113.817245
 21
31.842848
  0
LINE
  8
0
 10
-150.969238
 20
50.976303
 11
-150.969238
 21
34.648705
  0
LINE
  8
0
 10
-116.968742
 20
37.327679
 11
-113.817245
 21
37.327679
  0
LINE
  8
0
 10
-116.968742
 20
48.297329
 11
-113.817245
 21
48.297329
  0
LINE
  8
0
 10
-150.969238
 20
50.976303
 11
-151.968750
 21
49.976791
  0
LINE
  8
0
 10
-150.969223
 20
34.648705
 11
-151.968735
 21
35.648216
  0
ARC
  8
0
 10
-117.824814
 20
51.039742
 40
4.856071
 50
325.615845
 51
25.615826
  0
ARC
  8
0
 10
-131.120239
 20
42.812504
 40
18.151499
 50
342.412048
 51
17.587942
  0
ARC
  8
0
 10
-117.824814
 20
34.585266
 40
4.856074
 50
334.384125
 51
34.384125
  0
ARC
  8
0
 10
-137.031006
 20
42.812504
 40
20.062265
 50
342.412140
 51
17.587845
  0
ARC
  8
0
 10
-122.336006
 20
51.905758
 40
5.367264
 50
325.616058
 51
25.615936
  0
ARC
  8
0
 10
-122.336006
 20
33.719250
 40
5.367267
 50
334.384033
 51
34.383915
  0
ARC
  8
0
 10
-133.451141
 20
51.905758
 40
5.367274
 50
154.384064
 51
214.383865
  0
ARC
  8
0
 10
-118.756157
 20
42.812504
 40
20.062246
 50
162.412109
 51
197.587814
  0
ARC
  8
0
 10
-133.451141
 20
33.719250
 40
5.367270
 50
145.616104
 51
205.615936
  0
CIRCLE
  8
0
 10
-133.968750
 20
42.812504
 40
3.500000
  0
POINT
  8
0
 10
-145.618744
 20
92.812500
  0
POINT
  8
0
 10
-109.618744
 20
92.812500
  0
LINE
  8
0
 10
-116.968742
 20
103.312500
 11
-116.968742
 21
82.312500
  0
LINE
  8
0
 10
-112.968742
 20
84.812500
 11
-110.618744
 21
84.812500
  0
LINE
  8
0
 10
-112.968742
 20
100.812500
 11
-110.618744
 21
100.812500
  0
LINE
  8
0
 10
-112.968742
 20
99.729996
 11
-109.618744
 21
99.729996
  0
LINE
  8
0
 10
-112.968742
 20
85.895004
 11
-109.618744
 21
85.895004
  0
LINE
  8
0
 10
-110.618744
 20
84.812508
 11
-109.618744
 21
85.812515
  0
LINE
  8
0
 10
-109.618752
 20
99.812500
 11
-110.618752
 21
100.812500
  0
LINE
  8
0
 10
-110.618744
 20
100.812500
 11
-110.618744
 21
84.812500
  0
LINE
  8
0
 10
-109.618744
 20
99.812500
 11
-109.618744
 21
85.812500
  0
LINE
  8
0
 10
-151.968750
 20
99.976791
 11
-151.968750
 21
85.648209
  0
LINE
  8
0
 10
-140.968750
 20
100.432800
 11
-151.852859
 21
100.092674
  0
LINE
  8
0
 10
-139.968750
 20
101.320068
 11
-150.969238
 21
100.976303
  0
LINE
  8
0
 10
-138.818420
 20
103.312500
 11
-139.968750
 21
101.320068
  0
LINE
  8
0
 10
-139.968750
 20
84.304932
 11
-150.969238
 21
84.648697
  0
LINE
  8
0
 10
-140.968750
 20
85.192192
 11
-151.852859
 21
85.532318
  0
LINE
  8
0
 10
-138.818420
 20
82.312500
 11
-139.968750
 21
84.304932
  0
LINE
  8
0
 10
-140.968750
 20
100.432808
 11
-140.465454
 21
101.304535
  0
LINE
  8
0
 10
-140.968750
 20
84.336182
 11
-140.968750
 21
101.288811
  0
LINE
  8
0
 10
-140.968750
 20
85.192177
 11
-140.465454
 21
84.320450
  0
LINE
  8
0
 10
-139.968750
 20
101.320061
 11
-139.968750
 21
84.304932
  0
LINE
  8
0
 10
-112.968742
 20
102.312500
 11
-112.968742
 21
83.312500
  0
LINE
  8
0
 10
-150.969238
 20
100.976303
 11
-150.969238
 21
84.648697
  0
LINE
  8
0
 10
-137.880585
 20
92.812500
 11
-117.906555
 21
92.812500
  0
LINE
  8
0
 10
-116.968742
 20
92.812500
 11
-113.817245
 21
92.812500
  0
LINE
  8
0
 10
-117.906555
 20
92.812500
 11
-116.968742
 21
92.812500
  0
LINE
  8
0
 10
-138.818420
 20
103.312500
 11
-116.968742
 21
103.312500
  0
LINE
  8
0
 10
-138.818420
 20
82.312500
 11
-116.968742
 21
82.312500
  0
LINE
  8
0
 10
-116.968742
 20
102.312500
 11
-112.968742
 21
102.312500
  0
LINE
  8
0
 10
-116.968742
 20
83.312500
 11
-112.968742
 21
83.312500
  0
LINE
  8
0
 10
-150.969238
 20
84.648697
 11
-151.968750
 21
85.648209
  0
LINE
  8
0
 10
-150.969238
 20
100.976303
 11
-151.968750
 21
99.976791
  0
ARC
  8
0
 10
-123.654404
 20
98.062500
 40
15.164009
 50
159.744049
 51
200.255920
  0
ARC
  8
0
 10
-123.654404
 20
87.562500
 40
15.164009
 50
159.744049
 51
200.255920
  0
ARC
  8
0
 10
-132.132751
 20
87.562500
 40
15.164009
 50
339.744049
 51
20.255953
  0
ARC
  8
0
 10
-132.132751
 20
98.062500
 40
15.164009
 50
339.744049
 51
20.255953
  0
ARC
  8
0
 10
-126.688438
 20
97.562500
 40
13.719698
 50
339.743866
 51
20.256136
  0
ARC
  8
0
 10
-126.688438
 20
88.062500
 40
13.719698
 50
339.743866
 51
20.256136
  0
POINT
  8
0
 10
-68.356247
 20
42.812504
  0
POINT
  8
0
 10
-57.856247
 20
42.812504
  0
LINE
  8
0
 10
-68.356239
 20
31.842819
 11
-58.856228
 21
37.327652
  0
LINE
  8
0
 10
-77.856232
 20
48.297329
 11
-68.356239
 21
53.782150
  0
LINE
  8
0
 10
-77.856247
 20
48.297340
 11
-77.856247
 21
37.327675
  0
LINE
  8
0
 10
-58.856247
 20
48.297333
 11
-58.856247
 21
37.327675
  0
LINE
  8
0
 10
-77.856255
 20
37.327690
 11
-68.356270
 21
31.842865
  0
LINE
  8
0
 10
-68.356247
 20
53.782177
 11
-58.856243
 21
48.297344
  0
LINE
  8
0
 10
-76.293503
 20
43.812504
 11
-60.418991
 21
43.812504
  0
LINE
  8
0
 10
-76.293503
 20
41.812504
 11
-60.418991
 21
41.812504
  0
LINE
  8
0
 10
-68.356232
 20
30.688103
 11
-57.856232
 21
36.750282
  0
LINE
  8
0
 10
-78.856239
 20
48.874680
 11
-68.356239
 21
54.936852
  0
LINE
  8
0
 10
-78.856247
 20
48.874687
 11
-78.856247
 21
36.750328
  0
LINE
  8
0
 10
-57.856247
 20
48.874687
 11
-57.856247
 21
36.750324
  0
LINE
  8
0
 10
-78.856247
 20
36.750336
 11
-68.356255
 21
30.688164
  0
LINE
  8
0
 10
-68.356247
 20
54.936882
 11
-57.856247
 21
48.874706
  0
CIRCLE
  8
0
 10
-68.356247
 20
42.812504
 40
9.500000
  0
CIRCLE
  8
0
 10
-68.356247
 20
42.812504
 40
8.000000
  0
CIRCLE
  8
0
 10
-68.356247
 20
42.812504
 40
6.917500
  0
ARC
  8
0
 10
-68.356247
 20
42.812504
 40
10.500000
 50
34.791283
 51
85.208740
  0
ARC
  8
0
 10
-68.356247
 20
42.812504
 40
10.500001
 50
334.791229
 51
25.208754
  0
ARC
  8
0
 10
-68.356247
 20
42.812504
 40
10.500001
 50
274.791229
 51
325.208740
  0
ARC
  8
0
 10
-68.356247
 20
42.812504
 40
10.500000
 50
214.791214
 51
265.208710
  0
ARC
  8
0
 10
-68.356247
 20
42.812504
 40
10.499999
 50
154.791245
 51
205.208740
  0
ARC
  8
0
 10
-68.356247
 20
42.812504
 40
10.499999
 50
94.791344
 51
145.208664
  0
POINT
  8
0
 10
88.831253
 20
42.812504
  0
POINT
  8
0
 10
54.381256
 20
42.812504
  0
LINE
  8
0
 10
81.221252
 20
53.782154
 11
81.221252
 21
31.842850
  0
LINE
  8
0
 10
60.092857
 20
54.936848
 11
80.283440
 21
54.936848
  0
LINE
  8
0
 10
60.092861
 20
30.688148
 11
80.283432
 21
30.688148
  0
LINE
  8
0
 10
81.221260
 20
53.312504
 11
80.283447
 21
54.936844
  0
LINE
  8
0
 10
80.283432
 20
30.688148
 11
81.221252
 21
32.312504
  0
LINE
  8
0
 10
88.831253
 20
49.812504
 11
88.831253
 21
43.812504
  0
LINE
  8
0
 10
85.221252
 20
34.812504
 11
87.831253
 21
34.812504
  0
LINE
  8
0
 10
85.221252
 20
50.812504
 11
87.831253
 21
50.812504
  0
LINE
  8
0
 10
85.221252
 20
49.730000
 11
88.831253
 21
49.730000
  0
LINE
  8
0
 10
85.221252
 20
35.895004
 11
88.831253
 21
35.895004
  0
LINE
  8
0
 10
87.831268
 20
34.812500
 11
88.831268
 21
35.812500
  0
LINE
  8
0
 10
88.831253
 20
49.812500
 11
87.831253
 21
50.812500
  0
LINE
  8
0
 10
87.831253
 20
50.812504
 11
87.831253
 21
43.812504
  0
LINE
  8
0
 10
86.831253
 20
43.812504
 11
86.831253
 21
41.812504
  0
LINE
  8
0
 10
86.831253
 20
41.812504
 11
88.831253
 21
41.812504
  0
LINE
  8
0
 10
86.831253
 20
43.812504
 11
88.831253
 21
43.812504
  0
LINE
  8
0
 10
87.831253
 20
41.812504
 11
87.831253
 21
34.812504
  0
LINE
  8
0
 10
88.831253
 20
41.812504
 11
88.831253
 21
35.812504
  0
LINE
  8
0
 10
46.221256
 20
51.873013
 11
46.221256
 21
33.751999
  0
LINE
  8
0
 10
60.092857
 20
48.874668
 11
80.283440
 21
48.874668
  0
LINE
  8
0
 10
60.092857
 20
36.750340
 11
80.283447
 21
36.750340
  0
LINE
  8
0
 10
85.221252
 20
52.312504
 11
85.221252
 21
33.312504
  0
LINE
  8
0
 10
81.221252
 20
53.782154
 11
84.372749
 21
53.782154
  0
LINE
  8
0
 10
81.221252
 20
48.297329
 11
84.372749
 21
48.297329
  0
LINE
  8
0
 10
81.221252
 20
37.327679
 11
84.372749
 21
37.327679
  0
LINE
  8
0
 10
81.221252
 20
31.842850
 11
84.372749
 21
31.842850
  0
LINE
  8
0
 10
85.221268
 20
52.312500
 11
84.372757
 21
53.782158
  0
LINE
  8
0
 10
85.221260
 20
33.312504
 11
84.372757
 21
31.842850
  0
LINE
  8
0
 10
58.221256
 20
52.248013
 11
46.221256
 21
51.873013
  0
LINE
  8
0
 10
59.221256
 20
53.441250
 11
47.220768
 21
53.066235
  0
LINE
  8
0
 10
59.221256
 20
53.427189
 11
59.221256
 21
32.197815
  0
LINE
  8
0
 10
58.221256
 20
53.410000
 11
58.221256
 21
32.215000
  0
LINE
  8
0
 10
58.221256
 20
52.248016
 11
58.904457
 21
53.431351
  0
LINE
  8
0
 10
58.221256
 20
33.376999
 11
58.904461
 21
32.193649
  0
LINE
  8
0
 10
58.221256
 20
33.376999
 11
46.221256
 21
33.751999
  0
LINE
  8
0
 10
59.221256
 20
32.183750
 11
47.220768
 21
32.558765
  0
LINE
  8
0
 10
47.220768
 20
53.066235
 11
47.220768
 21
32.558765
  0
LINE
  8
0
 10
59.221245
 20
53.427197
 11
60.092850
 21
54.936852
  0
LINE
  8
0
 10
59.221256
 20
32.197811
 11
60.092861
 21
30.688148
  0
LINE
  8
0
 10
47.220768
 20
53.066235
 11
46.221256
 21
51.873013
  0
LINE
  8
0
 10
47.220768
 20
32.558765
 11
46.221256
 21
33.751999
  0
ARC
  8
0
 10
64.927528
 20
51.905758
 40
5.706273
 50
152.085175
 51
212.085541
  0
ARC
  8
0
 10
80.738869
 20
42.812504
 40
21.517612
 50
163.636520
 51
196.363480
  0
ARC
  8
0
 10
64.927528
 20
33.719250
 40
5.706273
 50
147.914398
 51
207.914749
  0
ARC
  8
0
 10
61.159000
 20
42.812504
 40
20.062254
 50
342.412140
 51
17.587854
  0
ARC
  8
0
 10
75.853996
 20
51.905758
 40
5.367264
 50
325.616058
 51
25.615971
  0
ARC
  8
0
 10
75.853996
 20
33.719250
 40
5.367260
 50
334.384003
 51
34.383915
  0
CIRCLE
  8
0
 10
64.221252
 20
42.812504
 40
3.500000
  0
ARC
  8
0
 10
67.069756
 20
42.812504
 40
18.151499
 50
342.412048
 51
17.587942
  0
ARC
  8
0
 10
80.365189
 20
51.039745
 40
4.856065
 50
325.615784
 51
25.615786
  0
ARC
  8
0
 10
80.365189
 20
34.585262
 40
4.856067
 50
334.384094
 51
34.384125
  0
POINT
  8
0
 10
88.831253
 20
102.812500
  0
POINT
  8
0
 10
54.381256
 20
102.812500
  0
LINE
  8
0
 10
81.221252
 20
113.312500
 11
81.221252
 21
92.312500
  0
LINE
  8
0
 10
88.831253
 20
109.812500
 11
88.831253
 21
95.812500
  0
LINE
  8
0
 10
85.221252
 20
94.812500
 11
87.831253
 21
94.812500
  0
LINE
  8
0
 10
85.221252
 20
110.812500
 11
87.831253
 21
110.812500
  0
LINE
  8
0
 10
85.221252
 20
109.729996
 11
88.831253
 21
109.729996
  0
LINE
  8
0
 10
85.221252
 20
95.895004
 11
88.831253
 21
95.895004
  0
LINE
  8
0
 10
87.831268
 20
94.812492
 11
88.831268
 21
95.812492
  0
LINE
  8
0
 10
88.831238
 20
109.812492
 11
87.831238
 21
110.812485
  0
LINE
  8
0
 10
87.831253
 20
110.812500
 11
87.831253
 21
94.812500
  0
LINE
  8
0
 10
46.221256
 20
111.858955
 11
46.221256
 21
93.751984
  0
LINE
  8
0
 10
85.221252
 20
112.312500
 11
85.221252
 21
93.312500
  0
LINE
  8
0
 10
58.221256
 20
112.233955
 11
46.221256
 21
111.858955
  0
LINE
  8
0
 10
55.101467
 20
113.312500
 11
47.220768
 21
113.066231
  0
LINE
  8
0
 10
59.221256
 20
113.312500
 11
59.221256
 21
92.312500
  0
LINE
  8
0
 10
58.221256
 20
113.312500
 11
58.221256
 21
92.312500
  0
LINE
  8
0
 10
58.221256
 20
112.233940
 11
58.843964
 21
113.312500
  0
LINE
  8
0
 10
58.221256
 20
93.376984
 11
58.835835
 21
92.312500
  0
LINE
  8
0
 10
58.221256
 20
93.376984
 11
46.221256
 21
93.751984
  0
LINE
  8
0
 10
55.101101
 20
92.312500
 11
47.220768
 21
92.558762
  0
LINE
  8
0
 10
47.220768
 20
113.066231
 11
47.220768
 21
92.558762
  0
LINE
  8
0
 10
60.092857
 20
102.812500
 11
80.283440
 21
102.812500
  0
LINE
  8
0
 10
81.221252
 20
102.812500
 11
84.372749
 21
102.812500
  0
LINE
  8
0
 10
55.101467
 20
113.312500
 11
81.221252
 21
113.312500
  0
LINE
  8
0
 10
55.101101
 20
92.312500
 11
81.221252
 21
92.312500
  0
LINE
  8
0
 10
81.221252
 20
93.312500
 11
85.221252
 21
93.312500
  0
LINE
  8
0
 10
81.221252
 20
112.312500
 11
85.221252
 21
112.312500
  0
LINE
  8
0
 10
46.221256
 20
93.751984
 11
47.220768
 21
92.558762
  0
LINE
  8
0
 10
46.221256
 20
111.858963
 11
47.220768
 21
113.066231
  0
ARC
  8
0
 10
75.468475
 20
108.062500
 40
16.247217
 50
161.147568
 51
198.852432
  0
ARC
  8
0
 10
75.468475
 20
97.562500
 40
16.247217
 50
161.147568
 51
198.852432
  0
ARC
  8
0
 10
66.057281
 20
97.562500
 40
15.163973
 50
339.743988
 51
20.256002
  0
ARC
  8
0
 10
66.057281
 20
108.062500
 40
15.163973
 50
339.743988
 51
20.256002
  0
ARC
  8
0
 10
71.501556
 20
98.062500
 40
13.719698
 50
339.743866
 51
20.256136
  0
ARC
  8
0
 10
71.501556
 20
107.562500
 40
13.719698
 50
339.743866
 51
20.256136
  0
POINT
  8
0
 10
144.381256
 20
42.812504
  0
POINT
  8
0
 10
154.881256
 20
42.812504
  0
LINE
  8
0
 10
144.381256
 20
31.842829
 11
153.881271
 21
37.327660
  0
LINE
  8
0
 10
134.881256
 20
48.297325
 11
144.381256
 21
53.782150
  0
LINE
  8
0
 10
134.881256
 20
48.297340
 11
134.881256
 21
37.327675
  0
LINE
  8
0
 10
153.881256
 20
48.297333
 11
153.881256
 21
37.327675
  0
LINE
  8
0
 10
134.881256
 20
37.327682
 11
144.381241
 21
31.842865
  0
LINE
  8
0
 10
144.381256
 20
53.782185
 11
153.881271
 21
48.297352
  0
LINE
  8
0
 10
136.444000
 20
43.812504
 11
152.318512
 21
43.812504
  0
LINE
  8
0
 10
136.444000
 20
41.812504
 11
152.318512
 21
41.812504
  0
LINE
  8
0
 10
144.381256
 20
30.688116
 11
154.881271
 21
36.750294
  0
LINE
  8
0
 10
133.881271
 20
48.874676
 11
144.381256
 21
54.936848
  0
LINE
  8
0
 10
133.881256
 20
48.874687
 11
133.881256
 21
36.750328
  0
LINE
  8
0
 10
154.881256
 20
48.874687
 11
154.881256
 21
36.750324
  0
LINE
  8
0
 10
133.881241
 20
36.750340
 11
144.381241
 21
30.688160
  0
LINE
  8
0
 10
144.381271
 20
54.936882
 11
154.881256
 21
48.874706
  0
CIRCLE
  8
0
 10
144.381256
 20
42.812504
 40
9.500000
  0
CIRCLE
  8
0
 10
144.381256
 20
42.812504
 40
8.000000
  0
CIRCLE
  8
0
 10
144.381256
 20
42.812504
 40
6.917500
  0
ARC
  8
0
 10
144.381256
 20
42.812504
 40
10.500006
 50
34.791260
 51
85.208694
  0
ARC
  8
0
 10
144.381256
 20
42.812504
 40
10.500001
 50
334.791229
 51
25.208754
  0
ARC
  8
0
 10
144.381256
 20
42.812504
 40
10.500001
 50
274.791229
 51
325.208771
  0
ARC
  8
0
 10
144.381256
 20
42.812504
 40
10.500000
 50
214.791214
 51
265.208710
  0
ARC
  8
0
 10
144.381256
 20
42.812504
 40
10.499999
 50
154.791245
 51
205.208740
  0
ARC
  8
0
 10
144.381256
 20
42.812504
 40
10.499999
 50
94.791389
 51
145.208664
  0
POINT
  8
0
 10
-125.618744
 20
-57.187496
  0
POINT
  8
0
 10
-63.968742
 20
-57.187496
  0
LINE
  8
0
 10
-131.968750
 20
-49.910927
 11
-131.968750
 21
-64.464050
  0
LINE
  8
0
 10
-120.968742
 20
-49.567177
 11
-131.968735
 21
-49.910927
  0
LINE
  8
0
 10
-119.968750
 20
-48.679932
 11
-130.969223
 21
-49.023697
  0
LINE
  8
0
 10
-119.968750
 20
-65.695061
 11
-130.969238
 21
-65.351288
  0
LINE
  8
0
 10
-120.968742
 20
-64.807808
 11
-131.968750
 21
-64.464050
  0
LINE
  8
0
 10
-120.968742
 20
-49.567181
 11
-120.465454
 21
-48.695450
  0
LINE
  8
0
 10
-120.968742
 20
-65.663803
 11
-120.968742
 21
-48.711178
  0
LINE
  8
0
 10
-120.968750
 20
-64.807808
 11
-120.465462
 21
-65.679535
  0
LINE
  8
0
 10
-119.968742
 20
-44.187489
 11
-119.968742
 21
-70.187492
  0
LINE
  8
0
 10
-130.969238
 20
-49.023697
 11
-130.969238
 21
-65.351288
  0
LINE
  8
0
 10
-119.968742
 20
-44.187489
 11
-64.968742
 21
-44.187489
  0
LINE
  8
0
 10
-119.968742
 20
-70.187492
 11
-64.968742
 21
-70.187492
  0
LINE
  8
0
 10
-63.968742
 20
-45.187489
 11
-63.968742
 21
-69.187492
  0
LINE
  8
0
 10
-108.968742
 20
-44.187489
 11
-108.968742
 21
-70.187492
  0
LINE
  8
0
 10
-119.968742
 20
-52.187489
 11
-108.968742
 21
-52.187489
  0
LINE
  8
0
 10
-119.968742
 20
-49.295185
 11
-108.968742
 21
-49.295185
  0
LINE
  8
0
 10
-119.968742
 20
-62.187489
 11
-108.968742
 21
-62.187489
  0
LINE
  8
0
 10
-119.968742
 20
-65.079796
 11
-108.968742
 21
-65.079796
  0
LINE
  8
0
 10
-66.968742
 20
-44.187489
 11
-66.968742
 21
-70.187492
  0
LINE
  8
0
 10
-106.868744
 20
-45.684784
 11
-106.868744
 21
-54.190197
  0
LINE
  8
0
 10
-106.868744
 20
-54.190197
 11
-103.168747
 21
-54.290199
  0
LINE
  8
0
 10
-70.268730
 20
-44.695595
 11
-73.968727
 21
-44.795593
  0
LINE
  8
0
 10
-103.168739
 20
-45.584782
 11
-106.868744
 21
-45.684784
  0
LINE
  8
0
 10
-98.468742
 20
-45.457756
 11
-102.168739
 21
-45.557755
  0
LINE
  8
0
 10
-93.768738
 20
-45.330727
 11
-97.468735
 21
-45.430729
  0
LINE
  8
0
 10
-89.068741
 20
-45.203701
 11
-92.768738
 21
-45.303703
  0
LINE
  8
0
 10
-84.368736
 20
-45.076675
 11
-88.068741
 21
-45.176674
  0
LINE
  8
0
 10
-79.668732
 20
-44.949646
 11
-83.368729
 21
-45.049648
  0
LINE
  8
0
 10
-74.968735
 20
-44.822620
 11
-78.668732
 21
-44.922623
  0
LINE
  8
0
 10
-73.968735
 20
-55.079388
 11
-70.268738
 21
-55.179386
  0
LINE
  8
0
 10
-78.668732
 20
-54.952362
 11
-74.968735
 21
-55.052361
  0
LINE
  8
0
 10
-83.368736
 20
-54.825333
 11
-79.668732
 21
-54.925331
  0
LINE
  8
0
 10
-88.068741
 20
-54.698307
 11
-84.368736
 21
-54.798306
  0
LINE
  8
0
 10
-92.768738
 20
-54.571278
 11
-89.068741
 21
-54.671280
  0
LINE
  8
0
 10
-97.468742
 20
-54.444252
 11
-93.768738
 21
-54.544250
  0
LINE
  8
0
 10
-102.168739
 20
-54.317226
 11
-98.468742
 21
-54.417225
  0
LINE
  8
0
 10
-70.268730
 20
-44.695595
 11
-70.268730
 21
-55.179390
  0
LINE
  8
0
 10
-103.168739
 20
-45.584785
 11
-103.168739
 21
-54.290199
  0
LINE
  8
0
 10
-102.168739
 20
-45.557758
 11
-102.168739
 21
-54.317226
  0
LINE
  8
0
 10
-98.468742
 20
-45.457756
 11
-98.468742
 21
-54.417225
  0
LINE
  8
0
 10
-97.468735
 20
-45.430729
 11
-97.468735
 21
-54.444252
  0
LINE
  8
0
 10
-93.768738
 20
-45.330730
 11
-93.768738
 21
-54.544250
  0
LINE
  8
0
 10
-92.768738
 20
-45.303703
 11
-92.768738
 21
-54.571281
  0
LINE
  8
0
 10
-89.068741
 20
-45.203705
 11
-89.068741
 21
-54.671280
  0
LINE
  8
0
 10
-88.068741
 20
-45.176678
 11
-88.068741
 21
-54.698307
  0
LINE
  8
0
 10
-84.368736
 20
-45.076675
 11
-84.368736
 21
-54.798306
  0
LINE
  8
0
 10
-83.368736
 20
-45.049648
 11
-83.368736
 21
-54.825333
  0
LINE
  8
0
 10
-79.668732
 20
-44.949650
 11
-79.668732
 21
-54.925335
  0
LINE
  8
0
 10
-78.668732
 20
-44.922623
 11
-78.668732
 21
-54.952362
  0
LINE
  8
0
 10
-74.968735
 20
-44.822624
 11
-74.968735
 21
-55.052361
  0
LINE
  8
0
 10
-73.968727
 20
-44.795597
 11
-73.968727
 21
-55.079388
  0
LINE
  8
0
 10
-106.868744
 20
-68.690208
 11
-106.868744
 21
-60.184795
  0
LINE
  8
0
 10
-106.868744
 20
-60.184795
 11
-103.168747
 21
-60.084793
  0
LINE
  8
0
 10
-70.268723
 20
-69.679398
 11
-73.968727
 21
-69.579399
  0
LINE
  8
0
 10
-103.168739
 20
-68.790207
 11
-106.868744
 21
-68.690208
  0
LINE
  8
0
 10
-98.468735
 20
-68.917236
 11
-102.168739
 21
-68.817238
  0
LINE
  8
0
 10
-93.768738
 20
-69.044266
 11
-97.468735
 21
-68.944260
  0
LINE
  8
0
 10
-89.068741
 20
-69.171288
 11
-92.768738
 21
-69.071289
  0
LINE
  8
0
 10
-84.368729
 20
-69.298317
 11
-88.068733
 21
-69.198318
  0
LINE
  8
0
 10
-79.668732
 20
-69.425346
 11
-83.368736
 21
-69.325348
  0
LINE
  8
0
 10
-74.968727
 20
-69.552368
 11
-78.668732
 21
-69.452370
  0
LINE
  8
0
 10
-73.968727
 20
-59.295605
 11
-70.268730
 21
-59.195606
  0
LINE
  8
0
 10
-78.668732
 20
-59.422630
 11
-74.968735
 21
-59.322632
  0
LINE
  8
0
 10
-83.368729
 20
-59.549660
 11
-79.668732
 21
-59.449661
  0
LINE
  8
0
 10
-88.068741
 20
-59.676685
 11
-84.368736
 21
-59.576687
  0
LINE
  8
0
 10
-92.768738
 20
-59.803715
 11
-89.068741
 21
-59.703712
  0
LINE
  8
0
 10
-97.468742
 20
-59.930740
 11
-93.768738
 21
-59.830738
  0
LINE
  8
0
 10
-102.168739
 20
-60.057766
 11
-98.468742
 21
-59.957767
  0
LINE
  8
0
 10
-70.268730
 20
-69.679398
 11
-70.268730
 21
-59.195602
  0
LINE
  8
0
 10
-103.168739
 20
-68.790207
 11
-103.168739
 21
-60.084793
  0
LINE
  8
0
 10
-102.168739
 20
-68.817238
 11
-102.168739
 21
-60.057766
  0
LINE
  8
0
 10
-98.468742
 20
-68.917236
 11
-98.468742
 21
-59.957767
  0
LINE
  8
0
 10
-97.468735
 20
-68.944260
 11
-97.468735
 21
-59.930740
  0
LINE
  8
0
 10
-93.768738
 20
-69.044258
 11
-93.768738
 21
-59.830742
  0
LINE
  8
0
 10
-92.768738
 20
-69.071289
 11
-92.768738
 21
-59.803711
  0
LINE
  8
0
 10
-89.068741
 20
-69.171288
 11
-89.068741
 21
-59.703712
  0
LINE
  8
0
 10
-88.068741
 20
-69.198318
 11
-88.068741
 21
-59.676685
  0
LINE
  8
0
 10
-84.368736
 20
-69.298317
 11
-84.368736
 21
-59.576687
  0
LINE
  8
0
 10
-83.368736
 20
-69.325340
 11
-83.368736
 21
-59.549660
  0
LINE
  8
0
 10
-79.668732
 20
-69.425346
 11
-79.668732
 21
-59.449657
  0
LINE
  8
0
 10
-78.668732
 20
-69.452370
 11
-78.668732
 21
-59.422630
  0
LINE
  8
0
 10
-74.968735
 20
-69.552368
 11
-74.968735
 21
-59.322632
  0
LINE
  8
0
 10
-73.968727
 20
-69.579399
 11
-73.968727
 21
-59.295605
  0
LINE
  8
0
 10
-103.168739
 20
-47.585514
 11
-106.868744
 21
-47.685516
  0
LINE
  8
0
 10
-98.468742
 20
-47.458488
 11
-102.168739
 21
-47.558487
  0
LINE
  8
0
 10
-93.768738
 20
-47.331459
 11
-97.468735
 21
-47.431461
  0
LINE
  8
0
 10
-89.068741
 20
-47.204433
 11
-92.768738
 21
-47.304436
  0
LINE
  8
0
 10
-84.368736
 20
-47.077408
 11
-88.068741
 21
-47.177406
  0
LINE
  8
0
 10
-79.668732
 20
-46.950378
 11
-83.368729
 21
-47.050381
  0
LINE
  8
0
 10
-74.968735
 20
-46.823353
 11
-78.668732
 21
-46.923351
  0
LINE
  8
0
 10
-70.268730
 20
-46.696327
 11
-73.968727
 21
-46.796326
  0
LINE
  8
0
 10
-103.168739
 20
-66.789474
 11
-106.868744
 21
-66.689476
  0
LINE
  8
0
 10
-98.468742
 20
-66.916504
 11
-102.168739
 21
-66.816505
  0
LINE
  8
0
 10
-93.768738
 20
-67.043533
 11
-97.468742
 21
-66.943535
  0
LINE
  8
0
 10
-89.068741
 20
-67.170555
 11
-92.768738
 21
-67.070557
  0
LINE
  8
0
 10
-84.368729
 20
-67.297585
 11
-88.068733
 21
-67.197586
  0
LINE
  8
0
 10
-79.668732
 20
-67.424614
 11
-83.368729
 21
-67.324615
  0
LINE
  8
0
 10
-74.968727
 20
-67.551643
 11
-78.668732
 21
-67.451637
  0
LINE
  8
0
 10
-70.268738
 20
-67.678665
 11
-73.968735
 21
-67.578667
  0
LINE
  8
0
 10
-130.969238
 20
-65.351288
 11
-131.968750
 21
-64.464050
  0
LINE
  8
0
 10
-130.969223
 20
-49.023697
 11
-131.968735
 21
-49.910927
  0
ARC
  8
0
 10
-64.968742
 20
-45.187489
 40
1.000000
 50
0.000000
 51
90.000000
  0
ARC
  8
0
 10
-64.968742
 20
-69.187492
 40
1.000000
 50
270.000000
 51
0.000000
  0
POINT
  8
0
 10
117.221252
 20
-57.187496
  0
POINT
  8
0
 10
54.381256
 20
-57.187496
  0
LINE
  8
0
 10
61.221256
 20
-43.187489
 11
61.221256
 21
-71.187492
  0
LINE
  8
0
 10
61.221256
 20
-43.187489
 11
116.221252
 21
-43.187489
  0
LINE
  8
0
 10
61.221256
 20
-71.187492
 11
116.221252
 21
-71.187492
  0
LINE
  8
0
 10
117.221252
 20
-44.187489
 11
117.221252
 21
-70.187492
  0
LINE
  8
0
 10
72.221260
 20
-43.187489
 11
72.221260
 21
-71.187492
  0
LINE
  8
0
 10
114.221252
 20
-43.187489
 11
114.221252
 21
-71.187492
  0
LINE
  8
0
 10
74.321259
 20
-44.684784
 11
74.321259
 21
-54.190197
  0
LINE
  8
0
 10
74.321259
 20
-54.190197
 11
78.021255
 21
-54.290195
  0
LINE
  8
0
 10
110.921272
 20
-43.695591
 11
107.221275
 21
-43.795593
  0
LINE
  8
0
 10
78.021263
 20
-44.584782
 11
74.321259
 21
-44.684780
  0
LINE
  8
0
 10
82.721260
 20
-44.457756
 11
79.021263
 21
-44.557755
  0
LINE
  8
0
 10
87.421265
 20
-44.330727
 11
83.721268
 21
-44.430725
  0
LINE
  8
0
 10
92.121262
 20
-44.203701
 11
88.421265
 21
-44.303699
  0
LINE
  8
0
 10
96.821266
 20
-44.076672
 11
93.121262
 21
-44.176674
  0
LINE
  8
0
 10
101.521271
 20
-43.949646
 11
97.821274
 21
-44.049644
  0
LINE
  8
0
 10
106.221275
 20
-43.822617
 11
102.521271
 21
-43.922619
  0
LINE
  8
0
 10
107.221268
 20
-55.079388
 11
110.921265
 21
-55.179386
  0
LINE
  8
0
 10
102.521271
 20
-54.952358
 11
106.221268
 21
-55.052361
  0
LINE
  8
0
 10
97.821266
 20
-54.825333
 11
101.521271
 21
-54.925331
  0
LINE
  8
0
 10
93.121262
 20
-54.698303
 11
96.821259
 21
-54.798306
  0
LINE
  8
0
 10
88.421265
 20
-54.571278
 11
92.121262
 21
-54.671280
  0
LINE
  8
0
 10
83.721260
 20
-54.444252
 11
87.421265
 21
-54.544250
  0
LINE
  8
0
 10
79.021255
 20
-54.317223
 11
82.721260
 21
-54.417225
  0
LINE
  8
0
 10
110.921265
 20
-43.695595
 11
110.921265
 21
-55.179390
  0
LINE
  8
0
 10
78.021255
 20
-44.584785
 11
78.021255
 21
-54.290199
  0
LINE
  8
0
 10
79.021255
 20
-44.557758
 11
79.021255
 21
-54.317226
  0
LINE
  8
0
 10
82.721260
 20
-44.457756
 11
82.721260
 21
-54.417225
  0
LINE
  8
0
 10
83.721260
 20
-44.430729
 11
83.721260
 21
-54.444252
  0
LINE
  8
0
 10
87.421265
 20
-44.330730
 11
87.421265
 21
-54.544250
  0
LINE
  8
0
 10
88.421265
 20
-44.303703
 11
88.421265
 21
-54.571281
  0
LINE
  8
0
 10
92.121262
 20
-44.203705
 11
92.121262
 21
-54.671280
  0
LINE
  8
0
 10
93.121262
 20
-44.176678
 11
93.121262
 21
-54.698307
  0
LINE
  8
0
 10
96.821259
 20
-44.076675
 11
96.821259
 21
-54.798306
  0
LINE
  8
0
 10
97.821259
 20
-44.049648
 11
97.821259
 21
-54.825333
  0
LINE
  8
0
 10
101.521271
 20
-43.949650
 11
101.521271
 21
-54.925335
  0
LINE
  8
0
 10
102.521271
 20
-43.922623
 11
102.521271
 21
-54.952362
  0
LINE
  8
0
 10
106.221268
 20
-43.822624
 11
106.221268
 21
-55.052361
  0
LINE
  8
0
 10
107.221268
 20
-43.795597
 11
107.221268
 21
-55.079388
  0
LINE
  8
0
 10
74.321259
 20
-69.690208
 11
74.321259
 21
-60.184795
  0
LINE
  8
0
 10
74.321259
 20
-60.184795
 11
78.021255
 21
-60.084793
  0
LINE
  8
0
 10
110.921265
 20
-70.679405
 11
107.221268
 21
-70.579399
  0
LINE
  8
0
 10
78.021255
 20
-69.790215
 11
74.321259
 21
-69.690216
  0
LINE
  8
0
 10
82.721260
 20
-69.917236
 11
79.021255
 21
-69.817238
  0
LINE
  8
0
 10
87.421265
 20
-70.044266
 11
83.721260
 21
-69.944267
  0
LINE
  8
0
 10
92.121262
 20
-70.171288
 11
88.421257
 21
-70.071289
  0
LINE
  8
0
 10
96.821259
 20
-70.298325
 11
93.121262
 21
-70.198318
  0
LINE
  8
0
 10
101.521271
 20
-70.425346
 11
97.821266
 21
-70.325348
  0
LINE
  8
0
 10
106.221268
 20
-70.552376
 11
102.521271
 21
-70.452377
  0
LINE
  8
0
 10
107.221275
 20
-59.295605
 11
110.921272
 21
-59.195606
  0
LINE
  8
0
 10
102.521271
 20
-59.422630
 11
106.221268
 21
-59.322632
  0
LINE
  8
0
 10
97.821266
 20
-59.549660
 11
101.521271
 21
-59.449661
  0
LINE
  8
0
 10
93.121262
 20
-59.676685
 11
96.821266
 21
-59.576687
  0
LINE
  8
0
 10
88.421265
 20
-59.803715
 11
92.121262
 21
-59.703712
  0
LINE
  8
0
 10
83.721260
 20
-59.930740
 11
87.421265
 21
-59.830738
  0
LINE
  8
0
 10
79.021255
 20
-60.057766
 11
82.721260
 21
-59.957767
  0
LINE
  8
0
 10
110.921265
 20
-70.679398
 11
110.921265
 21
-59.195602
  0
LINE
  8
0
 10
78.021255
 20
-69.790207
 11
78.021255
 21
-60.084793
  0
LINE
  8
0
 10
79.021255
 20
-69.817238
 11
79.021255
 21
-60.057766
  0
LINE
  8
0
 10
82.721260
 20
-69.917236
 11
82.721260
 21
-59.957767
  0
LINE
  8
0
 10
83.721260
 20
-69.944260
 11
83.721260
 21
-59.930740
  0
LINE
  8
0
 10
87.421265
 20
-70.044258
 11
87.421265
 21
-59.830742
  0
LINE
  8
0
 10
88.421265
 20
-70.071289
 11
88.421265
 21
-59.803711
  0
LINE
  8
0
 10
92.121262
 20
-70.171288
 11
92.121262
 21
-59.703712
  0
LINE
  8
0
 10
93.121262
 20
-70.198318
 11
93.121262
 21
-59.676685
  0
LINE
  8
0
 10
96.821259
 20
-70.298317
 11
96.821259
 21
-59.576687
  0
LINE
  8
0
 10
97.821259
 20
-70.325340
 11
97.821259
 21
-59.549660
  0
LINE
  8
0
 10
101.521271
 20
-70.425346
 11
101.521271
 21
-59.449657
  0
LINE
  8
0
 10
102.521271
 20
-70.452370
 11
102.521271
 21
-59.422630
  0
LINE
  8
0
 10
106.221268
 20
-70.552368
 11
106.221268
 21
-59.322632
  0
LINE
  8
0
 10
107.221268
 20
-70.579399
 11
107.221268
 21
-59.295605
  0
LINE
  8
0
 10
78.021255
 20
-46.585514
 11
74.321259
 21
-46.685513
  0
LINE
  8
0
 10
82.721260
 20
-46.458488
 11
79.021255
 21
-46.558487
  0
LINE
  8
0
 10
87.421265
 20
-46.331459
 11
83.721260
 21
-46.431458
  0
LINE
  8
0
 10
92.121262
 20
-46.204433
 11
88.421265
 21
-46.304432
  0
LINE
  8
0
 10
96.821259
 20
-46.077404
 11
93.121262
 21
-46.177406
  0
LINE
  8
0
 10
101.521271
 20
-45.950378
 11
97.821266
 21
-46.050377
  0
LINE
  8
0
 10
106.221268
 20
-45.823349
 11
102.521271
 21
-45.923351
  0
LINE
  8
0
 10
110.921272
 20
-45.696323
 11
107.221268
 21
-45.796326
  0
LINE
  8
0
 10
78.021255
 20
-67.789474
 11
74.321259
 21
-67.689476
  0
LINE
  8
0
 10
82.721252
 20
-67.916504
 11
79.021255
 21
-67.816505
  0
LINE
  8
0
 10
87.421265
 20
-68.043533
 11
83.721260
 21
-67.943527
  0
LINE
  8
0
 10
92.121262
 20
-68.170555
 11
88.421265
 21
-68.070557
  0
LINE
  8
0
 10
96.821259
 20
-68.297585
 11
93.121262
 21
-68.197586
  0
LINE
  8
0
 10
101.521271
 20
-68.424614
 11
97.821266
 21
-68.324615
  0
LINE
  8
0
 10
106.221268
 20
-68.551643
 11
102.521271
 21
-68.451637
  0
LINE
  8
0
 10
110.921265
 20
-68.678665
 11
107.221268
 21
-68.578667
  0
LINE
  8
0
 10
61.221256
 20
-67.878754
 11
47.220768
 21
-67.441238
  0
LINE
  8
0
 10
60.221256
 20
-47.689484
 11
46.221256
 21
-48.126984
  0
LINE
  8
0
 10
61.221256
 20
-46.496250
 11
47.220768
 21
-46.933765
  0
LINE
  8
0
 10
61.221256
 20
-46.572811
 11
61.221256
 21
-67.802185
  0
LINE
  8
0
 10
60.221256
 20
-46.527500
 11
60.221256
 21
-67.847504
  0
LINE
  8
0
 10
60.221256
 20
-47.689484
 11
60.904453
 21
-46.506149
  0
LINE
  8
0
 10
60.221256
 20
-66.685501
 11
60.904465
 21
-67.868851
  0
LINE
  8
0
 10
60.221256
 20
-66.685501
 11
46.221256
 21
-66.248001
  0
LINE
  8
0
 10
46.221256
 20
-48.126984
 11
46.221256
 21
-66.248001
  0
LINE
  8
0
 10
47.220768
 20
-46.933765
 11
47.220768
 21
-67.441238
  0
LINE
  8
0
 10
72.221260
 20
-50.259293
 11
61.221256
 21
-50.259293
  0
LINE
  8
0
 10
72.221260
 20
-64.115700
 11
61.221256
 21
-64.115700
  0
LINE
  8
0
 10
47.220768
 20
-67.441238
 11
46.221256
 21
-66.248001
  0
LINE
  8
0
 10
47.220768
 20
-46.933765
 11
46.221256
 21
-48.126984
  0
ARC
  8
0
 10
116.221252
 20
-44.187489
 40
1.000000
 50
0.000000
 51
90.000000
  0
ARC
  8
0
 10
116.221252
 20
-70.187492
 40
1.000000
 50
270.000000
 51
0.000000
  0
ENDSEC
  0
EOF
