  0
SECTION
  2
HEADER
  0
ENDSEC
  0
SECTION
  2
TABLES
  0
TABLE
  2
LTYPE
 70
     4
  0
LTYPE
  2
CONTINUOUS
 70
    64
  3
Solid line
 72
    65
 73
     0
 40
0.000000
  0
LTYPE
  2
DASHED
 70
    64
  3
__ __ __ __ __ __ __ __ __ __ __ __ __ __ __
 72
    65
 73
     2
 40
3.500000
 49
2.000000
 49
-1.500000
  0
LTYPE
  2
CENTER
 70
    64
  3
____ _ ____ _ ____ _ ____ _ ____ _ ____ _ ____
 72
    65
 73
     4
 40
17.500000
 49
13.000000
 49
-1.500000
 49
1.500000
 49
-1.500000
  0
LTYPE
  2
PHANTOM
 70
    64
  3
_____ _ _ _____ _ _ _____ _ _ _____ _ _ ____  
 72
    65
 73
     6
 40
15.500000
 49
8.000000
 49
-1.500000
 49
1.500000
 49
-1.500000
 49
1.500000
 49
-1.500000
  0
LTYPE
  2
DASHED1
 70
    64
  3
__ __ __ __ __ __ __ __ __ __ __ __ __ __ __
 72
    65
 73
     2
 40
1.500000
 49
1.000000
 49
-0.500000
  0
LTYPE
  2
DASHED2
 70
    64
  3
__ __ __ __ __ __ __ __ __ __ __ __ __ __ __
 72
    65
 73
     2
 40
3.500000
 49
2.500000
 49
-1.000000
  0
LTYPE
  2
DASHED3
 70
    64
  3
__ __ __ __ __ __ __ __ __ __ __ __ __ __ __
 72
    65
 73
     2
 40
6.000000
 49
4.000000
 49
-2.000000
  0
LTYPE
  2
DASHED4
 70
    64
  3
__ __ __ __ __ __ __ __ __ __ __ __ __ __ __
 72
    65
 73
     2
 40
12.000000
 49
10.000000
 49
-2.000000
  0
LTYPE
  2
DASHED5
 70
    64
  3
__ __ __ __ __ __ __ __ __ __ __ __ __ __ __
 72
    65
 73
     2
 40
17.000000
 49
15.000000
 49
-2.000000
  0
LTYPE
  2
DASHED6
 70
    64
  3
__ __ __ __ __ __ __ __ __ __ __ __ __ __ __
 72
    65
 73
     2
 40
29.000000
 49
27.000000
 49
-2.000000
  0
LTYPE
  2
PHANTOM1
 70
    64
  3
_____ _ _ _____ _ _ _____ _ _ _____ _ _ ____  
 72
    65
 73
     6
 40
31.000000
 49
25.000000
 49
-1.500000
 49
1.000000
 49
-1.000000
 49
1.000000
 49
-1.500000
  0
LTYPE
  2
PHANTOM2
 70
    64
  3
_____ _ _ _____ _ _ _____ _ _ _____ _ _ ____  
 72
    65
 73
     6
 40
36.000000
 49
27.000000
 49
-1.500000
 49
2.500000
 49
-1.000000
 49
2.500000
 49
-1.500000
  0
LTYPE
  2
PHANTOM3
 70
    64
  3
_____ _ _ _____ _ _ _____ _ _ _____ _ _ ____  
 72
    65
 73
     6
 40
78.000000
 49
64.000000
 49
-2.000000
 49
4.000000
 49
-2.000000
 49
4.000000
 49
-2.000000
  0
LTYPE
  2
CENTER1
 70
    64
  3
____ _ ____ _ ____ _ ____ _ ____ _ ____ _ ____
 72
    65
 73
     4
 40
19.000000
 49
14.000000
 49
-1.000000
 49
3.000000
 49
-1.000000
  0
LTYPE
  2
CENTER2
 70
    64
  3
____ _ ____ _ ____ _ ____ _ ____ _ ____ _ ____
 72
    65
 73
     4
 40
28.500000
 49
25.000000
 49
-1.000000
 49
1.500000
 49
-1.000000
  0
LTYPE
  2
CENTER3
 70
    64
  3
____ _ ____ _ ____ _ ____ _ ____ _ ____ _ ____
 72
    65
 73
     4
 40
31.500000
 49
27.000000
 49
-1.000000
 49
2.500000
 49
-1.000000
  0
LTYPE
  2
CENTER4
 70
    64
  3
____ _ ____ _ ____ _ ____ _ ____ _ ____ _ ____
 72
    65
 73
     4
 40
50.000000
 49
45.000000
 49
-1.000000
 49
3.000000
 49
-1.000000
  0
LTYPE
  2
CENTER5
 70
    64
  3
____ _ ____ _ ____ _ ____ _ ____ _ ____ _ ____
 72
    65
 73
     4
 40
100.000000
 49
92.000000
 49
-2.000000
 49
4.000000
 49
-2.000000
  0
LTYPE
  2
SBK1
 70
    64
  3
______ _ _ _ ______ _ _ _ ______ _ _ _ _____  
 72
    65
 73
     8
 40
60.500000
 49
45.000000
 49
-2.000000
 49
2.500000
 49
-2.000000
 49
2.500000
 49
-2.000000
 49
2.500000
 49
-2.000000
  0
LTYPE
  2
SBK2
 70
    64
  3
______ _ _ _ ______ _ _ _ ______ _ _ _ _____  
 72
    65
 73
     8
 40
84.000000
 49
64.000000
 49
-2.000000
 49
4.000000
 49
-2.000000
 49
4.000000
 49
-2.000000
 49
4.000000
 49
-2.000000
  0
LTYPE
  2
STCH
 70
    64
  3
__ __ __ __ __ __ __ __ __ __ __ __ __ __ __
 72
    65
 73
     2
 40
3.000000
 49
1.000000
 49
-2.000000
  0
LTYPE
  2
MTCH
 70
    64
  3
_____ _ _ _____ _ _ _____ _ _ _____ _ _ ____  
 72
    65
 73
     6
 40
80.000000
 49
66.000000
 49
-2.000000
 49
4.000000
 49
-2.000000
 49
4.000000
 49
-2.000000
  0
ENDTAB
  0
TABLE
  2
LAYER
 70
     1
  0
LAYER
  2
0
 70
     0
 62
     7
  6
CONTINUOUS
  0
ENDTAB
  0
TABLE
  2
STYLE
 70
     1
  0
STYLE
  2
STANDARD
 70
     0
 40
0.000000
 41
1.000000
 50
0.000000
 71
     0
 42
0.200000
  3
txt
  4
BIGFONT
  0
ENDTAB
  0
TABLE
  2
VIEW
 70
     0
  0
ENDTAB
  0
ENDSEC
  0
SECTION
  2
BLOCKS
  0
ENDSEC
  0
SECTION
  2
ENTITIES
  0
LINE
  8
0
 10
-299.250000
 20
276.250000
 11
-299.250000
 21
261.250000
  0
LINE
  8
0
 10
299.799988
 20
276.250000
 11
299.799988
 21
261.250000
  0
LINE
  8
0
 10
-399.250000
 20
261.250000
 11
-299.250000
 21
261.250000
  0
LINE
  8
0
 10
299.799988
 20
-256.750000
 11
299.799988
 21
-276.750000
  0
LINE
  8
0
 10
299.799988
 20
261.250000
 11
399.799988
 21
261.250000
  0
LINE
  8
0
 10
299.799988
 20
-256.750000
 11
399.799988
 21
-256.750000
  0
LINE
  8
0
 10
-420.500000
 20
297.000000
 11
420.500000
 21
297.000000
  0
LINE
  8
0
 10
-420.500000
 20
-297.000000
 11
420.500000
 21
-297.000000
  0
LINE
  8
0
 10
420.500000
 20
297.000000
 11
420.500000
 21
-297.000000
  0
LINE
  8
0
 10
-420.500000
 20
297.000000
 11
-420.500000
 21
-297.000000
  0
LINE
  8
0
 10
399.799988
 20
276.250000
 11
399.799988
 21
-276.750000
  0
LINE
  8
0
 10
-399.250000
 20
276.250000
 11
-399.250000
 21
-276.750000
  0
LINE
  8
0
 10
-399.250000
 20
276.250000
 11
399.799988
 21
276.250000
  0
LINE
  8
0
 10
-399.250000
 20
-276.750000
 11
399.799988
 21
-276.750000
  0
TEXT
  8
0
 10
-378.142487
 20
262.549988
 40
8.000000
  1
830-4E2
 50
0.000000
 41
1.052632
 51
0.000000
  7
STANDARD
  0
TEXT
  8
0
 10
305.721680
 20
264.529999
 40
5.800000
  1
DATE: MAY ,1992
 50
0.000000
 41
1.052632
 51
0.000000
  7
STANDARD
  0
TEXT
  8
0
 10
295.700867
 20
-272.049988
 40
7.000000
  1
ＫＯＧＡＮＥＩ，ＣＯＲＰ．
 50
0.000000
 41
0.902367
 51
15.000000
  7
STANDARD
  0
TEXT
  8
0
 10
-376.142517
 20
232.550003
 40
8.000000
  1
MODEL: 830-4E2
 50
0.000000
 41
1.052632
 51
0.000000
  7
STANDARD
  0
TEXT
  8
0
 10
-376.142517
 20
217.550003
 40
8.000000
  1
       833-4E2
 50
0.000000
 41
1.052632
 51
0.000000
  7
STANDARD
  0
POINT
  8
0
 10
-26.499983
 20
-50.249981
  0
POINT
  8
0
 10
41.000015
 20
-50.249981
  0
LINE
  8
0
 10
37.999985
 20
-66.750000
 11
28.500246
 21
-66.750000
  0
LINE
  8
0
 10
37.999985
 20
64.250000
 11
20.499987
 21
64.250000
  0
LINE
  8
0
 10
41.000015
 20
61.250004
 11
41.000015
 21
-63.750004
  0
LINE
  8
0
 10
-32.000015
 20
61.250004
 11
-32.000015
 21
-63.750004
  0
LINE
  8
0
 10
39.999985
 20
54.750011
 11
31.000017
 21
54.750011
  0
LINE
  8
0
 10
35.499985
 20
59.250011
 11
35.499985
 21
50.250011
  0
LINE
  8
0
 10
39.999985
 20
49.250011
 11
35.499985
 21
49.250011
  0
LINE
  8
0
 10
39.999985
 20
60.250011
 11
35.499985
 21
60.250011
  0
LINE
  8
0
 10
-30.999990
 20
-50.249981
 11
-22.000013
 21
-50.249981
  0
LINE
  8
0
 10
-26.499983
 20
-54.749989
 11
-26.499983
 21
-45.749973
  0
LINE
  8
0
 10
-30.999990
 20
-44.749989
 11
-26.499983
 21
-44.749989
  0
LINE
  8
0
 10
-30.999990
 20
-55.749973
 11
-26.499983
 21
-55.749973
  0
LINE
  8
0
 10
45.744247
 20
-7.249989
 11
-40.287979
 21
-7.249989
  0
LINE
  8
0
 10
28.500246
 20
57.750042
 11
28.500246
 21
-72.249985
  0
LINE
  8
0
 10
-19.499899
 20
57.750042
 11
-19.499899
 21
-72.249985
  0
LINE
  8
0
 10
-19.499899
 20
48.750027
 11
28.500246
 21
48.750027
  0
LINE
  8
0
 10
-19.499899
 20
-63.249973
 11
28.500246
 21
-63.249973
  0
LINE
  8
0
 10
28.500246
 20
21.250027
 11
24.999994
 21
21.250027
  0
LINE
  8
0
 10
28.500246
 20
12.250027
 11
24.999994
 21
12.250027
  0
LINE
  8
0
 10
28.500246
 20
-26.749958
 11
24.999994
 21
-26.749958
  0
LINE
  8
0
 10
28.500246
 20
-35.749973
 11
24.999994
 21
-35.749973
  0
LINE
  8
0
 10
-15.999876
 20
21.250027
 11
-19.499899
 21
21.250027
  0
LINE
  8
0
 10
-15.999876
 20
12.250027
 11
-19.499899
 21
12.250027
  0
LINE
  8
0
 10
-15.999876
 20
-26.749958
 11
-19.499899
 21
-26.749958
  0
LINE
  8
0
 10
-15.999876
 20
-35.749973
 11
-19.499899
 21
-35.749973
  0
LINE
  8
0
 10
-0.499998
 20
-36.250004
 11
-0.499998
 21
21.750011
  0
LINE
  8
0
 10
9.500002
 20
-36.250004
 11
9.500002
 21
21.750011
  0
LINE
  8
0
 10
-1.499754
 20
-36.250004
 11
-1.499754
 21
21.750011
  0
LINE
  8
0
 10
10.499987
 20
-36.250004
 11
10.499987
 21
21.750011
  0
LINE
  8
0
 10
-0.499998
 20
12.750011
 11
9.500002
 21
12.750011
  0
LINE
  8
0
 10
-0.499769
 20
-27.249989
 11
9.500231
 21
-27.249989
  0
LINE
  8
0
 10
0.499987
 20
22.750011
 11
8.500246
 21
22.750011
  0
LINE
  8
0
 10
0.500254
 20
-37.249989
 11
8.500246
 21
-37.249989
  0
LINE
  8
0
 10
0.499987
 20
23.750011
 11
8.500246
 21
23.750011
  0
LINE
  8
0
 10
0.500254
 20
-38.249973
 11
8.500246
 21
-38.249973
  0
LINE
  8
0
 10
25.400156
 20
24.250042
 11
25.400156
 21
31.250027
  0
LINE
  8
0
 10
19.600100
 20
31.250027
 11
25.400156
 21
31.250027
  0
LINE
  8
0
 10
19.600100
 20
24.250027
 11
19.600100
 21
31.250027
  0
LINE
  8
0
 10
19.600100
 20
24.250027
 11
25.400156
 21
24.250027
  0
LINE
  8
0
 10
-10.599867
 20
24.250042
 11
-10.599867
 21
31.250027
  0
LINE
  8
0
 10
-16.399885
 20
31.250027
 11
-10.599867
 21
31.250027
  0
LINE
  8
0
 10
-16.399885
 20
24.250027
 11
-16.399885
 21
31.250027
  0
LINE
  8
0
 10
-16.399847
 20
24.250027
 11
-10.599867
 21
24.250027
  0
LINE
  8
0
 10
25.400156
 20
-38.750004
 11
19.600100
 21
-38.750004
  0
LINE
  8
0
 10
25.400156
 20
-38.750004
 11
25.400156
 21
-45.749973
  0
LINE
  8
0
 10
25.400156
 20
-45.749973
 11
19.600100
 21
-45.749973
  0
LINE
  8
0
 10
19.600100
 20
-38.750004
 11
19.600100
 21
-45.749973
  0
LINE
  8
0
 10
-10.599829
 20
-38.750004
 11
-16.399847
 21
-38.750004
  0
LINE
  8
0
 10
-10.599867
 20
-38.750004
 11
-10.599867
 21
-45.749973
  0
LINE
  8
0
 10
-10.599829
 20
-45.749973
 11
-16.399847
 21
-45.749973
  0
LINE
  8
0
 10
-16.399885
 20
-38.750004
 11
-16.399885
 21
-45.749973
  0
LINE
  8
0
 10
25.500254
 20
-75.249985
 11
-16.499907
 21
-75.249985
  0
LINE
  8
0
 10
28.650164
 20
-63.249973
 11
-19.499899
 21
-63.249973
  0
LINE
  8
0
 10
4.500002
 20
-103.672150
 11
4.500002
 21
103.232193
  0
LINE
  8
0
 10
-16.499907
 20
60.750042
 11
25.500254
 21
60.750042
  0
LINE
  8
0
 10
-19.499899
 20
48.750027
 11
28.650164
 21
48.750027
  0
LINE
  8
0
 10
-8.499914
 20
84.750046
 11
17.499994
 21
84.750046
  0
LINE
  8
0
 10
-11.499868
 20
60.749996
 11
-11.499868
 21
81.750015
  0
LINE
  8
0
 10
20.499987
 20
60.750042
 11
20.499987
 21
81.750015
  0
LINE
  8
0
 10
6.650156
 20
85.450012
 11
2.350115
 21
85.450012
  0
LINE
  8
0
 10
6.650156
 20
84.750046
 11
6.650156
 21
85.450058
  0
LINE
  8
0
 10
2.350115
 20
84.750046
 11
2.350115
 21
85.450058
  0
LINE
  8
0
 10
17.500261
 20
-99.250000
 11
-8.499838
 21
-99.250000
  0
LINE
  8
0
 10
20.499987
 20
-75.249939
 11
20.499987
 21
-96.249969
  0
LINE
  8
0
 10
-11.499868
 20
-75.249985
 11
-11.499868
 21
-96.249969
  0
LINE
  8
0
 10
2.350115
 20
-99.949951
 11
6.650156
 21
-99.949951
  0
LINE
  8
0
 10
2.350115
 20
-99.250000
 11
2.350115
 21
-99.949997
  0
LINE
  8
0
 10
6.650156
 20
-99.250000
 11
6.650156
 21
-99.949997
  0
LINE
  8
0
 10
-17.499891
 20
17.616047
 11
-17.499891
 21
15.883999
  0
LINE
  8
0
 10
-14.499861
 20
17.616047
 11
-14.499861
 21
15.883999
  0
LINE
  8
0
 10
-17.499886
 20
17.616062
 11
-15.999907
 21
18.482075
  0
LINE
  8
0
 10
-15.999887
 20
15.017994
 11
-14.499908
 21
15.884007
  0
LINE
  8
0
 10
-15.999909
 20
18.482098
 11
-14.499866
 21
17.616047
  0
LINE
  8
0
 10
-17.499912
 20
15.884022
 11
-15.999867
 21
15.017971
  0
LINE
  8
0
 10
23.500017
 20
17.616047
 11
23.500017
 21
15.883999
  0
LINE
  8
0
 10
26.500010
 20
17.616047
 11
26.500010
 21
15.883999
  0
LINE
  8
0
 10
23.500051
 20
17.616032
 11
25.000162
 21
18.482121
  0
LINE
  8
0
 10
25.000071
 20
15.017933
 11
26.500177
 21
15.884022
  0
LINE
  8
0
 10
25.000124
 20
18.482067
 11
26.500101
 21
17.616055
  0
LINE
  8
0
 10
23.500124
 20
15.883991
 11
25.000101
 21
15.017979
  0
LINE
  8
0
 10
23.500017
 20
-30.383953
 11
23.500017
 21
-32.116016
  0
LINE
  8
0
 10
26.500010
 20
-30.383953
 11
26.500010
 21
-32.116016
  0
LINE
  8
0
 10
23.500105
 20
-30.383924
 11
25.000082
 21
-29.517912
  0
LINE
  8
0
 10
25.000101
 20
-32.982010
 11
26.500078
 21
-32.115997
  0
LINE
  8
0
 10
25.000174
 20
-29.517960
 11
26.500059
 21
-30.383919
  0
LINE
  8
0
 10
23.500181
 20
-32.116020
 11
25.000055
 21
-32.981972
  0
LINE
  8
0
 10
-17.499891
 20
-30.383953
 11
-17.499891
 21
-32.116016
  0
LINE
  8
0
 10
-14.499861
 20
-30.383953
 11
-14.499861
 21
-32.116016
  0
LINE
  8
0
 10
-17.499866
 20
-30.383961
 11
-15.999888
 21
-29.517948
  0
LINE
  8
0
 10
-15.999847
 20
-32.982063
 11
-14.499869
 21
-32.116051
  0
LINE
  8
0
 10
-15.999861
 20
-29.517929
 11
-14.499883
 21
-30.383942
  0
LINE
  8
0
 10
-17.499859
 20
-32.116005
 11
-15.999882
 21
-32.982018
  0
LINE
  8
0
 10
-21.841017
 20
16.750027
 11
-8.999868
 21
16.750027
  0
LINE
  8
0
 10
-21.841017
 20
-31.249966
 11
-8.999868
 21
-31.249966
  0
LINE
  8
0
 10
-15.999876
 20
23.750027
 11
-15.999876
 21
9.750023
  0
LINE
  8
0
 10
24.999994
 20
23.750027
 11
24.999994
 21
9.750023
  0
LINE
  8
0
 10
-15.999876
 20
-24.249958
 11
-15.999876
 21
-37.572216
  0
LINE
  8
0
 10
24.999994
 20
-24.249958
 11
24.999994
 21
-37.866863
  0
LINE
  8
0
 10
19.309076
 20
-31.249966
 11
32.000000
 21
-31.249966
  0
LINE
  8
0
 10
19.112543
 20
16.750027
 11
32.000000
 21
16.750027
  0
LINE
  8
0
 10
-11.499868
 20
64.250000
 11
-28.999983
 21
64.250000
  0
LINE
  8
0
 10
-19.499899
 20
-66.750000
 11
-28.999983
 21
-66.750000
  0
LINE
  8
0
 10
32.499992
 20
98.250000
 11
-23.499990
 21
98.250000
  0
LINE
  8
0
 10
-26.499983
 20
64.250015
 11
-26.499983
 21
95.250015
  0
LINE
  8
0
 10
35.499985
 20
64.250015
 11
35.499985
 21
95.250015
  0
LINE
  8
0
 10
-25.600019
 20
8.050011
 11
-23.400007
 21
8.050011
  0
LINE
  8
0
 10
-25.600019
 20
15.450008
 11
-23.400007
 21
15.450008
  0
LINE
  8
0
 10
-26.600004
 20
9.050014
 11
-26.600004
 21
14.450024
  0
LINE
  8
0
 10
-22.400023
 20
9.050014
 11
-22.400023
 21
14.450024
  0
LINE
  8
0
 10
-25.600019
 20
-29.949993
 11
-23.400007
 21
-29.949993
  0
LINE
  8
0
 10
-25.600019
 20
-22.550014
 11
-23.400007
 21
-22.550014
  0
LINE
  8
0
 10
-26.600004
 20
-28.950008
 11
-26.600004
 21
-23.549999
  0
LINE
  8
0
 10
-22.400023
 20
-28.950008
 11
-22.400023
 21
-23.549999
  0
LINE
  8
0
 10
32.400009
 20
26.550014
 11
34.600021
 21
26.550014
  0
LINE
  8
0
 10
32.400009
 20
33.950008
 11
34.600021
 21
33.950008
  0
LINE
  8
0
 10
31.400026
 20
27.550014
 11
31.400026
 21
32.950024
  0
LINE
  8
0
 10
35.600006
 20
27.550014
 11
35.600006
 21
32.950024
  0
LINE
  8
0
 10
32.400009
 20
-10.949978
 11
34.600021
 21
-10.949978
  0
LINE
  8
0
 10
32.400009
 20
-3.549995
 11
34.600021
 21
-3.549995
  0
LINE
  8
0
 10
31.400026
 20
-9.949993
 11
31.400026
 21
-4.549980
  0
LINE
  8
0
 10
35.600006
 20
-9.949993
 11
35.600006
 21
-4.549980
  0
LINE
  8
0
 10
32.400009
 20
-48.449978
 11
34.600021
 21
-48.449978
  0
LINE
  8
0
 10
32.400009
 20
-41.049999
 11
34.600021
 21
-41.049999
  0
LINE
  8
0
 10
31.400026
 20
-47.449993
 11
31.400026
 21
-42.049984
  0
LINE
  8
0
 10
35.600006
 20
-47.449993
 11
35.600006
 21
-42.049984
  0
ARC
  8
0
 10
37.999985
 20
-63.750004
 40
2.999996
 50
270.000000
 51
0.000000
  0
ARC
  8
0
 10
-28.999983
 20
-63.750004
 40
3.000000
 50
180.000076
 51
270.000031
  0
ARC
  8
0
 10
37.999985
 20
61.250004
 40
3.000000
 50
0.000000
 51
90.000000
  0
ARC
  8
0
 10
-28.999983
 20
61.250004
 40
2.999996
 50
89.999962
 51
180.000000
  0
ARC
  8
0
 10
35.499985
 20
54.750011
 40
5.500000
 50
90.000000
 51
270.000000
  0
CIRCLE
  8
0
 10
35.499985
 20
54.750011
 40
3.499999
  0
ARC
  8
0
 10
39.999985
 20
61.250004
 40
1.000000
 50
270.000000
 51
0.000000
  0
ARC
  8
0
 10
39.999985
 20
48.250004
 40
1.000000
 50
0.000000
 51
90.000000
  0
ARC
  8
0
 10
-30.999990
 20
-43.750004
 40
1.000000
 50
180.000000
 51
270.000000
  0
ARC
  8
0
 10
-26.499983
 20
-50.249981
 40
5.500000
 50
269.999969
 51
89.999977
  0
CIRCLE
  8
0
 10
-26.499983
 20
-50.249981
 40
3.499999
  0
ARC
  8
0
 10
-30.999990
 20
-56.749996
 40
1.000000
 50
90.000000
 51
180.000000
  0
ARC
  8
0
 10
-15.999876
 20
16.750027
 40
4.500000
 50
0.000000
 51
89.999985
  0
ARC
  8
0
 10
24.999994
 20
16.750027
 40
4.500000
 50
90.000000
 51
270.000000
  0
ARC
  8
0
 10
-15.999876
 20
-31.249966
 40
4.500000
 50
0.000000
 51
89.999985
  0
ARC
  8
0
 10
24.999994
 20
-31.249966
 40
4.500000
 50
90.000000
 51
270.000000
  0
ARC
  8
0
 10
-15.999876
 20
-31.249966
 40
4.500000
 50
270.000000
 51
359.999969
  0
ARC
  8
0
 10
-15.999876
 20
16.750027
 40
4.500000
 50
270.000000
 51
0.000000
  0
ARC
  8
0
 10
8.500246
 20
21.750011
 40
2.000000
 50
0.000000
 51
90.000000
  0
ARC
  8
0
 10
0.499987
 20
21.750011
 40
2.000000
 50
90.000000
 51
180.000000
  0
ARC
  8
0
 10
0.500254
 20
-36.250004
 40
2.000000
 50
180.000000
 51
270.000000
  0
ARC
  8
0
 10
8.500246
 20
-36.250004
 40
2.000000
 50
270.000000
 51
0.000000
  0
ARC
  8
0
 10
8.500246
 20
21.750011
 40
1.000000
 50
0.000000
 51
90.000000
  0
ARC
  8
0
 10
0.499987
 20
21.750011
 40
1.000000
 50
90.000000
 51
180.000000
  0
ARC
  8
0
 10
0.500254
 20
-36.250004
 40
1.000000
 50
180.000000
 51
270.000000
  0
ARC
  8
0
 10
8.500246
 20
-36.250004
 40
1.000000
 50
270.000000
 51
0.000000
  0
ARC
  8
0
 10
17.499994
 20
81.750015
 40
3.000000
 50
0.000000
 51
90.000000
  0
ARC
  8
0
 10
-8.499914
 20
81.750015
 40
3.000000
 50
90.000000
 51
180.000000
  0
ARC
  8
0
 10
-8.499838
 20
-96.249969
 40
3.000000
 50
180.000000
 51
269.999969
  0
ARC
  8
0
 10
17.500261
 20
-96.249969
 40
3.000000
 50
269.999939
 51
0.000000
  0
CIRCLE
  8
0
 10
-15.999876
 20
16.750027
 40
3.499999
  0
CIRCLE
  8
0
 10
-15.999876
 20
16.750027
 40
2.980385
  0
CIRCLE
  8
0
 10
-15.999876
 20
16.750027
 40
1.732050
  0
CIRCLE
  8
0
 10
24.999994
 20
16.750027
 40
3.499999
  0
CIRCLE
  8
0
 10
24.999994
 20
16.750027
 40
2.980385
  0
CIRCLE
  8
0
 10
24.999994
 20
16.750027
 40
1.732050
  0
CIRCLE
  8
0
 10
24.999994
 20
-31.249966
 40
3.499999
  0
CIRCLE
  8
0
 10
24.999994
 20
-31.249966
 40
2.980385
  0
CIRCLE
  8
0
 10
24.999994
 20
-31.249966
 40
1.732050
  0
CIRCLE
  8
0
 10
-15.999876
 20
-31.249966
 40
3.499999
  0
CIRCLE
  8
0
 10
-15.999876
 20
-31.249966
 40
2.980385
  0
CIRCLE
  8
0
 10
-15.999876
 20
-31.249966
 40
1.732050
  0
ARC
  8
0
 10
-16.499907
 20
-72.249985
 40
3.000000
 50
180.000153
 51
270.000031
  0
ARC
  8
0
 10
25.500254
 20
-72.249985
 40
3.000000
 50
270.000000
 51
0.000000
  0
ARC
  8
0
 10
25.500254
 20
57.750042
 40
3.000000
 50
0.000000
 51
90.000000
  0
ARC
  8
0
 10
-16.499907
 20
57.750042
 40
3.000000
 50
89.999962
 51
180.000000
  0
ARC
  8
0
 10
-23.499990
 20
95.250015
 40
3.000000
 50
89.999962
 51
180.000000
  0
ARC
  8
0
 10
32.499992
 20
95.250015
 40
3.000000
 50
0.000000
 51
90.000000
  0
ARC
  8
0
 10
-25.600019
 20
14.450024
 40
1.000000
 50
90.000000
 51
180.000000
  0
ARC
  8
0
 10
-25.600019
 20
9.050014
 40
1.000000
 50
180.000000
 51
269.999878
  0
ARC
  8
0
 10
-23.400007
 20
9.050014
 40
1.000000
 50
270.000000
 51
0.000000
  0
ARC
  8
0
 10
-23.400007
 20
14.450024
 40
1.000000
 50
0.000000
 51
90.000000
  0
ARC
  8
0
 10
-25.600019
 20
-23.549999
 40
1.000000
 50
90.000000
 51
180.000000
  0
ARC
  8
0
 10
-25.600019
 20
-28.950008
 40
1.000000
 50
180.000000
 51
269.999878
  0
ARC
  8
0
 10
-23.400007
 20
-28.950008
 40
1.000000
 50
270.000000
 51
0.000000
  0
ARC
  8
0
 10
-23.400007
 20
-23.549999
 40
1.000000
 50
0.000000
 51
90.000000
  0
ARC
  8
0
 10
32.400009
 20
32.950024
 40
1.000000
 50
90.000000
 51
180.000000
  0
ARC
  8
0
 10
32.400009
 20
27.550014
 40
0.999998
 50
180.000000
 51
270.000000
  0
ARC
  8
0
 10
34.600021
 20
27.550014
 40
1.000000
 50
270.000000
 51
0.000000
  0
ARC
  8
0
 10
34.600021
 20
32.950024
 40
1.000000
 50
0.000000
 51
90.000000
  0
ARC
  8
0
 10
32.400009
 20
-4.549980
 40
1.000000
 50
90.000000
 51
180.000000
  0
ARC
  8
0
 10
32.400009
 20
-9.949993
 40
0.999998
 50
180.000000
 51
270.000000
  0
ARC
  8
0
 10
34.600021
 20
-9.949993
 40
1.000000
 50
270.000000
 51
0.000000
  0
ARC
  8
0
 10
34.600021
 20
-4.549980
 40
1.000000
 50
0.000000
 51
90.000000
  0
ARC
  8
0
 10
32.400009
 20
-42.049984
 40
1.000000
 50
90.000000
 51
180.000000
  0
ARC
  8
0
 10
32.400009
 20
-47.449993
 40
0.999998
 50
180.000000
 51
270.000000
  0
ARC
  8
0
 10
34.600021
 20
-47.449993
 40
1.000000
 50
270.000000
 51
0.000000
  0
ARC
  8
0
 10
34.600021
 20
-42.049984
 40
1.000000
 50
0.000000
 51
90.000000
  0
TEXT
  8
0
 10
33.940014
 20
27.471512
 40
1.599999
  1
R
 50
90.000000
 41
1.052631
 51
0.000000
  7
STANDARD
  0
TEXT
  8
0
 10
33.940014
 20
31.471512
 40
1.599999
  1
1
 50
90.000000
 41
1.052631
 51
0.000000
  7
STANDARD
  0
TEXT
  8
0
 10
33.940014
 20
-47.528496
 40
1.599999
  1
R
 50
90.000000
 41
1.052631
 51
0.000000
  7
STANDARD
  0
TEXT
  8
0
 10
33.940014
 20
-43.528481
 40
1.599999
  1
2
 50
90.000000
 41
1.052631
 51
0.000000
  7
STANDARD
  0
TEXT
  8
0
 10
-24.941370
 20
12.527741
 40
1.599999
  1
A
 50
270.100006
 41
1.052631
 51
0.000000
  7
STANDARD
  0
TEXT
  8
0
 10
-24.941370
 20
-25.472273
 40
1.599999
  1
B
 50
270.100006
 41
1.052631
 51
0.000000
  7
STANDARD
  0
TEXT
  8
0
 10
33.940014
 20
-8.028488
 40
1.599999
  1
P
 50
90.000000
 41
1.052631
 51
0.000000
  7
STANDARD
  0
TEXT
  8
0
 10
21.207245
 20
26.590027
 40
2.400000
  1
A
 50
0.000000
 41
1.052632
 51
0.000000
  7
STANDARD
  0
TEXT
  8
0
 10
-14.792625
 20
26.590027
 40
2.400000
  1
A
 50
0.000000
 41
1.052632
 51
0.000000
  7
STANDARD
  0
TEXT
  8
0
 10
23.790985
 20
-41.087734
 40
2.400000
  1
B
 50
180.100006
 41
1.052632
 51
0.000000
  7
STANDARD
  0
TEXT
  8
0
 10
-12.209114
 20
-41.087734
 40
2.400000
  1
B
 50
180.100006
 41
1.052632
 51
0.000000
  7
STANDARD
  0
POINT
  8
0
 10
35.499985
 20
236.250092
  0
POINT
  8
0
 10
-26.499985
 20
236.250092
  0
LINE
  8
0
 10
4.500000
 20
239.932465
 11
4.500000
 21
119.505676
  0
LINE
  8
0
 10
41.000015
 20
236.250092
 11
-32.000015
 21
236.250092
  0
LINE
  8
0
 10
37.999985
 20
189.250076
 11
-28.999985
 21
189.250076
  0
LINE
  8
0
 10
-32.000015
 20
192.250122
 11
-32.000015
 21
236.250092
  0
LINE
  8
0
 10
41.000015
 20
192.250122
 11
41.000015
 21
236.250092
  0
LINE
  8
0
 10
-18.000000
 20
122.650192
 11
27.000000
 21
122.650192
  0
LINE
  8
0
 10
22.999947
 20
136.621063
 11
22.999947
 21
146.577728
  0
LINE
  8
0
 10
17.999985
 20
141.650101
 11
27.999985
 21
141.650101
  0
LINE
  8
0
 10
-18.999985
 20
141.650101
 11
-8.999985
 21
141.650101
  0
LINE
  8
0
 10
-18.999985
 20
181.649979
 11
-9.120796
 21
181.649979
  0
LINE
  8
0
 10
-14.000061
 20
136.736465
 11
-14.000061
 21
146.184296
  0
LINE
  8
0
 10
19.500000
 20
177.650238
 11
-10.500000
 21
177.650238
  0
LINE
  8
0
 10
20.499985
 20
132.650085
 11
-11.499985
 21
132.650085
  0
LINE
  8
0
 10
20.499985
 20
162.650116
 11
-11.499985
 21
162.650116
  0
LINE
  8
0
 10
-11.499985
 20
124.150208
 11
-11.499985
 21
176.650253
  0
LINE
  8
0
 10
20.499985
 20
124.150208
 11
20.499985
 21
176.650253
  0
LINE
  8
0
 10
20.499985
 20
171.150101
 11
16.999962
 21
171.150101
  0
LINE
  8
0
 10
14.000008
 20
174.149994
 11
14.000008
 21
177.650009
  0
LINE
  8
0
 10
-11.499985
 20
171.150101
 11
-8.000038
 21
171.150101
  0
LINE
  8
0
 10
-5.000008
 20
174.149994
 11
-5.000008
 21
177.650009
  0
LINE
  8
0
 10
20.499985
 20
134.050079
 11
-11.499985
 21
134.050079
  0
LINE
  8
0
 10
20.499985
 20
136.050079
 11
-11.499985
 21
136.050079
  0
LINE
  8
0
 10
20.499985
 20
137.650085
 11
4.500000
 21
137.650085
  0
LINE
  8
0
 10
20.499985
 20
139.650085
 11
4.500000
 21
139.650085
  0
LINE
  8
0
 10
20.499985
 20
141.250092
 11
-11.499985
 21
141.250092
  0
LINE
  8
0
 10
20.499985
 20
143.250092
 11
-11.499985
 21
143.250092
  0
LINE
  8
0
 10
20.499985
 20
144.850098
 11
-11.499985
 21
144.850098
  0
LINE
  8
0
 10
20.499985
 20
146.850098
 11
-11.499985
 21
146.850098
  0
LINE
  8
0
 10
20.499985
 20
148.450104
 11
-11.499985
 21
148.450104
  0
LINE
  8
0
 10
20.499985
 20
150.450104
 11
-11.499985
 21
150.450104
  0
LINE
  8
0
 10
20.499985
 20
152.050064
 11
-11.499985
 21
152.050064
  0
LINE
  8
0
 10
20.499985
 20
154.050079
 11
-11.499985
 21
154.050079
  0
LINE
  8
0
 10
20.499985
 20
155.650070
 11
-11.499985
 21
155.650070
  0
LINE
  8
0
 10
20.499985
 20
157.650085
 11
-11.499985
 21
157.650085
  0
LINE
  8
0
 10
20.499985
 20
159.250076
 11
-11.499985
 21
159.250076
  0
LINE
  8
0
 10
20.499985
 20
161.250122
 11
-11.499985
 21
161.250122
  0
LINE
  8
0
 10
-8.499992
 20
137.650085
 11
-8.499992
 21
139.650085
  0
LINE
  8
0
 10
-8.499992
 20
137.650085
 11
-11.499985
 21
137.650085
  0
LINE
  8
0
 10
-8.499992
 20
139.650085
 11
-11.499985
 21
139.650085
  0
LINE
  8
0
 10
4.500000
 20
137.650085
 11
4.500000
 21
139.650085
  0
LINE
  8
0
 10
-8.200005
 20
172.450043
 11
-8.200005
 21
173.950058
  0
LINE
  8
0
 10
-7.800034
 20
172.450043
 11
-7.800034
 21
173.950058
  0
LINE
  8
0
 10
-6.300056
 20
174.350174
 11
-7.800034
 21
174.350174
  0
LINE
  8
0
 10
-6.300056
 20
173.950058
 11
-7.800034
 21
173.950058
  0
LINE
  8
0
 10
-9.699982
 20
173.950058
 11
-9.699982
 21
174.349945
  0
LINE
  8
0
 10
-6.300018
 20
173.950058
 11
-6.300018
 21
174.350189
  0
LINE
  8
0
 10
-7.800034
 20
172.450043
 11
-8.200043
 21
172.450043
  0
LINE
  8
0
 10
-7.800034
 20
175.850189
 11
-8.200043
 21
175.850189
  0
LINE
  8
0
 10
-8.200043
 20
174.350174
 11
-9.700020
 21
174.350174
  0
LINE
  8
0
 10
-8.200043
 20
173.950058
 11
-9.700020
 21
173.950058
  0
LINE
  8
0
 10
-7.800034
 20
174.349945
 11
-7.800034
 21
175.850189
  0
LINE
  8
0
 10
-8.200005
 20
174.349945
 11
-8.200005
 21
175.850189
  0
LINE
  8
0
 10
16.799995
 20
174.350189
 11
16.799995
 21
175.850189
  0
LINE
  8
0
 10
17.199966
 20
174.350189
 11
17.199966
 21
175.850189
  0
LINE
  8
0
 10
16.799995
 20
172.450043
 11
16.799995
 21
173.950058
  0
LINE
  8
0
 10
17.199966
 20
172.450043
 11
17.199966
 21
173.950058
  0
LINE
  8
0
 10
18.699944
 20
174.350174
 11
17.199966
 21
174.350174
  0
LINE
  8
0
 10
18.699944
 20
173.950058
 11
17.199966
 21
173.950058
  0
LINE
  8
0
 10
15.299980
 20
173.950058
 11
15.299980
 21
174.350189
  0
LINE
  8
0
 10
18.699982
 20
173.950058
 11
18.699982
 21
174.350189
  0
LINE
  8
0
 10
17.199966
 20
172.450043
 11
16.799957
 21
172.450043
  0
LINE
  8
0
 10
17.199966
 20
175.850189
 11
16.799957
 21
175.850189
  0
LINE
  8
0
 10
16.799957
 20
174.350174
 11
15.299942
 21
174.350174
  0
LINE
  8
0
 10
16.799957
 20
173.950058
 11
15.299942
 21
173.950058
  0
LINE
  8
0
 10
8.499977
 20
166.750122
 11
0.499985
 21
166.750122
  0
LINE
  8
0
 10
-8.000000
 20
170.150085
 11
-8.000000
 21
178.149994
  0
LINE
  8
0
 10
-4.000023
 20
174.149979
 11
-12.000015
 21
174.149979
  0
LINE
  8
0
 10
17.000000
 20
170.150116
 11
17.000000
 21
178.149994
  0
LINE
  8
0
 10
20.999977
 20
174.149979
 11
12.999985
 21
174.149979
  0
LINE
  8
0
 10
-13.134048
 20
143.150116
 11
-14.866074
 21
143.150116
  0
LINE
  8
0
 10
-13.134048
 20
140.150085
 11
-14.866074
 21
140.150085
  0
LINE
  8
0
 10
-13.134006
 20
143.150116
 11
-12.267975
 21
141.650101
  0
LINE
  8
0
 10
-15.732099
 20
141.650116
 11
-14.866067
 21
140.150085
  0
LINE
  8
0
 10
-12.268003
 20
141.650116
 11
-13.134031
 21
140.150116
  0
LINE
  8
0
 10
-14.866080
 20
143.150116
 11
-15.732108
 21
141.650116
  0
LINE
  8
0
 10
23.865959
 20
143.150116
 11
22.133934
 21
143.150116
  0
LINE
  8
0
 10
23.865959
 20
140.150085
 11
22.133934
 21
140.150085
  0
LINE
  8
0
 10
23.866005
 20
143.150116
 11
24.732018
 21
141.650131
  0
LINE
  8
0
 10
21.267941
 20
141.650116
 11
22.133953
 21
140.150131
  0
LINE
  8
0
 10
24.732002
 20
141.650085
 11
23.865993
 21
140.150116
  0
LINE
  8
0
 10
22.133896
 20
143.150116
 11
21.267883
 21
141.650146
  0
LINE
  8
0
 10
23.865959
 20
183.149994
 11
22.133934
 21
183.149994
  0
LINE
  8
0
 10
23.865959
 20
180.150009
 11
22.133934
 21
180.150009
  0
LINE
  8
0
 10
23.866005
 20
183.150116
 11
24.732033
 21
181.650116
  0
LINE
  8
0
 10
21.267944
 20
181.650131
 11
22.133980
 21
180.150116
  0
LINE
  8
0
 10
24.731995
 20
181.650085
 11
23.865959
 21
180.150070
  0
LINE
  8
0
 10
22.133888
 20
183.150101
 11
21.267853
 21
181.650085
  0
LINE
  8
0
 10
-13.134048
 20
183.149994
 11
-14.866074
 21
183.149994
  0
LINE
  8
0
 10
-13.134048
 20
180.150009
 11
-14.866074
 21
180.150009
  0
LINE
  8
0
 10
-13.134006
 20
183.150101
 11
-12.267993
 21
181.650116
  0
LINE
  8
0
 10
-15.732088
 20
181.650101
 11
-14.866076
 21
180.150116
  0
LINE
  8
0
 10
-12.268022
 20
181.650116
 11
-13.134057
 21
180.150085
  0
LINE
  8
0
 10
-14.866091
 20
183.150116
 11
-15.732126
 21
181.650085
  0
LINE
  8
0
 10
22.999947
 20
176.161255
 11
22.999947
 21
186.555267
  0
LINE
  8
0
 10
18.045113
 20
181.649979
 11
27.850868
 21
181.649979
  0
LINE
  8
0
 10
-14.000061
 20
176.937836
 11
-14.000061
 21
186.691040
  0
LINE
  8
0
 10
-10.675133
 20
208.250092
 11
19.827721
 21
208.250092
  0
LINE
  8
0
 10
-20.500000
 20
199.250092
 11
-20.500000
 21
191.250092
  0
LINE
  8
0
 10
-20.500000
 20
225.250122
 11
-20.500000
 21
217.250122
  0
LINE
  8
0
 10
29.500000
 20
225.250122
 11
29.500000
 21
217.250122
  0
LINE
  8
0
 10
29.500000
 20
199.250092
 11
29.500000
 21
191.250092
  0
LINE
  8
0
 10
-24.500015
 20
195.250107
 11
-16.499985
 21
195.250107
  0
LINE
  8
0
 10
-24.500015
 20
221.250092
 11
-16.499985
 21
221.250092
  0
LINE
  8
0
 10
25.499985
 20
221.250092
 11
33.500015
 21
221.250092
  0
LINE
  8
0
 10
25.499985
 20
195.250107
 11
33.500015
 21
195.250107
  0
LINE
  8
0
 10
-2.571075
 20
210.250122
 11
-2.571075
 21
206.250092
  0
LINE
  8
0
 10
2.499992
 20
201.179062
 11
6.500008
 21
201.179062
  0
LINE
  8
0
 10
2.499992
 20
215.321136
 11
6.500008
 21
215.321136
  0
LINE
  8
0
 10
11.571075
 20
210.250122
 11
11.571075
 21
206.250092
  0
LINE
  8
0
 10
-19.500015
 20
189.250076
 11
-19.500015
 21
124.150208
  0
LINE
  8
0
 10
28.500015
 20
189.250076
 11
28.500015
 21
124.150208
  0
LINE
  8
0
 10
-19.500015
 20
187.650009
 11
28.500015
 21
187.650009
  0
LINE
  8
0
 10
-25.000008
 20
227.250122
 11
33.999969
 21
227.250122
  0
LINE
  8
0
 10
35.499985
 20
225.750092
 11
35.499985
 21
192.400269
  0
LINE
  8
0
 10
-26.500023
 20
225.750092
 11
-26.500023
 21
192.400269
  0
LINE
  8
0
 10
-21.772804
 20
196.098633
 11
-21.348526
 21
196.522903
  0
LINE
  8
0
 10
-19.651497
 20
193.977325
 11
-19.227219
 21
194.401596
  0
LINE
  8
0
 10
-21.772793
 20
194.401581
 11
-21.348536
 21
194.825836
  0
LINE
  8
0
 10
-21.348536
 20
193.977295
 11
-20.924278
 21
194.401566
  0
LINE
  8
0
 10
-21.772776
 20
194.401596
 11
-21.348513
 21
193.977325
  0
LINE
  8
0
 10
-19.651447
 20
196.522919
 11
-19.227184
 21
196.098648
  0
LINE
  8
0
 10
-21.772785
 20
196.098633
 11
-21.348522
 21
195.674362
  0
LINE
  8
0
 10
-21.348499
 20
196.522919
 11
-20.924236
 21
196.098648
  0
LINE
  8
0
 10
-20.075741
 20
196.098633
 11
-19.651484
 21
196.522888
  0
LINE
  8
0
 10
-19.651484
 20
195.674347
 11
-19.227215
 21
196.098618
  0
LINE
  8
0
 10
-20.075727
 20
194.401566
 11
-19.651470
 21
193.977310
  0
LINE
  8
0
 10
-19.651442
 20
194.825851
 11
-19.227184
 21
194.401596
  0
LINE
  8
0
 10
-21.772812
 20
222.098618
 11
-21.348543
 21
222.522888
  0
LINE
  8
0
 10
-19.651497
 20
219.977295
 11
-19.227219
 21
220.401581
  0
LINE
  8
0
 10
-21.772808
 20
220.401581
 11
-21.348551
 21
220.825836
  0
LINE
  8
0
 10
-21.348541
 20
219.977295
 11
-20.924284
 21
220.401550
  0
LINE
  8
0
 10
-21.772787
 20
220.401581
 11
-21.348530
 21
219.977325
  0
LINE
  8
0
 10
-19.651453
 20
222.522888
 11
-19.227196
 21
222.098633
  0
LINE
  8
0
 10
-21.772776
 20
222.098618
 11
-21.348518
 21
221.674362
  0
LINE
  8
0
 10
-21.348505
 20
222.522888
 11
-20.924248
 21
222.098633
  0
LINE
  8
0
 10
-20.075756
 20
222.098633
 11
-19.651487
 21
222.522903
  0
LINE
  8
0
 10
-19.651489
 20
221.674347
 11
-19.227221
 21
222.098618
  0
LINE
  8
0
 10
-20.075724
 20
220.401566
 11
-19.651466
 21
219.977310
  0
LINE
  8
0
 10
-19.651453
 20
220.825836
 11
-19.227196
 21
220.401581
  0
LINE
  8
0
 10
28.227184
 20
222.098602
 11
28.651455
 21
222.522873
  0
LINE
  8
0
 10
30.348507
 20
219.977280
 11
30.772778
 21
220.401550
  0
LINE
  8
0
 10
28.227215
 20
220.401566
 11
28.651482
 21
220.825836
  0
LINE
  8
0
 10
28.651466
 20
219.977295
 11
29.075737
 21
220.401566
  0
LINE
  8
0
 10
28.227219
 20
220.401566
 11
28.651478
 21
219.977310
  0
LINE
  8
0
 10
30.348541
 20
222.522888
 11
30.772800
 21
222.098633
  0
LINE
  8
0
 10
28.227226
 20
222.098648
 11
28.651482
 21
221.674393
  0
LINE
  8
0
 10
28.651501
 20
222.522919
 11
29.075764
 21
222.098648
  0
LINE
  8
0
 10
29.924267
 20
222.098618
 11
30.348534
 21
222.522888
  0
LINE
  8
0
 10
30.348518
 20
221.674347
 11
30.772789
 21
222.098618
  0
LINE
  8
0
 10
29.924278
 20
220.401596
 11
30.348541
 21
219.977341
  0
LINE
  8
0
 10
30.348560
 20
220.825851
 11
30.772816
 21
220.401596
  0
LINE
  8
0
 10
28.227188
 20
196.098618
 11
28.651478
 21
196.522903
  0
LINE
  8
0
 10
30.348499
 20
193.977310
 11
30.772789
 21
194.401596
  0
LINE
  8
0
 10
28.227207
 20
194.401596
 11
28.651474
 21
194.825867
  0
LINE
  8
0
 10
28.651474
 20
193.977325
 11
29.075741
 21
194.401596
  0
LINE
  8
0
 10
28.227234
 20
194.401581
 11
28.651497
 21
193.977325
  0
LINE
  8
0
 10
30.348541
 20
196.522888
 11
30.772804
 21
196.098633
  0
LINE
  8
0
 10
28.227238
 20
196.098633
 11
28.651501
 21
195.674377
  0
LINE
  8
0
 10
28.651508
 20
196.522903
 11
29.075771
 21
196.098633
  0
LINE
  8
0
 10
29.924259
 20
196.098648
 11
30.348526
 21
196.522919
  0
LINE
  8
0
 10
30.348526
 20
195.674377
 11
30.772793
 21
196.098648
  0
LINE
  8
0
 10
29.924294
 20
194.401581
 11
30.348553
 21
193.977325
  0
LINE
  8
0
 10
30.348564
 20
194.825851
 11
30.772823
 21
194.401581
  0
ARC
  8
0
 10
-28.999985
 20
192.250107
 40
3.000000
 50
180.000000
 51
270.000000
  0
ARC
  8
0
 10
37.999985
 20
192.250107
 40
3.000000
 50
270.000000
 51
0.000000
  0
ARC
  8
0
 10
22.999947
 20
141.650101
 40
4.000001
 50
231.318451
 51
128.681549
  0
ARC
  8
0
 10
-13.999985
 20
141.650101
 40
4.000000
 50
51.317787
 51
308.682190
  0
CIRCLE
  8
0
 10
22.999947
 20
181.649979
 40
4.000001
  0
CIRCLE
  8
0
 10
-13.999985
 20
181.649979
 40
4.000001
  0
ARC
  8
0
 10
-9.999969
 20
124.150208
 40
1.500000
 50
180.000000
 51
269.999939
  0
ARC
  8
0
 10
19.000008
 20
124.150208
 40
1.500000
 50
270.000000
 51
0.000000
  0
CIRCLE
  8
0
 10
16.999962
 20
174.149979
 40
2.500000
  0
ARC
  8
0
 10
16.999962
 20
174.149979
 40
3.000000
 50
180.000000
 51
269.999939
  0
CIRCLE
  8
0
 10
4.499962
 20
166.750076
 40
2.150000
  0
CIRCLE
  8
0
 10
4.499962
 20
166.750076
 40
1.500000
  0
CIRCLE
  8
0
 10
-8.000038
 20
174.149979
 40
2.500000
  0
ARC
  8
0
 10
-8.000038
 20
174.149979
 40
3.000000
 50
269.999969
 51
0.000000
  0
ARC
  8
0
 10
-14.000061
 20
141.650101
 40
3.500004
 50
44.413574
 51
315.586395
  0
CIRCLE
  8
0
 10
-14.000061
 20
141.650101
 40
1.732050
  0
ARC
  8
0
 10
22.999947
 20
141.650101
 40
3.499999
 50
224.416107
 51
135.583893
  0
CIRCLE
  8
0
 10
22.999947
 20
141.650101
 40
1.732050
  0
CIRCLE
  8
0
 10
22.999947
 20
181.649979
 40
3.499999
  0
CIRCLE
  8
0
 10
22.999947
 20
181.649979
 40
1.732050
  0
CIRCLE
  8
0
 10
-14.000061
 20
181.649979
 40
3.499999
  0
CIRCLE
  8
0
 10
-14.000061
 20
181.649979
 40
1.732050
  0
ARC
  8
0
 10
27.000000
 20
124.150208
 40
1.500000
 50
270.000000
 51
0.000000
  0
ARC
  8
0
 10
-18.000000
 20
124.150208
 40
1.500000
 50
180.000000
 51
270.000000
  0
ARC
  8
0
 10
-10.500000
 20
176.650253
 40
1.000000
 50
90.000000
 51
180.000000
  0
ARC
  8
0
 10
19.500000
 20
176.650253
 40
1.000000
 50
0.000000
 51
90.000000
  0
CIRCLE
  8
0
 10
4.500000
 20
208.250092
 40
11.900001
  0
CIRCLE
  8
0
 10
-2.571075
 20
208.250092
 40
1.050000
  0
CIRCLE
  8
0
 10
-2.571075
 20
208.250092
 40
1.350000
  0
CIRCLE
  8
0
 10
4.500000
 20
215.321136
 40
1.350000
  0
CIRCLE
  8
0
 10
4.500000
 20
215.321136
 40
1.050000
  0
CIRCLE
  8
0
 10
11.571075
 20
208.250092
 40
1.350000
  0
CIRCLE
  8
0
 10
11.571075
 20
208.250092
 40
1.050000
  0
CIRCLE
  8
0
 10
4.500000
 20
201.179062
 40
1.350000
  0
CIRCLE
  8
0
 10
4.500000
 20
201.179062
 40
1.050000
  0
ARC
  8
0
 10
-25.000008
 20
225.750092
 40
1.500000
 50
90.000000
 51
180.000000
  0
ARC
  8
0
 10
33.999969
 20
225.750092
 40
1.500000
 50
0.000000
 51
90.000000
  0
ARC
  8
0
 10
-23.500031
 20
192.250107
 40
3.000000
 50
180.000000
 51
270.000000
  0
ARC
  8
0
 10
32.499992
 20
192.250107
 40
3.000000
 50
270.000000
 51
0.000000
  0
CIRCLE
  8
0
 10
-20.500000
 20
195.250107
 40
2.799999
  0
ARC
  8
0
 10
-20.500000
 20
196.522903
 40
0.600004
 50
225.000519
 51
314.999481
  0
ARC
  8
0
 10
-21.772797
 20
195.250107
 40
0.600004
 50
314.999481
 51
45.000515
  0
ARC
  8
0
 10
-19.227211
 20
195.250107
 40
0.600004
 50
134.999481
 51
225.000381
  0
ARC
  8
0
 10
-20.500000
 20
193.977310
 40
0.600004
 50
45.000515
 51
134.999481
  0
CIRCLE
  8
0
 10
-20.500000
 20
221.250092
 40
2.799999
  0
ARC
  8
0
 10
-20.500000
 20
222.522888
 40
0.600004
 50
225.000519
 51
314.999481
  0
ARC
  8
0
 10
-21.772797
 20
221.250092
 40
0.600004
 50
314.999481
 51
45.000515
  0
ARC
  8
0
 10
-19.227211
 20
221.250092
 40
0.600004
 50
134.999481
 51
225.000381
  0
ARC
  8
0
 10
-20.500000
 20
219.977295
 40
0.600004
 50
45.000515
 51
134.999481
  0
CIRCLE
  8
0
 10
29.500000
 20
221.250092
 40
2.799999
  0
ARC
  8
0
 10
29.500000
 20
222.522888
 40
0.600004
 50
225.000519
 51
314.999481
  0
ARC
  8
0
 10
28.227203
 20
221.250092
 40
0.600004
 50
314.999481
 51
45.000515
  0
ARC
  8
0
 10
30.772789
 20
221.250092
 40
0.600004
 50
134.999481
 51
225.000519
  0
ARC
  8
0
 10
29.500000
 20
219.977295
 40
0.600004
 50
45.000515
 51
134.999481
  0
CIRCLE
  8
0
 10
29.500000
 20
195.250107
 40
2.799999
  0
ARC
  8
0
 10
29.500000
 20
196.522903
 40
0.600004
 50
225.000519
 51
314.999481
  0
ARC
  8
0
 10
28.227203
 20
195.250107
 40
0.600004
 50
314.999481
 51
45.000515
  0
ARC
  8
0
 10
30.772789
 20
195.250107
 40
0.600004
 50
134.999481
 51
225.000519
  0
ARC
  8
0
 10
29.500000
 20
193.977310
 40
0.600004
 50
45.000515
 51
134.999481
  0
TEXT
  8
0
 10
0.774751
 20
138.734909
 40
1.200000
  1
AC200V
 50
180.100006
 41
0.844285
 51
0.000000
  7
STANDARD
  0
TEXT
  8
0
 10
5.825712
 20
218.024353
 40
1.000000
  1
GND
 50
180.000000
 41
1.052632
 51
0.000000
  7
STANDARD
  0
TEXT
  8
0
 10
5.086856
 20
198.264740
 40
1.250000
  1
B
 50
180.000000
 41
1.052632
 51
0.000000
  7
STANDARD
  0
TEXT
  8
0
 10
-4.955792
 20
208.407822
 40
1.250000
  1
C
 50
180.000000
 41
1.052632
 51
0.000000
  7
STANDARD
  0
TEXT
  8
0
 10
14.828219
 20
208.407822
 40
1.250000
  1
A
 50
180.000000
 41
1.052632
 51
0.000000
  7
STANDARD
  0
POINT
  8
0
 10
-257.499939
 20
-50.249981
  0
POINT
  8
0
 10
-143.899857
 20
-50.249981
  0
LINE
  8
0
 10
-153.899857
 20
48.750004
 11
-153.899857
 21
-63.250011
  0
LINE
  8
0
 10
-143.899857
 20
-63.250011
 11
-210.499847
 21
-63.250011
  0
LINE
  8
0
 10
-143.899857
 20
48.750004
 11
-210.499847
 21
48.750004
  0
LINE
  8
0
 10
-170.899872
 20
20.454372
 11
-170.899872
 21
13.045616
  0
LINE
  8
0
 10
-170.899872
 20
-27.545628
 11
-170.899872
 21
-34.954380
  0
LINE
  8
0
 10
-153.899872
 20
20.999996
 11
-170.604294
 21
20.754345
  0
LINE
  8
0
 10
-170.604279
 20
12.745663
 11
-153.899872
 21
12.500008
  0
LINE
  8
0
 10
-153.899887
 20
-26.999992
 11
-170.604279
 21
-27.245646
  0
LINE
  8
0
 10
-170.604279
 20
-35.254349
 11
-153.899841
 21
-35.500004
  0
LINE
  8
0
 10
-143.899857
 20
83.250046
 11
-143.899857
 21
-97.750031
  0
LINE
  8
0
 10
-143.899857
 20
-35.749973
 11
-153.899857
 21
-35.749973
  0
LINE
  8
0
 10
-143.899857
 20
21.250011
 11
-153.899857
 21
21.250011
  0
LINE
  8
0
 10
-143.899857
 20
-26.749996
 11
-153.899857
 21
-26.749996
  0
LINE
  8
0
 10
-143.899857
 20
12.250011
 11
-153.899857
 21
12.250011
  0
LINE
  8
0
 10
-143.899857
 20
60.750027
 11
-208.399872
 21
60.750027
  0
LINE
  8
0
 10
-143.899857
 20
-75.250015
 11
-208.399872
 21
-75.250015
  0
LINE
  8
0
 10
-195.599838
 20
82.750015
 11
-195.599838
 21
83.749985
  0
LINE
  8
0
 10
-194.399887
 20
84.749985
 11
-196.399902
 21
84.749985
  0
LINE
  8
0
 10
-195.199860
 20
82.750015
 11
-195.599884
 21
82.750015
  0
LINE
  8
0
 10
-195.199829
 20
82.750015
 11
-195.199829
 21
83.749985
  0
LINE
  8
0
 10
-195.399872
 20
79.670181
 11
-195.399872
 21
85.495834
  0
LINE
  8
0
 10
-192.399872
 20
80.750046
 11
-198.899902
 21
80.750046
  0
LINE
  8
0
 10
-194.399887
 20
83.749985
 11
-196.399902
 21
83.749985
  0
LINE
  8
0
 10
-192.399841
 20
80.750046
 11
-192.399841
 21
84.749985
  0
LINE
  8
0
 10
-197.899872
 20
80.750046
 11
-197.899872
 21
82.249985
  0
LINE
  8
0
 10
-192.899872
 20
80.750046
 11
-192.899872
 21
82.249985
  0
LINE
  8
0
 10
-192.899872
 20
81.750015
 11
-197.899872
 21
81.750015
  0
LINE
  8
0
 10
-190.149857
 20
84.749985
 11
-190.149857
 21
85.450058
  0
LINE
  8
0
 10
-185.849854
 20
84.749985
 11
-185.849854
 21
85.450058
  0
LINE
  8
0
 10
-185.849854
 20
85.450058
 11
-190.149902
 21
85.450058
  0
LINE
  8
0
 10
-145.399872
 20
84.749985
 11
-197.399872
 21
84.749985
  0
LINE
  8
0
 10
-155.299850
 20
84.749985
 11
-155.299850
 21
60.750027
  0
LINE
  8
0
 10
-157.299866
 20
84.749985
 11
-157.299866
 21
60.750027
  0
LINE
  8
0
 10
-158.899857
 20
84.749985
 11
-158.899857
 21
60.750027
  0
LINE
  8
0
 10
-160.899872
 20
84.749985
 11
-160.899872
 21
60.750027
  0
LINE
  8
0
 10
-162.499863
 20
84.749985
 11
-162.499863
 21
60.750027
  0
LINE
  8
0
 10
-164.499878
 20
84.749985
 11
-164.499878
 21
60.750027
  0
LINE
  8
0
 10
-166.099823
 20
84.749985
 11
-166.099823
 21
60.750027
  0
LINE
  8
0
 10
-168.099838
 20
84.749985
 11
-168.099838
 21
60.750027
  0
LINE
  8
0
 10
-169.699829
 20
84.749985
 11
-169.699829
 21
60.750027
  0
LINE
  8
0
 10
-171.699844
 20
84.749985
 11
-171.699844
 21
60.750027
  0
LINE
  8
0
 10
-173.299835
 20
84.749985
 11
-173.299835
 21
60.750027
  0
LINE
  8
0
 10
-175.299850
 20
84.749985
 11
-175.299850
 21
60.750027
  0
LINE
  8
0
 10
-176.899841
 20
84.749985
 11
-176.899841
 21
60.750027
  0
LINE
  8
0
 10
-178.899857
 20
84.749985
 11
-178.899857
 21
60.750027
  0
LINE
  8
0
 10
-180.499817
 20
84.749985
 11
-180.499817
 21
60.750027
  0
LINE
  8
0
 10
-182.499817
 20
84.749985
 11
-182.499817
 21
60.750027
  0
LINE
  8
0
 10
-153.899857
 20
84.749985
 11
-153.899857
 21
60.750027
  0
LINE
  8
0
 10
-183.899857
 20
84.749985
 11
-183.899857
 21
60.750027
  0
LINE
  8
0
 10
-198.899857
 20
60.750027
 11
-198.899857
 21
83.250046
  0
LINE
  8
0
 10
-195.599838
 20
-97.249985
 11
-195.599838
 21
-98.250015
  0
LINE
  8
0
 10
-194.399887
 20
-99.250000
 11
-196.399902
 21
-99.250000
  0
LINE
  8
0
 10
-195.199860
 20
-97.249985
 11
-195.599884
 21
-97.249985
  0
LINE
  8
0
 10
-195.199829
 20
-97.249985
 11
-195.199829
 21
-98.250015
  0
LINE
  8
0
 10
-195.399872
 20
-94.170151
 11
-195.399872
 21
-99.995850
  0
LINE
  8
0
 10
-192.399872
 20
-95.250015
 11
-198.899902
 21
-95.250015
  0
LINE
  8
0
 10
-194.399887
 20
-98.250015
 11
-196.399902
 21
-98.250015
  0
LINE
  8
0
 10
-192.399841
 20
-95.250015
 11
-192.399841
 21
-99.250000
  0
LINE
  8
0
 10
-197.899872
 20
-95.250015
 11
-197.899872
 21
-96.750000
  0
LINE
  8
0
 10
-192.899872
 20
-95.250015
 11
-192.899872
 21
-96.750000
  0
LINE
  8
0
 10
-192.899872
 20
-96.250000
 11
-197.899872
 21
-96.250000
  0
LINE
  8
0
 10
-190.149857
 20
-99.250000
 11
-190.149857
 21
-99.950043
  0
LINE
  8
0
 10
-185.849854
 20
-99.250000
 11
-185.849854
 21
-99.950043
  0
LINE
  8
0
 10
-185.849854
 20
-99.950027
 11
-190.149902
 21
-99.950027
  0
LINE
  8
0
 10
-145.399872
 20
-99.250000
 11
-197.399872
 21
-99.250000
  0
LINE
  8
0
 10
-155.299850
 20
-99.250000
 11
-155.299850
 21
-75.250015
  0
LINE
  8
0
 10
-157.299866
 20
-99.250000
 11
-157.299866
 21
-75.250015
  0
LINE
  8
0
 10
-158.899857
 20
-99.250000
 11
-158.899857
 21
-75.250015
  0
LINE
  8
0
 10
-160.899872
 20
-99.250000
 11
-160.899872
 21
-75.250015
  0
LINE
  8
0
 10
-162.499863
 20
-99.250000
 11
-162.499863
 21
-75.250015
  0
LINE
  8
0
 10
-164.499878
 20
-99.250000
 11
-164.499878
 21
-75.250015
  0
LINE
  8
0
 10
-166.099823
 20
-99.250000
 11
-166.099823
 21
-75.250015
  0
LINE
  8
0
 10
-168.099838
 20
-99.250000
 11
-168.099838
 21
-75.250015
  0
LINE
  8
0
 10
-169.699829
 20
-99.250000
 11
-169.699829
 21
-75.250015
  0
LINE
  8
0
 10
-171.699844
 20
-99.250000
 11
-171.699844
 21
-75.250015
  0
LINE
  8
0
 10
-173.299835
 20
-99.250000
 11
-173.299835
 21
-75.250015
  0
LINE
  8
0
 10
-175.299850
 20
-99.250000
 11
-175.299850
 21
-75.250015
  0
LINE
  8
0
 10
-176.899841
 20
-99.250000
 11
-176.899841
 21
-75.250015
  0
LINE
  8
0
 10
-178.899857
 20
-99.250000
 11
-178.899857
 21
-75.250015
  0
LINE
  8
0
 10
-180.499817
 20
-99.250000
 11
-180.499817
 21
-75.250015
  0
LINE
  8
0
 10
-182.499817
 20
-99.250000
 11
-182.499817
 21
-75.250015
  0
LINE
  8
0
 10
-153.899857
 20
-99.250000
 11
-153.899857
 21
-75.250015
  0
LINE
  8
0
 10
-183.899857
 20
-99.250000
 11
-183.899857
 21
-75.250015
  0
LINE
  8
0
 10
-198.899857
 20
-75.250015
 11
-198.899857
 21
-97.750031
  0
LINE
  8
0
 10
-208.899857
 20
-74.750031
 11
-208.899857
 21
60.250019
  0
LINE
  8
0
 10
-170.899872
 20
20.250011
 11
-170.899872
 21
13.250008
  0
LINE
  8
0
 10
-166.899841
 20
19.850002
 11
-166.899841
 21
13.650005
  0
LINE
  8
0
 10
-167.299866
 20
20.250011
 11
-170.899872
 21
20.250011
  0
LINE
  8
0
 10
-167.299866
 20
13.250011
 11
-170.899872
 21
13.250011
  0
LINE
  8
0
 10
-167.299881
 20
20.250019
 11
-166.899872
 21
19.850018
  0
LINE
  8
0
 10
-166.899841
 20
13.650017
 11
-167.299866
 21
13.249992
  0
LINE
  8
0
 10
-167.299866
 20
13.250008
 11
-167.299866
 21
20.250011
  0
LINE
  8
0
 10
-170.899872
 20
-27.749981
 11
-170.899872
 21
-34.749989
  0
LINE
  8
0
 10
-166.899841
 20
-28.149990
 11
-166.899841
 21
-34.349979
  0
LINE
  8
0
 10
-167.299866
 20
-27.749981
 11
-170.899872
 21
-27.749981
  0
LINE
  8
0
 10
-167.299866
 20
-34.749989
 11
-170.899872
 21
-34.749989
  0
LINE
  8
0
 10
-167.299881
 20
-27.749960
 11
-166.899887
 21
-28.149952
  0
LINE
  8
0
 10
-166.899887
 20
-34.349979
 11
-167.299896
 21
-34.749977
  0
LINE
  8
0
 10
-167.299866
 20
-34.749989
 11
-167.299866
 21
-27.749981
  0
LINE
  8
0
 10
-257.499939
 20
-66.750000
 11
-213.499878
 21
-66.750000
  0
LINE
  8
0
 10
-222.392944
 20
-50.249981
 11
-207.407959
 21
-50.249981
  0
LINE
  8
0
 10
-218.499878
 20
-55.749973
 11
-211.499878
 21
-55.749973
  0
LINE
  8
0
 10
-218.499878
 20
-44.749989
 11
-211.499878
 21
-44.749989
  0
LINE
  8
0
 10
-218.499878
 20
-44.749989
 11
-218.499878
 21
-55.749973
  0
LINE
  8
0
 10
-251.720367
 20
-26.250004
 11
-219.279388
 21
-26.250004
  0
LINE
  8
0
 10
-251.720367
 20
11.750011
 11
-219.279388
 21
11.750011
  0
LINE
  8
0
 10
-210.499847
 20
95.250015
 11
-210.499847
 21
-63.750004
  0
LINE
  8
0
 10
-257.499939
 20
64.250015
 11
-257.499939
 21
-66.750000
  0
LINE
  8
0
 10
-257.499939
 20
64.250000
 11
-210.499847
 21
64.250000
  0
LINE
  8
0
 10
-213.499847
 20
98.250000
 11
-246.999908
 21
98.250000
  0
LINE
  8
0
 10
-235.499924
 20
25.675762
 11
-235.499924
 21
-40.477261
  0
LINE
  8
0
 10
-248.499924
 20
96.749985
 11
-248.499924
 21
64.250015
  0
LINE
  8
0
 10
-174.899872
 20
16.750027
 11
-162.899841
 21
16.750027
  0
LINE
  8
0
 10
-174.899872
 20
-31.250004
 11
-162.899841
 21
-31.250004
  0
LINE
  8
0
 10
-195.399872
 20
-94.170151
 11
-195.399872
 21
-99.995850
  0
LINE
  8
0
 10
-187.999847
 20
-98.046204
 11
-187.999847
 21
-100.828247
  0
LINE
  8
0
 10
-187.999847
 20
83.547012
 11
-187.999847
 21
86.236450
  0
LINE
  8
0
 10
-219.599884
 20
8.050011
 11
-217.399872
 21
8.050011
  0
LINE
  8
0
 10
-219.599884
 20
15.450008
 11
-217.399872
 21
15.450008
  0
LINE
  8
0
 10
-220.599869
 20
9.050014
 11
-220.599869
 21
14.450024
  0
LINE
  8
0
 10
-216.399887
 20
9.050014
 11
-216.399887
 21
14.450024
  0
LINE
  8
0
 10
-219.599884
 20
-29.949993
 11
-217.399872
 21
-29.949993
  0
LINE
  8
0
 10
-219.599884
 20
-22.550014
 11
-217.399872
 21
-22.550014
  0
LINE
  8
0
 10
-220.599869
 20
-28.950008
 11
-220.599869
 21
-23.549999
  0
LINE
  8
0
 10
-216.399887
 20
-28.950008
 11
-216.399887
 21
-23.549999
  0
CIRCLE
  8
0
 10
-235.499847
 20
11.750004
 40
13.205500
  0
CIRCLE
  8
0
 10
-235.499847
 20
11.750004
 40
12.058501
  0
CIRCLE
  8
0
 10
-235.499847
 20
-26.250004
 40
13.205500
  0
CIRCLE
  8
0
 10
-235.499847
 20
-26.250004
 40
12.058501
  0
ARC
  8
0
 10
-170.599838
 20
-34.954380
 40
0.300003
 50
180.000000
 51
269.157776
  0
ARC
  8
0
 10
-170.599838
 20
-27.545628
 40
0.299999
 50
90.842239
 51
180.000000
  0
ARC
  8
0
 10
-170.599838
 20
13.045620
 40
0.300003
 50
180.000000
 51
269.157776
  0
ARC
  8
0
 10
-170.599838
 20
20.454372
 40
0.299997
 50
90.842247
 51
180.000000
  0
ARC
  8
0
 10
-197.399872
 20
83.250046
 40
1.500000
 50
90.000000
 51
180.000000
  0
ARC
  8
0
 10
-145.399872
 20
83.250046
 40
1.500000
 50
0.000000
 51
90.000000
  0
ARC
  8
0
 10
-196.399902
 20
82.249985
 40
1.500000
 50
90.000000
 51
180.000000
  0
ARC
  8
0
 10
-194.399887
 20
82.249985
 40
1.500000
 50
0.000000
 51
90.000000
  0
ARC
  8
0
 10
-197.399872
 20
-97.750015
 40
1.500000
 50
180.000000
 51
270.000000
  0
ARC
  8
0
 10
-145.399872
 20
-97.750015
 40
1.500000
 50
270.000000
 51
0.000000
  0
ARC
  8
0
 10
-196.399902
 20
-96.750000
 40
1.500000
 50
180.000000
 51
270.000000
  0
ARC
  8
0
 10
-194.399887
 20
-96.750000
 40
1.500000
 50
270.000000
 51
0.000000
  0
ARC
  8
0
 10
-145.399872
 20
-73.750000
 40
1.500000
 50
270.000000
 51
0.000000
  0
ARC
  8
0
 10
-213.499878
 20
-63.750004
 40
2.999996
 50
270.000000
 51
359.999939
  0
ARC
  8
0
 10
-211.499878
 20
-56.749996
 40
1.000000
 50
0.000000
 51
90.000000
  0
ARC
  8
0
 10
-211.499878
 20
-43.750004
 40
1.000000
 50
270.000000
 51
0.000000
  0
ARC
  8
0
 10
-208.399857
 20
60.250019
 40
0.500000
 50
90.000000
 51
180.000000
  0
ARC
  8
0
 10
-208.399857
 20
-74.750031
 40
0.500000
 50
180.000000
 51
270.000000
  0
ARC
  8
0
 10
-246.999908
 20
96.749985
 40
1.500000
 50
90.000000
 51
180.000000
  0
ARC
  8
0
 10
-213.499847
 20
95.250015
 40
3.000000
 50
0.000000
 51
90.000000
  0
ARC
  8
0
 10
-219.599884
 20
14.450024
 40
1.000000
 50
90.000000
 51
180.000000
  0
ARC
  8
0
 10
-219.599884
 20
9.050014
 40
1.000000
 50
180.000000
 51
270.000000
  0
ARC
  8
0
 10
-217.399872
 20
9.050014
 40
1.000000
 50
270.000000
 51
0.000000
  0
ARC
  8
0
 10
-217.399872
 20
14.450024
 40
1.000000
 50
0.000000
 51
90.000000
  0
ARC
  8
0
 10
-219.599884
 20
-23.549999
 40
1.000000
 50
90.000000
 51
180.000000
  0
ARC
  8
0
 10
-219.599884
 20
-28.950008
 40
1.000000
 50
180.000000
 51
270.000000
  0
ARC
  8
0
 10
-217.399872
 20
-28.950008
 40
1.000000
 50
270.000000
 51
0.000000
  0
ARC
  8
0
 10
-217.399872
 20
-23.549999
 40
1.000000
 50
0.000000
 51
90.000000
  0
TEXT
  8
0
 10
-218.941223
 20
-25.472273
 40
1.599999
  1
B
 50
270.100006
 41
1.052631
 51
0.000000
  7
STANDARD
  0
TEXT
  8
0
 10
-218.941223
 20
12.527743
 40
1.599999
  1
A
 50
270.100006
 41
1.052631
 51
0.000000
  7
STANDARD
  0
POINT
  8
0
 10
257.500000
 20
-50.249981
  0
POINT
  8
0
 10
282.500000
 20
-50.249981
  0
LINE
  8
0
 10
153.900024
 20
48.750004
 11
153.900024
 21
-63.250011
  0
LINE
  8
0
 10
143.900024
 20
-63.250011
 11
210.499969
 21
-63.250011
  0
LINE
  8
0
 10
143.900024
 20
48.750004
 11
210.499969
 21
48.750004
  0
LINE
  8
0
 10
170.900146
 20
20.454372
 11
170.900146
 21
13.045616
  0
LINE
  8
0
 10
170.900146
 20
-27.545628
 11
170.900146
 21
-34.954380
  0
LINE
  8
0
 10
153.900040
 20
20.999996
 11
170.604401
 21
20.754345
  0
LINE
  8
0
 10
170.604431
 20
12.745663
 11
153.900055
 21
12.500011
  0
LINE
  8
0
 10
153.900055
 20
-27.000000
 11
170.604370
 21
-27.245651
  0
LINE
  8
0
 10
170.604431
 20
-35.254333
 11
153.900040
 21
-35.499985
  0
LINE
  8
0
 10
143.900024
 20
83.250046
 11
143.900024
 21
-97.750031
  0
LINE
  8
0
 10
143.900024
 20
-35.749973
 11
153.900024
 21
-35.749973
  0
LINE
  8
0
 10
143.900024
 20
21.250011
 11
153.900024
 21
21.250011
  0
LINE
  8
0
 10
143.900024
 20
-26.749996
 11
153.900024
 21
-26.749996
  0
LINE
  8
0
 10
143.900024
 20
12.250011
 11
153.900024
 21
12.250011
  0
LINE
  8
0
 10
143.900024
 20
60.750027
 11
208.400146
 21
60.750027
  0
LINE
  8
0
 10
143.900024
 20
-75.250015
 11
208.400146
 21
-75.250015
  0
LINE
  8
0
 10
195.600067
 20
82.750015
 11
195.600067
 21
83.749985
  0
LINE
  8
0
 10
194.400146
 20
84.749985
 11
196.400146
 21
84.749985
  0
LINE
  8
0
 10
195.199951
 20
82.750015
 11
195.600098
 21
82.750015
  0
LINE
  8
0
 10
195.199951
 20
82.750015
 11
195.199951
 21
83.749985
  0
LINE
  8
0
 10
145.400040
 20
84.749985
 11
197.400146
 21
84.749985
  0
LINE
  8
0
 10
195.400146
 20
79.670181
 11
195.400146
 21
85.495834
  0
LINE
  8
0
 10
192.400146
 20
80.750046
 11
198.900146
 21
80.750046
  0
LINE
  8
0
 10
194.400146
 20
83.749985
 11
196.400146
 21
83.749985
  0
LINE
  8
0
 10
192.399902
 20
80.750046
 11
192.399902
 21
84.749985
  0
LINE
  8
0
 10
197.900146
 20
80.750046
 11
197.900146
 21
82.249985
  0
LINE
  8
0
 10
192.900146
 20
80.750046
 11
192.900146
 21
82.249985
  0
LINE
  8
0
 10
192.900146
 20
81.750015
 11
197.900146
 21
81.750015
  0
LINE
  8
0
 10
190.150146
 20
84.749985
 11
190.150146
 21
85.450058
  0
LINE
  8
0
 10
185.850098
 20
84.749985
 11
185.850098
 21
85.450058
  0
LINE
  8
0
 10
185.850098
 20
85.450058
 11
190.150146
 21
85.450058
  0
LINE
  8
0
 10
155.300018
 20
84.749985
 11
155.300018
 21
60.750027
  0
LINE
  8
0
 10
157.300018
 20
84.749985
 11
157.300018
 21
60.750027
  0
LINE
  8
0
 10
158.900024
 20
84.749985
 11
158.900024
 21
60.750027
  0
LINE
  8
0
 10
160.900146
 20
84.749985
 11
160.900146
 21
60.750027
  0
LINE
  8
0
 10
162.500000
 20
84.749985
 11
162.500000
 21
60.750027
  0
LINE
  8
0
 10
164.500000
 20
84.749985
 11
164.500000
 21
60.750027
  0
LINE
  8
0
 10
166.100098
 20
84.749985
 11
166.100098
 21
60.750027
  0
LINE
  8
0
 10
168.100067
 20
84.749985
 11
168.100067
 21
60.750027
  0
LINE
  8
0
 10
169.699951
 20
84.749985
 11
169.699951
 21
60.750027
  0
LINE
  8
0
 10
171.699921
 20
84.749985
 11
171.699921
 21
60.750027
  0
LINE
  8
0
 10
173.300049
 20
84.749985
 11
173.300049
 21
60.750027
  0
LINE
  8
0
 10
175.300049
 20
84.749985
 11
175.300049
 21
60.750027
  0
LINE
  8
0
 10
176.899902
 20
84.749985
 11
176.899902
 21
60.750027
  0
LINE
  8
0
 10
178.900146
 20
84.749985
 11
178.900146
 21
60.750027
  0
LINE
  8
0
 10
180.499969
 20
84.749985
 11
180.499969
 21
60.750027
  0
LINE
  8
0
 10
182.500000
 20
84.749985
 11
182.500000
 21
60.750027
  0
LINE
  8
0
 10
153.900024
 20
84.749985
 11
153.900024
 21
60.750027
  0
LINE
  8
0
 10
183.900146
 20
84.749985
 11
183.900146
 21
60.750027
  0
LINE
  8
0
 10
198.900146
 20
60.750027
 11
198.900146
 21
83.250046
  0
LINE
  8
0
 10
195.600067
 20
-97.249985
 11
195.600067
 21
-98.250015
  0
LINE
  8
0
 10
194.400146
 20
-99.250000
 11
196.400146
 21
-99.250000
  0
LINE
  8
0
 10
195.199951
 20
-97.249985
 11
195.600098
 21
-97.249985
  0
LINE
  8
0
 10
195.199951
 20
-97.249985
 11
195.199951
 21
-98.250015
  0
LINE
  8
0
 10
195.400146
 20
-94.170151
 11
195.400146
 21
-99.995850
  0
LINE
  8
0
 10
192.400146
 20
-95.250015
 11
198.900146
 21
-95.250015
  0
LINE
  8
0
 10
194.400146
 20
-98.250015
 11
196.400146
 21
-98.250015
  0
LINE
  8
0
 10
192.399902
 20
-95.250015
 11
192.399902
 21
-99.250000
  0
LINE
  8
0
 10
197.900146
 20
-95.250015
 11
197.900146
 21
-96.750000
  0
LINE
  8
0
 10
192.900146
 20
-95.250015
 11
192.900146
 21
-96.750000
  0
LINE
  8
0
 10
192.900146
 20
-96.250000
 11
197.900146
 21
-96.250000
  0
LINE
  8
0
 10
190.150146
 20
-99.250000
 11
190.150146
 21
-99.950043
  0
LINE
  8
0
 10
185.850098
 20
-99.250000
 11
185.850098
 21
-99.950043
  0
LINE
  8
0
 10
185.850098
 20
-99.950027
 11
190.150146
 21
-99.950027
  0
LINE
  8
0
 10
145.400040
 20
-99.250000
 11
197.400146
 21
-99.250000
  0
LINE
  8
0
 10
155.300018
 20
-99.250000
 11
155.300018
 21
-75.250015
  0
LINE
  8
0
 10
157.300018
 20
-99.250000
 11
157.300018
 21
-75.250015
  0
LINE
  8
0
 10
158.900024
 20
-99.250000
 11
158.900024
 21
-75.250015
  0
LINE
  8
0
 10
160.900146
 20
-99.250000
 11
160.900146
 21
-75.250015
  0
LINE
  8
0
 10
162.500000
 20
-99.250000
 11
162.500000
 21
-75.250015
  0
LINE
  8
0
 10
164.500000
 20
-99.250000
 11
164.500000
 21
-75.250015
  0
LINE
  8
0
 10
166.100098
 20
-99.250000
 11
166.100098
 21
-75.250015
  0
LINE
  8
0
 10
168.100067
 20
-99.250000
 11
168.100067
 21
-75.250015
  0
LINE
  8
0
 10
169.699951
 20
-99.250000
 11
169.699951
 21
-75.250015
  0
LINE
  8
0
 10
171.699921
 20
-99.250000
 11
171.699921
 21
-75.250015
  0
LINE
  8
0
 10
173.300049
 20
-99.250000
 11
173.300049
 21
-75.250015
  0
LINE
  8
0
 10
175.300049
 20
-99.250000
 11
175.300049
 21
-75.250015
  0
LINE
  8
0
 10
176.899902
 20
-99.250000
 11
176.899902
 21
-75.250015
  0
LINE
  8
0
 10
178.900146
 20
-99.250000
 11
178.900146
 21
-75.250015
  0
LINE
  8
0
 10
180.499969
 20
-99.250000
 11
180.499969
 21
-75.250015
  0
LINE
  8
0
 10
182.500000
 20
-99.250000
 11
182.500000
 21
-75.250015
  0
LINE
  8
0
 10
153.900024
 20
-99.250000
 11
153.900024
 21
-75.250015
  0
LINE
  8
0
 10
183.900146
 20
-99.250000
 11
183.900146
 21
-75.250015
  0
LINE
  8
0
 10
198.900146
 20
-75.250015
 11
198.900146
 21
-97.750031
  0
LINE
  8
0
 10
208.900146
 20
-74.750031
 11
208.900146
 21
60.250019
  0
LINE
  8
0
 10
170.900146
 20
20.250011
 11
170.900146
 21
13.250008
  0
LINE
  8
0
 10
166.899902
 20
19.850002
 11
166.899902
 21
13.650005
  0
LINE
  8
0
 10
167.300049
 20
20.250011
 11
170.900146
 21
20.250011
  0
LINE
  8
0
 10
167.300049
 20
13.250011
 11
170.900146
 21
13.250011
  0
LINE
  8
0
 10
167.300018
 20
20.250027
 11
166.900024
 21
19.850033
  0
LINE
  8
0
 10
166.900024
 20
13.649975
 11
167.300049
 21
13.249950
  0
LINE
  8
0
 10
167.300049
 20
13.250008
 11
167.300049
 21
20.250011
  0
LINE
  8
0
 10
170.900146
 20
-27.749981
 11
170.900146
 21
-34.749989
  0
LINE
  8
0
 10
166.899902
 20
-28.149990
 11
166.899902
 21
-34.349979
  0
LINE
  8
0
 10
167.300049
 20
-27.749981
 11
170.900146
 21
-27.749981
  0
LINE
  8
0
 10
167.300049
 20
-34.749989
 11
170.900146
 21
-34.749989
  0
LINE
  8
0
 10
167.300049
 20
-27.749989
 11
166.900055
 21
-28.149992
  0
LINE
  8
0
 10
166.900055
 20
-34.350037
 11
167.300049
 21
-34.750027
  0
LINE
  8
0
 10
167.300049
 20
-34.749989
 11
167.300049
 21
-27.749981
  0
LINE
  8
0
 10
230.499969
 20
10.615902
 11
230.499969
 21
-23.470463
  0
LINE
  8
0
 10
246.169189
 20
-7.249989
 11
214.279541
 21
-7.249989
  0
LINE
  8
0
 10
257.500000
 20
-66.750000
 11
213.500000
 21
-66.750000
  0
LINE
  8
0
 10
221.453369
 20
54.750011
 11
207.408203
 21
54.750011
  0
LINE
  8
0
 10
218.500000
 20
49.250011
 11
211.500000
 21
49.250011
  0
LINE
  8
0
 10
218.500000
 20
60.250011
 11
211.500000
 21
60.250011
  0
LINE
  8
0
 10
218.500000
 20
60.250011
 11
218.500000
 21
49.250011
  0
LINE
  8
0
 10
252.085937
 20
-44.749989
 11
222.018555
 21
-44.749989
  0
LINE
  8
0
 10
210.499969
 20
95.250015
 11
210.499969
 21
-63.750004
  0
LINE
  8
0
 10
257.500000
 20
64.250015
 11
257.500000
 21
-66.750000
  0
LINE
  8
0
 10
257.500000
 20
64.250000
 11
210.500000
 21
64.250000
  0
LINE
  8
0
 10
251.720459
 20
30.250011
 11
221.799072
 21
30.250011
  0
LINE
  8
0
 10
235.499969
 20
45.185543
 11
235.499969
 21
-57.550968
  0
LINE
  8
0
 10
248.500000
 20
96.749985
 11
248.500000
 21
64.250015
  0
LINE
  8
0
 10
247.000000
 20
98.250000
 11
213.500000
 21
98.250000
  0
LINE
  8
0
 10
162.899902
 20
16.750027
 11
174.900146
 21
16.750027
  0
LINE
  8
0
 10
162.899902
 20
-31.250004
 11
174.900146
 21
-31.250004
  0
LINE
  8
0
 10
187.999969
 20
83.511383
 11
187.999969
 21
86.589127
  0
LINE
  8
0
 10
187.999969
 20
-97.701660
 11
187.999969
 21
-101.036072
  0
LINE
  8
0
 10
217.400146
 20
26.550014
 11
219.600098
 21
26.550014
  0
LINE
  8
0
 10
217.400146
 20
33.950008
 11
219.600098
 21
33.950008
  0
LINE
  8
0
 10
216.400146
 20
27.550014
 11
216.400146
 21
32.950024
  0
LINE
  8
0
 10
220.600067
 20
27.550014
 11
220.600067
 21
32.950024
  0
LINE
  8
0
 10
248.400146
 20
-10.949978
 11
250.600098
 21
-10.949978
  0
LINE
  8
0
 10
248.400146
 20
-3.549995
 11
250.600098
 21
-3.549995
  0
LINE
  8
0
 10
247.400146
 20
-9.949993
 11
247.400146
 21
-4.549980
  0
LINE
  8
0
 10
251.600098
 20
-9.949993
 11
251.600098
 21
-4.549980
  0
LINE
  8
0
 10
217.400146
 20
-48.449978
 11
219.600098
 21
-48.449978
  0
LINE
  8
0
 10
217.400146
 20
-41.049999
 11
219.600098
 21
-41.049999
  0
LINE
  8
0
 10
216.400146
 20
-47.449993
 11
216.400146
 21
-42.049984
  0
LINE
  8
0
 10
220.600067
 20
-47.449993
 11
220.600067
 21
-42.049984
  0
CIRCLE
  8
0
 10
235.500031
 20
-44.749989
 40
13.205500
  0
CIRCLE
  8
0
 10
235.500031
 20
-44.749989
 40
12.058501
  0
CIRCLE
  8
0
 10
235.500031
 20
30.250011
 40
13.205500
  0
CIRCLE
  8
0
 10
235.500031
 20
30.250011
 40
12.058501
  0
CIRCLE
  8
0
 10
230.500031
 20
-7.249989
 40
13.205500
  0
CIRCLE
  8
0
 10
230.500031
 20
-7.249989
 40
12.058501
  0
ARC
  8
0
 10
170.600067
 20
-34.954380
 40
0.300001
 50
270.842224
 51
0.000000
  0
ARC
  8
0
 10
170.600067
 20
-27.545628
 40
0.300003
 50
0.000000
 51
89.157761
  0
ARC
  8
0
 10
170.600067
 20
13.045620
 40
0.300001
 50
270.842224
 51
0.000000
  0
ARC
  8
0
 10
170.600067
 20
20.454372
 40
0.300003
 50
0.000000
 51
89.157753
  0
ARC
  8
0
 10
197.400146
 20
83.250046
 40
1.500000
 50
0.000000
 51
90.000000
  0
ARC
  8
0
 10
145.400040
 20
83.250046
 40
1.500000
 50
90.000000
 51
180.000000
  0
ARC
  8
0
 10
196.400146
 20
82.249985
 40
1.500000
 50
0.000000
 51
90.000000
  0
ARC
  8
0
 10
194.400116
 20
82.249985
 40
1.500000
 50
90.000000
 51
180.000000
  0
ARC
  8
0
 10
197.400146
 20
-97.750015
 40
1.500000
 50
270.000000
 51
0.000000
  0
ARC
  8
0
 10
145.400040
 20
-97.750015
 40
1.500000
 50
180.000000
 51
270.000000
  0
ARC
  8
0
 10
196.400146
 20
-96.750000
 40
1.500000
 50
270.000000
 51
0.000000
  0
ARC
  8
0
 10
194.400116
 20
-96.750000
 40
1.500000
 50
180.000000
 51
270.000000
  0
ARC
  8
0
 10
145.400040
 20
59.250011
 40
1.500000
 50
90.000000
 51
180.000000
  0
ARC
  8
0
 10
145.400040
 20
-73.750000
 40
1.500000
 50
180.000000
 51
270.000000
  0
ARC
  8
0
 10
213.500000
 20
61.250004
 40
2.999996
 50
90.000000
 51
180.000000
  0
ARC
  8
0
 10
213.500000
 20
-63.750004
 40
3.000000
 50
180.000076
 51
270.000000
  0
ARC
  8
0
 10
211.500000
 20
48.250004
 40
1.000000
 50
90.000000
 51
180.000000
  0
ARC
  8
0
 10
211.500000
 20
61.250004
 40
1.000000
 50
180.000000
 51
270.000000
  0
ARC
  8
0
 10
208.400146
 20
60.250019
 40
0.500000
 50
0.000000
 51
90.000000
  0
ARC
  8
0
 10
208.400146
 20
-74.750031
 40
0.500000
 50
270.000000
 51
0.000000
  0
ARC
  8
0
 10
213.500000
 20
95.250015
 40
3.000000
 50
90.000000
 51
180.000000
  0
ARC
  8
0
 10
247.000000
 20
96.749985
 40
1.500000
 50
0.000000
 51
90.000000
  0
ARC
  8
0
 10
217.400146
 20
32.950024
 40
1.000000
 50
90.000000
 51
180.000000
  0
ARC
  8
0
 10
217.400146
 20
27.550014
 40
1.000000
 50
180.000000
 51
270.000000
  0
ARC
  8
0
 10
219.600098
 20
27.550014
 40
1.000000
 50
270.000000
 51
0.000000
  0
ARC
  8
0
 10
219.600098
 20
32.950024
 40
1.000000
 50
0.000000
 51
90.000000
  0
ARC
  8
0
 10
248.400146
 20
-4.549980
 40
1.000000
 50
90.000000
 51
180.000000
  0
ARC
  8
0
 10
248.400146
 20
-9.949993
 40
1.000000
 50
180.000000
 51
270.000000
  0
ARC
  8
0
 10
250.600067
 20
-9.949993
 40
1.000000
 50
270.000000
 51
0.000000
  0
ARC
  8
0
 10
250.600067
 20
-4.549980
 40
1.000000
 50
0.000000
 51
90.000000
  0
ARC
  8
0
 10
217.400146
 20
-42.049984
 40
1.000000
 50
90.000000
 51
180.000000
  0
ARC
  8
0
 10
217.400146
 20
-47.449993
 40
1.000000
 50
180.000000
 51
270.000000
  0
ARC
  8
0
 10
219.600098
 20
-47.449993
 40
1.000000
 50
270.000000
 51
0.000000
  0
ARC
  8
0
 10
219.600098
 20
-42.049984
 40
1.000000
 50
0.000000
 51
90.000000
  0
TEXT
  8
0
 10
249.940002
 20
-8.028488
 40
1.599999
  1
P
 50
90.000000
 41
1.052631
 51
0.000000
  7
STANDARD
  0
TEXT
  8
0
 10
218.940002
 20
27.471512
 40
1.599999
  1
R
 50
90.000000
 41
1.052631
 51
0.000000
  7
STANDARD
  0
TEXT
  8
0
 10
218.940002
 20
31.471512
 40
1.599999
  1
1
 50
90.000000
 41
1.052631
 51
0.000000
  7
STANDARD
  0
TEXT
  8
0
 10
218.940002
 20
-47.528496
 40
1.599999
  1
R
 50
90.000000
 41
1.052631
 51
0.000000
  7
STANDARD
  0
TEXT
  8
0
 10
218.940002
 20
-43.528481
 40
1.599999
  1
2
 50
90.000000
 41
1.052631
 51
0.000000
  7
STANDARD
  0
POINT
  8
0
 10
-26.499998
 20
-236.750031
  0
POINT
  8
0
 10
35.499969
 20
-236.750031
  0
LINE
  8
0
 10
4.499987
 20
-114.069305
 11
4.499987
 21
-246.928986
  0
LINE
  8
0
 10
40.999969
 20
-236.750031
 11
-32.000031
 21
-236.750031
  0
LINE
  8
0
 10
37.999969
 20
-189.750031
 11
-29.000036
 21
-189.750031
  0
LINE
  8
0
 10
-32.000031
 20
-192.750061
 11
-32.000031
 21
-236.750031
  0
LINE
  8
0
 10
40.999954
 20
-192.750061
 11
40.999954
 21
-236.750031
  0
LINE
  8
0
 10
11.364000
 20
-228.250061
 11
-2.364027
 21
-228.250061
  0
LINE
  8
0
 10
26.999987
 20
-123.150146
 11
-18.000013
 21
-123.150146
  0
LINE
  8
0
 10
-14.000036
 20
-137.121033
 11
-14.000036
 21
-147.077698
  0
LINE
  8
0
 10
-9.000036
 20
-142.150055
 11
-19.000036
 21
-142.150055
  0
LINE
  8
0
 10
27.999971
 20
-142.150055
 11
17.999971
 21
-142.150055
  0
LINE
  8
0
 10
27.999971
 20
-182.150055
 11
18.120592
 21
-182.150055
  0
LINE
  8
0
 10
22.999971
 20
-137.236420
 11
22.999971
 21
-146.684235
  0
LINE
  8
0
 10
-10.500013
 20
-178.150070
 11
19.499987
 21
-178.150070
  0
LINE
  8
0
 10
-11.500036
 20
-133.150040
 11
20.499971
 21
-133.150040
  0
LINE
  8
0
 10
-11.500036
 20
-163.150070
 11
20.499971
 21
-163.150070
  0
LINE
  8
0
 10
-11.500036
 20
-171.650055
 11
-8.000013
 21
-171.650055
  0
LINE
  8
0
 10
-5.000021
 20
-174.650055
 11
-5.000021
 21
-178.150040
  0
LINE
  8
0
 10
20.499971
 20
-171.650055
 11
16.999987
 21
-171.650055
  0
LINE
  8
0
 10
13.999956
 20
-174.650055
 11
13.999956
 21
-178.150040
  0
LINE
  8
0
 10
-11.500036
 20
-134.550034
 11
20.499971
 21
-134.550034
  0
LINE
  8
0
 10
-11.500036
 20
-136.550034
 11
20.499971
 21
-136.550034
  0
LINE
  8
0
 10
-11.500036
 20
-138.150040
 11
4.499987
 21
-138.150040
  0
LINE
  8
0
 10
-11.500036
 20
-140.150040
 11
4.499987
 21
-140.150040
  0
LINE
  8
0
 10
-11.500036
 20
-141.750046
 11
20.499971
 21
-141.750046
  0
LINE
  8
0
 10
-11.500036
 20
-143.750046
 11
20.499971
 21
-143.750046
  0
LINE
  8
0
 10
-11.500036
 20
-145.350052
 11
20.499971
 21
-145.350052
  0
LINE
  8
0
 10
-11.500036
 20
-147.350052
 11
20.499971
 21
-147.350052
  0
LINE
  8
0
 10
-11.500036
 20
-148.950058
 11
20.499971
 21
-148.950058
  0
LINE
  8
0
 10
-11.500036
 20
-150.950058
 11
20.499971
 21
-150.950058
  0
LINE
  8
0
 10
-11.500036
 20
-152.550018
 11
20.499971
 21
-152.550018
  0
LINE
  8
0
 10
-11.500036
 20
-154.550034
 11
20.499971
 21
-154.550034
  0
LINE
  8
0
 10
-11.500036
 20
-156.150024
 11
20.499971
 21
-156.150024
  0
LINE
  8
0
 10
-11.500036
 20
-158.150040
 11
20.499971
 21
-158.150040
  0
LINE
  8
0
 10
-11.500036
 20
-159.750031
 11
20.499971
 21
-159.750031
  0
LINE
  8
0
 10
-11.500036
 20
-161.750076
 11
20.499971
 21
-161.750076
  0
LINE
  8
0
 10
-11.500036
 20
-124.650177
 11
-11.500036
 21
-177.150085
  0
LINE
  8
0
 10
20.499971
 20
-124.650177
 11
20.499971
 21
-177.150085
  0
LINE
  8
0
 10
17.499979
 20
-138.150040
 11
17.499979
 21
-140.150055
  0
LINE
  8
0
 10
17.499979
 20
-138.150040
 11
20.499971
 21
-138.150040
  0
LINE
  8
0
 10
17.499979
 20
-140.150040
 11
20.499971
 21
-140.150040
  0
LINE
  8
0
 10
4.499987
 20
-138.150040
 11
4.499987
 21
-140.150055
  0
LINE
  8
0
 10
17.199915
 20
-172.950043
 11
17.199915
 21
-174.450012
  0
LINE
  8
0
 10
16.800020
 20
-172.950043
 11
16.800020
 21
-174.450012
  0
LINE
  8
0
 10
15.300005
 20
-174.850098
 11
16.800020
 21
-174.850098
  0
LINE
  8
0
 10
15.300005
 20
-174.450089
 11
16.800020
 21
-174.450089
  0
LINE
  8
0
 10
18.699930
 20
-174.450012
 11
18.699930
 21
-174.850021
  0
LINE
  8
0
 10
15.300005
 20
-174.450043
 11
15.300005
 21
-174.850067
  0
LINE
  8
0
 10
16.800020
 20
-172.950073
 11
17.199915
 21
-172.950073
  0
LINE
  8
0
 10
16.800020
 20
-176.350067
 11
17.199915
 21
-176.350067
  0
LINE
  8
0
 10
17.199915
 20
-174.850098
 11
18.699930
 21
-174.850098
  0
LINE
  8
0
 10
17.199915
 20
-174.450089
 11
18.699930
 21
-174.450089
  0
LINE
  8
0
 10
16.800020
 20
-174.850021
 11
16.800020
 21
-176.350037
  0
LINE
  8
0
 10
17.199915
 20
-174.850021
 11
17.199915
 21
-176.350037
  0
LINE
  8
0
 10
-7.800085
 20
-174.850067
 11
-7.800085
 21
-176.350037
  0
LINE
  8
0
 10
-8.199980
 20
-174.850067
 11
-8.199980
 21
-176.350037
  0
LINE
  8
0
 10
-7.800085
 20
-172.950073
 11
-7.800085
 21
-174.450043
  0
LINE
  8
0
 10
-8.199980
 20
-172.950073
 11
-8.199980
 21
-174.450043
  0
LINE
  8
0
 10
-9.699995
 20
-174.850098
 11
-8.199980
 21
-174.850098
  0
LINE
  8
0
 10
-9.699995
 20
-174.450089
 11
-8.199980
 21
-174.450089
  0
LINE
  8
0
 10
-6.300070
 20
-174.450043
 11
-6.300070
 21
-174.850067
  0
LINE
  8
0
 10
-9.699995
 20
-174.450043
 11
-9.699995
 21
-174.850067
  0
LINE
  8
0
 10
-8.199980
 20
-172.950073
 11
-7.800085
 21
-172.950073
  0
LINE
  8
0
 10
-8.199980
 20
-176.350067
 11
-7.800085
 21
-176.350067
  0
LINE
  8
0
 10
-7.800085
 20
-174.850098
 11
-6.300070
 21
-174.850098
  0
LINE
  8
0
 10
-7.800085
 20
-174.450089
 11
-6.300070
 21
-174.450089
  0
LINE
  8
0
 10
0.499971
 20
-167.250076
 11
8.499964
 21
-167.250076
  0
LINE
  8
0
 10
16.999987
 20
-170.650040
 11
16.999987
 21
-178.650024
  0
LINE
  8
0
 10
12.999971
 20
-174.650055
 11
20.999964
 21
-174.650055
  0
LINE
  8
0
 10
-8.000013
 20
-170.650085
 11
-8.000013
 21
-178.650070
  0
LINE
  8
0
 10
-12.000029
 20
-174.650055
 11
-4.000036
 21
-174.650055
  0
LINE
  8
0
 10
22.133997
 20
-143.650070
 11
23.865946
 21
-143.650070
  0
LINE
  8
0
 10
22.133997
 20
-140.650040
 11
23.865946
 21
-140.650040
  0
LINE
  8
0
 10
22.133802
 20
-143.650085
 11
21.267767
 21
-142.150055
  0
LINE
  8
0
 10
24.731894
 20
-142.150116
 11
23.865858
 21
-140.650116
  0
LINE
  8
0
 10
21.267790
 20
-142.150085
 11
22.133875
 21
-140.649994
  0
LINE
  8
0
 10
23.865862
 20
-143.650116
 11
24.731955
 21
-142.150009
  0
LINE
  8
0
 10
-14.866011
 20
-143.650070
 11
-13.134062
 21
-143.650070
  0
LINE
  8
0
 10
-14.866011
 20
-140.650040
 11
-13.134062
 21
-140.650040
  0
LINE
  8
0
 10
-14.866213
 20
-143.650101
 11
-15.732225
 21
-142.150116
  0
LINE
  8
0
 10
-12.268164
 20
-142.150116
 11
-13.134176
 21
-140.650146
  0
LINE
  8
0
 10
-15.732050
 20
-142.150253
 11
-14.865961
 21
-140.650146
  0
LINE
  8
0
 10
-13.133942
 20
-143.650238
 11
-12.267853
 21
-142.150131
  0
LINE
  8
0
 10
-14.866011
 20
-183.650070
 11
-13.134062
 21
-183.650070
  0
LINE
  8
0
 10
-14.866011
 20
-180.650040
 11
-13.134062
 21
-180.650040
  0
LINE
  8
0
 10
-14.866228
 20
-183.650101
 11
-15.732240
 21
-182.150116
  0
LINE
  8
0
 10
-12.268158
 20
-182.150101
 11
-13.134171
 21
-180.650131
  0
LINE
  8
0
 10
-15.732075
 20
-182.150330
 11
-14.865986
 21
-180.650223
  0
LINE
  8
0
 10
-13.133988
 20
-183.650284
 11
-12.267900
 21
-182.150177
  0
LINE
  8
0
 10
22.133997
 20
-183.650070
 11
23.865946
 21
-183.650070
  0
LINE
  8
0
 10
22.133997
 20
-180.650040
 11
23.865946
 21
-180.650040
  0
LINE
  8
0
 10
22.133818
 20
-183.650116
 11
21.267805
 21
-182.150131
  0
LINE
  8
0
 10
24.731886
 20
-182.150116
 11
23.865873
 21
-180.650146
  0
LINE
  8
0
 10
21.267843
 20
-182.149963
 11
22.133818
 21
-180.650055
  0
LINE
  8
0
 10
23.865942
 20
-183.649994
 11
24.731916
 21
-182.150085
  0
LINE
  8
0
 10
-14.000036
 20
-176.661163
 11
-14.000036
 21
-187.055206
  0
LINE
  8
0
 10
-9.045202
 20
-182.150055
 11
-18.850843
 21
-182.150055
  0
LINE
  8
0
 10
22.999971
 20
-177.437866
 11
22.999971
 21
-187.190887
  0
LINE
  8
0
 10
28.499964
 20
-189.750031
 11
28.499964
 21
-124.650177
  0
LINE
  8
0
 10
-19.500029
 20
-189.750031
 11
-19.500029
 21
-124.650177
  0
LINE
  8
0
 10
28.499964
 20
-188.150024
 11
-19.500029
 21
-188.150024
  0
LINE
  8
0
 10
0.800035
 20
-214.650055
 11
0.800035
 21
-216.850067
  0
LINE
  8
0
 10
8.199938
 20
-214.650055
 11
8.199938
 21
-216.850067
  0
LINE
  8
0
 10
1.799791
 20
-213.650055
 11
7.199915
 21
-213.650055
  0
LINE
  8
0
 10
1.799791
 20
-217.850037
 11
7.199915
 21
-217.850037
  0
ARC
  8
0
 10
-29.000036
 20
-192.750061
 40
3.000000
 50
89.999962
 51
180.000000
  0
ARC
  8
0
 10
37.999969
 20
-192.750061
 40
3.000000
 50
0.000000
 51
90.000000
  0
CIRCLE
  8
0
 10
4.499987
 20
-228.250061
 40
4.250000
  0
CIRCLE
  8
0
 10
4.499987
 20
-228.250061
 40
4.863999
  0
ARC
  8
0
 10
-14.000036
 20
-142.150055
 40
4.000000
 50
51.317787
 51
308.682190
  0
CIRCLE
  8
0
 10
-14.000036
 20
-182.150055
 40
4.000001
  0
CIRCLE
  8
0
 10
22.999971
 20
-182.150055
 40
4.000001
  0
ARC
  8
0
 10
18.999956
 20
-124.650162
 40
1.500000
 50
0.000000
 51
90.000000
  0
ARC
  8
0
 10
-10.000021
 20
-124.650162
 40
1.500000
 50
90.000000
 51
180.000000
  0
CIRCLE
  8
0
 10
-8.000013
 20
-174.650055
 40
2.500000
  0
ARC
  8
0
 10
-8.000013
 20
-174.650055
 40
3.000000
 50
0.000000
 51
90.000000
  0
CIRCLE
  8
0
 10
4.499987
 20
-167.250031
 40
2.150000
  0
CIRCLE
  8
0
 10
4.499987
 20
-167.250031
 40
1.500000
  0
CIRCLE
  8
0
 10
16.999987
 20
-174.650055
 40
2.500000
  0
ARC
  8
0
 10
16.999987
 20
-174.650055
 40
3.000000
 50
90.000000
 51
180.000000
  0
ARC
  8
0
 10
22.999971
 20
-142.150055
 40
4.000001
 50
231.317764
 51
128.682236
  0
CIRCLE
  8
0
 10
22.999971
 20
-142.150055
 40
1.732050
  0
ARC
  8
0
 10
-14.000036
 20
-142.150055
 40
3.500003
 50
44.415340
 51
315.584656
  0
CIRCLE
  8
0
 10
-14.000036
 20
-142.150055
 40
1.732050
  0
CIRCLE
  8
0
 10
-14.000036
 20
-182.150055
 40
3.499999
  0
CIRCLE
  8
0
 10
-14.000036
 20
-182.150055
 40
1.732050
  0
CIRCLE
  8
0
 10
22.999971
 20
-182.150055
 40
3.499999
  0
CIRCLE
  8
0
 10
22.999971
 20
-182.150055
 40
1.732050
  0
ARC
  8
0
 10
22.999971
 20
-142.150055
 40
3.500005
 50
224.415314
 51
135.584686
  0
ARC
  8
0
 10
-18.000013
 20
-124.650162
 40
1.500000
 50
90.000000
 51
180.000000
  0
ARC
  8
0
 10
26.999987
 20
-124.650162
 40
1.500000
 50
0.000000
 51
90.000000
  0
ARC
  8
0
 10
-10.500013
 20
-177.150085
 40
1.000000
 50
180.000000
 51
270.000000
  0
ARC
  8
0
 10
19.499987
 20
-177.150085
 40
1.000000
 50
270.000000
 51
0.000000
  0
ARC
  8
0
 10
7.199915
 20
-214.650055
 40
1.000000
 50
0.000000
 51
90.000000
  0
ARC
  8
0
 10
1.799791
 20
-214.650055
 40
1.000000
 50
90.000000
 51
180.000000
  0
ARC
  8
0
 10
1.799791
 20
-216.850067
 40
1.000000
 50
180.000000
 51
270.000000
  0
ARC
  8
0
 10
7.199915
 20
-216.850067
 40
1.000000
 50
270.000000
 51
0.000000
  0
TEXT
  8
0
 10
1.721480
 20
-216.190063
 40
1.599999
  1
P
 50
0.000000
 41
1.052631
 51
0.000000
  7
STANDARD
  0
TEXT
  8
0
 10
5.721457
 20
-216.190063
 40
1.599999
  1
R
 50
0.000000
 41
1.052631
 51
0.000000
  7
STANDARD
  0
TEXT
  8
0
 10
8.225198
 20
-139.234863
 40
1.200000
  1
AC200V
 50
0.100000
 41
0.844285
 51
0.000000
  7
STANDARD
  0
ENDSEC
  0
EOF
