  0
SECTION
  2
HEADER
  0
ENDSEC
  0
SECTION
  2
TABLES
  0
TABLE
  2
LTYPE
 70
     4
  0
LTYPE
  2
CONTINUOUS
 70
    64
  3
Solid line
 72
    65
 73
     0
 40
0.000000
  0
LTYPE
  2
DASHED
 70
    64
  3
__ __ __ __ __ __ __ __ __ __ __ __ __ __ __
 72
    65
 73
     2
 40
3.500000
 49
2.000000
 49
-1.500000
  0
LTYPE
  2
CENTER
 70
    64
  3
____ _ ____ _ ____ _ ____ _ ____ _ ____ _ ____
 72
    65
 73
     4
 40
17.500000
 49
13.000000
 49
-1.500000
 49
1.500000
 49
-1.500000
  0
LTYPE
  2
PHANTOM
 70
    64
  3
_____ _ _ _____ _ _ _____ _ _ _____ _ _ ____  
 72
    65
 73
     6
 40
15.500000
 49
8.000000
 49
-1.500000
 49
1.500000
 49
-1.500000
 49
1.500000
 49
-1.500000
  0
ENDTAB
  0
TABLE
  2
LAYER
 70
     1
  0
LAYER
  2
0
 70
     0
 62
     7
  6
CONTINUOUS
  0
ENDTAB
  0
TABLE
  2
STYLE
 70
     1
  0
STYLE
  2
STANDARD
 70
     0
 40
0.000000
 41
1.000000
 50
0.000000
 71
     0
 42
0.200000
  3
txt
  4
BIGFONT
  0
ENDTAB
  0
TABLE
  2
VIEW
 70
     0
  0
ENDTAB
  0
ENDSEC
  0
SECTION
  2
BLOCKS
  0
ENDSEC
  0
SECTION
  2
ENTITIES
  0
LINE
  8
0
  6
CONTINUOUS
 62
7
 10
-109.250000
 20
132.600006
 11
-109.250000
 21
117.599998
  0
LINE
  8
0
  6
CONTINUOUS
 62
7
 10
-194.250000
 20
117.599998
 11
-109.250000
 21
117.599998
  0
LINE
  8
0
  6
CONTINUOUS
 62
7
 10
109.800003
 20
117.599998
 11
194.800003
 21
117.599998
  0
LINE
  8
0
  6
CONTINUOUS
 62
7
 10
109.800003
 20
132.600006
 11
109.800003
 21
117.599998
  0
LINE
  8
0
  6
CONTINUOUS
 62
7
 10
109.800003
 20
-118.500000
 11
194.800003
 21
-118.500000
  0
LINE
  8
0
  6
CONTINUOUS
 62
7
 10
109.800003
 20
-118.500000
 11
109.800003
 21
-133.500000
  0
LINE
  8
0
  6
CONTINUOUS
 62
7
 10
-194.250000
 20
-133.500000
 11
194.800003
 21
-133.500000
  0
LINE
  8
0
  6
CONTINUOUS
 62
7
 10
-194.250000
 20
132.600006
 11
-194.250000
 21
-133.500000
  0
LINE
  8
0
  6
CONTINUOUS
 62
7
 10
194.800003
 20
132.600006
 11
194.800003
 21
-133.500000
  0
LINE
  8
0
  6
CONTINUOUS
 62
7
 10
-194.250000
 20
132.600006
 11
194.800003
 21
132.600006
  0
LINE
  8
0
  6
CONTINUOUS
 62
4
 10
73.033302
 20
7.833330
 11
73.033302
 21
4.833330
  0
LINE
  8
0
  6
CONTINUOUS
 62
4
 10
73.033302
 20
7.833330
 11
74.033302
 21
7.833330
  0
LINE
  8
0
  6
CONTINUOUS
 62
4
 10
73.033302
 20
4.833330
 11
74.033302
 21
4.833330
  0
LINE
  8
0
  6
CONTINUOUS
 62
7
 10
94.433296
 20
-28.666700
 11
93.633301
 21
-28.666700
  0
LINE
  8
0
  6
CONTINUOUS
 62
7
 10
94.433296
 20
-3.666670
 11
93.633301
 21
-3.666670
  0
LINE
  8
0
  6
CONTINUOUS
 62
4
 10
94.433296
 20
-2.666670
 11
94.433296
 21
-31.666700
  0
LINE
  8
0
  6
CONTINUOUS
 62
4
 10
93.633301
 20
-3.666670
 11
93.633301
 21
-8.666670
  0
LINE
  8
0
  6
CENTER
 62
1
 10
103.432999
 20
-21.666700
 11
98.433296
 21
-21.666700
  0
LINE
  8
0
  6
CENTER
 62
1
 10
100.932999
 20
-8.666670
 11
100.932999
 21
-13.496400
  0
LINE
  8
0
  6
CENTER
 62
1
 10
103.098999
 20
-11.166700
 11
98.433296
 21
-11.166700
  0
LINE
  8
0
  6
CONTINUOUS
 62
7
 10
93.633301
 20
-28.666700
 11
93.633301
 21
-31.666700
  0
LINE
  8
0
  6
CONTINUOUS
 62
4
 10
108.432999
 20
-31.666700
 11
94.433296
 21
-31.666700
  0
LINE
  8
0
  6
CONTINUOUS
 62
4
 10
108.432999
 20
-2.666670
 11
94.433296
 21
-2.666670
  0
LINE
  8
0
  6
CONTINUOUS
 62
4
 10
108.432999
 20
-2.666670
 11
108.432999
 21
-31.666700
  0
LINE
  8
0
  6
CENTER
 62
1
 10
91.933296
 20
12.897000
 11
91.933296
 21
10.485900
  0
LINE
  8
0
  6
CENTER
 62
1
 10
81.333298
 20
12.926400
 11
81.333298
 21
10.485900
  0
LINE
  8
0
  6
PHANTOM
 62
1
 10
69.096497
 20
8.483340
 11
67.944397
 21
4.183350
  0
LINE
  8
0
  6
PHANTOM
 62
1
 10
70.131897
 20
8.483300
 11
68.979698
 21
4.183310
  0
LINE
  8
0
  6
CONTINUOUS
 62
4
 10
76.633301
 20
-8.654240
 11
76.633301
 21
9.833330
  0
LINE
  8
0
  6
CONTINUOUS
 62
4
 10
74.533302
 20
9.833330
 11
79.633301
 21
9.833330
  0
LINE
  8
0
  6
CONTINUOUS
 62
4
 10
61.955601
 20
6.583330
 11
61.955601
 21
6.083330
  0
LINE
  8
0
  6
CONTINUOUS
 62
4
 10
65.366096
 20
6.583330
 11
61.955601
 21
6.583330
  0
LINE
  8
0
  6
CONTINUOUS
 62
4
 10
65.366096
 20
6.083330
 11
61.955601
 21
6.083330
  0
LINE
  8
0
  6
CONTINUOUS
 62
4
 10
68.346397
 20
5.683330
 11
65.366096
 21
5.683330
  0
LINE
  8
0
  6
CONTINUOUS
 62
4
 10
68.694702
 20
6.983320
 11
65.366096
 21
6.983320
  0
LINE
  8
0
  6
CONTINUOUS
 62
4
 10
65.366096
 20
6.983340
 11
65.366096
 21
5.683330
  0
LINE
  8
0
  6
CONTINUOUS
 62
4
 10
82.233299
 20
12.233300
 11
80.433296
 21
12.233300
  0
LINE
  8
0
  6
CONTINUOUS
 62
4
 10
91.033302
 20
12.233300
 11
92.833298
 21
12.233300
  0
LINE
  8
0
  6
CONTINUOUS
 62
4
 10
83.333298
 20
11.833300
 11
83.333298
 21
11.633300
  0
LINE
  8
0
  6
CONTINUOUS
 62
4
 10
83.333298
 20
11.633300
 11
79.733299
 21
11.633300
  0
LINE
  8
0
  6
CONTINUOUS
 62
4
 10
74.033302
 20
9.333330
 11
74.033302
 21
-7.135740
  0
LINE
  8
0
  6
CONTINUOUS
 62
4
 10
73.033302
 20
6.983320
 11
69.730003
 21
6.983320
  0
LINE
  8
0
  6
CONTINUOUS
 62
4
 10
73.033302
 20
5.683330
 11
69.381599
 21
5.683330
  0
LINE
  8
0
  6
CENTER
 62
1
 10
74.708000
 20
6.333330
 11
60.278198
 21
6.333330
  0
LINE
  8
0
  6
CONTINUOUS
 62
4
 10
76.532799
 20
-8.619870
 11
74.321999
 21
-7.588940
  0
LINE
  8
0
  6
CONTINUOUS
 62
4
 10
93.633301
 20
10.833300
 11
79.633301
 21
10.833300
  0
LINE
  8
0
  6
CONTINUOUS
 62
4
 10
93.133301
 20
11.833300
 11
82.799004
 21
11.833300
  0
LINE
  8
0
  6
CONTINUOUS
 62
4
 10
93.633301
 20
11.333300
 11
93.633301
 21
-3.666670
  0
LINE
  8
0
  6
CONTINUOUS
 62
4
 10
79.633301
 20
-5.666670
 11
79.633301
 21
-6.666670
  0
LINE
  8
0
  6
CONTINUOUS
 62
4
 10
79.633301
 20
11.333300
 11
79.633301
 21
-8.666670
  0
LINE
  8
0
  6
CONTINUOUS
 62
7
 10
93.633301
 20
-8.666670
 11
79.633301
 21
-8.666670
  0
LINE
  8
0
  6
CONTINUOUS
 62
7
 10
80.633301
 20
-13.109900
 11
80.633301
 21
-14.223400
  0
LINE
  8
0
  6
CONTINUOUS
 62
7
 10
80.633301
 20
-14.223400
 11
79.633301
 21
-14.223400
  0
LINE
  8
0
  6
CONTINUOUS
 62
7
 10
80.633301
 20
-13.109900
 11
79.633301
 21
-13.109900
  0
LINE
  8
0
  6
CONTINUOUS
 62
7
 10
78.533302
 20
-11.866700
 11
78.133301
 21
-11.866700
  0
LINE
  8
0
  6
CONTINUOUS
 62
7
 10
78.133301
 20
-11.866700
 11
78.133301
 21
-10.066700
  0
LINE
  8
0
  6
CONTINUOUS
 62
7
 10
78.533302
 20
-10.066700
 11
78.133301
 21
-10.066700
  0
LINE
  8
0
  6
CENTER
 62
2
 10
80.033302
 20
-10.966700
 11
77.033302
 21
-10.966700
  0
LINE
  8
0
  6
CONTINUOUS
 62
7
 10
78.533401
 20
-8.966710
 11
78.706596
 21
-8.666720
  0
LINE
  8
0
  6
CONTINUOUS
 62
7
 10
78.711899
 20
-9.811970
 11
79.633301
 21
-9.811970
  0
LINE
  8
0
  6
CONTINUOUS
 62
7
 10
78.711899
 20
-12.121400
 11
79.633301
 21
-12.121400
  0
LINE
  8
0
  6
CONTINUOUS
 62
7
 10
78.533302
 20
-12.966700
 11
78.533302
 21
-8.966670
  0
LINE
  8
0
  6
CONTINUOUS
 62
7
 10
78.533302
 20
-12.966700
 11
78.711998
 21
-13.276100
  0
LINE
  8
0
  6
CONTINUOUS
 62
7
 10
78.711899
 20
-13.276100
 11
79.633301
 21
-13.276100
  0
LINE
  8
0
  6
CONTINUOUS
 62
7
 10
89.433296
 20
-30.666700
 11
89.433296
 21
-31.666700
  0
LINE
  8
0
  6
CENTER
 62
2
 10
91.933296
 20
-29.205999
 11
91.933296
 21
-32.269901
  0
LINE
  8
0
  6
CONTINUOUS
 62
7
 10
89.433296
 20
-30.666700
 11
93.633301
 21
-30.666700
  0
LINE
  8
0
  6
CENTER
 62
2
 10
86.633301
 20
14.799200
 11
86.633301
 21
-33.977100
  0
LINE
  8
0
  6
CONTINUOUS
 62
7
 10
93.633301
 20
-31.666700
 11
79.633301
 21
-31.666700
  0
LINE
  8
0
  6
CONTINUOUS
 62
7
 10
93.633301
 20
-28.666700
 11
79.633301
 21
-28.666700
  0
LINE
  8
0
  6
CONTINUOUS
 62
7
 10
79.633301
 20
-8.666670
 11
79.633301
 21
-31.666700
  0
LINE
  8
0
  6
CENTER
 62
1
 10
100.932999
 20
-19.233400
 11
100.932999
 21
-24.281900
  0
LINE
  8
0
  6
CONTINUOUS
 62
7
 10
93.633301
 20
-8.666670
 11
93.633301
 21
-28.666700
  0
LINE
  8
0
  6
CONTINUOUS
 62
4
 10
79.633301
 20
-8.666670
 11
76.744202
 21
-8.666670
  0
LINE
  8
0
  6
CENTER
 62
1
 10
110.932999
 20
-13.666700
 11
105.932999
 21
-13.666700
  0
LINE
  8
0
  6
CONTINUOUS
 62
4
 10
-5.083340
 20
7.833330
 11
-2.583340
 21
7.833330
  0
LINE
  8
0
  6
CONTINUOUS
 62
4
 10
-5.083340
 20
4.833330
 11
-2.583340
 21
4.833330
  0
LINE
  8
0
  6
CONTINUOUS
 62
4
 10
-8.103330
 20
-7.454270
 11
0.436676
 21
-7.454270
  0
LINE
  8
0
  6
CONTINUOUS
 62
4
 10
-8.603350
 20
9.333330
 11
-8.603350
 21
-6.954270
  0
LINE
  8
0
  6
CONTINUOUS
 62
4
 10
0.936661
 20
9.333330
 11
0.936661
 21
-6.954270
  0
LINE
  8
0
  6
CONTINUOUS
 62
4
 10
-8.333330
 20
9.833330
 11
0.666672
 21
9.833330
  0
LINE
  8
0
  6
CENTER
 62
1
 10
2.966660
 20
-28.966700
 11
7.966660
 21
-28.966700
  0
LINE
  8
0
  6
CENTER
 62
1
 10
2.966660
 20
-5.366670
 11
7.966660
 21
-5.366670
  0
LINE
  8
0
  6
CENTER
 62
1
 10
5.466660
 20
-2.866670
 11
5.466660
 21
-7.866670
  0
LINE
  8
0
  6
CENTER
 62
1
 10
5.466660
 20
-26.466700
 11
5.466660
 21
-31.466700
  0
LINE
  8
0
  6
CONTINUOUS
 62
4
 10
1.166660
 20
-31.666700
 11
8.166660
 21
-31.666700
  0
LINE
  8
0
  6
CONTINUOUS
 62
4
 10
1.166660
 20
-2.666670
 11
8.166660
 21
-2.666670
  0
LINE
  8
0
  6
CONTINUOUS
 62
4
 10
-11.833300
 20
-31.666700
 11
-8.833340
 21
-31.666700
  0
LINE
  8
0
  6
CONTINUOUS
 62
4
 10
-11.833300
 20
-2.666670
 11
-8.833340
 21
-2.666670
  0
LINE
  8
0
  6
CONTINUOUS
 62
4
 10
-11.833300
 20
-2.666670
 11
-11.833300
 21
-31.666700
  0
LINE
  8
0
  6
CONTINUOUS
 62
4
 10
8.166660
 20
-2.666670
 11
8.166660
 21
-31.666700
  0
LINE
  8
0
  6
CENTER
 62
1
 10
-0.529373
 20
12.984000
 11
-0.529373
 21
10.463600
  0
LINE
  8
0
  6
CENTER
 62
1
 10
-7.137300
 20
12.984000
 11
-7.137300
 21
10.349100
  0
LINE
  8
0
  6
CONTINUOUS
 62
4
 10
-6.237300
 20
12.233300
 11
-8.037310
 21
12.233300
  0
LINE
  8
0
  6
CONTINUOUS
 62
4
 10
-2.529370
 20
11.833300
 11
-2.529370
 21
11.633300
  0
LINE
  8
0
  6
CONTINUOUS
 62
4
 10
-2.529370
 20
11.633300
 11
1.070620
 21
11.633300
  0
LINE
  8
0
  6
CONTINUOUS
 62
4
 10
-1.429380
 20
12.233300
 11
0.370636
 21
12.233300
  0
LINE
  8
0
  6
CONTINUOUS
 62
4
 10
-8.333340
 20
11.833300
 11
-1.995070
 21
11.833300
  0
LINE
  8
0
  6
CONTINUOUS
 62
4
 10
-8.833340
 20
10.833300
 11
1.166660
 21
10.833300
  0
LINE
  8
0
  6
CONTINUOUS
 62
4
 10
-8.833340
 20
11.333300
 11
-8.833340
 21
-8.666670
  0
LINE
  8
0
  6
CONTINUOUS
 62
4
 10
1.166660
 20
11.333300
 11
1.166660
 21
-8.666670
  0
LINE
  8
0
  6
CONTINUOUS
 62
7
 10
-8.833340
 20
-8.666670
 11
1.166660
 21
-8.666670
  0
LINE
  8
0
  6
CONTINUOUS
 62
7
 10
-4.633350
 20
-30.666700
 11
-4.633350
 21
-31.666700
  0
LINE
  8
0
  6
CENTER
 62
2
 10
-7.133350
 20
-29.205999
 11
-7.133350
 21
-32.269901
  0
LINE
  8
0
  6
CONTINUOUS
 62
7
 10
-4.633350
 20
-30.666700
 11
-8.833340
 21
-30.666700
  0
LINE
  8
0
  6
CENTER
 62
2
 10
-0.333344
 20
-11.166700
 11
-0.333344
 21
-16.166700
  0
LINE
  8
0
  6
CENTER
 62
2
 10
-7.333340
 20
-11.166700
 11
-7.333340
 21
-16.166700
  0
LINE
  8
0
  6
CENTER
 62
2
 10
-2.833340
 20
-13.666700
 11
2.166660
 21
-13.666700
  0
LINE
  8
0
  6
CENTER
 62
2
 10
-9.833340
 20
-13.666700
 11
-4.833340
 21
-13.666700
  0
LINE
  8
0
  6
CENTER
 62
2
 10
-3.833340
 20
13.577900
 11
-3.833340
 21
-34.333099
  0
LINE
  8
0
  6
CENTER
 62
2
 10
-6.833340
 20
-10.966700
 11
-0.833344
 21
-10.966700
  0
LINE
  8
0
  6
CONTINUOUS
 62
7
 10
-5.833270
 20
-12.121200
 11
-3.833270
 21
-13.275900
  0
LINE
  8
0
  6
CONTINUOUS
 62
7
 10
-3.833330
 20
-8.657120
 11
-1.833320
 21
-9.811830
  0
LINE
  8
0
  6
CONTINUOUS
 62
7
 10
-3.833280
 20
-13.276200
 11
-1.833290
 21
-12.121500
  0
LINE
  8
0
  6
CONTINUOUS
 62
7
 10
-5.833280
 20
-9.811990
 11
-3.833290
 21
-8.657300
  0
LINE
  8
0
  6
CONTINUOUS
 62
7
 10
-1.833340
 20
-9.811970
 11
-1.833340
 21
-12.121400
  0
LINE
  8
0
  6
CONTINUOUS
 62
7
 10
-5.833340
 20
-9.811970
 11
-5.833340
 21
-12.121400
  0
LINE
  8
0
  6
CONTINUOUS
 62
7
 10
-8.833340
 20
-31.666700
 11
1.166660
 21
-31.666700
  0
LINE
  8
0
  6
CONTINUOUS
 62
7
 10
-8.833340
 20
-28.666700
 11
1.166660
 21
-28.666700
  0
LINE
  8
0
  6
CONTINUOUS
 62
7
 10
-8.833340
 20
-8.666670
 11
-8.833340
 21
-31.666700
  0
LINE
  8
0
  6
CONTINUOUS
 62
7
 10
1.166660
 20
-8.666670
 11
1.166660
 21
-31.666700
  0
LINE
  8
0
  6
CONTINUOUS
 62
7
 10
-1.040450
 20
-14.373800
 11
0.373763
 21
-12.959600
  0
LINE
  8
0
  6
CONTINUOUS
 62
7
 10
-1.040450
 20
-12.959600
 11
0.373763
 21
-14.373800
  0
LINE
  8
0
  6
CONTINUOUS
 62
7
 10
-8.040450
 20
-14.373800
 11
-6.626240
 21
-12.959600
  0
LINE
  8
0
  6
CONTINUOUS
 62
7
 10
-8.040450
 20
-12.959600
 11
-6.626240
 21
-14.373800
  0
LINE
  8
0
  6
CENTER
 62
2
 10
-3.033340
 20
-83.270103
 11
1.966660
 21
-83.270103
  0
LINE
  8
0
  6
CONTINUOUS
 62
4
 10
-6.583360
 20
-64.370102
 11
-1.083360
 21
-64.370102
  0
LINE
  8
0
  6
CONTINUOUS
 62
4
 10
-1.083360
 20
-64.370102
 11
-1.083360
 21
-65.370102
  0
LINE
  8
0
  6
CONTINUOUS
 62
4
 10
-6.583360
 20
-64.370102
 11
-6.583360
 21
-65.370102
  0
LINE
  8
0
  6
PHANTOM
 62
1
 10
-1.086870
 20
-60.457401
 11
-6.570280
 21
-57.900398
  0
LINE
  8
0
  6
CONTINUOUS
 62
4
 10
-5.733350
 20
-59.394100
 11
-5.733350
 21
-64.370102
  0
LINE
  8
0
  6
CONTINUOUS
 62
4
 10
-4.433350
 20
-60.000301
 11
-4.433350
 21
-64.370102
  0
LINE
  8
0
  6
CONTINUOUS
 62
4
 10
-3.233350
 20
-60.559898
 11
-3.233350
 21
-64.370102
  0
LINE
  8
0
  6
CONTINUOUS
 62
4
 10
-1.933350
 20
-61.166100
 11
-1.933350
 21
-64.370102
  0
LINE
  8
0
  6
CONTINUOUS
 62
4
 10
-3.233340
 20
-56.370098
 11
-1.933330
 21
-56.370098
  0
LINE
  8
0
  6
CONTINUOUS
 62
4
 10
-2.833340
 20
-52.870098
 11
-2.333340
 21
-52.870098
  0
LINE
  8
0
  6
CONTINUOUS
 62
4
 10
-5.333340
 20
-52.870098
 11
-4.833340
 21
-52.870098
  0
LINE
  8
0
  6
CONTINUOUS
 62
4
 10
-5.733340
 20
-56.370098
 11
-4.433330
 21
-56.370098
  0
LINE
  8
0
  6
CONTINUOUS
 62
4
 10
-2.833340
 20
-52.870098
 11
-2.833340
 21
-56.370098
  0
LINE
  8
0
  6
CONTINUOUS
 62
4
 10
-2.333340
 20
-52.870098
 11
-2.333340
 21
-56.370098
  0
LINE
  8
0
  6
CONTINUOUS
 62
4
 10
-5.333340
 20
-52.870098
 11
-5.333340
 21
-56.370098
  0
LINE
  8
0
  6
CONTINUOUS
 62
4
 10
-4.833340
 20
-52.870098
 11
-4.833340
 21
-56.370098
  0
LINE
  8
0
  6
CONTINUOUS
 62
4
 10
-5.733350
 20
-56.370098
 11
-5.733350
 21
-58.290699
  0
LINE
  8
0
  6
CONTINUOUS
 62
4
 10
-4.433350
 20
-56.370098
 11
-4.433350
 21
-58.896900
  0
LINE
  8
0
  6
CONTINUOUS
 62
4
 10
-1.933350
 20
-56.370098
 11
-1.933350
 21
-60.062698
  0
LINE
  8
0
  6
CONTINUOUS
 62
4
 10
-3.233350
 20
-56.370098
 11
-3.233350
 21
-59.456501
  0
LINE
  8
0
  6
CENTER
 62
1
 10
-5.083340
 20
-51.666698
 11
-5.083340
 21
-66.067497
  0
LINE
  8
0
  6
CENTER
 62
1
 10
-2.583340
 20
-51.598900
 11
-2.583340
 21
-66.067497
  0
LINE
  8
0
  6
PHANTOM
 62
1
 10
-1.080680
 20
-61.563702
 11
-6.619450
 21
-58.980900
  0
LINE
  8
0
  6
CONTINUOUS
 62
4
 10
-8.147710
 20
-65.370102
 11
0.481033
 21
-65.370102
  0
LINE
  8
0
  6
CONTINUOUS
 62
7
 10
-8.833340
 20
-84.970100
 11
-0.948685
 21
-84.970100
  0
LINE
  8
0
  6
CONTINUOUS
 62
4
 10
-8.833300
 20
-67.970100
 11
-8.645760
 21
-65.826500
  0
LINE
  8
0
  6
CONTINUOUS
 62
4
 10
1.166660
 20
-67.970100
 11
0.979126
 21
-65.826500
  0
LINE
  8
0
  6
CONTINUOUS
 62
4
 10
-8.833340
 20
-67.970100
 11
1.166660
 21
-67.970100
  0
LINE
  8
0
  6
CONTINUOUS
 62
4
 10
1.166660
 20
-67.970100
 11
1.166660
 21
-70.970100
  0
LINE
  8
0
  6
CONTINUOUS
 62
4
 10
-8.833340
 20
-67.970100
 11
-8.833340
 21
-70.970100
  0
LINE
  8
0
  6
CONTINUOUS
 62
4
 10
-5.833340
 20
-69.870102
 11
-5.833340
 21
-70.970100
  0
LINE
  8
0
  6
CONTINUOUS
 62
4
 10
-1.833340
 20
-69.870102
 11
-5.833340
 21
-69.870102
  0
LINE
  8
0
  6
CONTINUOUS
 62
4
 10
-3.833340
 20
-70.048698
 11
-3.833340
 21
-70.970100
  0
LINE
  8
0
  6
CONTINUOUS
 62
4
 10
-1.833340
 20
-69.870102
 11
-1.833340
 21
-70.970100
  0
LINE
  8
0
  6
CENTER
 62
2
 10
-7.133350
 20
-70.170097
 11
-7.133350
 21
-75.170097
  0
LINE
  8
0
  6
CENTER
 62
2
 10
-9.633350
 20
-72.670097
 11
-4.633350
 21
-72.670097
  0
LINE
  8
0
  6
CONTINUOUS
 62
7
 10
-2.333340
 20
-83.270103
 11
-2.333340
 21
-84.970100
  0
LINE
  8
0
  6
CENTER
 62
2
 10
-0.533340
 20
-80.770103
 11
-0.533340
 21
-85.770103
  0
LINE
  8
0
  6
CONTINUOUS
 62
7
 10
-0.533344
 20
-81.470100
 11
1.166660
 21
-81.470100
  0
LINE
  8
0
  6
CONTINUOUS
 62
7
 10
-7.133350
 20
-74.470100
 11
-8.833340
 21
-74.470100
  0
LINE
  8
0
  6
CONTINUOUS
 62
7
 10
-5.333340
 20
-72.670097
 11
-5.333340
 21
-70.970100
  0
LINE
  8
0
  6
CONTINUOUS
 62
7
 10
1.166660
 20
-70.970100
 11
-6.718000
 21
-70.970100
  0
LINE
  8
0
  6
CENTER
 62
2
 10
-3.833340
 20
-66.698700
 11
-3.833340
 21
-87.745102
  0
LINE
  8
0
  6
CONTINUOUS
 62
7
 10
-7.548690
 20
-70.970100
 11
-8.833340
 21
-70.970100
  0
LINE
  8
0
  6
CONTINUOUS
 62
7
 10
-8.833340
 20
-73.085403
 11
-8.833340
 21
-84.970100
  0
LINE
  8
0
  6
CONTINUOUS
 62
7
 10
-7.840450
 20
-71.962997
 11
-6.426240
 21
-73.377197
  0
LINE
  8
0
  6
CONTINUOUS
 62
7
 10
-6.426240
 20
-71.962997
 11
-7.840460
 21
-73.377197
  0
LINE
  8
0
  6
CONTINUOUS
 62
7
 10
-1.240450
 20
-82.563004
 11
0.173767
 21
-83.977203
  0
LINE
  8
0
  6
CONTINUOUS
 62
7
 10
0.173765
 20
-82.563004
 11
-1.240450
 21
-83.977203
  0
LINE
  8
0
  6
CONTINUOUS
 62
7
 10
1.166660
 20
-83.685402
 11
1.166660
 21
-84.970100
  0
LINE
  8
0
  6
CONTINUOUS
 62
7
 10
-0.117997
 20
-84.970100
 11
1.166660
 21
-84.970100
  0
LINE
  8
0
  6
CONTINUOUS
 62
7
 10
-8.833340
 20
-70.970100
 11
-8.833340
 21
-72.254700
  0
LINE
  8
0
  6
CONTINUOUS
 62
7
 10
1.166660
 20
-70.970100
 11
1.166660
 21
-82.854797
  0
LINE
  8
0
  6
CONTINUOUS
 62
4
 10
-11.618000
 20
-99.770103
 11
8.382000
 21
-99.770103
  0
LINE
  8
0
  6
CONTINUOUS
 62
4
 10
-11.618000
 20
-85.770103
 11
-11.618000
 21
-99.770103
  0
LINE
  8
0
  6
CONTINUOUS
 62
4
 10
-11.618000
 20
-85.770103
 11
8.382000
 21
-85.770103
  0
LINE
  8
0
  6
CONTINUOUS
 62
4
 10
8.382000
 20
-85.770103
 11
8.382000
 21
-99.770103
  0
LINE
  8
0
  6
CENTER
 62
1
 10
-7.333340
 20
-102.269997
 11
-7.333340
 21
-97.270103
  0
LINE
  8
0
  6
CONTINUOUS
 62
7
 10
-8.833340
 20
-84.970100
 11
-8.833340
 21
-85.770103
  0
LINE
  8
0
  6
CONTINUOUS
 62
7
 10
1.166660
 20
-84.970100
 11
1.166660
 21
-85.770103
  0
LINE
  8
0
  6
CONTINUOUS
 62
4
 10
-1.025110
 20
64.629601
 11
0.389105
 21
66.043800
  0
LINE
  8
0
  6
CONTINUOUS
 62
4
 10
0.389100
 20
64.629601
 11
-1.025110
 21
66.043900
  0
LINE
  8
0
  6
CONTINUOUS
 62
4
 10
-8.618000
 20
63.636700
 11
-8.618000
 21
77.636703
  0
LINE
  8
0
  6
CENTER
 62
1
 10
-3.618000
 20
59.365398
 11
-3.618000
 21
79.796799
  0
LINE
  8
0
  6
CONTINUOUS
 62
4
 10
1.382000
 20
63.636700
 11
-8.618000
 21
63.636700
  0
LINE
  8
0
  6
CONTINUOUS
 62
4
 10
-2.118000
 20
65.336700
 11
-2.118000
 21
63.636700
  0
LINE
  8
0
  6
CONTINUOUS
 62
4
 10
-0.317994
 20
67.136703
 11
1.382000
 21
67.136703
  0
LINE
  8
0
  6
CENTER
 62
1
 10
2.182010
 20
65.336700
 11
-2.817990
 21
65.336700
  0
LINE
  8
0
  6
CENTER
 62
1
 10
-0.317994
 20
62.836700
 11
-0.317994
 21
67.836700
  0
LINE
  8
0
  6
CONTINUOUS
 62
4
 10
-8.618000
 20
60.636700
 11
-8.618000
 21
63.636700
  0
LINE
  8
0
  6
CONTINUOUS
 62
4
 10
1.382000
 20
60.636700
 11
1.382000
 21
77.636703
  0
LINE
  8
0
  6
CONTINUOUS
 62
4
 10
-8.618000
 20
60.636700
 11
1.382000
 21
60.636700
  0
LINE
  8
0
  6
CONTINUOUS
 62
4
 10
1.382010
 20
60.636799
 11
1.194470
 21
58.493198
  0
LINE
  8
0
  6
CONTINUOUS
 62
4
 10
-8.617960
 20
60.636700
 11
-8.430420
 21
58.493198
  0
LINE
  8
0
  6
CONTINUOUS
 62
4
 10
-8.618000
 20
77.636703
 11
1.382000
 21
77.636703
  0
LINE
  8
0
  6
CONTINUOUS
 62
4
 10
-7.932360
 20
58.036701
 11
0.696380
 21
58.036701
  0
LINE
  8
0
  6
PHANTOM
 62
1
 10
-0.865337
 20
54.230301
 11
-6.404100
 21
51.647598
  0
LINE
  8
0
  6
CENTER
 62
1
 10
-2.368000
 20
44.265499
 11
-2.368000
 21
58.734100
  0
LINE
  8
0
  6
CENTER
 62
1
 10
-4.868000
 20
44.333302
 11
-4.868000
 21
58.734100
  0
LINE
  8
0
  6
CONTINUOUS
 62
4
 10
-3.018010
 20
49.036800
 11
-3.018010
 21
52.123100
  0
LINE
  8
0
  6
CONTINUOUS
 62
4
 10
-1.718000
 20
49.036800
 11
-1.718000
 21
52.729301
  0
LINE
  8
0
  6
CONTINUOUS
 62
4
 10
-4.218000
 20
49.036800
 11
-4.218000
 21
51.563599
  0
LINE
  8
0
  6
CONTINUOUS
 62
4
 10
-5.518010
 20
49.036800
 11
-5.518010
 21
50.957401
  0
LINE
  8
0
  6
CONTINUOUS
 62
4
 10
-4.618000
 20
45.536800
 11
-4.618000
 21
49.036800
  0
LINE
  8
0
  6
CONTINUOUS
 62
4
 10
-5.118000
 20
45.536800
 11
-5.118000
 21
49.036800
  0
LINE
  8
0
  6
CONTINUOUS
 62
4
 10
-2.118000
 20
45.536800
 11
-2.118000
 21
49.036800
  0
LINE
  8
0
  6
CONTINUOUS
 62
4
 10
-2.618000
 20
45.536800
 11
-2.618000
 21
49.036800
  0
LINE
  8
0
  6
CONTINUOUS
 62
4
 10
-5.517990
 20
49.036701
 11
-4.217990
 21
49.036701
  0
LINE
  8
0
  6
CONTINUOUS
 62
4
 10
-5.118000
 20
45.536701
 11
-4.618000
 21
45.536701
  0
LINE
  8
0
  6
CONTINUOUS
 62
4
 10
-2.618000
 20
45.536701
 11
-2.118000
 21
45.536701
  0
LINE
  8
0
  6
CONTINUOUS
 62
4
 10
-3.017990
 20
49.036701
 11
-1.717990
 21
49.036701
  0
LINE
  8
0
  6
CONTINUOUS
 62
4
 10
-1.718000
 20
53.832699
 11
-1.718000
 21
57.036701
  0
LINE
  8
0
  6
CONTINUOUS
 62
4
 10
-3.018010
 20
53.226501
 11
-3.018010
 21
57.036701
  0
LINE
  8
0
  6
CONTINUOUS
 62
4
 10
-4.218000
 20
52.666901
 11
-4.218000
 21
57.036701
  0
LINE
  8
0
  6
CONTINUOUS
 62
4
 10
-5.518010
 20
52.060699
 11
-5.518010
 21
57.036701
  0
LINE
  8
0
  6
PHANTOM
 62
1
 10
-0.871526
 20
53.124100
 11
-6.354930
 21
50.567101
  0
LINE
  8
0
  6
CONTINUOUS
 62
4
 10
-6.368010
 20
57.236698
 11
-6.368010
 21
58.036701
  0
LINE
  8
0
  6
CONTINUOUS
 62
4
 10
-0.868012
 20
57.236698
 11
-0.868012
 21
58.036701
  0
LINE
  8
0
  6
CONTINUOUS
 62
4
 10
-6.168020
 20
57.036701
 11
-1.068010
 21
57.036701
  0
LINE
  8
0
  6
CONTINUOUS
 62
4
 10
-11.618000
 20
78.436699
 11
-11.618000
 21
92.436699
  0
LINE
  8
0
  6
CONTINUOUS
 62
4
 10
8.382000
 20
78.436699
 11
8.382000
 21
92.436699
  0
LINE
  8
0
  6
CONTINUOUS
 62
4
 10
-11.618000
 20
78.436699
 11
8.382000
 21
78.436699
  0
LINE
  8
0
  6
CONTINUOUS
 62
4
 10
-11.618000
 20
92.436699
 11
8.382000
 21
92.436699
  0
LINE
  8
0
  6
CONTINUOUS
 62
7
 10
-8.618000
 20
78.436699
 11
-8.618000
 21
77.636703
  0
LINE
  8
0
  6
CONTINUOUS
 62
7
 10
1.382000
 20
78.436699
 11
1.382000
 21
77.636703
  0
LINE
  8
0
  6
CONTINUOUS
 62
4
 10
-6.918000
 20
74.136703
 11
-8.618000
 21
74.136703
  0
LINE
  8
0
  6
CENTER
 62
1
 10
-6.918000
 20
73.436798
 11
-6.918000
 21
78.436699
  0
LINE
  8
0
  6
CONTINUOUS
 62
4
 10
-5.118000
 20
75.936798
 11
-5.118000
 21
77.636703
  0
LINE
  8
0
  6
CENTER
 62
1
 10
-4.418000
 20
75.936798
 11
-9.418000
 21
75.936798
  0
LINE
  8
0
  6
CONTINUOUS
 62
4
 10
-6.210900
 20
75.229599
 11
-7.625110
 21
76.643898
  0
LINE
  8
0
  6
CONTINUOUS
 62
4
 10
-7.625110
 20
75.229599
 11
-6.210900
 21
76.643799
  0
LINE
  8
0
  6
CENTER
 62
1
 10
-7.333340
 20
94.936699
 11
-7.333340
 21
89.936699
  0
LINE
  8
0
  6
CONTINUOUS
 62
4
 10
-81.699997
 20
7.833310
 11
-81.699997
 21
4.833310
  0
LINE
  8
0
  6
CONTINUOUS
 62
4
 10
-81.699997
 20
7.833310
 11
-82.699997
 21
7.833310
  0
LINE
  8
0
  6
CONTINUOUS
 62
4
 10
-81.699997
 20
4.833310
 11
-82.699997
 21
4.833310
  0
LINE
  8
0
  6
CONTINUOUS
 62
7
 10
-103.099998
 20
-28.666700
 11
-102.300003
 21
-28.666700
  0
LINE
  8
0
  6
CONTINUOUS
 62
7
 10
-103.099998
 20
-3.666680
 11
-102.300003
 21
-3.666680
  0
LINE
  8
0
  6
CONTINUOUS
 62
4
 10
-103.099998
 20
-2.666680
 11
-103.099998
 21
-31.666700
  0
LINE
  8
0
  6
CONTINUOUS
 62
7
 10
-102.300003
 20
-8.666680
 11
-102.300003
 21
-28.666700
  0
LINE
  8
0
  6
CENTER
 62
1
 10
-107.099998
 20
-22.166700
 11
-107.099998
 21
-27.166700
  0
LINE
  8
0
  6
CENTER
 62
1
 10
-112.099998
 20
-11.666700
 11
-112.099998
 21
-16.666700
  0
LINE
  8
0
  6
CENTER
 62
1
 10
-114.599998
 20
-14.166700
 11
-109.599998
 21
-14.166700
  0
LINE
  8
0
  6
CENTER
 62
1
 10
-109.599998
 20
-24.666700
 11
-104.599998
 21
-24.666700
  0
LINE
  8
0
  6
CONTINUOUS
 62
7
 10
-102.300003
 20
-28.666700
 11
-102.300003
 21
-31.666700
  0
LINE
  8
0
  6
CONTINUOUS
 62
4
 10
-117.099998
 20
-31.666700
 11
-103.099998
 21
-31.666700
  0
LINE
  8
0
  6
CONTINUOUS
 62
4
 10
-117.099998
 20
-2.666680
 11
-103.099998
 21
-2.666680
  0
LINE
  8
0
  6
CONTINUOUS
 62
4
 10
-117.099998
 20
-2.666680
 11
-117.099998
 21
-31.666700
  0
LINE
  8
0
  6
CENTER
 62
1
 10
-100.599998
 20
12.897000
 11
-100.599998
 21
10.485900
  0
LINE
  8
0
  6
CENTER
 62
1
 10
-90.000000
 20
12.926400
 11
-90.000000
 21
10.485900
  0
LINE
  8
0
  6
PHANTOM
 62
1
 10
-77.763298
 20
4.183320
 11
-76.611099
 21
8.483300
  0
LINE
  8
0
  6
PHANTOM
 62
1
 10
-78.798500
 20
4.183330
 11
-77.646400
 21
8.483320
  0
LINE
  8
0
  6
CONTINUOUS
 62
4
 10
-85.300003
 20
-8.654240
 11
-85.300003
 21
9.833310
  0
LINE
  8
0
  6
CONTINUOUS
 62
4
 10
-83.199997
 20
9.833310
 11
-88.300003
 21
9.833310
  0
LINE
  8
0
  6
CONTINUOUS
 62
4
 10
-70.622299
 20
6.583310
 11
-70.622299
 21
6.083310
  0
LINE
  8
0
  6
CONTINUOUS
 62
4
 10
-74.032799
 20
6.583310
 11
-70.622299
 21
6.583310
  0
LINE
  8
0
  6
CONTINUOUS
 62
4
 10
-74.032799
 20
6.083310
 11
-70.622299
 21
6.083310
  0
LINE
  8
0
  6
CONTINUOUS
 62
4
 10
-77.013000
 20
6.983320
 11
-74.032799
 21
6.983320
  0
LINE
  8
0
  6
CONTINUOUS
 62
4
 10
-77.361298
 20
5.683320
 11
-74.032799
 21
5.683320
  0
LINE
  8
0
  6
CONTINUOUS
 62
4
 10
-74.032799
 20
6.983320
 11
-74.032799
 21
5.683320
  0
LINE
  8
0
  6
CONTINUOUS
 62
4
 10
-90.900002
 20
12.233300
 11
-89.099998
 21
12.233300
  0
LINE
  8
0
  6
CONTINUOUS
 62
4
 10
-99.699997
 20
12.233300
 11
-101.500000
 21
12.233300
  0
LINE
  8
0
  6
CONTINUOUS
 62
4
 10
-98.599998
 20
11.833300
 11
-98.599998
 21
11.633300
  0
LINE
  8
0
  6
CONTINUOUS
 62
4
 10
-98.599998
 20
11.633300
 11
-102.199997
 21
11.633300
  0
LINE
  8
0
  6
CONTINUOUS
 62
4
 10
-82.699997
 20
9.333310
 11
-82.699997
 21
-7.135750
  0
LINE
  8
0
  6
CONTINUOUS
 62
4
 10
-81.699997
 20
5.683320
 11
-78.396599
 21
5.683320
  0
LINE
  8
0
  6
CONTINUOUS
 62
4
 10
-81.699997
 20
6.983320
 11
-78.048302
 21
6.983320
  0
LINE
  8
0
  6
CENTER
 62
1
 10
-83.374603
 20
6.333310
 11
-68.944801
 21
6.333310
  0
LINE
  8
0
  6
CONTINUOUS
 62
4
 10
-85.199501
 20
-8.619800
 11
-82.988701
 21
-7.588860
  0
LINE
  8
0
  6
CONTINUOUS
 62
4
 10
-102.300003
 20
10.833300
 11
-88.300003
 21
10.833300
  0
LINE
  8
0
  6
CONTINUOUS
 62
4
 10
-88.800003
 20
11.833300
 11
-99.134300
 21
11.833300
  0
LINE
  8
0
  6
CONTINUOUS
 62
4
 10
-102.300003
 20
11.333300
 11
-102.300003
 21
-8.666680
  0
LINE
  8
0
  6
CONTINUOUS
 62
4
 10
-88.300003
 20
-5.666680
 11
-88.300003
 21
-6.666680
  0
LINE
  8
0
  6
CONTINUOUS
 62
4
 10
-88.300003
 20
11.333300
 11
-88.300003
 21
-8.666680
  0
LINE
  8
0
  6
CONTINUOUS
 62
7
 10
-102.300003
 20
-8.666680
 11
-88.300003
 21
-8.666680
  0
LINE
  8
0
  6
CONTINUOUS
 62
7
 10
-89.300003
 20
-13.109900
 11
-89.300003
 21
-14.223500
  0
LINE
  8
0
  6
CONTINUOUS
 62
7
 10
-89.300003
 20
-14.223500
 11
-88.300003
 21
-14.223500
  0
LINE
  8
0
  6
CONTINUOUS
 62
7
 10
-89.300003
 20
-13.109900
 11
-88.300003
 21
-13.109900
  0
LINE
  8
0
  6
CONTINUOUS
 62
7
 10
-87.199997
 20
-11.866700
 11
-86.800003
 21
-11.866700
  0
LINE
  8
0
  6
CONTINUOUS
 62
7
 10
-86.800003
 20
-11.866700
 11
-86.800003
 21
-10.066700
  0
LINE
  8
0
  6
CONTINUOUS
 62
7
 10
-87.199997
 20
-10.066700
 11
-86.800003
 21
-10.066700
  0
LINE
  8
0
  6
CENTER
 62
1
 10
-88.699997
 20
-10.966700
 11
-85.699997
 21
-10.966700
  0
LINE
  8
0
  6
CONTINUOUS
 62
7
 10
-87.200104
 20
-8.966710
 11
-87.373299
 21
-8.666710
  0
LINE
  8
0
  6
CONTINUOUS
 62
7
 10
-87.378601
 20
-9.811970
 11
-88.300003
 21
-9.811970
  0
LINE
  8
0
  6
CONTINUOUS
 62
7
 10
-87.378601
 20
-12.121400
 11
-88.300003
 21
-12.121400
  0
LINE
  8
0
  6
CONTINUOUS
 62
7
 10
-87.199997
 20
-12.966700
 11
-87.199997
 21
-8.966680
  0
LINE
  8
0
  6
CONTINUOUS
 62
7
 10
-87.199997
 20
-12.966700
 11
-87.378601
 21
-13.276100
  0
LINE
  8
0
  6
CONTINUOUS
 62
7
 10
-87.378601
 20
-13.276100
 11
-88.300003
 21
-13.276100
  0
LINE
  8
0
  6
CONTINUOUS
 62
7
 10
-92.500000
 20
-30.666700
 11
-92.500000
 21
-31.666700
  0
LINE
  8
0
  6
CENTER
 62
1
 10
-90.000000
 20
-29.205999
 11
-90.000000
 21
-32.269901
  0
LINE
  8
0
  6
CONTINUOUS
 62
7
 10
-92.500000
 20
-30.666700
 11
-88.300003
 21
-30.666700
  0
LINE
  8
0
  6
CENTER
 62
2
 10
-95.300003
 20
14.799200
 11
-95.300003
 21
-33.977100
  0
LINE
  8
0
  6
CONTINUOUS
 62
7
 10
-102.300003
 20
-31.666700
 11
-88.300003
 21
-31.666700
  0
LINE
  8
0
  6
CONTINUOUS
 62
7
 10
-102.300003
 20
-28.666700
 11
-88.300003
 21
-28.666700
  0
LINE
  8
0
  6
CONTINUOUS
 62
7
 10
-88.300003
 20
-8.666680
 11
-88.300003
 21
-31.666700
  0
LINE
  8
0
  6
CONTINUOUS
 62
4
 10
-85.410797
 20
-8.666680
 11
-88.300003
 21
-8.666680
  0
LINE
  8
0
  6
CENTER
 62
1
 10
-114.599998
 20
-13.666700
 11
-119.599998
 21
-13.666700
  0
CIRCLE
  8
0
  6
CONTINUOUS
 62
4
 10
100.932999
 20
-21.666700
 40
1.229500
  0
ARC
  8
0
  6
CONTINUOUS
 62
1
 10
100.932999
 20
-21.666700
 40
1.500000
 50
180.000000
 51
178.770004
  0
CIRCLE
  8
0
  6
CONTINUOUS
 62
4
 10
100.932999
 20
-11.166700
 40
1.229500
  0
ARC
  8
0
  6
CONTINUOUS
 62
1
 10
100.932999
 20
-11.166700
 40
1.500000
 50
180.000000
 51
538.770020
  0
ARC
  8
0
  6
CONTINUOUS
 62
4
 10
92.833298
 20
11.633300
 40
0.600003
 50
10.276600
 51
90.000000
  0
ARC
  8
0
  6
CONTINUOUS
 62
4
 10
82.233299
 20
11.633300
 40
0.599998
 50
0.000000
 51
90.000000
  0
ARC
  8
0
  6
CONTINUOUS
 62
4
 10
80.433296
 20
11.633300
 40
0.600000
 50
90.000000
 51
180.000000
  0
ARC
  8
0
  6
CONTINUOUS
 62
4
 10
74.533302
 20
9.333330
 40
0.500000
 50
90.000000
 51
180.000000
  0
ARC
  8
0
  6
CONTINUOUS
 62
4
 10
74.533302
 20
-7.135740
 40
0.500000
 50
180.000000
 51
245.000000
  0
ARC
  8
0
  6
CONTINUOUS
 62
4
 10
80.133301
 20
11.333300
 40
0.500000
 50
125.502998
 51
180.000000
  0
ARC
  8
0
  6
CONTINUOUS
 62
4
 10
93.133301
 20
11.333300
 40
0.500000
 50
0.000000
 51
90.000000
  0
ARC
  8
0
  6
CONTINUOUS
 62
4
 10
76.744202
 20
-8.166670
 40
0.500001
 50
245.000000
 51
270.000000
  0
ARC
  8
0
  6
CONTINUOUS
 62
4
 10
91.033302
 20
11.633300
 40
0.600000
 50
90.000000
 51
160.529007
  0
ARC
  8
0
  6
CONTINUOUS
 62
7
 10
92.900002
 20
-30.595800
 40
0.533333
 50
286.191986
 51
352.367004
  0
ARC
  8
0
  6
CONTINUOUS
 62
7
 10
90.966698
 20
-30.595800
 40
0.533335
 50
187.632004
 51
253.807999
  0
ARC
  8
0
  6
CONTINUOUS
 62
7
 10
91.933296
 20
-27.266701
 40
4.000000
 50
253.809006
 51
286.191010
  0
ARC
  8
0
  6
CONTINUOUS
 62
7
 10
79.555702
 20
-9.234620
 40
1.022330
 50
154.384003
 51
214.384003
  0
ARC
  8
0
  6
CONTINUOUS
 62
7
 10
82.354698
 20
-10.966700
 40
3.821370
 50
162.412003
 51
197.587997
  0
ARC
  8
0
  6
CONTINUOUS
 62
7
 10
79.555702
 20
-12.698700
 40
1.022330
 50
145.615997
 51
205.615997
  0
CIRCLE
  8
0
  6
CONTINUOUS
 62
4
 10
-5.083340
 20
6.333330
 40
0.650000
  0
CIRCLE
  8
0
  6
CONTINUOUS
 62
4
 10
-2.583340
 20
6.333330
 40
0.650000
  0
ARC
  8
0
  6
CONTINUOUS
 62
4
 10
-2.583340
 20
6.333330
 40
1.500000
 50
270.000000
 51
90.000000
  0
ARC
  8
0
  6
CONTINUOUS
 62
4
 10
-5.083340
 20
6.333330
 40
1.500000
 50
90.000000
 51
270.000000
  0
ARC
  8
0
  6
CONTINUOUS
 62
4
 10
0.666656
 20
9.333330
 40
0.500000
 50
0.000000
 51
90.000000
  0
ARC
  8
0
  6
CONTINUOUS
 62
4
 10
-8.333340
 20
9.333330
 40
0.500000
 50
90.000000
 51
180.000000
  0
ARC
  8
0
  6
CONTINUOUS
 62
4
 10
-8.103350
 20
9.333330
 40
0.500000
 50
90.000000
 51
180.000000
  0
ARC
  8
0
  6
CONTINUOUS
 62
4
 10
0.436661
 20
9.333330
 40
0.500000
 50
0.000000
 51
90.000000
  0
ARC
  8
0
  6
CONTINUOUS
 62
4
 10
0.436661
 20
-6.954270
 40
0.500000
 50
270.000000
 51
0.000000
  0
ARC
  8
0
  6
CONTINUOUS
 62
4
 10
-8.103350
 20
-6.954270
 40
0.500000
 50
180.000000
 51
270.000000
  0
CIRCLE
  8
0
  6
CONTINUOUS
 62
4
 10
5.466660
 20
-28.966700
 40
1.550000
  0
CIRCLE
  8
0
  6
CONTINUOUS
 62
4
 10
5.466660
 20
-5.366670
 40
1.550000
  0
ARC
  8
0
  6
CONTINUOUS
 62
4
 10
-8.037310
 20
11.633300
 40
0.600000
 50
90.000000
 51
170.042007
  0
ARC
  8
0
  6
CONTINUOUS
 62
4
 10
-6.237300
 20
11.633300
 40
0.600000
 50
19.471201
 51
90.000000
  0
ARC
  8
0
  6
CONTINUOUS
 62
4
 10
-1.429380
 20
11.633300
 40
0.600000
 50
90.000000
 51
180.000000
  0
ARC
  8
0
  6
CONTINUOUS
 62
4
 10
0.370636
 20
11.633300
 40
0.600000
 50
0.000000
 51
90.000000
  0
ARC
  8
0
  6
CONTINUOUS
 62
4
 10
0.666656
 20
11.333300
 40
0.500000
 50
0.000000
 51
53.853600
  0
ARC
  8
0
  6
CONTINUOUS
 62
4
 10
-8.333340
 20
11.333300
 40
0.500000
 50
90.000000
 51
180.000000
  0
ARC
  8
0
  6
CONTINUOUS
 62
7
 10
-8.100010
 20
-30.595800
 40
0.533333
 50
187.632996
 51
253.809006
  0
ARC
  8
0
  6
CONTINUOUS
 62
7
 10
-7.133350
 20
-27.266701
 40
4.000000
 50
253.809006
 51
286.191010
  0
ARC
  8
0
  6
CONTINUOUS
 62
7
 10
-6.166670
 20
-30.595800
 40
0.533333
 50
286.191010
 51
352.367004
  0
CIRCLE
  8
0
  6
CONTINUOUS
 62
7
 10
-3.833340
 20
-10.966700
 40
0.900000
  0
CIRCLE
  8
0
  6
CONTINUOUS
 62
7
 10
-3.833340
 20
-10.966700
 40
2.000000
  0
ARC
  8
0
  6
CONTINUOUS
 62
7
 10
-7.333340
 20
-13.666700
 40
1.600000
 50
200.363998
 51
159.636002
  0
ARC
  8
0
  6
CONTINUOUS
 62
7
 10
-0.333344
 20
-13.666700
 40
1.600000
 50
20.364100
 51
339.635986
  0
CIRCLE
  8
0
  6
CONTINUOUS
 62
7
 10
-0.333344
 20
-13.666700
 40
1.500000
  0
CIRCLE
  8
0
  6
CONTINUOUS
 62
7
 10
-7.333340
 20
-13.666700
 40
1.500000
  0
CIRCLE
  8
0
  6
CONTINUOUS
 62
7
 10
-0.533340
 20
-83.270103
 40
1.750000
  0
ARC
  8
0
  6
CONTINUOUS
 62
7
 10
-7.133350
 20
-72.670097
 40
1.750000
 50
103.730003
 51
462.756989
  0
ARC
  8
0
  6
CONTINUOUS
 62
4
 10
0.481018
 20
-65.870102
 40
0.500000
 50
5.000140
 51
89.999901
  0
ARC
  8
0
  6
CONTINUOUS
 62
4
 10
-8.147710
 20
-65.870102
 40
0.500000
 50
89.999901
 51
175.000000
  0
ARC
  8
0
  6
CONTINUOUS
 62
4
 10
-4.833340
 20
-72.758499
 40
2.888350
 50
69.743698
 51
110.255997
  0
ARC
  8
0
  6
CONTINUOUS
 62
4
 10
-2.833340
 20
-72.758499
 40
2.888360
 50
69.743896
 51
110.255997
  0
ARC
  8
0
  6
CONTINUOUS
 62
4
 10
-0.533344
 20
-83.270103
 40
1.800000
 50
90.000000
 51
180.000000
  0
ARC
  8
0
  6
CONTINUOUS
 62
7
 10
-7.133340
 20
-72.670097
 40
1.800000
 50
270.000000
 51
0.000000
  0
ARC
  8
0
  6
CONTINUOUS
 62
4
 10
-0.317997
 20
65.336700
 40
1.800000
 50
90.000000
 51
180.000000
  0
ARC
  8
0
  6
CONTINUOUS
 62
4
 10
-7.932360
 20
58.536800
 40
0.500000
 50
185.000000
 51
270.000000
  0
ARC
  8
0
  6
CONTINUOUS
 62
4
 10
0.696364
 20
58.536800
 40
0.500000
 50
270.000000
 51
355.000000
  0
CIRCLE
  8
0
  6
CONTINUOUS
 62
4
 10
-0.317994
 20
65.336700
 40
1.750000
  0
ARC
  8
0
  6
CONTINUOUS
 62
4
 10
-6.168020
 20
57.236698
 40
0.200000
 50
180.000000
 51
270.000000
  0
ARC
  8
0
  6
CONTINUOUS
 62
4
 10
-1.068010
 20
57.236698
 40
0.200001
 50
270.000000
 51
0.000000
  0
CIRCLE
  8
0
  6
CONTINUOUS
 62
4
 10
-6.918000
 20
75.936798
 40
1.750000
  0
ARC
  8
0
  6
CONTINUOUS
 62
4
 10
-6.918000
 20
75.936699
 40
1.800000
 50
270.000000
 51
0.000000
  0
CIRCLE
  8
0
  6
CONTINUOUS
 62
4
 10
-112.099998
 20
-14.166700
 40
1.229500
  0
CIRCLE
  8
0
  6
CONTINUOUS
 62
4
 10
-107.099998
 20
-24.666700
 40
1.229500
  0
ARC
  8
0
  6
CONTINUOUS
 62
1
 10
-107.099998
 20
-24.666700
 40
1.500000
 50
1.229530
 51
360.000000
  0
CIRCLE
  8
0
  6
CONTINUOUS
 62
1
 10
-112.099998
 20
-14.166700
 40
1.500000
  0
ARC
  8
0
  6
CONTINUOUS
 62
4
 10
-89.099998
 20
11.633300
 40
0.600003
 50
10.276600
 51
90.000000
  0
ARC
  8
0
  6
CONTINUOUS
 62
4
 10
-99.699997
 20
11.633300
 40
0.599998
 50
0.000000
 51
90.000000
  0
ARC
  8
0
  6
CONTINUOUS
 62
4
 10
-101.500000
 20
11.633300
 40
0.600000
 50
90.000000
 51
180.000000
  0
ARC
  8
0
  6
CONTINUOUS
 62
4
 10
-83.199997
 20
9.333310
 40
0.500000
 50
0.000000
 51
90.000000
  0
ARC
  8
0
  6
CONTINUOUS
 62
4
 10
-83.199997
 20
-7.135750
 40
0.500001
 50
295.000000
 51
0.000000
  0
ARC
  8
0
  6
CONTINUOUS
 62
4
 10
-101.800003
 20
11.333300
 40
0.500000
 50
125.502998
 51
180.000000
  0
ARC
  8
0
  6
CONTINUOUS
 62
4
 10
-88.800003
 20
11.333300
 40
0.500000
 50
0.000000
 51
90.000000
  0
ARC
  8
0
  6
CONTINUOUS
 62
4
 10
-85.410797
 20
-8.166680
 40
0.500000
 50
270.000000
 51
295.000000
  0
ARC
  8
0
  6
CONTINUOUS
 62
4
 10
-90.900002
 20
11.633300
 40
0.600000
 50
90.000000
 51
160.529007
  0
ARC
  8
0
  6
CONTINUOUS
 62
7
 10
-89.033302
 20
-30.595800
 40
0.533333
 50
286.191986
 51
352.367004
  0
ARC
  8
0
  6
CONTINUOUS
 62
7
 10
-90.966599
 20
-30.595800
 40
0.533335
 50
187.632004
 51
253.807999
  0
ARC
  8
0
  6
CONTINUOUS
 62
7
 10
-90.000000
 20
-27.266701
 40
4.000000
 50
253.809006
 51
286.191010
  0
ARC
  8
0
  6
CONTINUOUS
 62
7
 10
-88.222298
 20
-9.234620
 40
1.022330
 50
325.615997
 51
25.615801
  0
ARC
  8
0
  6
CONTINUOUS
 62
7
 10
-91.021301
 20
-10.966700
 40
3.821370
 50
342.411987
 51
17.587900
  0
ARC
  8
0
  6
CONTINUOUS
 62
7
 10
-88.222298
 20
-12.698700
 40
1.022330
 50
334.384003
 51
34.384201
  0
TEXT
  8
0
 62
7
 10
-186.500290
 20
106.474998
 40
4.500000
  1
MODEL:A010-4E1-25
 50
0.000000
 41
0.827347
 51
0.000000
  7
STANDARD
  0
TEXT
  8
0
 62
7
 10
-172.192657
 20
123.974998
 40
4.500000
  1
010 SERIES
 50
0.000000
 41
0.857251
 51
0.000000
  7
STANDARD
  0
TEXT
  8
0
 62
7
 10
117.230286
 20
-127.574997
 40
6.300000
  1
KOGANEI CORP.
 50
0.000000
 41
0.771526
 51
0.000000
  7
STANDARD
  0
TEXT
  8
0
 62
7
 10
136.357346
 20
123.974998
 40
4.500000
  1
Ver. 2.0
 50
0.000000
 41
0.904876
 51
0.000000
  7
STANDARD
  0
ENDSEC
  0
EOF
