  0
SECTION
  2
HEADER
  9
$ACADVER
  1
AC1002
  9
$INSBASE
 10
0.0
 20
0.0
  9
$EXTMIN
 10
-185.4368
 20
-127.2792
  9
$EXTMAX
 10
185.4368
 20
127.2792
  9
$LIMMIN
 10
0.0
 20
0.0
  9
$LIMMAX
 10
12.0
 20
9.0
  9
$VIEWCTR
 10
14.30458208
 20
0.0
  9
$VIEWSIZE
 40
254.5584
  9
$SNAPMODE
 70
     0
  9
$SNAPUNIT
 10
1.0
 20
1.0
  9
$SNAPBASE
 10
0.0
 20
0.0
  9
$SNAPANG
 50
0.0
  9
$SNAPSTYLE
 70
     0
  9
$SNAPISOPAIR
 70
     0
  9
$GRIDMODE
 70
     0
  9
$GRIDUNIT
 10
0.0
 20
0.0
  9
$ORTHOMODE
 70
     0
  9
$REGENMODE
 70
     1
  9
$FILLMODE
 70
     1
  9
$QTEXTMODE
 70
     0
  9
$DRAGMODE
 70
     2
  9
$LTSCALE
 40
1.0
  9
$OSMODE
 70
     0
  9
$ATTMODE
 70
     1
  9
$TEXTSIZE
 40
0.2
  9
$TRACEWID
 40
0.05
  9
$TEXTSTYLE
  7
AAA
  9
$CLAYER
  8
0
  9
$CELTYPE
  6
BYLAYER
  9
$CECOLOR
 62
   256
  9
$DIMSCALE
 40
1.0
  9
$DIMASZ
 40
0.18
  9
$DIMEXO
 40
0.0625
  9
$DIMDLI
 40
0.38
  9
$DIMRND
 40
0.0
  9
$DIMDLE
 40
0.0
  9
$DIMEXE
 40
0.18
  9
$DIMTP
 40
0.0
  9
$DIMTM
 40
0.0
  9
$DIMTXT
 40
0.18
  9
$DIMCEN
 40
0.09
  9
$DIMTSZ
 40
0.0
  9
$DIMTOL
 70
     0
  9
$DIMLIM
 70
     0
  9
$DIMTIH
 70
     1
  9
$DIMTOH
 70
     1
  9
$DIMSE1
 70
     0
  9
$DIMSE2
 70
     0
  9
$DIMTAD
 70
     0
  9
$DIMZIN
 70
     0
  9
$DIMBLK
  1

  9
$LUNITS
 70
     2
  9
$LUPREC
 70
     4
  9
$AXISMODE
 70
     0
  9
$AXISUNIT
 10
0.0
 20
0.0
  9
$SKETCHINC
 40
0.1
  9
$FILLETRAD
 40
0.0
  9
$AUNITS
 70
     0
  9
$AUPREC
 70
     0
  9
$MENU
  1
ACAD
  9
$ELEVATION
 40
0.0
  9
$THICKNESS
 40
0.0
  9
$VIEWDIR
 10
0.0
 20
0.0
 30
1.0
  9
$LIMCHECK
 70
     0
  9
$BLIPMODE
 70
     1
  9
$CHAMFERA
 40
0.0
  9
$CHAMFERB
 40
0.0
  9
$FASTZOOM
 70
     1
  9
$SKPOLY
 70
     0
  9
$TDCREATE
 40
2447863.6990162532
  9
$TDUPDATE
 40
2447863.6990162532
  9
$TDINDWG
 40
0.0010995370
  9
$TDUSRTIMER
 40
0.0010995370
  9
$USRTIMER
 70
     1
  9
$ANGBASE
 50
0.0
  9
$ANGDIR
 70
     0
  9
$PDMODE
 70
     0
  9
$PDSIZE
 40
0.0
  9
$PLINEWID
 40
0.0
  9
$COORDS
 70
     0
  9
$USERI1
 70
     0
  9
$USERI2
 70
     0
  9
$USERI3
 70
     0
  9
$USERI4
 70
     0
  9
$USERI5
 70
     0
  9
$USERR1
 40
0.0
  9
$USERR2
 40
0.0
  9
$USERR3
 40
0.0
  9
$USERR4
 40
0.0
  9
$USERR5
 40
0.0
  0
ENDSEC
  0
SECTION
  2
TABLES
  0
TABLE
  2
LTYPE
 70
     3
  0
LTYPE
  2
CONTINUOUS
 70
    64
  3
SOLID
 72
    65
 73
     0
 40
0.0
  0
LTYPE
  2
CENTER
 70
    64
  3
CENTER
 72
    65
 73
     4
 40
2.0
 49
1.25
 49
-0.25
 49
0.25
 49
-0.25
  0
LTYPE
  2
PHANTOM
 70
    64
  3
PHANTOM
 72
    65
 73
     6
 40
2.5
 49
1.25
 49
-0.25
 49
0.25
 49
-0.25
 49
0.25
 49
-0.25
  0
ENDTAB
  0
TABLE
  2
LAYER
 70
     1
  0
LAYER
  2
0
 70
    64
 62
     7
  6
CONTINUOUS
  0
ENDTAB
  0
TABLE
  2
STYLE
 70
     2
  0
STYLE
  2
AAA
 70
     0
 40
0.0
 41
1.0
 50
0.0
 71
     0
 42
0.2
  3
TXT
  4

  0
STYLE
  2
STANDARD
 70
    64
 40
0.0
 41
1.0
 50
0.0
 71
     0
 42
0.2
  3
TXT
  4
BIGFONT
  0
ENDTAB
  0
TABLE
  2
VIEW
 70
     0
  0
ENDTAB
  0
ENDSEC
  0
SECTION
  2
BLOCKS
  0
ENDSEC
  0
SECTION
  2
ENTITIES
  0
POINT
  8
0
  6
CONTINUOUS
 62
     7
 10
0.0
 20
100.0
  0
POINT
  8
0
  6
CONTINUOUS
 62
     7
 10
12.99999
 20
100.0
  0
POINT
  8
0
  6
CONTINUOUS
 62
     7
 10
-86.0
 20
-11.0
  0
POINT
  8
0
  6
CONTINUOUS
 62
     7
 10
-110.0
 20
-11.0
  0
POINT
  8
0
  6
CONTINUOUS
 62
     7
 10
-86.0
 20
7.5
  0
POINT
  8
0
  6
CONTINUOUS
 62
     7
 10
0.0
 20
-11.0
  0
POINT
  8
0
  6
CONTINUOUS
 62
     7
 10
13.0
 20
-11.0
  0
POINT
  8
0
  6
CONTINUOUS
 62
     7
 10
5.50001
 20
7.50001
  0
POINT
  8
0
  6
CONTINUOUS
 62
     7
 10
110.0
 20
-11.0
  0
POINT
  8
0
  6
CONTINUOUS
 62
     7
 10
86.0
 20
7.5
  0
POINT
  8
0
  6
CONTINUOUS
 62
     7
 10
0.0
 20
-107.0
  0
POINT
  8
0
  6
CONTINUOUS
 62
     7
 10
12.99998
 20
-107.0
  0
POINT
  8
0
  6
CONTINUOUS
 62
     7
 10
5.5
 20
-82.99999
  0
LINE
  8
0
  6
CONTINUOUS
 62
     7
 10
-185.4368
 20
-127.2792
 11
-185.4368
 21
127.2792
  0
LINE
  8
0
  6
CONTINUOUS
 62
     7
 10
185.4368
 20
127.2792
 11
185.4368
 21
-127.2792
  0
LINE
  8
0
  6
CONTINUOUS
 62
     7
 10
-185.4368
 20
-127.2792
 11
185.4368
 21
-127.2792
  0
LINE
  8
0
  6
CONTINUOUS
 62
     7
 10
-185.4368
 20
127.2792
 11
185.4368
 21
127.2792
  0
LINE
  8
0
  6
CONTINUOUS
 62
     7
 10
-185.4368
 20
112.9782
 11
-109.1646
 21
112.9782
  0
LINE
  8
0
  6
CONTINUOUS
 62
     7
 10
-109.1646
 20
112.9782
 11
-109.1646
 21
127.2792
  0
LINE
  8
0
  6
CONTINUOUS
 62
     7
 10
109.1646
 20
-112.9782
 11
185.4368
 21
-112.9782
  0
LINE
  8
0
  6
CONTINUOUS
 62
     7
 10
129.1908
 20
-116.4169
 11
136.5177
 21
-116.4169
  0
LINE
  8
0
  6
CONTINUOUS
 62
     7
 10
129.1908
 20
-122.9143
 11
135.4118
 21
-122.9143
  0
LINE
  8
0
  6
CONTINUOUS
 62
     7
 10
129.1908
 20
-124.5732
 11
137.6237
 21
-124.5732
  0
LINE
  8
0
  6
CONTINUOUS
 62
     7
 10
129.1908
 20
-118.0758
 11
135.4118
 21
-118.0758
  0
LINE
  8
0
  6
CONTINUOUS
 62
     7
 10
129.1908
 20
-116.4169
 11
129.1908
 21
-118.0758
  0
LINE
  8
0
  6
CONTINUOUS
 62
     7
 10
137.6237
 20
-117.5228
 11
137.6237
 21
-124.5732
  0
LINE
  8
0
  6
CONTINUOUS
 62
     7
 10
135.4118
 20
-118.0758
 11
135.4118
 21
-122.9143
  0
LINE
  8
0
  6
CONTINUOUS
 62
     7
 10
138.8678
 20
-116.4169
 11
138.8678
 21
-118.0758
  0
LINE
  8
0
  6
CONTINUOUS
 62
     7
 10
146.7477
 20
-118.0758
 11
146.7477
 21
-123.4673
  0
LINE
  8
0
  6
CONTINUOUS
 62
     7
 10
144.5358
 20
-118.0758
 11
144.5358
 21
-122.9143
  0
LINE
  8
0
  6
CONTINUOUS
 62
     7
 10
129.1908
 20
-122.9143
 11
129.1908
 21
-124.5732
  0
LINE
  8
0
  6
CONTINUOUS
 62
     7
 10
138.8678
 20
-116.4169
 11
141.0533
 21
-116.4169
  0
LINE
  8
0
  6
CONTINUOUS
 62
     7
 10
138.8678
 20
-124.5732
 11
140.5853
 21
-124.5732
  0
LINE
  8
0
  6
CONTINUOUS
 62
     7
 10
138.8677
 20
-124.5732
 11
140.6088
 21
-118.0757
  0
LINE
  8
0
  6
CONTINUOUS
 62
     7
 10
138.8678
 20
-118.0758
 11
140.6088
 21
-118.0758
  0
LINE
  8
0
  6
CONTINUOUS
 62
     7
 10
140.5854
 20
-124.5734
 11
142.3264
 21
-118.0759
  0
LINE
  8
0
  6
CONTINUOUS
 62
     7
 10
142.8769
 20
-122.9143
 11
144.5358
 21
-122.9143
  0
LINE
  8
0
  6
CONTINUOUS
 62
     7
 10
142.8769
 20
-122.9143
 11
143.3214
 21
-124.5732
  0
LINE
  8
0
  6
CONTINUOUS
 62
     7
 10
143.3214
 20
-124.5732
 11
145.6418
 21
-124.5732
  0
LINE
  8
0
  6
CONTINUOUS
 62
     7
 10
142.3263
 20
-118.0758
 11
144.5358
 21
-118.0758
  0
LINE
  8
0
  6
CONTINUOUS
 62
     7
 10
142.7708
 20
-116.4169
 11
145.0888
 21
-116.4169
  0
LINE
  8
0
  6
CONTINUOUS
 62
     7
 10
141.0534
 20
-116.4169
 11
141.3831
 21
-115.1866
  0
LINE
  8
0
  6
CONTINUOUS
 62
     7
 10
142.7707
 20
-116.4168
 11
143.1003
 21
-115.1864
  0
LINE
  8
0
  6
CONTINUOUS
 62
     7
 10
148.1301
 20
-116.4169
 11
150.7568
 21
-116.4169
  0
LINE
  8
0
  6
CONTINUOUS
 62
     7
 10
148.1301
 20
-118.0758
 11
154.581
 21
-118.0758
  0
LINE
  8
0
  6
CONTINUOUS
 62
     7
 10
150.7568
 20
-124.5732
 11
152.9686
 21
-124.5732
  0
LINE
  8
0
  6
CONTINUOUS
 62
     7
 10
148.1301
 20
-116.4169
 11
148.1301
 21
-118.0758
  0
LINE
  8
0
  6
CONTINUOUS
 62
     7
 10
156.2865
 20
-121.0839
 11
156.2865
 21
-122.9143
  0
LINE
  8
0
  6
CONTINUOUS
 62
     7
 10
148.13
 20
-122.9142
 11
150.7567
 21
-121.6894
  0
LINE
  8
0
  6
CONTINUOUS
 62
     7
 10
148.1303
 20
-121.0841
 11
154.5812
 21
-118.0759
  0
LINE
  8
0
  6
CONTINUOUS
 62
     7
 10
148.1301
 20
-121.0839
 11
148.1301
 21
-122.9143
  0
LINE
  8
0
  6
CONTINUOUS
 62
     7
 10
152.9686
 20
-121.3672
 11
156.2865
 21
-122.9143
  0
LINE
  8
0
  6
CONTINUOUS
 62
     7
 10
154.1712
 20
-120.0975
 11
156.2867
 21
-121.084
  0
LINE
  8
0
  6
CONTINUOUS
 62
     7
 10
156.2865
 20
-117.5228
 11
156.2865
 21
-118.4064
  0
LINE
  8
0
  6
CONTINUOUS
 62
     7
 10
150.7568
 20
-115.1865
 11
150.7568
 21
-116.4169
  0
LINE
  8
0
  6
CONTINUOUS
 62
     7
 10
152.9686
 20
-115.1865
 11
152.9686
 21
-116.4169
  0
LINE
  8
0
  6
CONTINUOUS
 62
     7
 10
152.9686
 20
-116.4169
 11
155.1806
 21
-116.4169
  0
LINE
  8
0
  6
CONTINUOUS
 62
     7
 10
150.7568
 20
-121.6895
 11
150.7568
 21
-124.5732
  0
LINE
  8
0
  6
CONTINUOUS
 62
     7
 10
152.9686
 20
-121.3672
 11
152.9686
 21
-124.5732
  0
LINE
  8
0
  6
CONTINUOUS
 62
     7
 10
154.1712
 20
-120.0976
 11
155.6482
 21
-119.4089
  0
LINE
  8
0
  6
CONTINUOUS
 62
     7
 10
163.7517
 20
-115.6842
 11
165.4106
 21
-115.6842
  0
LINE
  8
0
  6
CONTINUOUS
 62
     7
 10
156.9777
 20
-119.1109
 11
156.9777
 21
-120.8962
  0
LINE
  8
0
  6
CONTINUOUS
 62
     7
 10
165.4106
 20
-115.6842
 11
165.4106
 21
-116.4169
  0
LINE
  8
0
  6
CONTINUOUS
 62
     7
 10
163.7517
 20
-115.6842
 11
163.7517
 21
-116.0417
  0
LINE
  8
0
  6
CONTINUOUS
 62
     7
 10
161.5397
 20
-119.0819
 11
161.5397
 21
-124.5732
  0
LINE
  8
0
  6
CONTINUOUS
 62
     7
 10
156.9778
 20
-119.111
 11
163.4031
 21
-116.5556
  0
LINE
  8
0
  6
CONTINUOUS
 62
     7
 10
156.9778
 20
-120.8963
 11
161.5398
 21
-119.0819
  0
LINE
  8
0
  6
CONTINUOUS
 62
     7
 10
161.5397
 20
-124.5732
 11
163.7517
 21
-124.5732
  0
LINE
  8
0
  6
CONTINUOUS
 62
     7
 10
163.7517
 20
-118.2022
 11
163.7517
 21
-124.5732
  0
LINE
  8
0
  6
CONTINUOUS
 62
     7
 10
163.7518
 20
-118.2023
 11
164.3649
 21
-117.9584
  0
LINE
  8
0
  6
CONTINUOUS
 62
     7
 10
141.2497
 20
-115.1865
 11
143.1004
 21
-115.1865
  0
LINE
  8
0
  6
CONTINUOUS
 62
     7
 10
145.8491
 20
-115.1865
 11
146.5541
 21
-115.1865
  0
LINE
  8
0
  6
CONTINUOUS
 62
     7
 10
150.7568
 20
-115.1865
 11
152.9686
 21
-115.1865
  0
LINE
  8
0
  6
CONTINUOUS
 62
     7
 10
145.8491
 20
-116.2925
 11
146.5541
 21
-116.2925
  0
LINE
  8
0
  6
CONTINUOUS
 62
     7
 10
145.8491
 20
-115.1865
 11
145.8491
 21
-116.2925
  0
LINE
  8
0
  6
CONTINUOUS
 62
     7
 10
146.5541
 20
-115.1865
 11
146.5541
 21
-116.2925
  0
LINE
  8
0
  6
CONTINUOUS
 62
     7
 10
146.9689
 20
-115.1865
 11
146.9689
 21
-116.2925
  0
LINE
  8
0
  6
CONTINUOUS
 62
     7
 10
147.7569
 20
-115.1865
 11
147.7569
 21
-116.2925
  0
LINE
  8
0
  6
CONTINUOUS
 62
     7
 10
146.9689
 20
-115.1865
 11
147.7569
 21
-115.1865
  0
LINE
  8
0
  6
CONTINUOUS
 62
     7
 10
146.9689
 20
-116.2925
 11
147.7569
 21
-116.2925
  0
LINE
  8
0
  6
CONTINUOUS
 62
     7
 10
109.1646
 20
112.9782
 11
185.4368
 21
112.9782
  0
LINE
  8
0
  6
CONTINUOUS
 62
     7
 10
109.1646
 20
127.2792
 11
109.1646
 21
112.9782
  0
LINE
  8
0
  6
CONTINUOUS
 62
     7
 10
109.1646
 20
-112.9782
 11
109.1646
 21
-127.2792
  0
LINE
  8
0
  6
CENTER
 62
     2
 10
5.49999
 20
63.18579
 11
5.49999
 21
102.0
  0
LINE
  8
0
  6
CENTER
 62
     2
 10
4.2
 20
50.99995
 11
4.2
 21
78.99995
  0
LINE
  8
0
  6
CONTINUOUS
 62
     7
 10
5.04998
 20
63.99995
 11
5.04998
 21
68.34407
  0
LINE
  8
0
  6
CONTINUOUS
 62
     7
 10
3.35
 20
63.99995
 11
3.35
 21
68.79959
  0
LINE
  8
0
  6
CONTINUOUS
 62
     7
 10
4.51998
 20
53.99995
 11
4.51998
 21
63.99995
  0
LINE
  8
0
  6
CONTINUOUS
 62
     7
 10
3.88
 20
53.99995
 11
3.88
 21
63.99995
  0
LINE
  8
0
  6
CONTINUOUS
 62
     7
 10
3.35
 20
63.99995
 11
5.05001
 21
63.99995
  0
LINE
  8
0
  6
CONTINUOUS
 62
     7
 10
3.88
 20
53.99995
 11
4.52001
 21
53.99995
  0
LINE
  8
0
  6
CENTER
 62
     2
 10
6.79998
 20
51.10899
 11
6.79998
 21
78.99995
  0
LINE
  8
0
  6
CONTINUOUS
 62
     7
 10
7.64999
 20
63.99995
 11
7.64999
 21
67.64741
  0
LINE
  8
0
  6
CONTINUOUS
 62
     7
 10
5.94999
 20
63.99995
 11
5.94999
 21
68.10292
  0
LINE
  8
0
  6
CONTINUOUS
 62
     7
 10
7.11999
 20
53.99995
 11
7.11999
 21
63.99995
  0
LINE
  8
0
  6
CONTINUOUS
 62
     7
 10
6.47999
 20
53.99995
 11
6.47999
 21
63.99995
  0
LINE
  8
0
  6
CONTINUOUS
 62
     7
 10
5.95
 20
63.99995
 11
7.64999
 21
63.99995
  0
LINE
  8
0
  6
CONTINUOUS
 62
     7
 10
6.48
 20
53.99995
 11
7.12
 21
53.99995
  0
LINE
  8
0
  6
PHANTOM
 62
     2
 10
9.65
 20
68.66441
 11
1.35
 21
70.8884
  0
LINE
  8
0
  6
PHANTOM
 62
     2
 10
9.64998
 20
67.11151
 11
1.35
 21
69.33549
  0
LINE
  8
0
  6
CONTINUOUS
 62
     7
 10
7.64999
 20
69.20032
 11
7.64999
 21
73.99995
  0
LINE
  8
0
  6
CONTINUOUS
 62
     7
 10
5.94999
 20
69.65584
 11
5.94999
 21
73.99995
  0
LINE
  8
0
  6
CONTINUOUS
 62
     7
 10
5.04998
 20
69.89699
 11
5.04998
 21
73.99995
  0
LINE
  8
0
  6
CONTINUOUS
 62
     7
 10
3.35
 20
70.3525
 11
3.35
 21
73.99995
  0
LINE
  8
0
  6
CONTINUOUS
 62
     7
 10
8.47595
 20
75.98414
 11
8.47595
 21
74.48414
  0
LINE
  8
0
  6
CONTINUOUS
 62
     7
 10
7.97595
 20
73.98414
 11
2.97594
 21
73.98414
  0
LINE
  8
0
  6
CONTINUOUS
 62
     7
 10
2.47594
 20
75.98414
 11
2.47594
 21
74.48414
  0
LINE
  8
0
  6
CENTER
 62
     2
 10
-4.44836
 20
88.0
 11
15.48778
 21
88.0
  0
LINE
  8
0
  6
CONTINUOUS
 62
     7
 10
3.99999
 20
79.0
 11
3.99999
 21
76.0
  0
LINE
  8
0
  6
CONTINUOUS
 62
     7
 10
6.99999
 20
97.0
 11
6.99999
 21
100.0
  0
LINE
  8
0
  6
CONTINUOUS
 62
     7
 10
10.0
 20
94.0
 11
13.0
 21
94.0
  0
LINE
  8
0
  6
CONTINUOUS
 62
     7
 10
0.99999
 20
82.0
 11
-2.00001
 21
82.0
  0
LINE
  8
0
  6
CONTINUOUS
 62
     7
 10
6.99999
 20
99.0
 11
-1.00001
 21
99.0
  0
LINE
  8
0
  6
CONTINUOUS
 62
     7
 10
12.0
 20
77.0
 11
3.99999
 21
77.0
  0
LINE
  8
0
  6
CONTINUOUS
 62
     7
 10
12.0
 20
94.0
 11
12.0
 21
77.0
  0
LINE
  8
0
  6
CONTINUOUS
 62
     7
 10
-1.00001
 20
99.0
 11
-1.00001
 21
82.0
  0
LINE
  8
0
  6
CONTINUOUS
 62
     7
 10
-1.22992
 20
78.7
 11
-1.53229
 21
78.7
  0
LINE
  8
0
  6
CONTINUOUS
 62
     7
 10
-1.22991
 20
79.3
 11
-1.5323
 21
79.3
  0
LINE
  8
0
  6
CONTINUOUS
 62
     7
 10
-1.50803
 20
79.46077
 11
-1.20232
 21
79.46077
  0
LINE
  8
0
  6
CONTINUOUS
 62
     7
 10
12.2299
 20
97.3
 11
12.53229
 21
97.3
  0
LINE
  8
0
  6
CONTINUOUS
 62
     7
 10
12.2299
 20
96.7
 11
12.53228
 21
96.7
  0
LINE
  8
0
  6
CONTINUOUS
 62
     7
 10
12.50801
 20
96.53923
 11
12.2023
 21
96.53923
  0
LINE
  8
0
  6
CONTINUOUS
 62
     7
 10
0.26461
 20
80.10309
 11
0.63231
 21
79.7354
  0
LINE
  8
0
  6
CONTINUOUS
 62
     7
 10
-0.10309
 20
79.73538
 11
0.2646
 21
79.36768
  0
LINE
  8
0
  6
CONTINUOUS
 62
     7
 10
0.26462
 20
80.10308
 11
-0.10308
 21
79.73538
  0
LINE
  8
0
  6
CONTINUOUS
 62
     7
 10
2.10311
 20
78.2646
 11
1.73541
 21
77.8969
  0
LINE
  8
0
  6
CONTINUOUS
 62
     7
 10
2.3965
 20
80.76418
 11
1.36772
 21
79.7354
  0
LINE
  8
0
  6
CONTINUOUS
 62
     7
 10
2.76419
 20
80.39648
 11
1.7354
 21
79.36769
  0
LINE
  8
0
  6
CONTINUOUS
 62
     7
 10
1.7354
 20
78.63231
 11
2.10309
 21
78.26462
  0
LINE
  8
0
  6
CONTINUOUS
 62
     7
 10
1.36769
 20
78.2646
 11
1.73539
 21
77.8969
  0
LINE
  8
0
  6
CONTINUOUS
 62
     7
 10
0.26463
 20
78.6323
 11
-0.76416
 21
77.60352
  0
LINE
  8
0
  6
CONTINUOUS
 62
     7
 10
0.63231
 20
78.26461
 11
-0.39648
 21
77.23582
  0
LINE
  8
0
  6
CONTINUOUS
 62
     7
 10
9.26463
 20
98.10309
 11
9.63232
 21
97.73539
  0
LINE
  8
0
  6
CONTINUOUS
 62
     7
 10
8.89692
 20
97.73539
 11
9.26462
 21
97.3677
  0
LINE
  8
0
  6
CONTINUOUS
 62
     7
 10
9.26461
 20
98.10309
 11
8.89692
 21
97.7354
  0
LINE
  8
0
  6
CONTINUOUS
 62
     7
 10
11.1031
 20
96.26461
 11
10.73541
 21
95.89692
  0
LINE
  8
0
  6
CONTINUOUS
 62
     7
 10
11.3965
 20
98.76418
 11
10.36771
 21
97.73539
  0
LINE
  8
0
  6
CONTINUOUS
 62
     7
 10
11.76419
 20
98.39648
 11
10.7354
 21
97.36768
  0
LINE
  8
0
  6
CONTINUOUS
 62
     7
 10
10.73541
 20
96.6323
 11
11.1031
 21
96.26461
  0
LINE
  8
0
  6
CONTINUOUS
 62
     7
 10
10.3677
 20
96.26462
 11
10.7354
 21
95.89692
  0
LINE
  8
0
  6
CONTINUOUS
 62
     7
 10
9.26462
 20
96.63231
 11
8.23584
 21
95.60352
  0
LINE
  8
0
  6
CONTINUOUS
 62
     7
 10
9.63232
 20
96.2646
 11
8.60352
 21
95.23581
  0
LINE
  8
0
  6
CENTER
 62
     2
 10
4.99999
 20
79.0
 11
-3.00001
 21
79.0
  0
LINE
  8
0
  6
CENTER
 62
     2
 10
14.0
 20
97.0
 11
5.99999
 21
97.0
  0
LINE
  8
0
  6
CENTER
 62
     2
 10
10.0
 20
101.0
 11
10.0
 21
93.0
  0
LINE
  8
0
  6
CENTER
 62
     2
 10
0.99999
 20
83.0
 11
0.99999
 21
75.0
  0
LINE
  8
0
  6
CONTINUOUS
 62
     7
 10
12.5
 20
100.0
 11
-1.50001
 21
100.0
  0
LINE
  8
0
  6
CONTINUOUS
 62
     7
 10
13.0
 20
99.5
 11
13.0
 21
76.0
  0
LINE
  8
0
  6
CONTINUOUS
 62
     7
 10
-2.00001
 20
99.5
 11
-2.00001
 21
76.0
  0
LINE
  8
0
  6
CONTINUOUS
 62
     7
 10
13.0
 20
76.0
 11
-2.00001
 21
76.0
  0
LINE
  8
0
  6
CENTER
 62
     2
 10
0.0
 20
-7.56064
 11
0.0
 21
-14.34249
  0
LINE
  8
0
  6
CENTER
 62
     2
 10
11.0
 20
-25.47301
 11
11.0
 21
-32.41018
  0
LINE
  8
0
  6
CENTER
 62
     2
 10
7.73142
 20
-29.0
 11
14.10827
 21
-29.0
  0
LINE
  8
0
  6
CENTER
 62
     2
 10
-2.57079
 20
-11.0
 11
3.53806
 21
-11.0
  0
LINE
  8
0
  6
CONTINUOUS
 62
     7
 10
-2.0
 20
-5.99999
 11
13.0
 21
-5.99999
  0
LINE
  8
0
  6
CENTER
 62
     2
 10
5.50001
 20
41.81199
 11
5.50001
 21
-44.82301
  0
LINE
  8
0
  6
CENTER
 62
     2
 10
3.11505
 20
7.50001
 11
7.96165
 21
7.50001
  0
LINE
  8
0
  6
CONTINUOUS
 62
     7
 10
-1.99999
 20
10.99999
 11
-1.99999
 21
-34.00001
  0
LINE
  8
0
  6
CONTINUOUS
 62
     7
 10
13.0
 20
10.99999
 11
13.0
 21
-34.00001
  0
LINE
  8
0
  6
CONTINUOUS
 62
     7
 10
-1.99999
 20
-34.00001
 11
-1.99999
 21
-41.0
  0
LINE
  8
0
  6
CONTINUOUS
 62
     7
 10
13.0
 20
-34.00001
 11
13.0
 21
-41.0
  0
LINE
  8
0
  6
CONTINUOUS
 62
     7
 10
-2.0
 20
-34.00001
 11
13.0
 21
-34.00001
  0
LINE
  8
0
  6
CONTINUOUS
 62
     7
 10
-1.50001
 20
-41.5
 11
12.5
 21
-41.5
  0
LINE
  8
0
  6
CONTINUOUS
 62
     7
 10
-1.50001
 20
-36.5
 11
3.7
 21
-36.5
  0
LINE
  8
0
  6
CENTER
 62
     2
 10
1.00001
 20
-35.15001
 11
1.00001
 21
-42.05285
  0
LINE
  8
0
  6
CONTINUOUS
 62
     7
 10
4.2
 20
-37.00001
 11
4.2
 21
-41.0
  0
LINE
  8
0
  6
CONTINUOUS
 62
     7
 10
-1.8
 20
-37.67183
 11
-1.8
 21
-36.5
  0
LINE
  8
0
  6
CONTINUOUS
 62
     7
 10
3.79999
 20
-37.67184
 11
3.79999
 21
-36.50001
  0
LINE
  8
0
  6
CONTINUOUS
 62
     7
 10
-1.99999
 20
37.19998
 11
-1.99999
 21
10.99999
  0
LINE
  8
0
  6
CONTINUOUS
 62
     7
 10
-2.0
 20
36.2
 11
13.0
 21
36.2
  0
LINE
  8
0
  6
CONTINUOUS
 62
     7
 10
13.0
 20
37.19998
 11
13.0
 21
10.99999
  0
LINE
  8
0
  6
CONTINUOUS
 62
     7
 10
-2.0
 20
11.0
 11
13.0
 21
11.0
  0
LINE
  8
0
  6
CONTINUOUS
 62
     7
 10
-2.0
 20
37.19998
 11
13.0
 21
37.19998
  0
LINE
  8
0
  6
CONTINUOUS
 62
     7
 10
-1.0
 20
39.2
 11
-0.82576
 21
39.2
  0
LINE
  8
0
  6
CONTINUOUS
 62
     7
 10
12.99999
 20
37.19998
 11
11.99999
 21
39.19998
  0
LINE
  8
0
  6
CONTINUOUS
 62
     7
 10
-1.99999
 20
37.19999
 11
-0.99999
 21
39.19999
  0
LINE
  8
0
  6
CENTER
 62
     2
 10
1.00001
 20
42.2
 11
1.00001
 21
33.2
  0
LINE
  8
0
  6
CONTINUOUS
 62
     7
 10
3.55
 20
37.79999
 11
-1.55
 21
37.79999
  0
LINE
  8
0
  6
CONTINUOUS
 62
     7
 10
-1.54999
 20
37.79997
 11
-1.54999
 21
37.19998
  0
LINE
  8
0
  6
CONTINUOUS
 62
     7
 10
-1.24995
 20
38.49373
 11
-1.24995
 21
37.79999
  0
LINE
  8
0
  6
CONTINUOUS
 62
     7
 10
2.82574
 20
39.2
 11
11.99999
 21
39.2
  0
LINE
  8
0
  6
CENTER
 62
     2
 10
10.00001
 20
42.2
 11
10.00001
 21
33.2
  0
LINE
  8
0
  6
CONTINUOUS
 62
     7
 10
3.55
 20
37.79997
 11
3.55
 21
37.19998
  0
LINE
  8
0
  6
CONTINUOUS
 62
     7
 10
3.25001
 20
38.49373
 11
3.25001
 21
37.79997
  0
LINE
  8
0
  6
CONTINUOUS
 62
     7
 10
4.00001
 20
39.2
 11
4.00001
 21
37.19998
  0
LINE
  8
0
  6
CENTER
 62
     2
 10
4.2
 20
31.99999
 11
4.2
 21
25.99999
  0
LINE
  8
0
  6
CENTER
 62
     2
 10
6.80002
 20
31.99999
 11
6.80002
 21
25.99999
  0
LINE
  8
0
  6
CENTER
 62
     2
 10
1.49999
 20
29.0
 11
9.5
 21
29.0
  0
LINE
  8
0
  6
CONTINUOUS
 62
     7
 10
4.2
 20
30.7
 11
6.80001
 21
30.7
  0
LINE
  8
0
  6
CONTINUOUS
 62
     7
 10
4.2
 20
27.3
 11
6.80001
 21
27.3
  0
LINE
  8
0
  6
CONTINUOUS
 62
     7
 10
-110.0
 20
-5.99999
 11
-86.0
 21
-5.99999
  0
LINE
  8
0
  6
CENTER
 62
     2
 10
-98.00001
 20
42.19999
 11
-98.00001
 21
-43.56096
  0
LINE
  8
0
  6
CENTER
 62
     2
 10
-90.40449
 20
-11.0
 11
-85.17444
 21
-11.0
  0
LINE
  8
0
  6
CONTINUOUS
 62
     7
 10
-89.00001
 20
-9.18618
 11
-89.00001
 21
-12.81385
  0
LINE
  8
0
  6
CONTINUOUS
 62
     7
 10
-89.0
 20
-9.18616
 11
-86.0
 21
-9.18616
  0
LINE
  8
0
  6
CONTINUOUS
 62
     7
 10
-89.0
 20
-12.81384
 11
-86.0
 21
-12.81384
  0
LINE
  8
0
  6
CONTINUOUS
 62
     7
 10
-110.0
 20
37.2
 11
-110.0
 21
-41.0
  0
LINE
  8
0
  6
CONTINUOUS
 62
     7
 10
-86.0
 20
37.2
 11
-86.0
 21
-41.0
  0
LINE
  8
0
  6
CONTINUOUS
 62
     7
 10
-110.0
 20
-34.00001
 11
-86.0
 21
-34.00001
  0
LINE
  8
0
  6
CONTINUOUS
 62
     7
 10
-109.5
 20
-41.5
 11
-86.5
 21
-41.5
  0
LINE
  8
0
  6
CONTINUOUS
 62
     7
 10
-91.7
 20
-36.5
 11
-86.5
 21
-36.5
  0
LINE
  8
0
  6
CENTER
 62
     2
 10
-89.00001
 20
-34.7
 11
-89.00001
 21
-44.15001
  0
LINE
  8
0
  6
CONTINUOUS
 62
     7
 10
-92.2
 20
-37.00001
 11
-92.2
 21
-41.0
  0
LINE
  8
0
  6
CONTINUOUS
 62
     7
 10
-91.80002
 20
-37.67183
 11
-91.80002
 21
-36.5
  0
LINE
  8
0
  6
CONTINUOUS
 62
     7
 10
-86.20003
 20
-37.67183
 11
-86.20003
 21
-36.5
  0
LINE
  8
0
  6
CONTINUOUS
 62
     7
 10
-110.0
 20
36.2
 11
-86.0
 21
36.2
  0
LINE
  8
0
  6
CONTINUOUS
 62
     7
 10
-110.0
 20
11.0
 11
-86.0
 21
11.0
  0
LINE
  8
0
  6
CONTINUOUS
 62
     7
 10
-109.0
 20
39.2
 11
-90.82578
 21
39.2
  0
LINE
  8
0
  6
CONTINUOUS
 62
     7
 10
-110.0
 20
37.2
 11
-86.0
 21
37.2
  0
LINE
  8
0
  6
CONTINUOUS
 62
     7
 10
-110.0
 20
37.2
 11
-109.0
 21
39.2
  0
LINE
  8
0
  6
CONTINUOUS
 62
     7
 10
-86.00002
 20
37.19999
 11
-87.00002
 21
39.19999
  0
LINE
  8
0
  6
CONTINUOUS
 62
     7
 10
-92.00001
 20
39.2
 11
-92.00001
 21
37.2
  0
LINE
  8
0
  6
CENTER
 62
     2
 10
-89.00001
 20
42.0
 11
-89.00001
 21
33.2
  0
LINE
  8
0
  6
CONTINUOUS
 62
     7
 10
-86.45
 20
37.79999
 11
-91.55
 21
37.79999
  0
LINE
  8
0
  6
CONTINUOUS
 62
     7
 10
-89.30001
 20
37.2
 11
-89.46078
 21
37.8
  0
LINE
  8
0
  6
CONTINUOUS
 62
     7
 10
-88.69997
 20
37.80001
 11
-88.5392
 21
37.2
  0
LINE
  8
0
  6
CONTINUOUS
 62
     7
 10
-86.45
 20
37.79999
 11
-86.45
 21
37.2
  0
LINE
  8
0
  6
CONTINUOUS
 62
     7
 10
-91.55
 20
37.79999
 11
-91.55
 21
37.2
  0
LINE
  8
0
  6
CONTINUOUS
 62
     7
 10
-86.74997
 20
38.49374
 11
-86.74997
 21
37.79999
  0
LINE
  8
0
  6
CONTINUOUS
 62
     7
 10
-91.24996
 20
38.49374
 11
-91.24996
 21
37.79999
  0
LINE
  8
0
  6
CONTINUOUS
 62
     7
 10
-87.17422
 20
39.2
 11
-87.0
 21
39.2
  0
LINE
  8
0
  6
CENTER
 62
     2
 10
-107.0
 20
42.0
 11
-107.0
 21
33.2
  0
LINE
  8
0
  6
CENTER
 62
     2
 10
-61.00001
 20
29.0
 11
-89.0
 21
29.0
  0
LINE
  8
0
  6
CONTINUOUS
 62
     7
 10
-74.0
 20
29.85
 11
-77.99579
 21
29.85
  0
LINE
  8
0
  6
CONTINUOUS
 62
     7
 10
-74.0
 20
28.15
 11
-78.45131
 21
28.15
  0
LINE
  8
0
  6
CONTINUOUS
 62
     7
 10
-64.00001
 20
29.31999
 11
-74.0
 21
29.31999
  0
LINE
  8
0
  6
CONTINUOUS
 62
     7
 10
-64.00001
 20
28.68
 11
-74.0
 21
28.68
  0
LINE
  8
0
  6
CONTINUOUS
 62
     7
 10
-74.0
 20
28.14999
 11
-74.0
 21
29.85
  0
LINE
  8
0
  6
CONTINUOUS
 62
     7
 10
-64.00001
 20
28.68
 11
-64.00001
 21
29.31999
  0
LINE
  8
0
  6
PHANTOM
 62
     2
 10
-77.4599
 20
31.84999
 11
-78.98721
 21
26.14999
  0
LINE
  8
0
  6
PHANTOM
 62
     2
 10
-79.0128
 20
31.84999
 11
-80.54011
 21
26.14999
  0
LINE
  8
0
  6
CONTINUOUS
 62
     7
 10
-79.54871
 20
29.85
 11
-84.0
 21
29.85
  0
LINE
  8
0
  6
CONTINUOUS
 62
     7
 10
-80.00423
 20
28.15
 11
-84.0
 21
28.15
  0
LINE
  8
0
  6
CONTINUOUS
 62
     7
 10
-84.5
 20
30.7
 11
-86.0
 21
30.7
  0
LINE
  8
0
  6
CONTINUOUS
 62
     7
 10
-84.00001
 20
27.8
 11
-84.00001
 21
30.2
  0
LINE
  8
0
  6
CONTINUOUS
 62
     7
 10
-84.5
 20
27.3
 11
-86.0
 21
27.3
  0
LINE
  8
0
  6
CONTINUOUS
 62
     7
 10
110.0
 20
-5.99999
 11
86.0
 21
-5.99999
  0
LINE
  8
0
  6
CENTER
 62
     2
 10
98.0
 20
42.19998
 11
98.0
 21
-44.0
  0
LINE
  8
0
  6
CENTER
 62
     2
 10
90.40448
 20
-29.0
 11
85.17444
 21
-29.0
  0
LINE
  8
0
  6
CONTINUOUS
 62
     7
 10
89.0
 20
-27.18618
 11
89.0
 21
-30.81385
  0
LINE
  8
0
  6
CONTINUOUS
 62
     7
 10
89.0
 20
-27.18616
 11
86.0
 21
-27.18616
  0
LINE
  8
0
  6
CONTINUOUS
 62
     7
 10
89.0
 20
-30.81384
 11
86.0
 21
-30.81384
  0
LINE
  8
0
  6
CONTINUOUS
 62
     7
 10
86.0
 20
37.19999
 11
86.0
 21
-41.00001
  0
LINE
  8
0
  6
CONTINUOUS
 62
     7
 10
110.0
 20
37.2
 11
110.0
 21
-41.0
  0
LINE
  8
0
  6
CONTINUOUS
 62
     7
 10
86.49999
 20
-41.5
 11
109.5
 21
-41.5
  0
LINE
  8
0
  6
CONTINUOUS
 62
     7
 10
104.3
 20
-36.5
 11
109.5
 21
-36.5
  0
LINE
  8
0
  6
CENTER
 62
     2
 10
107.0
 20
-34.7
 11
107.0
 21
-44.15001
  0
LINE
  8
0
  6
CONTINUOUS
 62
     7
 10
103.8
 20
-37.00001
 11
103.8
 21
-41.0
  0
LINE
  8
0
  6
CONTINUOUS
 62
     7
 10
104.2
 20
-37.67183
 11
104.2
 21
-36.5
  0
LINE
  8
0
  6
CONTINUOUS
 62
     7
 10
109.8
 20
-37.67183
 11
109.8
 21
-36.50001
  0
LINE
  8
0
  6
CONTINUOUS
 62
     7
 10
110.0
 20
36.2
 11
86.00001
 21
36.2
  0
LINE
  8
0
  6
CONTINUOUS
 62
     7
 10
110.0
 20
11.0
 11
86.00001
 21
11.0
  0
LINE
  8
0
  6
CONTINUOUS
 62
     7
 10
86.99999
 20
39.2
 11
105.1742
 21
39.2
  0
LINE
  8
0
  6
CONTINUOUS
 62
     7
 10
110.0
 20
37.2
 11
86.00001
 21
37.2
  0
LINE
  8
0
  6
CONTINUOUS
 62
     7
 10
86.0
 20
37.19996
 11
87.0
 21
39.19996
  0
LINE
  8
0
  6
CONTINUOUS
 62
     7
 10
110.0
 20
37.2
 11
109.0
 21
39.19999
  0
LINE
  8
0
  6
CONTINUOUS
 62
     7
 10
104.0
 20
39.2
 11
104.0
 21
37.2
  0
LINE
  8
0
  6
CENTER
 62
     2
 10
107.0
 20
42.2
 11
107.0
 21
33.2
  0
LINE
  8
0
  6
CONTINUOUS
 62
     7
 10
109.55
 20
37.79999
 11
104.45
 21
37.79999
  0
LINE
  8
0
  6
CONTINUOUS
 62
     7
 10
106.7
 20
37.19999
 11
106.5392
 21
37.79999
  0
LINE
  8
0
  6
CONTINUOUS
 62
     7
 10
107.3
 20
37.79998
 11
107.4608
 21
37.19998
  0
LINE
  8
0
  6
CONTINUOUS
 62
     7
 10
109.55
 20
37.79999
 11
109.55
 21
37.2
  0
LINE
  8
0
  6
CONTINUOUS
 62
     7
 10
104.45
 20
37.79999
 11
104.45
 21
37.2
  0
LINE
  8
0
  6
CONTINUOUS
 62
     7
 10
109.25
 20
38.49374
 11
109.25
 21
37.79999
  0
LINE
  8
0
  6
CONTINUOUS
 62
     7
 10
104.75
 20
38.49373
 11
104.75
 21
37.79999
  0
LINE
  8
0
  6
CONTINUOUS
 62
     7
 10
108.8258
 20
39.2
 11
109.0
 21
39.2
  0
LINE
  8
0
  6
CENTER
 62
     2
 10
89.0
 20
42.19999
 11
89.0
 21
33.19999
  0
LINE
  8
0
  6
CENTER
 62
     2
 10
61.00001
 20
29.0
 11
89.00001
 21
29.0
  0
LINE
  8
0
  6
CONTINUOUS
 62
     7
 10
74.00001
 20
28.15
 11
77.9958
 21
28.15
  0
LINE
  8
0
  6
CONTINUOUS
 62
     7
 10
74.00001
 20
29.85
 11
78.4513
 21
29.85
  0
LINE
  8
0
  6
CONTINUOUS
 62
     7
 10
64.00001
 20
28.68
 11
74.00001
 21
28.68
  0
LINE
  8
0
  6
CONTINUOUS
 62
     7
 10
64.00001
 20
29.31999
 11
74.00001
 21
29.31999
  0
LINE
  8
0
  6
CONTINUOUS
 62
     7
 10
74.00002
 20
29.84999
 11
74.00002
 21
28.14999
  0
LINE
  8
0
  6
CONTINUOUS
 62
     7
 10
64.00002
 20
29.31998
 11
64.00002
 21
28.67998
  0
LINE
  8
0
  6
PHANTOM
 62
     2
 10
77.45989
 20
26.14999
 11
78.98721
 21
31.84999
  0
LINE
  8
0
  6
PHANTOM
 62
     2
 10
79.01281
 20
26.14999
 11
80.54012
 21
31.84998
  0
LINE
  8
0
  6
CONTINUOUS
 62
     7
 10
80.0042
 20
29.85
 11
83.99999
 21
29.85
  0
LINE
  8
0
  6
CONTINUOUS
 62
     7
 10
79.5487
 20
28.15
 11
83.99999
 21
28.15
  0
LINE
  8
0
  6
CONTINUOUS
 62
     7
 10
84.50001
 20
30.7
 11
86.00001
 21
30.7
  0
LINE
  8
0
  6
CONTINUOUS
 62
     7
 10
84.00002
 20
27.8
 11
84.00002
 21
30.19999
  0
LINE
  8
0
  6
CONTINUOUS
 62
     7
 10
84.50001
 20
27.3
 11
86.00001
 21
27.3
  0
LINE
  8
0
  6
CONTINUOUS
 62
     7
 10
86.00001
 20
-34.0
 11
110.0
 21
-34.0
  0
LINE
  8
0
  6
CONTINUOUS
 62
     7
 10
-1.99998
 20
-89.2
 11
1.00002
 21
-89.2
  0
LINE
  8
0
  6
CONTINUOUS
 62
     7
 10
10.00002
 20
-100.8
 11
13.00002
 21
-100.8
  0
LINE
  8
0
  6
CONTINUOUS
 62
     7
 10
4.19998
 20
-86.0
 11
4.19998
 21
-83.0
  0
LINE
  8
0
  6
CONTINUOUS
 62
     7
 10
6.80002
 20
-104.0
 11
6.80002
 21
-107.0
  0
LINE
  8
0
  6
CENTER
 62
     2
 10
-3.50002
 20
-95.00001
 11
14.49998
 21
-95.00001
  0
LINE
  8
0
  6
CENTER
 62
     2
 10
5.5
 20
-70.18584
 11
5.5
 21
-109.0
  0
LINE
  8
0
  6
CONTINUOUS
 62
     7
 10
12.99998
 20
-106.5
 11
12.99998
 21
-83.0
  0
LINE
  8
0
  6
CONTINUOUS
 62
     7
 10
-2.0
 20
-106.5
 11
-2.0
 21
-83.0
  0
LINE
  8
0
  6
CONTINUOUS
 62
     7
 10
-1.50002
 20
-107.0
 11
12.49998
 21
-107.0
  0
LINE
  8
0
  6
CONTINUOUS
 62
     7
 10
-2.00002
 20
-82.99999
 11
2.49998
 21
-82.99999
  0
LINE
  8
0
  6
CENTER
 62
     2
 10
6.79999
 20
-58.0
 11
6.79999
 21
-85.99998
  0
LINE
  8
0
  6
CONTINUOUS
 62
     7
 10
5.95001
 20
-71.0
 11
5.95001
 21
-75.34412
  0
LINE
  8
0
  6
CONTINUOUS
 62
     7
 10
7.64999
 20
-71.0
 11
7.64999
 21
-75.79964
  0
LINE
  8
0
  6
CONTINUOUS
 62
     7
 10
6.48001
 20
-61.0
 11
6.48001
 21
-71.0
  0
LINE
  8
0
  6
CONTINUOUS
 62
     7
 10
7.12
 20
-61.0
 11
7.12
 21
-71.0
  0
LINE
  8
0
  6
CONTINUOUS
 62
     7
 10
7.64998
 20
-70.99999
 11
5.94997
 21
-70.99999
  0
LINE
  8
0
  6
CONTINUOUS
 62
     7
 10
7.11998
 20
-60.99999
 11
6.47997
 21
-60.99999
  0
LINE
  8
0
  6
CENTER
 62
     2
 10
4.20001
 20
-58.0
 11
4.20001
 21
-85.99998
  0
LINE
  8
0
  6
CONTINUOUS
 62
     7
 10
3.34999
 20
-71.0
 11
3.34999
 21
-74.64745
  0
LINE
  8
0
  6
CONTINUOUS
 62
     7
 10
5.04999
 20
-71.0
 11
5.04999
 21
-75.10297
  0
LINE
  8
0
  6
CONTINUOUS
 62
     7
 10
3.87999
 20
-61.0
 11
3.87999
 21
-71.0
  0
LINE
  8
0
  6
CONTINUOUS
 62
     7
 10
4.51999
 20
-61.0
 11
4.51999
 21
-71.0
  0
LINE
  8
0
  6
CONTINUOUS
 62
     7
 10
5.04997
 20
-70.99999
 11
3.34999
 21
-70.99999
  0
LINE
  8
0
  6
CONTINUOUS
 62
     7
 10
4.51997
 20
-60.99999
 11
3.87997
 21
-60.99999
  0
LINE
  8
0
  6
PHANTOM
 62
     2
 10
1.34998
 20
-75.66448
 11
9.64996
 21
-77.88847
  0
LINE
  8
0
  6
PHANTOM
 62
     2
 10
1.35001
 20
-74.11163
 11
9.64999
 21
-76.3356
  0
LINE
  8
0
  6
CONTINUOUS
 62
     7
 10
3.34999
 20
-76.20036
 11
3.34999
 21
-81.0
  0
LINE
  8
0
  6
CONTINUOUS
 62
     7
 10
5.04999
 20
-76.65588
 11
5.04999
 21
-81.0
  0
LINE
  8
0
  6
CONTINUOUS
 62
     7
 10
5.95001
 20
-76.89703
 11
5.95001
 21
-81.0
  0
LINE
  8
0
  6
CONTINUOUS
 62
     7
 10
7.64999
 20
-77.35254
 11
7.64999
 21
-81.0
  0
LINE
  8
0
  6
CONTINUOUS
 62
     7
 10
8.49998
 20
-82.99999
 11
12.99998
 21
-82.99999
  0
LINE
  8
0
  6
CONTINUOUS
 62
     7
 10
-1.00002
 20
-92.99999
 11
11.99998
 21
-92.99999
  0
LINE
  8
0
  6
CONTINUOUS
 62
     7
 10
-1.00002
 20
-96.99999
 11
11.99998
 21
-96.99999
  0
LINE
  8
0
  6
CONTINUOUS
 62
     7
 10
11.99998
 20
-92.99999
 11
11.99998
 21
-96.99999
  0
LINE
  8
0
  6
CONTINUOUS
 62
     7
 10
-1.0
 20
-92.99999
 11
-1.0
 21
-96.99999
  0
LINE
  8
0
  6
CONTINUOUS
 62
     7
 10
-0.28795
 20
-93.89321
 11
2.05373
 21
-93.89321
  0
LINE
  8
0
  6
CONTINUOUS
 62
     7
 10
-0.28795
 20
-95.96981
 11
1.70027
 21
-95.96981
  0
LINE
  8
0
  6
CONTINUOUS
 62
     7
 10
-0.28795
 20
-96.49999
 11
2.40721
 21
-96.49999
  0
LINE
  8
0
  6
CONTINUOUS
 62
     7
 10
-0.28795
 20
-94.42341
 11
1.70027
 21
-94.42341
  0
LINE
  8
0
  6
CONTINUOUS
 62
     7
 10
-0.28793
 20
-93.89321
 11
-0.28793
 21
-94.42341
  0
LINE
  8
0
  6
CONTINUOUS
 62
     7
 10
2.40721
 20
-94.24668
 11
2.40721
 21
-96.49999
  0
LINE
  8
0
  6
CONTINUOUS
 62
     7
 10
1.70027
 20
-94.42341
 11
1.70027
 21
-95.96981
  0
LINE
  8
0
  6
CONTINUOUS
 62
     7
 10
2.80484
 20
-93.89321
 11
2.80484
 21
-94.42341
  0
LINE
  8
0
  6
CONTINUOUS
 62
     7
 10
5.32327
 20
-94.42341
 11
5.32327
 21
-96.14654
  0
LINE
  8
0
  6
CONTINUOUS
 62
     7
 10
4.61633
 20
-94.42341
 11
4.61633
 21
-95.96981
  0
LINE
  8
0
  6
CONTINUOUS
 62
     7
 10
-0.28793
 20
-95.96981
 11
-0.28793
 21
-96.49999
  0
LINE
  8
0
  6
CONTINUOUS
 62
     7
 10
2.80484
 20
-93.89321
 11
3.50333
 21
-93.89321
  0
LINE
  8
0
  6
CONTINUOUS
 62
     7
 10
2.80484
 20
-96.49999
 11
3.35374
 21
-96.49999
  0
LINE
  8
0
  6
CONTINUOUS
 62
     7
 10
2.80491
 20
-96.50002
 11
3.36137
 21
-94.42345
  0
LINE
  8
0
  6
CONTINUOUS
 62
     7
 10
2.80484
 20
-94.42341
 11
3.36127
 21
-94.42341
  0
LINE
  8
0
  6
CONTINUOUS
 62
     7
 10
3.35375
 20
-96.50003
 11
3.91016
 21
-94.42344
  0
LINE
  8
0
  6
CONTINUOUS
 62
     7
 10
4.08614
 20
-95.96981
 11
4.61633
 21
-95.96981
  0
LINE
  8
0
  6
CONTINUOUS
 62
     7
 10
4.08616
 20
-95.96982
 11
4.22822
 21
-96.5
  0
LINE
  8
0
  6
CONTINUOUS
 62
     7
 10
4.22821
 20
-96.49999
 11
4.9698
 21
-96.49999
  0
LINE
  8
0
  6
CONTINUOUS
 62
     7
 10
3.91016
 20
-94.42341
 11
4.61633
 21
-94.42341
  0
LINE
  8
0
  6
CONTINUOUS
 62
     7
 10
4.05223
 20
-93.89321
 11
4.79305
 21
-93.89321
  0
LINE
  8
0
  6
CONTINUOUS
 62
     7
 10
3.50344
 20
-93.89324
 11
3.6088
 21
-93.50003
  0
LINE
  8
0
  6
CONTINUOUS
 62
     7
 10
4.05218
 20
-93.89324
 11
4.15755
 21
-93.50001
  0
LINE
  8
0
  6
CONTINUOUS
 62
     7
 10
5.76508
 20
-93.89321
 11
6.60455
 21
-93.89321
  0
LINE
  8
0
  6
CONTINUOUS
 62
     7
 10
5.76508
 20
-94.42341
 11
7.8268
 21
-94.42341
  0
LINE
  8
0
  6
CONTINUOUS
 62
     7
 10
6.60455
 20
-96.49999
 11
7.31148
 21
-96.49999
  0
LINE
  8
0
  6
CONTINUOUS
 62
     7
 10
5.76508
 20
-93.89321
 11
5.76508
 21
-94.42341
  0
LINE
  8
0
  6
CONTINUOUS
 62
     7
 10
8.37186
 20
-95.3848
 11
8.37186
 21
-95.96981
  0
LINE
  8
0
  6
CONTINUOUS
 62
     7
 10
5.7651
 20
-95.96988
 11
6.60459
 21
-95.57841
  0
LINE
  8
0
  6
CONTINUOUS
 62
     7
 10
5.76513
 20
-95.38486
 11
7.82684
 21
-94.42347
  0
LINE
  8
0
  6
CONTINUOUS
 62
     7
 10
5.76508
 20
-95.3848
 11
5.76508
 21
-95.96981
  0
LINE
  8
0
  6
CONTINUOUS
 62
     7
 10
7.31146
 20
-95.4753
 11
8.37188
 21
-95.96976
  0
LINE
  8
0
  6
CONTINUOUS
 62
     7
 10
7.69583
 20
-95.06956
 11
8.37195
 21
-95.38483
  0
LINE
  8
0
  6
CONTINUOUS
 62
     7
 10
8.37186
 20
-94.24668
 11
8.37186
 21
-94.52908
  0
LINE
  8
0
  6
CONTINUOUS
 62
     7
 10
6.60455
 20
-93.49999
 11
6.60455
 21
-93.89321
  0
LINE
  8
0
  6
CONTINUOUS
 62
     7
 10
7.31149
 20
-93.49999
 11
7.31149
 21
-93.89321
  0
LINE
  8
0
  6
CONTINUOUS
 62
     7
 10
7.31148
 20
-93.89321
 11
8.0184
 21
-93.89321
  0
LINE
  8
0
  6
CONTINUOUS
 62
     7
 10
6.60455
 20
-95.57836
 11
6.60455
 21
-96.49999
  0
LINE
  8
0
  6
CONTINUOUS
 62
     7
 10
7.31149
 20
-95.47535
 11
7.31149
 21
-96.49999
  0
LINE
  8
0
  6
CONTINUOUS
 62
     7
 10
7.6958
 20
-95.06956
 11
8.16784
 21
-94.84946
  0
LINE
  8
0
  6
CONTINUOUS
 62
     7
 10
10.75774
 20
-93.65907
 11
11.28792
 21
-93.65907
  0
LINE
  8
0
  6
CONTINUOUS
 62
     7
 10
8.59277
 20
-94.75425
 11
8.59277
 21
-95.32482
  0
LINE
  8
0
  6
CONTINUOUS
 62
     7
 10
11.28792
 20
-93.65905
 11
11.28792
 21
-93.89321
  0
LINE
  8
0
  6
CONTINUOUS
 62
     7
 10
10.75774
 20
-93.65905
 11
10.75774
 21
-93.77331
  0
LINE
  8
0
  6
CONTINUOUS
 62
     7
 10
10.0508
 20
-94.74496
 11
10.0508
 21
-96.49999
  0
LINE
  8
0
  6
CONTINUOUS
 62
     7
 10
8.59286
 20
-94.75426
 11
10.64638
 21
-93.93755
  0
LINE
  8
0
  6
CONTINUOUS
 62
     7
 10
8.59281
 20
-95.32484
 11
10.05085
 21
-94.74495
  0
LINE
  8
0
  6
CONTINUOUS
 62
     7
 10
10.0508
 20
-96.49999
 11
10.75774
 21
-96.49999
  0
LINE
  8
0
  6
CONTINUOUS
 62
     7
 10
10.75774
 20
-94.46381
 11
10.75774
 21
-96.49999
  0
LINE
  8
0
  6
CONTINUOUS
 62
     7
 10
10.75776
 20
-94.46375
 11
10.95366
 21
-94.38583
  0
LINE
  8
0
  6
CONTINUOUS
 62
     7
 10
3.6087
 20
-93.49999
 11
4.15758
 21
-93.49999
  0
LINE
  8
0
  6
CONTINUOUS
 62
     7
 10
5.03607
 20
-93.49999
 11
5.26207
 21
-93.49999
  0
LINE
  8
0
  6
CONTINUOUS
 62
     7
 10
6.60455
 20
-93.49999
 11
7.31148
 21
-93.49999
  0
LINE
  8
0
  6
CONTINUOUS
 62
     7
 10
5.03607
 20
-93.85346
 11
5.26207
 21
-93.85346
  0
LINE
  8
0
  6
CONTINUOUS
 62
     7
 10
5.03607
 20
-93.49999
 11
5.03607
 21
-93.85346
  0
LINE
  8
0
  6
CONTINUOUS
 62
     7
 10
5.26208
 20
-93.49999
 11
5.26208
 21
-93.85346
  0
LINE
  8
0
  6
CONTINUOUS
 62
     7
 10
5.41983
 20
-93.49999
 11
5.41983
 21
-93.85346
  0
LINE
  8
0
  6
CONTINUOUS
 62
     7
 10
5.64581
 20
-93.49999
 11
5.64581
 21
-93.85346
  0
LINE
  8
0
  6
CONTINUOUS
 62
     7
 10
5.41982
 20
-93.49999
 11
5.6458
 21
-93.49999
  0
LINE
  8
0
  6
CONTINUOUS
 62
     7
 10
5.41982
 20
-93.85346
 11
5.6458
 21
-93.85346
  0
LINE
  8
0
  6
CONTINUOUS
 62
     7
 10
2.49998
 20
-82.99999
 11
8.49998
 21
-82.99999
  0
LINE
  8
0
  6
CONTINUOUS
 62
     7
 10
2.49998
 20
-83.0
 11
2.49998
 21
-81.5
  0
LINE
  8
0
  6
CONTINUOUS
 62
     7
 10
2.99998
 20
-80.99999
 11
7.99998
 21
-80.99999
  0
LINE
  8
0
  6
CONTINUOUS
 62
     7
 10
8.5
 20
-83.0
 11
8.5
 21
-81.5
  0
LINE
  8
0
  6
CENTER
 62
     2
 10
1.00002
 20
-90.17898
 11
1.00002
 21
-81.83207
  0
LINE
  8
0
  6
CENTER
 62
     2
 10
-3.03229
 20
-85.99999
 11
4.90974
 21
-85.99999
  0
LINE
  8
0
  6
CONTINUOUS
 62
     7
 10
0.15151
 20
-87.27279
 11
-0.27276
 21
-86.84852
  0
LINE
  8
0
  6
CONTINUOUS
 62
     7
 10
2.27282
 20
-85.15148
 11
1.84855
 21
-84.72721
  0
LINE
  8
0
  6
CONTINUOUS
 62
     7
 10
1.84857
 20
-87.27277
 11
1.42431
 21
-86.8485
  0
LINE
  8
0
  6
CONTINUOUS
 62
     7
 10
2.27283
 20
-86.8485
 11
1.84857
 21
-86.42424
  0
LINE
  8
0
  6
CONTINUOUS
 62
     7
 10
1.84858
 20
-87.27278
 11
2.27283
 21
-86.84853
  0
LINE
  8
0
  6
CONTINUOUS
 62
     7
 10
-0.27275
 20
-85.1515
 11
0.15151
 21
-84.72723
  0
LINE
  8
0
  6
CONTINUOUS
 62
     7
 10
0.15152
 20
-87.27282
 11
0.57578
 21
-86.84856
  0
LINE
  8
0
  6
CONTINUOUS
 62
     7
 10
-0.27272
 20
-86.84858
 11
0.15154
 21
-86.42431
  0
LINE
  8
0
  6
CONTINUOUS
 62
     7
 10
0.15152
 20
-85.57572
 11
-0.27275
 21
-85.15145
  0
LINE
  8
0
  6
CONTINUOUS
 62
     7
 10
0.57577
 20
-85.15145
 11
0.15151
 21
-84.72718
  0
LINE
  8
0
  6
CONTINUOUS
 62
     7
 10
1.84857
 20
-85.57577
 11
2.27284
 21
-85.1515
  0
LINE
  8
0
  6
CONTINUOUS
 62
     7
 10
1.42434
 20
-85.15152
 11
1.8486
 21
-84.72726
  0
LINE
  8
0
  6
CENTER
 62
     2
 10
10.0
 20
-108.179
 11
10.0
 21
-99.83208
  0
LINE
  8
0
  6
CENTER
 62
     2
 10
5.9677
 20
-104.0
 11
13.90973
 21
-104.0
  0
LINE
  8
0
  6
CONTINUOUS
 62
     7
 10
9.15149
 20
-105.2728
 11
8.72722
 21
-104.8485
  0
LINE
  8
0
  6
CONTINUOUS
 62
     7
 10
11.27281
 20
-103.1515
 11
10.84854
 21
-102.7272
  0
LINE
  8
0
  6
CONTINUOUS
 62
     7
 10
10.84856
 20
-105.2728
 11
10.42429
 21
-104.8485
  0
LINE
  8
0
  6
CONTINUOUS
 62
     7
 10
11.27281
 20
-104.8485
 11
10.84855
 21
-104.4243
  0
LINE
  8
0
  6
CONTINUOUS
 62
     7
 10
10.84857
 20
-105.2728
 11
11.27281
 21
-104.8485
  0
LINE
  8
0
  6
CONTINUOUS
 62
     7
 10
8.72724
 20
-103.1515
 11
9.1515
 21
-102.7272
  0
LINE
  8
0
  6
CONTINUOUS
 62
     7
 10
9.15151
 20
-105.2728
 11
9.57577
 21
-104.8486
  0
LINE
  8
0
  6
CONTINUOUS
 62
     7
 10
8.72727
 20
-104.8486
 11
9.15154
 21
-104.4243
  0
LINE
  8
0
  6
CONTINUOUS
 62
     7
 10
9.15151
 20
-103.5757
 11
8.72724
 21
-103.1515
  0
LINE
  8
0
  6
CONTINUOUS
 62
     7
 10
9.57576
 20
-103.1515
 11
9.15149
 21
-102.7272
  0
LINE
  8
0
  6
CONTINUOUS
 62
     7
 10
10.84856
 20
-103.5758
 11
11.27283
 21
-103.1515
  0
LINE
  8
0
  6
CONTINUOUS
 62
     7
 10
10.42433
 20
-103.1515
 11
10.84859
 21
-102.7273
  0
ARC
  8
0
  6
CONTINUOUS
 62
     7
 10
136.5177
 20
-117.5228
 40
1.10594
 50
0.0
 51
89.99999
  0
ARC
  8
0
  6
CONTINUOUS
 62
     7
 10
145.6418
 20
-123.4673
 40
1.10595
 50
270.0
 51
0.0
  0
ARC
  8
0
  6
CONTINUOUS
 62
     7
 10
145.0888
 20
-118.0758
 40
1.65892
 50
0.0
 51
89.99999
  0
ARC
  8
0
  6
CONTINUOUS
 62
     7
 10
155.1806
 20
-117.5228
 40
1.10594
 50
0.0
 51
89.99999
  0
ARC
  8
0
  6
CONTINUOUS
 62
     7
 10
155.1806
 20
-118.4064
 40
1.10595
 50
295.0
 51
0.0
  0
ARC
  8
0
  6
CONTINUOUS
 62
     7
 10
163.7517
 20
-116.4169
 40
1.65892
 50
291.6884
 51
0.0
  0
ARC
  8
0
  6
CONTINUOUS
 62
     7
 10
163.1987
 20
-116.0417
 40
0.55297
 50
291.689
 51
0.0
  0
ARC
  8
0
  6
CONTINUOUS
 62
     7
 10
7.97595
 20
74.48414
 40
0.5
 50
270.0
 51
0.0
  0
ARC
  8
0
  6
CONTINUOUS
 62
     7
 10
2.97594
 20
74.48414
 40
0.5
 50
180.0
 51
270.0
  0
ARC
  8
0
  6
CONTINUOUS
 62
     7
 10
0.99999
 20
79.0
 40
3.0
 50
0.0
 51
89.99998
  0
ARC
  8
0
  6
CONTINUOUS
 62
     7
 10
10.0
 20
97.0
 40
3.0
 50
180.0
 51
270.0
  0
ARC
  8
0
  6
CONTINUOUS
 62
     7
 10
0.99999
 20
79.0
 40
2.55
 50
186.7564
 51
173.2438
  0
ARC
  8
0
  6
CONTINUOUS
 62
     7
 10
10.0
 20
97.0
 40
2.55
 50
6.7564
 51
353.2438
  0
CIRCLE
  8
0
  6
CONTINUOUS
 62
     7
 10
0.99999
 20
79.0
 40
2.25
  0
ARC
  8
0
  6
CONTINUOUS
 62
     7
 10
2.10308
 20
79.0
 40
0.52
 50
134.9997
 51
225.0002
  0
ARC
  8
0
  6
CONTINUOUS
 62
     7
 10
0.99999
 20
80.10309
 40
0.52
 50
225.0003
 51
314.9998
  0
ARC
  8
0
  6
CONTINUOUS
 62
     7
 10
0.99999
 20
77.89691
 40
0.52
 50
45.00024
 51
134.9997
  0
ARC
  8
0
  6
CONTINUOUS
 62
     7
 10
-0.1031
 20
79.0
 40
0.52
 50
314.9998
 51
45.00024
  0
CIRCLE
  8
0
  6
CONTINUOUS
 62
     7
 10
10.0
 20
97.0
 40
2.25
  0
ARC
  8
0
  6
CONTINUOUS
 62
     7
 10
11.10308
 20
97.0
 40
0.52
 50
134.9998
 51
225.0002
  0
ARC
  8
0
  6
CONTINUOUS
 62
     7
 10
10.0
 20
98.10309
 40
0.52
 50
225.0002
 51
314.9998
  0
ARC
  8
0
  6
CONTINUOUS
 62
     7
 10
10.0
 20
95.89691
 40
0.52
 50
45.00022
 51
134.9998
  0
ARC
  8
0
  6
CONTINUOUS
 62
     7
 10
8.89691
 20
97.0
 40
0.52
 50
314.9998
 51
45.00022
  0
ARC
  8
0
  6
CONTINUOUS
 62
     7
 10
12.5
 20
99.5
 40
0.5
 50
0.0
 51
89.99999
  0
ARC
  8
0
  6
CONTINUOUS
 62
     7
 10
-1.50001
 20
99.5
 40
0.5
 50
89.99998
 51
180.0
  0
ARC
  8
0
  6
CONTINUOUS
 62
     7
 10
0.0
 20
-11.0
 40
2.7
 50
222.2054
 51
0.0
  0
ARC
  8
0
  6
CONTINUOUS
 62
     7
 10
0.0
 20
-11.0
 40
2.7
 50
0.0
 51
137.7946
  0
ARC
  8
0
  6
CONTINUOUS
 62
     7
 10
11.0
 20
-29.0
 40
2.7
 50
42.20544
 51
317.7946
  0
CIRCLE
  8
0
  6
CONTINUOUS
 62
     7
 10
11.0
 20
-29.0
 40
1.4
  0
CIRCLE
  8
0
  6
CONTINUOUS
 62
     7
 10
0.0
 20
-11.0
 40
1.4
  0
CIRCLE
  8
0
  6
CONTINUOUS
 62
     7
 10
5.50001
 20
7.50001
 40
1.65
  0
ARC
  8
0
  6
CONTINUOUS
 62
     7
 10
-1.5
 20
-41.0
 40
0.5
 50
180.0
 51
270.0
  0
ARC
  8
0
  6
CONTINUOUS
 62
     7
 10
12.50002
 20
-41.0
 40
0.5
 50
270.0
 51
0.0
  0
ARC
  8
0
  6
CONTINUOUS
 62
     7
 10
3.7
 20
-37.00001
 40
0.5
 50
0.0
 51
89.99998
  0
ARC
  8
0
  6
CONTINUOUS
 62
     7
 10
-1.5
 20
-36.0
 40
0.5
 50
180.0
 51
270.0
  0
ARC
  8
0
  6
CONTINUOUS
 62
     7
 10
4.7
 20
-41.0
 40
0.5
 50
180.0
 51
270.0
  0
ARC
  8
0
  6
CONTINUOUS
 62
     7
 10
1.00001
 20
-33.9
 40
5.0
 50
240.5076
 51
299.4923
  0
ARC
  8
0
  6
CONTINUOUS
 62
     7
 10
-1.13333
 20
-37.67183
 40
0.66667
 50
180.0
 51
240.5076
  0
ARC
  8
0
  6
CONTINUOUS
 62
     7
 10
3.13333
 20
-37.67183
 40
0.66667
 50
299.4924
 51
0.0
  0
ARC
  8
0
  6
CONTINUOUS
 62
     7
 10
1.00001
 20
33.49998
 40
6.0
 50
73.80868
 51
106.1913
  0
ARC
  8
0
  6
CONTINUOUS
 62
     7
 10
2.45
 20
38.49373
 40
0.8
 50
0.0
 51
73.80867
  0
ARC
  8
0
  6
CONTINUOUS
 62
     7
 10
-0.45
 20
38.49373
 40
0.8
 50
106.1914
 51
180.0
  0
ARC
  8
0
  6
CONTINUOUS
 62
     7
 10
10.00001
 20
33.49998
 40
6.0
 50
73.80865
 51
106.1913
  0
ARC
  8
0
  6
CONTINUOUS
 62
     7
 10
8.55
 20
38.49373
 40
0.8
 50
106.1913
 51
118.0138
  0
ARC
  8
0
  6
CONTINUOUS
 62
     7
 10
11.45
 20
38.49373
 40
0.8
 50
61.98621
 51
73.80872
  0
ARC
  8
0
  6
CONTINUOUS
 62
     7
 10
4.2
 20
29.0
 40
1.7
 50
89.99998
 51
270.0
  0
ARC
  8
0
  6
CONTINUOUS
 62
     7
 10
6.80001
 20
29.0
 40
1.7
 50
270.0
 51
89.99998
  0
CIRCLE
  8
0
  6
CONTINUOUS
 62
     7
 10
4.2
 20
29.0
 40
0.85
  0
CIRCLE
  8
0
  6
CONTINUOUS
 62
     7
 10
6.80001
 20
29.0
 40
0.85
  0
ARC
  8
0
  6
CONTINUOUS
 62
     7
 10
-109.5
 20
-41.0
 40
0.5
 50
180.0
 51
270.0
  0
ARC
  8
0
  6
CONTINUOUS
 62
     7
 10
-86.5
 20
-41.0
 40
0.5
 50
270.0
 51
0.0
  0
ARC
  8
0
  6
CONTINUOUS
 62
     7
 10
-91.7
 20
-37.00001
 40
0.5
 50
89.99999
 51
180.0
  0
ARC
  8
0
  6
CONTINUOUS
 62
     7
 10
-92.7
 20
-41.0
 40
0.5
 50
270.0
 51
0.0
  0
ARC
  8
0
  6
CONTINUOUS
 62
     7
 10
-86.5
 20
-36.0
 40
0.5
 50
270.0
 51
0.0
  0
ARC
  8
0
  6
CONTINUOUS
 62
     7
 10
-89.00001
 20
-33.9
 40
5.0
 50
240.5076
 51
299.4923
  0
ARC
  8
0
  6
CONTINUOUS
 62
     7
 10
-91.13334
 20
-37.67183
 40
0.66666
 50
180.0
 51
240.5073
  0
ARC
  8
0
  6
CONTINUOUS
 62
     7
 10
-86.86668
 20
-37.67183
 40
0.66666
 50
299.4921
 51
0.0
  0
ARC
  8
0
  6
CONTINUOUS
 62
     7
 10
-89.00001
 20
33.49999
 40
6.0
 50
73.80869
 51
106.1913
  0
ARC
  8
0
  6
CONTINUOUS
 62
     7
 10
-87.55
 20
38.49374
 40
0.8
 50
0.0
 51
73.80872
  0
ARC
  8
0
  6
CONTINUOUS
 62
     7
 10
-90.45
 20
38.49374
 40
0.8
 50
106.1913
 51
180.0
  0
ARC
  8
0
  6
CONTINUOUS
 62
     7
 10
-107.0
 20
33.49998
 40
6.0
 50
73.80862
 51
106.1913
  0
ARC
  8
0
  6
CONTINUOUS
 62
     7
 10
-108.45
 20
38.49373
 40
0.8
 50
106.1913
 51
118.0138
  0
ARC
  8
0
  6
CONTINUOUS
 62
     7
 10
-105.55
 20
38.49373
 40
0.8
 50
61.98621
 51
73.80872
  0
ARC
  8
0
  6
CONTINUOUS
 62
     7
 10
-84.5
 20
30.2
 40
0.5
 50
0.0
 51
89.99999
  0
ARC
  8
0
  6
CONTINUOUS
 62
     7
 10
-84.5
 20
27.8
 40
0.5
 50
270.0
 51
0.0
  0
ARC
  8
0
  6
CONTINUOUS
 62
     7
 10
86.50001
 20
-41.0
 40
0.5
 50
180.0
 51
270.0
  0
ARC
  8
0
  6
CONTINUOUS
 62
     7
 10
109.5
 20
-41.0
 40
0.5
 50
270.0
 51
0.0
  0
ARC
  8
0
  6
CONTINUOUS
 62
     7
 10
104.3
 20
-37.00002
 40
0.5
 50
89.99999
 51
180.0
  0
ARC
  8
0
  6
CONTINUOUS
 62
     7
 10
103.3
 20
-41.0
 40
0.5
 50
270.0
 51
0.0
  0
ARC
  8
0
  6
CONTINUOUS
 62
     7
 10
109.5
 20
-36.0
 40
0.5
 50
270.0
 51
0.0
  0
ARC
  8
0
  6
CONTINUOUS
 62
     7
 10
107.0
 20
-33.9
 40
5.0
 50
240.5076
 51
299.4923
  0
ARC
  8
0
  6
CONTINUOUS
 62
     7
 10
104.8667
 20
-37.67183
 40
0.66666
 50
180.0
 51
240.5073
  0
ARC
  8
0
  6
CONTINUOUS
 62
     7
 10
109.1333
 20
-37.67183
 40
0.66666
 50
299.4921
 51
0.0
  0
ARC
  8
0
  6
CONTINUOUS
 62
     7
 10
107.0
 20
33.49999
 40
6.0
 50
73.80869
 51
106.1913
  0
ARC
  8
0
  6
CONTINUOUS
 62
     7
 10
108.45
 20
38.49374
 40
0.8
 50
0.0
 51
73.80872
  0
ARC
  8
0
  6
CONTINUOUS
 62
     7
 10
105.55
 20
38.49374
 40
0.8
 50
106.1913
 51
180.0
  0
ARC
  8
0
  6
CONTINUOUS
 62
     7
 10
88.99999
 20
33.49998
 40
6.0
 50
73.80862
 51
106.1913
  0
ARC
  8
0
  6
CONTINUOUS
 62
     7
 10
87.55
 20
38.49372
 40
0.8
 50
106.1913
 51
118.0138
  0
ARC
  8
0
  6
CONTINUOUS
 62
     7
 10
90.45
 20
38.49372
 40
0.8
 50
61.98621
 51
73.80872
  0
ARC
  8
0
  6
CONTINUOUS
 62
     7
 10
84.50001
 20
30.2
 40
0.5
 50
89.99999
 51
180.0
  0
ARC
  8
0
  6
CONTINUOUS
 62
     7
 10
84.50001
 20
27.79999
 40
0.5
 50
180.0
 51
270.0
  0
ARC
  8
0
  6
CONTINUOUS
 62
     7
 10
1.00002
 20
-86.0
 40
3.2
 50
270.0
 51
0.0
  0
ARC
  8
0
  6
CONTINUOUS
 62
     7
 10
10.00002
 20
-104.0
 40
3.2
 50
89.99997
 51
180.0
  0
ARC
  8
0
  6
CONTINUOUS
 62
     7
 10
-1.50002
 20
-106.5
 40
0.5
 50
180.0
 51
269.9999
  0
ARC
  8
0
  6
CONTINUOUS
 62
     7
 10
10.58098
 20
-93.77332
 40
0.17673
 50
291.688
 51
0.0
  0
ARC
  8
0
  6
CONTINUOUS
 62
     7
 10
2.05373
 20
-94.24668
 40
0.35346
 50
0.0
 51
89.99999
  0
ARC
  8
0
  6
CONTINUOUS
 62
     7
 10
4.9698
 20
-96.14654
 40
0.35346
 50
270.0
 51
0.0
  0
ARC
  8
0
  6
CONTINUOUS
 62
     7
 10
4.79305
 20
-94.42341
 40
0.53019
 50
0.0
 51
89.99999
  0
ARC
  8
0
  6
CONTINUOUS
 62
     7
 10
8.0184
 20
-94.24669
 40
0.35346
 50
0.0
 51
89.99999
  0
ARC
  8
0
  6
CONTINUOUS
 62
     7
 10
8.0184
 20
-94.52908
 40
0.35346
 50
295.0001
 51
0.0
  0
ARC
  8
0
  6
CONTINUOUS
 62
     7
 10
10.75774
 20
-93.89322
 40
0.53019
 50
291.6882
 51
0.0
  0
ARC
  8
0
  6
CONTINUOUS
 62
     7
 10
2.99998
 20
-81.5
 40
0.5
 50
89.99999
 51
180.0
  0
ARC
  8
0
  6
CONTINUOUS
 62
     7
 10
7.99998
 20
-81.5
 40
0.5
 50
0.0
 51
89.99999
  0
ARC
  8
0
  6
CONTINUOUS
 62
     7
 10
12.49998
 20
-106.5
 40
0.5
 50
270.0
 51
0.0
  0
CIRCLE
  8
0
  6
CONTINUOUS
 62
     7
 10
1.00002
 20
-85.99999
 40
2.8
  0
ARC
  8
0
  6
CONTINUOUS
 62
     7
 10
-0.27278
 20
-85.99999
 40
0.6
 50
315.0
 51
44.99992
  0
ARC
  8
0
  6
CONTINUOUS
 62
     7
 10
1.00002
 20
-87.27279
 40
0.6
 50
44.99993
 51
135.0001
  0
ARC
  8
0
  6
CONTINUOUS
 62
     7
 10
1.00002
 20
-84.7272
 40
0.6
 50
224.9999
 51
315.0
  0
ARC
  8
0
  6
CONTINUOUS
 62
     7
 10
2.27281
 20
-85.99999
 40
0.6
 50
135.0001
 51
224.9999
  0
CIRCLE
  8
0
  6
CONTINUOUS
 62
     7
 10
10.0
 20
-104.0
 40
2.8
  0
ARC
  8
0
  6
CONTINUOUS
 62
     7
 10
8.7272
 20
-104.0
 40
0.6
 50
315.0
 51
44.99994
  0
ARC
  8
0
  6
CONTINUOUS
 62
     7
 10
10.0
 20
-105.2728
 40
0.6
 50
44.99994
 51
135.0001
  0
ARC
  8
0
  6
CONTINUOUS
 62
     7
 10
10.0
 20
-102.7272
 40
0.6
 50
224.9999
 51
315.0
  0
ARC
  8
0
  6
CONTINUOUS
 62
     7
 10
11.2728
 20
-104.0
 40
0.6
 50
135.0001
 51
224.9999
  0
TEXT
  8
0
  6
CONTINUOUS
 62
     7
 10
114.5353
 20
118.1347
 40
4.24264
  1
DATE : AUG ,1989
 41
0.8
  7
STANDARD
  0
TEXT
  8
0
  6
CONTINUOUS
 62
     7
 10
-166.465
 20
117.7787
 40
5.0
  1
A110-4E1
 41
0.8
  7
STANDARD
  0
TEXT
  8
0
  6
CONTINUOUS
 62
     7
 10
-163.694
 20
90.14462
 40
5.0
  1
MODEL : A110-4E1
 41
0.8
  7
STANDARD
  0
ENDSEC
  0
EOF
