  0
SECTION
  2
HEADER
  9
$ACADVER
  1
AC1009
  9
$INSBASE
 10
0.0
 20
0.0
 30
0.0
  9
$EXTMIN
 10
-194.25
 20
-133.5
 30
0.0
  9
$EXTMAX
 10
194.80000305
 20
132.6000061
 30
0.0
  9
$LIMMIN
 10
-194.25
 20
-133.5
  9
$LIMMAX
 10
194.80000305
 20
132.6000061
  9
$ORTHOMODE
 70
       0
  9
$REGENMODE
 70
       1
  9
$FILLMODE
 70
       1
  9
$QTEXTMODE
 70
       0
  9
$MIRRTEXT
 70
       1
  9
$DRAGMODE
 70
       2
  9
$LTSCALE
 40
1.0
  9
$OSMODE
 70
       0
  9
$ATTMODE
 70
       1
  9
$TEXTSIZE
 40
3.20000005
  9
$TRACEWID
 40
0.05
  9
$TEXTSTYLE
  7
MX_NOTE_STANDARD
  9
$CLAYER
  8
0
  9
$CELTYPE
  6
CONTINUOUS
  9
$CECOLOR
 62
     256
  9
$DIMSCALE
 40
1.0
  9
$DIMASZ
 40
2.5
  9
$DIMEXO
 40
1.5
  9
$DIMDLI
 40
3.75
  9
$DIMRND
 40
0.0
  9
$DIMDLE
 40
0.0
  9
$DIMEXE
 40
1.5
  9
$DIMTP
 40
0.0
  9
$DIMTM
 40
0.0
  9
$DIMTXT
 40
3.20000005
  9
$DIMCEN
 40
2.5
  9
$DIMTSZ
 40
0.0
  9
$DIMTOL
 70
       0
  9
$DIMLIM
 70
       0
  9
$DIMTIH
 70
       0
  9
$DIMTOH
 70
       0
  9
$DIMSE1
 70
       0
  9
$DIMSE2
 70
       0
  9
$DIMTAD
 70
       1
  9
$DIMZIN
 70
       8
  9
$DIMBLK
  1

  9
$DIMASO
 70
       1
  9
$DIMSHO
 70
       1
  9
$DIMPOST
  1

  9
$DIMAPOST
  1

  9
$DIMALT
 70
       0
  9
$DIMALTD
 70
       4
  9
$DIMALTF
 40
0.0394
  9
$DIMLFAC
 40
1.0
  9
$DIMTOFL
 70
       1
  9
$DIMTVP
 40
0.0
  9
$DIMTIX
 70
       0
  9
$DIMSOXD
 70
       0
  9
$DIMSAH
 70
       0
  9
$DIMBLK1
  1

  9
$DIMBLK2
  1

  9
$DIMSTYLE
  2
MXDIMSTYLE
  9
$DIMCLRD
 70
       0
  9
$DIMCLRE
 70
       0
  9
$DIMCLRT
 70
       0
  9
$DIMTFAC
 40
1.0
  9
$DIMGAP
 40
1.0
  9
$LUNITS
 70
       2
  9
$LUPREC
 70
       4
  9
$AXISMODE
 70
       0
  9
$AXISUNIT
 10
0.0
 20
0.0
  9
$SKETCHINC
 40
0.1
  9
$FILLETRAD
 40
0.0
  9
$AUNITS
 70
       0
  9
$AUPREC
 70
       0
  9
$MENU
  1
acad
  9
$ELEVATION
 40
0.0
  9
$PELEVATION
 40
0.0
  9
$THICKNESS
 40
0.0
  9
$LIMCHECK
 70
       0
  9
$BLIPMODE
 70
       1
  9
$CHAMFERA
 40
0.0
  9
$CHAMFERB
 40
0.0
  9
$SKPOLY
 70
       0
  9
$TDCREATE
 40
2452884.695717593
  9
$TDUPDATE
 40
2452884.695717593
  9
$TDINDWG
 40
0.0000000000
  9
$TDUSRTIMER
 40
0.0000000000
  9
$USRTIMER
 70
       1
  9
$ANGBASE
 50
0.0
  9
$ANGDIR
 70
       0
  9
$PDMODE
 70
       0
  9
$PDSIZE
 40
0.0
  9
$PLINEWID
 40
0.0
  9
$COORDS
 70
       1
  9
$SPLFRAME
 70
       0
  9
$SPLINETYPE
 70
       6
  9
$SPLINESEGS
 70
       8
  9
$ATTDIA
 70
       0
  9
$ATTREQ
 70
       1
  9
$HANDLING
 70
       1
  9
$HANDSEED
  5
1CF
  9
$SURFTAB1
 70
       6
  9
$SURFTAB2
 70
       6
  9
$SURFTYPE
 70
       6
  9
$SURFU
 70
       6
  9
$SURFV
 70
       6
  9
$UCSNAME
  2

  9
$UCSORG
 10
0.0
 20
0.0
 30
0.0
  9
$UCSXDIR
 10
1.0
 20
0.0
 30
0.0
  9
$UCSYDIR
 10
0.0
 20
1.0
 30
0.0
  9
$PUCSNAME
  2

  9
$PUCSORG
 10
0.0
 20
0.0
 30
0.0
  9
$PUCSXDIR
 10
1.0
 20
0.0
 30
0.0
  9
$PUCSYDIR
 10
0.0
 20
1.0
 30
0.0
  9
$USERI1
 70
       0
  9
$USERI2
 70
       0
  9
$USERI3
 70
       0
  9
$USERI4
 70
       0
  9
$USERI5
 70
       0
  9
$USERR1
 40
0.0
  9
$USERR2
 40
0.0
  9
$USERR3
 40
0.0
  9
$USERR4
 40
0.0
  9
$USERR5
 40
0.0
  9
$WORLDVIEW
 70
       1
  9
$SHADEDGE
 70
       3
  9
$SHADEDIF
 70
      70
  9
$TILEMODE
 70
       1
  9
$MAXACTVP
 70
      16
  9
$PINSBASE
 10
0.0
 20
0.0
 30
0.0
  9
$PLIMCHECK
 70
       0
  9
$PEXTMIN
 10
1.00000000E+20
 20
1.00000000E+20
 30
1.00000000E+20
  9
$PEXTMAX
 10
-1.00000000E+20
 20
-1.00000000E+20
 30
-1.00000000E+20
  9
$PLIMMIN
 10
0.0
 20
0.0
  9
$PLIMMAX
 10
12.0
 20
9.0
  9
$UNITMODE
 70
       0
  9
$VISRETAIN
 70
       0
  9
$PLINEGEN
 70
       1
  9
$PSLTSCALE
 70
       0
  9
$TREEDEPTH
 70
    3020
  9
$DWGCODEPAGE
  3
dos932
  0
ENDSEC
  0
SECTION
  2
TABLES
  0
TABLE
  2
VPORT
 70
       1
  0
VPORT
  2
*ACTIVE
 70
       0
 10
0.0
 20
0.0
 11
1.0
 21
1.0
 12
0.27500153
 22
-0.44999695
 13
0.0
 23
0.0
 14
1.0
 24
1.0
 15
0.0
 25
0.0
 16
0.0
 26
0.0
 36
1.0
 17
0.0
 27
0.0
 37
0.0
 40
268.76100616
 41
1.73205081
 42
50.0
 43
0.0
 44
0.0
 50
0.0
 51
0.0
 71
       0
 72
     100
 73
       1
 74
       1
 75
       0
 76
       0
 77
       0
 78
       0
  0
ENDTAB
  0
TABLE
  2
LTYPE
 70
       3
  0
LTYPE
  2
CONTINUOUS
 70
      64
  3
Solid line
 72
      65
 73
       0
 40
0.0
  0
LTYPE
  2
PHANTOM
 70
      64
  3
Phantom ______  __  __  ______  __  __  ______
 72
      65
 73
       6
 40
63.5
 49
31.75
 49
-6.35
 49
6.35
 49
-6.35
 49
6.35
 49
-6.35
  0
LTYPE
  2
CENTER
 70
      64
  3
Center ____ _ ____ _ ____ _ ____ _ ____ _ ____
 72
      65
 73
       4
 40
50.8
 49
31.75
 49
-6.35
 49
6.35
 49
-6.35
  0
ENDTAB
  0
TABLE
  2
LAYER
 70
       2
  0
LAYER
  2
0
 70
       0
 62
       7
  6
CONTINUOUS
  0
LAYER
  2
DEFPOINTS
 70
       0
 62
       7
  6
CONTINUOUS
  0
ENDTAB
  0
TABLE
  2
STYLE
 70
       1
  0
STYLE
  2
MX_NOTE_STANDARD
 70
       0
 40
3.20000005
 41
1.0
 50
0.0
 71
       0
 42
3.20000005
  3
txt.shx
  4
extfont.shx
  0
ENDTAB
  0
TABLE
  2
VIEW
 70
       0
  0
ENDTAB
  0
TABLE
  2
UCS
 70
       0
  0
ENDTAB
  0
TABLE
  2
APPID
 70
       1
  0
APPID
  2
ACAD
 70
       0
  0
ENDTAB
  0
TABLE
  2
DIMSTYLE
 70
       1
  0
DIMSTYLE
  2
MXDIMSTYLE
 70
       0
  3

  4

  5

  6

  7

 40
1.0
 41
2.5
 42
1.5
 43
3.75
 44
1.5
 45
0.0
 46
0.0
 47
0.0
 48
0.0
 71
       0
 72
       0
 73
       0
 74
       0
 75
       0
 76
       0
 77
       1
 78
       8
140
3.20000005
141
2.5
142
0.0
143
0.0394
144
1.0
145
0.0
146
1.0
147
1.0
170
       0
171
       4
172
       1
173
       0
174
       0
175
       0
176
       0
177
       0
178
       0
  0
ENDTAB
  0
ENDSEC
  0
SECTION
  2
BLOCKS
  0
ENDSEC
  0
SECTION
  2
ENTITIES
  0
ARC
  8
0
  6
CONTINUOUS
 62
       7
  5
1E
 10
3.22732332
 20
-53.90541407
 30
0.0
 40
3.49873777
 50
0.08648299
 51
27.31095102
  0
ARC
  8
0
  6
CONTINUOUS
 62
       7
  5
1F
 10
3.22731935
 20
-53.90044269
 30
0.0
 40
3.49873777
 50
152.78063657
 51
0.00507112
  0
LINE
  8
0
  6
CONTINUOUS
 62
       7
  5
20
 10
0.11602535
 20
-52.30012534
 30
0.0
 11
6.33605523
 21
-52.30012534
 31
0.0
  0
ARC
  8
0
  6
CONTINUOUS
 62
       7
  5
21
 10
119.15501874
 20
-51.79998436
 30
0.0
 40
0.49999542
 50
-90.00052456
 51
0.00052456
  0
LINE
  8
0
  6
CONTINUOUS
 62
       7
  5
22
 10
120.65501416
 20
-57.39997978
 30
0.0
 11
119.69501416
 21
-57.39997978
 31
0.0
  0
LINE
  8
0
  6
CONTINUOUS
 62
       7
  5
23
 10
119.69501416
 20
-57.39997978
 30
0.0
 11
119.15501416
 21
-55.89997978
 31
0.0
  0
LINE
  8
0
  6
CONTINUOUS
 62
       7
  5
24
 10
119.15501416
 20
-52.29997978
 30
0.0
 11
119.15501416
 21
-55.89997978
 31
0.0
  0
LINE
  8
0
  6
CONTINUOUS
 62
       7
  5
25
 10
119.65501416
 20
-50.39997978
 30
0.0
 11
119.65501416
 21
-51.79997978
 31
0.0
  0
LINE
  8
0
  6
CONTINUOUS
 62
       7
  5
26
 10
119.65501416
 20
-1.89997978
 30
0.0
 11
119.65501416
 21
-43.89997978
 31
0.0
  0
LINE
  8
0
  6
CONTINUOUS
 62
       7
  5
27
 10
119.65501416
 20
11.60002022
 30
0.0
 11
119.65501416
 21
4.60002022
 31
0.0
  0
LINE
  8
0
  6
CONTINUOUS
 62
       7
  5
28
 10
120.65501416
 20
-57.39997978
 30
0.0
 11
120.65501416
 21
11.60002022
 31
0.0
  0
LINE
  8
0
  6
CONTINUOUS
 62
       7
  5
29
 10
120.65501416
 20
11.60002022
 30
0.0
 11
119.65501416
 21
11.60002022
 31
0.0
  0
ARC
  8
0
  6
CONTINUOUS
 62
       7
  5
2A
 10
-114.77396117
 20
-51.79998436
 30
0.0
 40
0.49999542
 50
179.99947544
 51
270.00052456
  0
LINE
  8
0
  6
CONTINUOUS
 62
       7
  5
2B
 10
-116.27395659
 20
-57.39997978
 30
0.0
 11
-115.31395659
 21
-57.39997978
 31
0.0
  0
LINE
  8
0
  6
CONTINUOUS
 62
       7
  5
2C
 10
-115.31395659
 20
-57.39997978
 30
0.0
 11
-114.77395659
 21
-55.89997978
 31
0.0
  0
LINE
  8
0
  6
CONTINUOUS
 62
       7
  5
2D
 10
-114.77395659
 20
-52.29997978
 30
0.0
 11
-114.77395659
 21
-55.89997978
 31
0.0
  0
LINE
  8
0
  6
CONTINUOUS
 62
       7
  5
2E
 10
-116.27395659
 20
-57.39997978
 30
0.0
 11
-116.27395659
 21
11.60002022
 31
0.0
  0
LINE
  8
0
  6
CONTINUOUS
 62
       7
  5
2F
 10
-115.27395659
 20
-50.39997978
 30
0.0
 11
-115.27395659
 21
-51.79997978
 31
0.0
  0
LINE
  8
0
  6
CONTINUOUS
 62
       7
  5
30
 10
-115.27395659
 20
-1.89997978
 30
0.0
 11
-115.27395659
 21
-43.89997978
 31
0.0
  0
LINE
  8
0
  6
CONTINUOUS
 62
       7
  5
31
 10
-115.27395659
 20
11.60002022
 30
0.0
 11
-115.27395659
 21
4.60002022
 31
0.0
  0
LINE
  8
0
  6
CONTINUOUS
 62
       7
  5
32
 10
-116.27395659
 20
11.60002022
 30
0.0
 11
-115.27395659
 21
11.60002022
 31
0.0
  0
LINE
  8
0
  6
PHANTOM
 62
       2
  5
34
 10
-13.78029902
 20
-58.40149368
 30
0.0
 11
20.21723799
 21
-58.40149368
 31
0.0
  0
LINE
  8
0
  6
PHANTOM
 62
       2
  5
35
 10
-13.78029902
 20
12.59169923
 30
0.0
 11
-4.27682778
 21
12.59169923
 31
0.0
  0
LINE
  8
0
  6
PHANTOM
 62
       2
  5
36
 10
-13.78029902
 20
12.59169923
 30
0.0
 11
-13.78029902
 21
-58.40149368
 31
0.0
  0
LINE
  8
0
  6
PHANTOM
 62
       2
  5
37
 10
20.21723799
 20
12.59169923
 30
0.0
 11
20.21723799
 21
-58.40149368
 31
0.0
  0
LINE
  8
0
  6
PHANTOM
 62
       2
  5
38
 10
10.71376674
 20
12.59169923
 30
0.0
 11
20.21723799
 21
12.59169923
 31
0.0
  0
LINE
  8
0
  6
CENTER
 62
       2
  5
3A
 10
-13.78029902
 20
-0.89983584
 30
0.0
 11
-6.77997422
 21
-0.89983584
 31
0.0
  0
LINE
  8
0
  6
CENTER
 62
       2
  5
3B
 10
13.21691319
 20
-32.90334093
 30
0.0
 11
20.21723799
 21
-32.90334093
 31
0.0
  0
LINE
  8
0
  6
CENTER
 62
       2
  5
3C
 10
16.72414662
 20
-29.41024956
 30
0.0
 11
16.72414662
 21
-36.41057436
 31
0.0
  0
LINE
  8
0
  6
CENTER
 62
       2
  5
3D
 10
-10.28720765
 20
2.59325553
 30
0.0
 11
-10.28720765
 21
-4.40706927
 31
0.0
  0
LINE
  8
0
  6
PHANTOM
 62
       2
  5
3E
 10
-116.27424307
 20
12.59169923
 30
0.0
 11
-116.27424307
 21
11.58761224
 31
0.0
  0
LINE
  8
0
  6
PHANTOM
 62
       2
  5
3F
 10
-146.26957418
 20
12.59169923
 30
0.0
 11
-116.27424307
 21
12.59169923
 31
0.0
  0
LINE
  8
0
  6
PHANTOM
 62
       2
  5
40
 10
-146.26957418
 20
-58.40149368
 30
0.0
 11
-116.27424307
 21
-58.40149368
 31
0.0
  0
LINE
  8
0
  6
PHANTOM
 62
       2
  5
41
 10
-146.26957418
 20
12.59169923
 30
0.0
 11
-146.26957418
 21
-58.40149368
 31
0.0
  0
LINE
  8
0
  6
CENTER
 62
       2
  5
42
 10
-149.9747966
 20
-22.90489723
 30
0.0
 11
-112.03162198
 21
-22.90489723
 31
0.0
  0
LINE
  8
0
  6
CENTER
 62
       2
  5
43
 10
-144.77051473
 20
-12.90645352
 30
0.0
 11
-127.77174623
 21
-12.90645352
 31
0.0
  0
LINE
  8
0
  6
CENTER
 62
       2
  5
44
 10
-144.77051473
 20
-32.90334093
 30
0.0
 11
-127.77174623
 21
-32.90334093
 31
0.0
  0
LINE
  8
0
  6
CENTER
 62
       2
  5
45
 10
-136.27113048
 20
-4.40706927
 30
0.0
 11
-136.27113048
 21
-21.40583777
 31
0.0
  0
LINE
  8
0
  6
CENTER
 62
       2
  5
46
 10
-136.27113048
 20
-24.40395668
 30
0.0
 11
-136.27113048
 21
-41.40272518
 31
0.0
  0
LINE
  8
0
  6
PHANTOM
 62
       2
  5
47
 10
150.65584526
 20
12.59169923
 30
0.0
 11
120.64637208
 21
12.59169923
 31
0.0
  0
LINE
  8
0
  6
PHANTOM
 62
       2
  5
48
 10
150.65584526
 20
-58.40149368
 30
0.0
 11
120.64637208
 21
-58.40149368
 31
0.0
  0
LINE
  8
0
  6
PHANTOM
 62
       2
  5
49
 10
150.65584526
 20
12.59169923
 30
0.0
 11
150.65584526
 21
-58.40149368
 31
0.0
  0
LINE
  8
0
  6
CENTER
 62
       2
  5
4A
 10
135.65110867
 20
-34.40240038
 30
0.0
 11
135.65110867
 21
-51.40116888
 31
0.0
  0
LINE
  8
0
  6
PHANTOM
 62
       2
  5
4B
 10
-116.27424307
 20
-43.90587162
 30
0.0
 11
-116.27424307
 21
-50.41122396
 31
0.0
  0
LINE
  8
0
  6
CENTER
 62
       2
  5
4C
 10
-117.77330253
 20
8.09452087
 30
0.0
 11
-113.77109663
 21
8.09452087
 31
0.0
  0
LINE
  8
0
  6
PHANTOM
 62
       2
  5
4D
 10
-116.27424307
 20
4.58728744
 30
0.0
 11
-116.27424307
 21
-1.90392283
 31
0.0
  0
LINE
  8
0
  6
CENTER
 62
       2
  5
4E
 10
-117.77330253
 20
-53.90431533
 30
0.0
 11
-113.77109663
 21
-53.90431533
 31
0.0
  0
LINE
  8
0
  6
PHANTOM
 62
       2
  5
4F
 10
-116.27424307
 20
-57.41154876
 30
0.0
 11
-116.27424307
 21
-58.40149368
 31
0.0
  0
LINE
  8
0
  6
PHANTOM
 62
       2
  5
50
 10
120.64637208
 20
12.59169923
 30
0.0
 11
120.64637208
 21
11.58761224
 31
0.0
  0
LINE
  8
0
  6
PHANTOM
 62
       2
  5
51
 10
120.64637208
 20
4.58728744
 30
0.0
 11
120.64637208
 21
-1.90392283
 31
0.0
  0
LINE
  8
0
  6
PHANTOM
 62
       2
  5
52
 10
120.64637208
 20
-43.90587162
 30
0.0
 11
120.64637208
 21
-50.41122396
 31
0.0
  0
LINE
  8
0
  6
PHANTOM
 62
       2
  5
53
 10
120.64637208
 20
-57.41154876
 30
0.0
 11
120.64637208
 21
-58.40149368
 31
0.0
  0
LINE
  8
0
  6
CENTER
 62
       2
  5
54
 10
129.65487086
 20
8.09452087
 30
0.0
 11
118.14322564
 21
8.09452087
 31
0.0
  0
LINE
  8
0
  6
CENTER
 62
       2
  5
55
 10
129.65487086
 20
-53.90431533
 30
0.0
 11
118.14322564
 21
-53.90431533
 31
0.0
  0
LINE
  8
0
  6
CENTER
 62
       2
  5
56
 10
135.65110867
 20
5.59137443
 30
0.0
 11
135.65110867
 21
-11.40739407
 31
0.0
  0
LINE
  8
0
  6
CENTER
 62
       2
  5
57
 10
140.64325948
 20
-14.40551298
 30
0.0
 11
140.64325948
 21
-31.40428148
 31
0.0
  0
LINE
  8
0
  6
CENTER
 62
       2
  5
58
 10
125.65266497
 20
12.09672677
 30
0.0
 11
125.65266497
 21
4.09231498
 31
0.0
  0
LINE
  8
0
  6
CENTER
 62
       2
  5
59
 10
125.65266497
 20
-49.90210943
 30
0.0
 11
125.65266497
 21
-57.90652122
 31
0.0
  0
LINE
  8
0
  6
CENTER
 62
       2
  5
5A
 10
153.3004124
 20
-22.90489723
 30
0.0
 11
117.7143598
 21
-22.90489723
 31
0.0
  0
LINE
  8
0
  6
CENTER
 62
       2
  5
5B
 10
144.3484819
 20
-2.90800982
 30
0.0
 11
127.15172442
 21
-2.90800982
 31
0.0
  0
LINE
  8
0
  6
CENTER
 62
       2
  5
5C
 10
144.3484819
 20
-42.90178463
 30
0.0
 11
127.15172442
 21
-42.90178463
 31
0.0
  0
LINE
  8
0
  6
CENTER
 62
       2
  5
5D
 10
-1.77368133
 20
-53.90431533
 30
0.0
 11
8.22476237
 21
-53.90431533
 31
0.0
  0
CIRCLE
  8
0
  6
PHANTOM
 62
       2
  5
5E
 10
-10.27396586
 20
-0.89997135
 30
0.0
 40
2.24999878
  0
CIRCLE
  8
0
  6
PHANTOM
 62
       2
  5
5F
 10
16.72602486
 20
-32.89998754
 30
0.0
 40
2.24999878
  0
CIRCLE
  8
0
  6
PHANTOM
 62
       2
  5
60
 10
-136.27394698
 20
-12.89997203
 30
0.0
 40
6.57849924
  0
CIRCLE
  8
0
  6
PHANTOM
 62
       2
  5
61
 10
-136.27394698
 20
-32.89996596
 30
0.0
 40
6.57849924
  0
CIRCLE
  8
0
  6
PHANTOM
 62
       2
  5
62
 10
-136.27394698
 20
-12.89997203
 30
0.0
 40
5.72250002
  0
CIRCLE
  8
0
  6
PHANTOM
 62
       2
  5
63
 10
-136.27394698
 20
-32.89996596
 30
0.0
 40
5.72250002
  0
CIRCLE
  8
0
  6
PHANTOM
 62
       2
  5
64
 10
135.65500067
 20
-42.89996023
 30
0.0
 40
6.57849924
  0
CIRCLE
  8
0
  6
PHANTOM
 62
       2
  5
65
 10
135.65500067
 20
-42.89996023
 30
0.0
 40
5.72250002
  0
CIRCLE
  8
0
  6
PHANTOM
 62
       2
  5
66
 10
135.65500067
 20
-2.89996427
 30
0.0
 40
6.57849924
  0
CIRCLE
  8
0
  6
PHANTOM
 62
       2
  5
67
 10
135.65500067
 20
-2.89996427
 30
0.0
 40
5.72250002
  0
CIRCLE
  8
0
  6
PHANTOM
 62
       2
  5
68
 10
140.65500455
 20
-22.89997978
 30
0.0
 40
6.57849924
  0
CIRCLE
  8
0
  6
PHANTOM
 62
       2
  5
69
 10
140.65500455
 20
-22.89997978
 30
0.0
 40
5.72250002
  0
CIRCLE
  8
0
  6
PHANTOM
 62
       2
  5
6A
 10
125.6550145
 20
8.10003994
 30
0.0
 40
2.49999924
  0
CIRCLE
  8
0
  6
PHANTOM
 62
       2
  5
6B
 10
125.6550145
 20
-53.89996174
 30
0.0
 40
2.49999924
  0
CIRCLE
  8
0
  6
PHANTOM
 62
       2
  5
6C
 10
125.6550145
 20
8.10003994
 30
0.0
 40
1.7499992
  0
CIRCLE
  8
0
  6
PHANTOM
 62
       2
  5
6D
 10
125.6550145
 20
-53.89996174
 30
0.0
 40
1.7499992
  0
LINE
  8
0
  6
CONTINUOUS
 62
       7
  5
6E
 10
10.71376674
 20
10.30068384
 30
0.0
 11
10.71376674
 21
20.29912754
 31
0.0
  0
LINE
  8
0
  6
CONTINUOUS
 62
       7
  5
6F
 10
-4.27682778
 20
10.30068384
 30
0.0
 11
-4.27682778
 21
20.29912754
 31
0.0
  0
LINE
  8
0
  6
CONTINUOUS
 62
       7
  5
70
 10
11.22288127
 20
10.30068384
 30
0.0
 11
-4.78594231
 21
10.30068384
 31
0.0
  0
LINE
  8
0
  6
CONTINUOUS
 62
       7
  5
71
 10
-4.27682778
 20
20.29912754
 30
0.0
 11
10.71376674
 21
20.29912754
 31
0.0
  0
LINE
  8
0
  6
CENTER
 62
       2
  5
72
 10
0.22035058
 20
15.58981813
 30
0.0
 11
5.72161593
 21
15.58981813
 31
0.0
  0
CIRCLE
  8
0
  6
CONTINUOUS
 62
       7
  5
73
 10
3.22604029
 20
15.60002418
 30
0.0
 40
2.09999985
  0
LINE
  8
0
  6
CONTINUOUS
 62
       7
  5
74
 10
-3.78185532
 20
10.30068384
 30
0.0
 11
-3.78185532
 21
17.7959811
 31
0.0
  0
LINE
  8
0
  6
CONTINUOUS
 62
       7
  5
75
 10
10.21879428
 20
10.30068384
 30
0.0
 11
10.21879428
 21
17.7959811
 31
0.0
  0
LINE
  8
0
  6
CONTINUOUS
 62
       7
  5
76
 10
9.72382182
 20
18.29095356
 30
0.0
 11
6.21658839
 21
18.29095356
 31
0.0
  0
ARC
  8
0
  6
CONTINUOUS
 62
       7
  5
77
 10
3.21846948
 20
15.60002422
 30
0.0
 40
2.50316725
 50
180.23361107
 51
359.76638893
  0
LINE
  8
0
  6
CONTINUOUS
 62
       7
  5
78
 10
0.71532304
 20
15.58981813
 30
0.0
 11
0.71532304
 21
17.7959811
 31
0.0
  0
LINE
  8
0
  6
CONTINUOUS
 62
       7
  5
79
 10
5.72161593
 20
15.58981813
 30
0.0
 11
5.72161593
 21
17.7959811
 31
0.0
  0
ARC
  8
0
  6
CONTINUOUS
 62
       7
  5
7A
 10
-3.28236894
 20
17.79146718
 30
0.0
 40
0.49950677
 50
90.51777454
 51
179.48222546
  0
ARC
  8
0
  6
CONTINUOUS
 62
       7
  5
7B
 10
9.7269504
 20
17.79910968
 30
0.0
 40
0.49185383
 50
359.63555121
 51
90.36444879
  0
LINE
  8
0
  6
CONTINUOUS
 62
       7
  5
7C
 10
0.22035058
 20
18.29095356
 30
0.0
 11
-3.28688286
 21
18.29095356
 31
0.0
  0
ARC
  8
0
  6
CONTINUOUS
 62
       7
  5
7D
 10
0.22521553
 20
17.80084605
 30
0.0
 40
0.49013166
 50
359.43128421
 51
90.56871579
  0
ARC
  8
0
  6
CONTINUOUS
 62
       7
  5
7E
 10
6.21933938
 20
17.79323011
 30
0.0
 40
0.49773106
 50
90.31667912
 51
179.68332088
  0
LINE
  8
0
  6
CONTINUOUS
 62
       7
  5
7F
 10
12.21282619
 20
-1.90392283
 30
0.0
 11
-5.77588723
 21
-1.90392283
 31
0.0
  0
LINE
  8
0
  6
CONTINUOUS
 62
       7
  5
80
 10
-5.77588723
 20
-51.81128892
 30
0.0
 11
-5.77588723
 21
9.29659685
 31
0.0
  0
LINE
  8
0
  6
CONTINUOUS
 62
       7
  5
81
 10
-5.77588723
 20
9.29659685
 30
0.0
 11
-4.78594231
 21
10.30068384
 31
0.0
  0
LINE
  8
0
  6
CONTINUOUS
 62
       7
  5
82
 10
12.21282619
 20
9.29659685
 30
0.0
 11
11.22288127
 21
10.30068384
 31
0.0
  0
LINE
  8
0
  6
CONTINUOUS
 62
       7
  5
83
 10
12.21282619
 20
-51.81128892
 30
0.0
 11
12.21282619
 21
9.29659685
 31
0.0
  0
LINE
  8
0
  6
CENTER
 62
       2
  5
84
 10
3.21846948
 20
-61.3430443
 30
0.0
 11
3.21846948
 21
79.49783382
 31
0.0
  0
LINE
  8
0
  6
CONTINUOUS
 62
       7
  5
85
 10
-5.77588723
 20
-43.90587162
 30
0.0
 11
12.21282619
 21
-43.90587162
 31
0.0
  0
LINE
  8
0
  6
CENTER
 62
       2
  5
86
 10
5.72161593
 20
-7.90016064
 30
0.0
 11
13.72602772
 21
-7.90016064
 31
0.0
  0
LINE
  8
0
  6
CENTER
 62
       2
  5
87
 10
-7.27494668
 20
-37.90963382
 30
0.0
 11
0.71532304
 21
-37.90963382
 31
0.0
  0
LINE
  8
0
  6
CENTER
 62
       2
  5
88
 10
-3.28688286
 20
-41.91183971
 30
0.0
 11
-3.28688286
 21
-33.90742792
 31
0.0
  0
LINE
  8
0
  6
CENTER
 62
       2
  5
89
 10
9.72382182
 20
-11.90236653
 30
0.0
 11
9.72382182
 21
-3.91209681
 31
0.0
  0
CIRCLE
  8
0
  6
CONTINUOUS
 62
       7
  5
8A
 10
-3.27396907
 20
-37.89996984
 30
0.0
 40
1.60000027
  0
ARC
  8
0
  6
CONTINUOUS
 62
       7
  5
8B
 10
-3.27395608
 20
-37.90963382
 30
0.0
 40
2.99957233
 50
213.47818018
 51
146.52181982
  0
ARC
  8
0
  6
CONTINUOUS
 62
       7
  5
8C
 10
9.72604236
 20
-7.90723167
 30
0.0
 40
2.99087251
 50
33.75123322
 51
326.24876678
  0
CIRCLE
  8
0
  6
CONTINUOUS
 62
       7
  5
8D
 10
9.72604965
 20
-7.89998973
 30
0.0
 40
1.60000027
  0
LINE
  8
0
  6
CONTINUOUS
 62
       7
  5
8E
 10
11.71785373
 20
-52.30626138
 30
0.0
 11
-5.28091477
 21
-52.30626138
 31
0.0
  0
LINE
  8
0
  6
CENTER
 62
       2
  5
8F
 10
-2.77776832
 20
-53.31034837
 30
0.0
 11
-2.77776832
 21
-47.90807752
 31
0.0
  0
LINE
  8
0
  6
CONTINUOUS
 62
       7
  5
90
 10
0.41833956
 20
-51.81128892
 30
0.0
 11
0.41833956
 21
-49.40713697
 31
0.0
  0
LINE
  8
0
  6
CONTINUOUS
 62
       7
  5
91
 10
-0.0766329
 20
-48.91216451
 30
0.0
 11
-5.28091477
 21
-48.91216451
 31
0.0
  0
ARC
  8
0
  6
CONTINUOUS
 62
       7
  5
92
 10
11.71620219
 20
-51.80963738
 30
0.0
 40
0.49662675
 50
270.19053886
 51
359.80946114
  0
ARC
  8
0
  6
CONTINUOUS
 62
       7
  5
93
 10
-5.27178358
 20
-51.80215774
 30
0.0
 40
0.50418634
 50
181.03772548
 51
268.96227452
  0
ARC
  8
0
  6
CONTINUOUS
 62
       7
  5
94
 10
-0.07171396
 20
-49.40221803
 30
0.0
 40
0.49007821
 50
359.42491019
 51
90.57508981
  0
ARC
  8
0
  6
CONTINUOUS
 62
       7
  5
95
 10
-5.26880867
 20
-48.40522581
 30
0.0
 40
0.50708323
 50
179.7541502
 51
268.63199089
  0
ARC
  8
0
  6
CONTINUOUS
 62
       7
  5
96
 10
0.92533402
 20
-51.79926693
 30
0.0
 40
0.50713697
 50
181.3583587
 51
268.6416413
  0
LINE
  8
0
  6
CONTINUOUS
 62
       7
  5
97
 10
-5.57789824
 20
-50.07181427
 30
0.0
 11
-5.57789824
 21
-48.81317002
 31
0.0
  0
LINE
  8
0
  6
CONTINUOUS
 62
       7
  5
98
 10
0.0223616
 20
-50.07181427
 30
0.0
 11
0.0223616
 21
-48.91216451
 31
0.0
  0
ARC
  8
0
  6
CONTINUOUS
 62
       7
  5
99
 10
-2.77776832
 20
-46.2999882
 30
0.0
 40
4.99920095
 50
240.51322125
 51
299.48677875
  0
ARC
  8
0
  6
CONTINUOUS
 62
       7
  5
9A
 10
-4.90872165
 20
-50.06935301
 30
0.0
 40
0.66918112
 50
180.21073609
 51
240.47576167
  0
ARC
  8
0
  6
CONTINUOUS
 62
       7
  5
9B
 10
-0.6411383
 20
-50.07267595
 30
0.0
 40
0.66350045
 50
299.23909289
 51
0.07440935
  0
LINE
  8
0
  6
CONTINUOUS
 62
       7
  5
9C
 10
8.71973483
 20
10.7956563
 30
0.0
 11
-2.28279586
 21
10.7956563
 31
0.0
  0
LINE
  8
0
  6
CONTINUOUS
 62
       7
  5
9D
 10
8.71973483
 20
17.7959811
 30
0.0
 11
7.22067538
 21
17.7959811
 31
0.0
  0
LINE
  8
0
  6
CONTINUOUS
 62
       7
  5
9E
 10
-3.28688286
 20
11.79974329
 30
0.0
 11
-3.28688286
 21
16.79189411
 31
0.0
  0
LINE
  8
0
  6
CONTINUOUS
 62
       7
  5
9F
 10
9.72382182
 20
11.79974329
 30
0.0
 11
9.72382182
 21
16.79189411
 31
0.0
  0
ARC
  8
0
  6
CONTINUOUS
 62
       7
  5
A0
 10
8.72274363
 20
11.79673449
 30
0.0
 40
1.00108271
 50
269.82779459
 51
0.17220541
  0
ARC
  8
0
  6
CONTINUOUS
 62
       7
  5
A1
 10
8.72694356
 20
16.79910284
 30
0.0
 40
0.99690433
 50
359.58568419
 51
90.41431581
  0
ARC
  8
0
  6
CONTINUOUS
 62
       7
  5
A2
 10
-2.27823007
 20
11.80430909
 30
0.0
 40
1.00866312
 50
180.25935494
 51
269.74064506
  0
ARC
  8
0
  6
CONTINUOUS
 62
       7
  5
A3
 10
-2.28239836
 20
16.79149661
 30
0.0
 40
1.00448457
 50
90.02267353
 51
179.97732647
  0
ARC
  8
0
  6
CONTINUOUS
 62
       7
  5
A4
 10
3.21846948
 20
15.80001919
 30
0.0
 40
2.99814378
 50
180.23337851
 51
359.76662149
  0
LINE
  8
0
  6
CONTINUOUS
 62
       7
  5
A5
 10
0.22035058
 20
15.78780712
 30
0.0
 11
0.22035058
 21
16.79189411
 31
0.0
  0
LINE
  8
0
  6
CONTINUOUS
 62
       7
  5
A6
 10
6.21658839
 20
15.78780712
 30
0.0
 11
6.21658839
 21
16.79189411
 31
0.0
  0
ARC
  8
0
  6
CONTINUOUS
 62
       7
  5
A7
 10
7.21932346
 20
16.79324603
 30
0.0
 40
1.00273598
 50
89.92275204
 51
180.07724796
  0
LINE
  8
0
  6
CONTINUOUS
 62
       7
  5
A8
 10
-2.28279586
 20
17.7959811
 30
0.0
 11
-0.78373641
 21
17.7959811
 31
0.0
  0
ARC
  8
0
  6
CONTINUOUS
 62
       7
  5
A9
 10
-0.77479136
 20
16.80083917
 30
0.0
 40
0.99518214
 50
359.48499789
 51
90.51500211
  0
LINE
  8
0
  6
CONTINUOUS
 62
       7
  5
AA
 10
1.13958515
 20
15.29283466
 30
0.0
 11
5.29735382
 21
15.29283466
 31
0.0
  0
LINE
  8
0
  6
CONTINUOUS
 62
       7
  5
AB
 10
1.13958515
 20
15.88680161
 30
0.0
 11
5.29735382
 21
15.88680161
 31
0.0
  0
LINE
  8
0
  6
CONTINUOUS
 62
       7
  5
AC
 10
3.51545296
 20
13.5109338
 30
0.0
 11
3.51545296
 21
14.48673665
 31
0.0
  0
LINE
  8
0
  6
CONTINUOUS
 62
       7
  5
AD
 10
2.92148601
 20
13.5109338
 30
0.0
 11
2.92148601
 21
14.48673665
 31
0.0
  0
LINE
  8
0
  6
CONTINUOUS
 62
       7
  5
AE
 10
2.92148601
 20
14.48673665
 30
0.0
 11
3.51545296
 21
14.48673665
 31
0.0
  0
ARC
  8
0
  6
CONTINUOUS
 62
       7
  5
AF
 10
-1.77910092
 20
44.49873418
 30
0.0
 40
4.49468223
 50
96.43434675
 51
110.94575248
  0
ARC
  8
0
  6
CONTINUOUS
 62
       7
  5
B0
 10
-3.03047935
 20
47.7637258
 30
0.0
 40
0.99809703
 50
110.85937947
 51
148.42897044
  0
ARC
  8
0
  6
CONTINUOUS
 62
       7
  5
B1
 10
8.23618076
 20
44.4975385
 30
0.0
 40
4.49365847
 50
69.13113021
 51
83.82254849
  0
ARC
  8
0
  6
CONTINUOUS
 62
       7
  5
B2
 10
9.47360081
 20
47.77118742
 30
0.0
 40
0.98892795
 50
31.3902437
 51
69.32140638
  0
LINE
  8
0
  6
CONTINUOUS
 62
       7
  5
B3
 10
-0.8827309
 20
48.30042674
 30
0.0
 11
-0.8827309
 21
37.29789605
 31
0.0
  0
LINE
  8
0
  6
CONTINUOUS
 62
       7
  5
B4
 10
7.31966987
 20
48.30042674
 30
0.0
 11
7.31966987
 21
37.29789605
 31
0.0
  0
LINE
  8
0
  6
CONTINUOUS
 62
       7
  5
B5
 10
-0.8827309
 20
37.29789605
 30
0.0
 11
7.31966987
 21
37.29789605
 31
0.0
  0
LINE
  8
0
  6
CONTINUOUS
 62
       7
  5
B6
 10
-3.66871875
 20
34.38462956
 30
0.0
 11
-3.66871875
 21
47.79131221
 31
0.0
  0
LINE
  8
0
  6
CONTINUOUS
 62
       7
  5
B7
 10
10.10565772
 20
34.38462956
 30
0.0
 11
10.10565772
 21
47.79131221
 31
0.0
  0
LINE
  8
0
  6
CONTINUOUS
 62
       7
  5
B8
 10
7.31966987
 20
39.19293347
 30
0.0
 11
7.22067538
 21
39.19293347
 31
0.0
  0
LINE
  8
0
  6
CONTINUOUS
 62
       7
  5
B9
 10
7.31966987
 20
40.49400393
 30
0.0
 11
7.22067538
 21
40.49400393
 31
0.0
  0
LINE
  8
0
  6
CONTINUOUS
 62
       7
  5
BA
 10
-0.78373641
 20
40.49400393
 30
0.0
 11
-0.8827309
 21
40.49400393
 31
0.0
  0
LINE
  8
0
  6
CONTINUOUS
 62
       7
  5
BB
 10
9.86524252
 20
32.80071769
 30
0.0
 11
-3.42830356
 21
32.80071769
 31
0.0
  0
LINE
  8
0
  6
CONTINUOUS
 62
       7
  5
BC
 10
10.21879428
 20
48.30042674
 30
0.0
 11
7.22067538
 21
48.30042674
 31
0.0
  0
LINE
  8
0
  6
CONTINUOUS
 62
       7
  5
BD
 10
10.71376674
 20
20.7941
 30
0.0
 11
10.71376674
 21
47.79131221
 31
0.0
  0
LINE
  8
0
  6
CONTINUOUS
 62
       7
  5
BE
 10
-4.27682778
 20
20.7941
 30
0.0
 11
-4.27682778
 21
47.79131221
 31
0.0
  0
LINE
  8
0
  6
CONTINUOUS
 62
       7
  5
BF
 10
-2.28279586
 20
31.7966307
 30
0.0
 11
8.71973483
 21
31.7966307
 31
0.0
  0
LINE
  8
0
  6
CONTINUOUS
 62
       7
  5
C0
 10
8.71973483
 20
31.7966307
 30
0.0
 11
8.71973483
 21
22.78813192
 31
0.0
  0
LINE
  8
0
  6
CONTINUOUS
 62
       7
  5
C1
 10
-2.28279586
 20
31.7966307
 30
0.0
 11
-2.28279586
 21
22.78813192
 31
0.0
  0
LINE
  8
0
  6
CONTINUOUS
 62
       7
  5
C2
 10
-2.28279586
 20
22.78813192
 30
0.0
 11
8.71973483
 21
22.78813192
 31
0.0
  0
LINE
  8
0
  6
CONTINUOUS
 62
       7
  5
C3
 10
9.86524252
 20
21.75576078
 30
0.0
 11
-3.42830356
 21
21.75576078
 31
0.0
  0
LINE
  8
0
  6
CONTINUOUS
 62
       7
  5
C4
 10
9.61068526
 20
33.8896571
 30
0.0
 11
-3.17374629
 21
33.8896571
 31
0.0
  0
LINE
  8
0
  6
CONTINUOUS
 62
       7
  5
C5
 10
10.37435706
 20
22.25073325
 30
0.0
 11
10.37435706
 21
33.0835591
 31
0.0
  0
LINE
  8
0
  6
CONTINUOUS
 62
       7
  5
C6
 10
7.31966987
 20
38.28784097
 30
0.0
 11
7.22067538
 21
38.28784097
 31
0.0
  0
LINE
  8
0
  6
CONTINUOUS
 62
       2
  5
C7
 10
9.99252116
 20
33.8896571
 30
0.0
 11
10.14808393
 21
33.23912187
 31
0.0
  0
LINE
  8
0
  6
CONTINUOUS
 62
       2
  5
C8
 10
-3.55558219
 20
33.8896571
 30
0.0
 11
-3.71114496
 21
33.23912187
 31
0.0
  0
LINE
  8
0
  6
CONTINUOUS
 62
       2
  5
C9
 10
10.26122049
 20
21.75576078
 30
0.0
 11
10.50163569
 21
20.73753172
 31
0.0
  0
LINE
  8
0
  6
CONTINUOUS
 62
       2
  5
CA
 10
-3.82428153
 20
21.75576078
 30
0.0
 11
-4.06469672
 21
20.73753172
 31
0.0
  0
LINE
  8
0
  6
CONTINUOUS
 62
       7
  5
CB
 10
10.37435706
 20
33.0835591
 30
0.0
 11
10.21879428
 21
32.94213839
 31
0.0
  0
LINE
  8
0
  6
CONTINUOUS
 62
       7
  5
CC
 10
-3.93741809
 20
22.25073325
 30
0.0
 11
-3.93741809
 21
33.0835591
 31
0.0
  0
LINE
  8
0
  6
CONTINUOUS
 62
       7
  5
CD
 10
-3.93741809
 20
33.0835591
 30
0.0
 11
-3.78185532
 21
32.94213839
 31
0.0
  0
LINE
  8
0
  6
CONTINUOUS
 62
       2
  5
CE
 10
10.43092534
 20
48.14486397
 30
0.0
 11
10.10565772
 21
48.14486397
 31
0.0
  0
LINE
  8
0
  6
CONTINUOUS
 62
       2
  5
CF
 10
-3.99398637
 20
48.14486397
 30
0.0
 11
-3.66871875
 21
48.14486397
 31
0.0
  0
ARC
  8
0
  6
CONTINUOUS
 62
       7
  5
D0
 10
-3.16483991
 20
47.79659888
 30
0.0
 40
0.50390657
 50
91.01273651
 51
180.6011224
  0
ARC
  8
0
  6
CONTINUOUS
 62
       7
  5
D1
 10
9.60955726
 20
47.8041612
 30
0.0
 40
0.49626683
 50
358.51637278
 51
89.86976831
  0
ARC
  8
0
  6
CONTINUOUS
 62
       7
  5
D2
 10
-3.77517213
 20
47.79876032
 30
0.0
 40
0.50171093
 50
90.76324732
 51
180.8506116
  0
ARC
  8
0
  6
CONTINUOUS
 62
       7
  5
D3
 10
-3.16398563
 20
34.39439023
 30
0.0
 40
0.5048275
 50
181.10786341
 51
268.89213659
  0
ARC
  8
0
  6
CONTINUOUS
 62
       7
  5
D4
 10
9.87508852
 20
22.25495004
 30
0.0
 40
0.49928635
 50
268.87004645
 51
359.51609464
  0
ARC
  8
0
  6
CONTINUOUS
 62
       7
  5
D5
 10
-3.43074897
 20
22.26256206
 30
0.0
 40
0.50680718
 50
181.33739787
 51
270.27646104
  0
ARC
  8
0
  6
CONTINUOUS
 62
       7
  5
D6
 10
-3.77494341
 20
20.80101191
 30
0.0
 40
0.50193196
 50
180.78902215
 51
269.21097785
  0
ARC
  8
0
  6
CONTINUOUS
 62
       7
  5
D7
 10
10.21985751
 20
47.80629155
 30
0.0
 40
0.49413633
 50
358.2628587
 51
90.12328239
  0
ARC
  8
0
  6
CONTINUOUS
 62
       7
  5
D8
 10
9.60847496
 20
34.38683986
 30
0.0
 40
0.49718767
 50
270.25471484
 51
359.74528516
  0
ARC
  8
0
  6
CONTINUOUS
 62
       7
  5
D9
 10
10.21941039
 20
20.79348389
 30
0.0
 40
0.49435673
 50
269.92859306
 51
0.07140694
  0
ARC
  8
0
  6
CONTINUOUS
 62
       7
  5
DA
 10
9.87133531
 20
33.29813577
 30
0.0
 40
0.4974554
 50
269.29822928
 51
314.30458969
  0
ARC
  8
0
  6
CONTINUOUS
 62
       7
  5
DB
 10
-3.43228947
 20
33.30340295
 30
0.0
 40
0.50270106
 50
225.94287813
 51
270.45430289
  0
LINE
  8
0
  6
CONTINUOUS
 62
       7
  5
DC
 10
-2.28279586
 20
56.48868544
 30
0.0
 11
8.71973483
 21
56.48868544
 31
0.0
  0
LINE
  8
0
  6
CONTINUOUS
 62
       7
  5
DD
 10
-2.28279586
 20
48.30042674
 30
0.0
 11
-2.28279586
 21
56.48868544
 31
0.0
  0
LINE
  8
0
  6
CONTINUOUS
 62
       7
  5
DE
 10
8.71973483
 20
48.30042674
 30
0.0
 11
8.71973483
 21
56.48868544
 31
0.0
  0
LINE
  8
0
  6
CONTINUOUS
 62
       7
  5
DF
 10
-0.78373641
 20
37.49588503
 30
0.0
 11
7.22067538
 21
37.49588503
 31
0.0
  0
LINE
  8
0
  6
CONTINUOUS
 62
       7
  5
E0
 10
7.22067538
 20
37.49588503
 30
0.0
 11
7.22067538
 21
56.48868544
 31
0.0
  0
LINE
  8
0
  6
CONTINUOUS
 62
       7
  5
E1
 10
-0.78373641
 20
37.49588503
 30
0.0
 11
-0.78373641
 21
56.48868544
 31
0.0
  0
LINE
  8
0
  6
CONTINUOUS
 62
       7
  5
E2
 10
7.22067538
 20
41.49809092
 30
0.0
 11
7.31966987
 21
41.49809092
 31
0.0
  0
LINE
  8
0
  6
CONTINUOUS
 62
       7
  5
E3
 10
-0.8827309
 20
41.49809092
 30
0.0
 11
-0.78373641
 21
41.49809092
 31
0.0
  0
LINE
  8
0
  6
CONTINUOUS
 62
       7
  5
E4
 10
-0.78373641
 20
48.82368334
 30
0.0
 11
7.22067538
 21
48.82368334
 31
0.0
  0
LINE
  8
0
  6
CONTINUOUS
 62
       7
  5
E5
 10
-0.78373641
 20
54.49465353
 30
0.0
 11
7.22067538
 21
54.49465353
 31
0.0
  0
LINE
  8
0
  6
CONTINUOUS
 62
       7
  5
E6
 10
-0.78373641
 20
48.30042674
 30
0.0
 11
-3.78185532
 21
48.30042674
 31
0.0
  0
LINE
  8
0
  6
CONTINUOUS
 62
       7
  5
E7
 10
-0.78373641
 20
39.19293347
 30
0.0
 11
-0.8827309
 21
39.19293347
 31
0.0
  0
LINE
  8
0
  6
CONTINUOUS
 62
       7
  5
E8
 10
-0.78373641
 20
38.28784097
 30
0.0
 11
-0.8827309
 21
38.28784097
 31
0.0
  0
LINE
  8
0
  6
CENTER
 62
       2
  5
E9
 10
0.71532304
 20
53.49056654
 30
0.0
 11
0.71532304
 21
79.49783382
 31
0.0
  0
LINE
  8
0
  6
CONTINUOUS
 62
       7
  5
EA
 10
1.56384726
 20
56.48868544
 30
0.0
 11
1.56384726
 21
61.49497833
 31
0.0
  0
LINE
  8
0
  6
CONTINUOUS
 62
       7
  5
EB
 10
-0.13320118
 20
56.48868544
 30
0.0
 11
-0.13320118
 21
61.94752458
 31
0.0
  0
LINE
  8
0
  6
CONTINUOUS
 62
       7
  5
EC
 10
0.40419749
 20
66.48712915
 30
0.0
 11
0.40419749
 21
76.49971492
 31
0.0
  0
LINE
  8
0
  6
CONTINUOUS
 62
       7
  5
ED
 10
1.04059066
 20
66.48712915
 30
0.0
 11
1.04059066
 21
76.49971492
 31
0.0
  0
LINE
  8
0
  6
CONTINUOUS
 62
       7
  5
EE
 10
-0.13320118
 20
66.48712915
 30
0.0
 11
1.56384726
 21
66.48712915
 31
0.0
  0
LINE
  8
0
  6
CONTINUOUS
 62
       7
  5
EF
 10
0.40419749
 20
76.49971492
 30
0.0
 11
1.04059066
 21
76.49971492
 31
0.0
  0
LINE
  8
0
  6
CONTINUOUS
 62
       2
  5
F0
 10
8.56417206
 20
61.16971071
 30
0.0
 11
-2.12723309
 21
64.04055098
 31
0.0
  0
LINE
  8
0
  6
CONTINUOUS
 62
       2
  5
F1
 10
8.56417206
 20
59.61408298
 30
0.0
 11
-2.12723309
 21
62.48492325
 31
0.0
  0
LINE
  8
0
  6
CONTINUOUS
 62
       7
  5
F2
 10
-0.13320118
 20
63.50315231
 30
0.0
 11
-0.13320118
 21
66.48712915
 31
0.0
  0
LINE
  8
0
  6
CONTINUOUS
 62
       7
  5
F3
 10
1.56384726
 20
63.03646399
 30
0.0
 11
1.56384726
 21
66.48712915
 31
0.0
  0
LINE
  8
0
  6
CONTINUOUS
 62
       7
  5
F4
 10
4.0669937
 20
56.48868544
 30
0.0
 11
4.0669937
 21
60.81615896
 31
0.0
  0
LINE
  8
0
  6
CONTINUOUS
 62
       7
  5
F5
 10
2.36994527
 20
56.48868544
 30
0.0
 11
2.36994527
 21
61.26870521
 31
0.0
  0
LINE
  8
0
  6
CONTINUOUS
 62
       7
  5
F6
 10
2.89320187
 20
66.48712915
 30
0.0
 11
2.89320187
 21
76.49971492
 31
0.0
  0
LINE
  8
0
  6
CONTINUOUS
 62
       7
  5
F7
 10
3.5437371
 20
66.48712915
 30
0.0
 11
3.5437371
 21
76.49971492
 31
0.0
  0
LINE
  8
0
  6
CONTINUOUS
 62
       7
  5
F8
 10
2.36994527
 20
66.48712915
 30
0.0
 11
4.0669937
 21
66.48712915
 31
0.0
  0
LINE
  8
0
  6
CONTINUOUS
 62
       7
  5
F9
 10
2.89320187
 20
76.49971492
 30
0.0
 11
3.5437371
 21
76.49971492
 31
0.0
  0
LINE
  8
0
  6
CONTINUOUS
 62
       7
  5
FA
 10
2.36994527
 20
62.82433294
 30
0.0
 11
2.36994527
 21
66.48712915
 31
0.0
  0
LINE
  8
0
  6
CONTINUOUS
 62
       7
  5
FB
 10
4.0669937
 20
62.37178669
 30
0.0
 11
4.0669937
 21
66.48712915
 31
0.0
  0
LINE
  8
0
  6
CENTER
 62
       2
  5
FC
 10
5.72161593
 20
53.49056654
 30
0.0
 11
5.72161593
 21
79.49783382
 31
0.0
  0
LINE
  8
0
  6
CONTINUOUS
 62
       7
  5
FD
 10
6.57014014
 20
56.48868544
 30
0.0
 11
6.57014014
 21
60.15148165
 31
0.0
  0
LINE
  8
0
  6
CONTINUOUS
 62
       7
  5
FE
 10
4.87309171
 20
56.48868544
 30
0.0
 11
4.87309171
 21
60.6040279
 31
0.0
  0
LINE
  8
0
  6
CONTINUOUS
 62
       7
  5
FF
 10
5.39634831
 20
66.48712915
 30
0.0
 11
5.39634831
 21
76.49971492
 31
0.0
  0
LINE
  8
0
  6
CONTINUOUS
 62
       7
  5
100
 10
6.03274147
 20
66.48712915
 30
0.0
 11
6.03274147
 21
76.49971492
 31
0.0
  0
LINE
  8
0
  6
CONTINUOUS
 62
       7
  5
101
 10
4.87309171
 20
66.48712915
 30
0.0
 11
6.57014014
 21
66.48712915
 31
0.0
  0
LINE
  8
0
  6
CONTINUOUS
 62
       7
  5
102
 10
5.39634831
 20
76.49971492
 30
0.0
 11
6.03274147
 21
76.49971492
 31
0.0
  0
LINE
  8
0
  6
CONTINUOUS
 62
       7
  5
103
 10
4.87309171
 20
62.15965563
 30
0.0
 11
4.87309171
 21
66.48712915
 31
0.0
  0
LINE
  8
0
  6
CONTINUOUS
 62
       7
  5
104
 10
6.57014014
 20
61.70710938
 30
0.0
 11
6.57014014
 21
66.48712915
 31
0.0
  0
LINE
  8
0
  6
CONTINUOUS
 62
       2
  5
105
 10
8.46517756
 20
31.04710097
 30
0.0
 11
8.46517756
 21
23.53766164
 31
0.0
  0
LINE
  8
0
  6
CONTINUOUS
 62
       2
  5
106
 10
-2.0282386
 20
31.04710097
 30
0.0
 11
-2.0282386
 21
23.53766164
 31
0.0
  0
LINE
  8
0
  6
CONTINUOUS
 62
       2
  5
107
 10
-1.53326614
 20
31.54207343
 30
0.0
 11
7.9702051
 21
31.54207343
 31
0.0
  0
LINE
  8
0
  6
CONTINUOUS
 62
       2
  5
108
 10
-1.53326614
 20
23.04268918
 30
0.0
 11
7.9702051
 21
23.04268918
 31
0.0
  0
LINE
  8
0
  6
CONTINUOUS
 62
       7
  5
109
 10
-0.78373641
 20
27.04489508
 30
0.0
 11
2.72349702
 21
27.04489508
 31
0.0
  0
LINE
  8
0
  6
CONTINUOUS
 62
       7
  5
10A
 10
-0.78373641
 20
29.03892699
 30
0.0
 11
-0.78373641
 21
27.04489508
 31
0.0
  0
LINE
  8
0
  6
CONTINUOUS
 62
       7
  5
10B
 10
-0.78373641
 20
29.03892699
 30
0.0
 11
2.72349702
 21
29.03892699
 31
0.0
  0
LINE
  8
0
  6
CONTINUOUS
 62
       7
  5
10C
 10
2.72349702
 20
29.03892699
 30
0.0
 11
2.72349702
 21
27.04489508
 31
0.0
  0
LINE
  8
0
  6
CONTINUOUS
 62
       7
  5
10D
 10
3.71344194
 20
27.04489508
 30
0.0
 11
7.22067538
 21
27.04489508
 31
0.0
  0
LINE
  8
0
  6
CONTINUOUS
 62
       7
  5
10E
 10
3.71344194
 20
29.03892699
 30
0.0
 11
3.71344194
 21
27.04489508
 31
0.0
  0
LINE
  8
0
  6
CONTINUOUS
 62
       7
  5
10F
 10
3.71344194
 20
29.03892699
 30
0.0
 11
7.22067538
 21
29.03892699
 31
0.0
  0
LINE
  8
0
  6
CONTINUOUS
 62
       7
  5
110
 10
7.22067538
 20
29.03892699
 30
0.0
 11
7.22067538
 21
27.04489508
 31
0.0
  0
ARC
  8
0
  6
CONTINUOUS
 62
       2
  5
111
 10
7.97457657
 20
31.05147243
 30
0.0
 40
0.49062047
 50
359.48948396
 51
90.51051604
  0
ARC
  8
0
  6
CONTINUOUS
 62
       2
  5
112
 10
7.96686557
 20
23.54100117
 30
0.0
 40
0.49832318
 50
270.38397276
 51
359.61602724
  0
ARC
  8
0
  6
CONTINUOUS
 62
       2
  5
113
 10
-1.5300314
 20
31.04386624
 30
0.0
 40
0.4982177
 50
90.37200188
 51
179.62799812
  0
ARC
  8
0
  6
CONTINUOUS
 62
       2
  5
114
 10
-1.52243711
 20
23.54849067
 30
0.0
 40
0.50591739
 50
181.22649412
 51
268.77350588
  0
LINE
  8
0
  6
CONTINUOUS
 62
       7
  5
115
 10
-85.76979743
 20
-52.30626138
 30
0.0
 11
-114.76104155
 21
-52.30626138
 31
0.0
  0
LINE
  8
0
  6
CONTINUOUS
 62
       7
  5
116
 10
-91.46905177
 20
-49.40713697
 30
0.0
 11
-91.46905177
 21
-51.81128892
 31
0.0
  0
LINE
  8
0
  6
CONTINUOUS
 62
       7
  5
117
 10
-85.76979743
 20
-48.91216451
 30
0.0
 11
-90.97407931
 21
-48.91216451
 31
0.0
  0
LINE
  8
0
  6
CONTINUOUS
 62
       7
  5
118
 10
-85.2606829
 20
20.29912754
 30
0.0
 11
-85.2606829
 21
-51.81128892
 31
0.0
  0
LINE
  8
0
  6
CONTINUOUS
 62
       7
  5
119
 10
-85.2606829
 20
-43.90587162
 30
0.0
 11
-115.27015608
 21
-43.90587162
 31
0.0
  0
LINE
  8
0
  6
CONTINUOUS
 62
       7
  5
11A
 10
-115.27015608
 20
-1.90392283
 30
0.0
 11
-85.2606829
 21
-1.90392283
 31
0.0
  0
LINE
  8
0
  6
CONTINUOUS
 62
       7
  5
11B
 10
-115.27015608
 20
10.30068384
 30
0.0
 11
-85.2606829
 21
10.30068384
 31
0.0
  0
LINE
  8
0
  6
CONTINUOUS
 62
       7
  5
11C
 10
-89.2628888
 20
-36.25501159
 30
0.0
 11
-89.2628888
 21
-39.56425604
 31
0.0
  0
LINE
  8
0
  6
CONTINUOUS
 62
       7
  5
11D
 10
-91.0730738
 20
-50.07181427
 30
0.0
 11
-91.0730738
 21
-48.91216451
 31
0.0
  0
LINE
  8
0
  6
CONTINUOUS
 62
       7
  5
11E
 10
-85.47281396
 20
-50.07181427
 30
0.0
 11
-85.47281396
 21
-48.81317002
 31
0.0
  0
LINE
  8
0
  6
CONTINUOUS
 62
       7
  5
11F
 10
-89.2628888
 20
-39.56425604
 30
0.0
 11
-85.2606829
 21
-39.56425604
 31
0.0
  0
LINE
  8
0
  6
CONTINUOUS
 62
       7
  5
120
 10
-89.2628888
 20
-36.25501159
 30
0.0
 11
-85.2606829
 21
-36.25501159
 31
0.0
  0
ARC
  8
0
  6
CONTINUOUS
 62
       7
  5
121
 10
-91.97464966
 20
-51.80066349
 30
0.0
 40
0.50570953
 50
271.20392641
 51
358.79607359
  0
ARC
  8
0
  6
CONTINUOUS
 62
       7
  5
122
 10
-85.7703102
 20
-51.79641741
 30
0.0
 40
0.50984423
 50
270.05762358
 51
358.32851751
  0
ARC
  8
0
  6
CONTINUOUS
 62
       7
  5
123
 10
-90.97759401
 20
-49.40362226
 30
0.0
 40
0.49147032
 50
89.59025048
 51
180.40974952
  0
ARC
  8
0
  6
CONTINUOUS
 62
       7
  5
124
 10
-85.77341264
 20
-48.39943477
 30
0.0
 40
0.51274248
 50
270.40397993
 51
359.59602007
  0
ARC
  8
0
  6
CONTINUOUS
 62
       7
  5
125
 10
-88.27294388
 20
-46.29997319
 30
0.0
 40
4.99921401
 50
240.51330592
 51
299.48669408
  0
ARC
  8
0
  6
CONTINUOUS
 62
       7
  5
126
 10
-90.40747663
 20
-50.07144828
 30
0.0
 40
0.66559727
 50
180.03150541
 51
240.65499235
  0
ARC
  8
0
  6
CONTINUOUS
 62
       7
  5
127
 10
-86.13990235
 20
-50.07057537
 30
0.0
 40
0.66708954
 50
299.41991053
 51
359.8935917
  0
LINE
  8
0
  6
CONTINUOUS
 62
       7
  5
128
 10
-115.27015608
 20
-43.90587162
 30
0.0
 11
-115.27015608
 21
-50.41122396
 31
0.0
  0
LINE
  8
0
  6
CONTINUOUS
 62
       7
  5
129
 10
-115.27015608
 20
4.58728744
 30
0.0
 11
-115.27015608
 21
-1.90392283
 31
0.0
  0
LINE
  8
0
  6
CONTINUOUS
 62
       7
  5
12A
 10
90.15606851
 20
-52.30626138
 30
0.0
 11
119.14731263
 21
-52.30626138
 31
0.0
  0
LINE
  8
0
  6
CONTINUOUS
 62
       7
  5
12B
 10
113.4480583
 20
-49.40713697
 30
0.0
 11
113.4480583
 21
-51.81128892
 31
0.0
  0
LINE
  8
0
  6
CONTINUOUS
 62
       7
  5
12C
 10
119.14731263
 20
-48.91216451
 30
0.0
 11
113.94303076
 21
-48.91216451
 31
0.0
  0
LINE
  8
0
  6
CONTINUOUS
 62
       7
  5
12D
 10
89.64695398
 20
20.29912754
 30
0.0
 11
89.64695398
 21
-51.81128892
 31
0.0
  0
LINE
  8
0
  6
CONTINUOUS
 62
       7
  5
12E
 10
89.64695398
 20
-43.90587162
 30
0.0
 11
119.65642716
 21
-43.90587162
 31
0.0
  0
LINE
  8
0
  6
CONTINUOUS
 62
       7
  5
12F
 10
119.65642716
 20
-1.90392283
 30
0.0
 11
89.64695398
 21
-1.90392283
 31
0.0
  0
LINE
  8
0
  6
CONTINUOUS
 62
       7
  5
130
 10
119.65642716
 20
10.30068384
 30
0.0
 11
89.64695398
 21
10.30068384
 31
0.0
  0
LINE
  8
0
  6
CONTINUOUS
 62
       7
  5
131
 10
93.64915987
 20
-6.24553841
 30
0.0
 11
93.64915987
 21
-9.56892493
 31
0.0
  0
LINE
  8
0
  6
CONTINUOUS
 62
       7
  5
132
 10
113.84403626
 20
-50.07181427
 30
0.0
 11
113.84403626
 21
-48.91216451
 31
0.0
  0
LINE
  8
0
  6
CONTINUOUS
 62
       7
  5
133
 10
119.4442961
 20
-50.07181427
 30
0.0
 11
119.4442961
 21
-48.81317002
 31
0.0
  0
LINE
  8
0
  6
CONTINUOUS
 62
       7
  5
134
 10
93.64915987
 20
-9.56892493
 30
0.0
 11
89.64695398
 21
-9.56892493
 31
0.0
  0
LINE
  8
0
  6
CONTINUOUS
 62
       7
  5
135
 10
93.64915987
 20
-6.24553841
 30
0.0
 11
89.64695398
 21
-6.24553841
 31
0.0
  0
ARC
  8
0
  6
CONTINUOUS
 62
       7
  5
136
 10
112.94835677
 20
-51.80655986
 30
0.0
 40
0.4997239
 50
270.54221789
 51
359.45778211
  0
ARC
  8
0
  6
CONTINUOUS
 62
       7
  5
137
 10
90.15403614
 20
-51.79903526
 30
0.0
 40
0.5072302
 50
181.38428576
 51
270.22957315
  0
ARC
  8
0
  6
CONTINUOUS
 62
       7
  5
138
 10
113.94553574
 20
-49.40964195
 30
0.0
 40
0.49748375
 50
90.2885028
 51
179.7114972
  0
ARC
  8
0
  6
CONTINUOUS
 62
       7
  5
139
 10
119.14960924
 20
-48.40534659
 30
0.0
 40
0.50682312
 50
269.74036944
 51
0.25963056
  0
ARC
  8
0
  6
CONTINUOUS
 62
       7
  5
13A
 10
116.64416618
 20
-46.29996297
 30
0.0
 40
4.99922291
 50
240.51336356
 51
299.48663644
  0
ARC
  8
0
  6
CONTINUOUS
 62
       7
  5
13B
 10
114.51850467
 20
-50.06625536
 30
0.0
 40
0.67449131
 50
180.47221639
 51
240.21428138
  0
ARC
  8
0
  6
CONTINUOUS
 62
       7
  5
13C
 10
118.78604554
 20
-50.07574873
 30
0.0
 40
0.65826233
 50
298.97104138
 51
0.34246085
  0
LINE
  8
0
  6
CONTINUOUS
 62
       7
  5
13D
 10
119.65642716
 20
-43.90587162
 30
0.0
 11
119.65642716
 21
-50.41122396
 31
0.0
  0
LINE
  8
0
  6
CONTINUOUS
 62
       7
  5
13E
 10
119.65642716
 20
4.58728744
 30
0.0
 11
119.65642716
 21
-1.90392283
 31
0.0
  0
LINE
  8
0
  6
CONTINUOUS
 62
       7
  5
13F
 10
86.64883508
 20
20.29912754
 30
0.0
 11
119.65642716
 21
20.29912754
 31
0.0
  0
LINE
  8
0
  6
CONTINUOUS
 62
       7
  5
140
 10
88.64286699
 20
45.28816577
 30
0.0
 11
119.65642716
 21
45.28816577
 31
0.0
  0
LINE
  8
0
  6
CONTINUOUS
 62
       7
  5
141
 10
86.64883508
 20
20.29912754
 30
0.0
 11
82.9718968
 21
21.62848215
 31
0.0
  0
LINE
  8
0
  6
CONTINUOUS
 62
       7
  5
142
 10
82.64662918
 20
22.09517047
 30
0.0
 11
82.64662918
 21
32.80071769
 31
0.0
  0
LINE
  8
0
  6
CONTINUOUS
 62
       7
  5
143
 10
82.64662918
 20
32.80071769
 30
0.0
 11
78.98383297
 21
34.1300723
 31
0.0
  0
LINE
  8
0
  6
CONTINUOUS
 62
       7
  5
144
 10
86.64883508
 20
20.29912754
 30
0.0
 11
86.64883508
 21
48.30042674
 31
0.0
  0
ARC
  8
0
  6
CONTINUOUS
 62
       7
  5
145
 10
83.15652574
 20
22.10385792
 30
0.0
 40
0.50997056
 50
180.97609242
 51
248.77456427
  0
LINE
  8
0
  6
CONTINUOUS
 62
       7
  5
146
 10
77.65447836
 20
54.49465353
 30
0.0
 11
77.65447836
 21
56.48868544
 31
0.0
  0
LINE
  8
0
  6
CONTINUOUS
 62
       7
  5
147
 10
85.64474808
 20
54.98962599
 30
0.0
 11
85.64474808
 21
56.48868544
 31
0.0
  0
LINE
  8
0
  6
CONTINUOUS
 62
       7
  5
148
 10
77.65447836
 20
56.48868544
 30
0.0
 11
78.64442328
 21
56.48868544
 31
0.0
  0
LINE
  8
0
  6
CONTINUOUS
 62
       7
  5
149
 10
84.65480316
 20
48.49841572
 30
0.0
 11
84.65480316
 21
54.98962599
 31
0.0
  0
LINE
  8
0
  6
CONTINUOUS
 62
       7
  5
14A
 10
78.64442328
 20
34.59676062
 30
0.0
 11
78.64442328
 21
48.82368334
 31
0.0
  0
LINE
  8
0
  6
CONTINUOUS
 62
       7
  5
14B
 10
80.35561379
 20
56.19170197
 30
0.0
 11
80.65259727
 21
56.48868544
 31
0.0
  0
LINE
  8
0
  6
CONTINUOUS
 62
       7
  5
14C
 10
80.65259727
 20
56.48868544
 30
0.0
 11
85.64474808
 21
56.48868544
 31
0.0
  0
LINE
  8
0
  6
CONTINUOUS
 62
       7
  5
14D
 10
80.35561379
 20
50.29445865
 30
0.0
 11
80.35561379
 21
56.19170197
 31
0.0
  0
LINE
  8
0
  6
CONTINUOUS
 62
       7
  5
14E
 10
80.65259727
 20
49.99747518
 30
0.0
 11
80.35561379
 21
50.29445865
 31
0.0
  0
LINE
  8
0
  6
CONTINUOUS
 62
       7
  5
14F
 10
80.65259727
 20
48.99338818
 30
0.0
 11
80.65259727
 21
49.99747518
 31
0.0
  0
LINE
  8
0
  6
CONTINUOUS
 62
       7
  5
150
 10
78.64442328
 20
48.82368334
 30
0.0
 11
77.65447836
 21
54.49465353
 31
0.0
  0
LINE
  8
0
  6
CONTINUOUS
 62
       7
  5
151
 10
79.64851028
 20
49.82777033
 30
0.0
 11
78.64442328
 21
55.49874052
 31
0.0
  0
LINE
  8
0
  6
CONTINUOUS
 62
       7
  5
152
 10
78.64442328
 20
55.49874052
 30
0.0
 11
78.64442328
 21
56.48868544
 31
0.0
  0
LINE
  8
0
  6
CONTINUOUS
 62
       7
  5
153
 10
84.65480316
 20
54.98962599
 30
0.0
 11
85.64474808
 21
54.98962599
 31
0.0
  0
LINE
  8
0
  6
CONTINUOUS
 62
       7
  5
154
 10
84.65480316
 20
48.49841572
 30
0.0
 11
85.64474808
 21
48.49841572
 31
0.0
  0
LINE
  8
0
  6
CONTINUOUS
 62
       7
  5
155
 10
85.64474808
 20
48.30042674
 30
0.0
 11
85.64474808
 21
48.49841572
 31
0.0
  0
LINE
  8
0
  6
CONTINUOUS
 62
       7
  5
156
 10
81.20413801
 20
48.30042674
 30
0.0
 11
81.20413801
 21
56.48868544
 31
0.0
  0
LINE
  8
0
  6
CONTINUOUS
 62
       7
  5
157
 10
83.09917543
 20
48.30042674
 30
0.0
 11
83.09917543
 21
56.48868544
 31
0.0
  0
LINE
  8
0
  6
CONTINUOUS
 62
       7
  5
158
 10
81.00614903
 20
52.18949607
 30
0.0
 11
81.00614903
 21
56.48868544
 31
0.0
  0
LINE
  8
0
  6
CONTINUOUS
 62
       7
  5
159
 10
83.29716441
 20
48.89439369
 30
0.0
 11
83.29716441
 21
56.48868544
 31
0.0
  0
LINE
  8
0
  6
CONTINUOUS
 62
       7
  5
15A
 10
81.20413801
 20
51.99150709
 30
0.0
 11
81.00614903
 21
52.18949607
 31
0.0
  0
LINE
  8
0
  6
CONTINUOUS
 62
       7
  5
15B
 10
83.09917543
 20
48.69640471
 30
0.0
 11
83.29716441
 21
48.89439369
 31
0.0
  0
LINE
  8
0
  6
CONTINUOUS
 62
       7
  5
15C
 10
79.64851028
 20
48.99338818
 30
0.0
 11
79.64851028
 21
49.82777033
 31
0.0
  0
ARC
  8
0
  6
CONTINUOUS
 62
       7
  5
15D
 10
80.15055377
 20
49.00007019
 30
0.0
 40
0.50208796
 50
180.76253961
 51
359.23746039
  0
LINE
  8
0
  6
CONTINUOUS
 62
       7
  5
15E
 10
119.65642716
 20
45.28816577
 30
0.0
 11
119.65642716
 21
11.79974329
 31
0.0
  0
LINE
  8
0
  6
CONTINUOUS
 62
       7
  5
15F
 10
119.65642716
 20
45.28816577
 30
0.0
 11
119.65642716
 21
47.79131221
 31
0.0
  0
ARC
  8
0
  6
CONTINUOUS
 62
       7
  5
160
 10
119.15695559
 20
47.79761237
 30
0.0
 40
0.4995113
 50
359.27732902
 51
78.04228748
  0
LINE
  8
0
  6
CONTINUOUS
 62
       7
  5
161
 10
88.64286699
 20
20.29912754
 30
0.0
 11
88.64286699
 21
48.30042674
 31
0.0
  0
LINE
  8
0
  6
CENTER
 62
       2
  5
162
 10
82.15165672
 20
53.49056654
 30
0.0
 11
82.15165672
 21
79.49783382
 31
0.0
  0
LINE
  8
0
  6
CONTINUOUS
 62
       7
  5
163
 10
83.00018094
 20
56.48868544
 30
0.0
 11
83.00018094
 21
60.49089134
 31
0.0
  0
LINE
  8
0
  6
CONTINUOUS
 62
       7
  5
164
 10
81.3031325
 20
56.48868544
 30
0.0
 11
81.3031325
 21
60.94343759
 31
0.0
  0
LINE
  8
0
  6
CONTINUOUS
 62
       7
  5
165
 10
81.8263891
 20
66.48712915
 30
0.0
 11
81.8263891
 21
76.49971492
 31
0.0
  0
LINE
  8
0
  6
CONTINUOUS
 62
       7
  5
166
 10
82.46278227
 20
66.48712915
 30
0.0
 11
82.46278227
 21
76.49971492
 31
0.0
  0
LINE
  8
0
  6
CONTINUOUS
 62
       7
  5
167
 10
81.3031325
 20
66.48712915
 30
0.0
 11
83.00018094
 21
66.48712915
 31
0.0
  0
LINE
  8
0
  6
CONTINUOUS
 62
       7
  5
168
 10
81.8263891
 20
76.49971492
 30
0.0
 11
82.46278227
 21
76.49971492
 31
0.0
  0
LINE
  8
0
  6
CONTINUOUS
 62
       2
  5
169
 10
84.99421285
 20
61.5091204
 30
0.0
 11
79.29495852
 21
63.03646399
 31
0.0
  0
LINE
  8
0
  6
CONTINUOUS
 62
       2
  5
16A
 10
84.99421285
 20
59.95349267
 30
0.0
 11
79.29495852
 21
61.48083626
 31
0.0
  0
LINE
  8
0
  6
CONTINUOUS
 62
       7
  5
16B
 10
81.3031325
 20
62.49906532
 30
0.0
 11
81.3031325
 21
66.48712915
 31
0.0
  0
LINE
  8
0
  6
CONTINUOUS
 62
       7
  5
16C
 10
83.00018094
 20
62.04651907
 30
0.0
 11
83.00018094
 21
66.48712915
 31
0.0
  0
ARC
  8
0
  6
CONTINUOUS
 62
       7
  5
16D
 10
119.1605729
 20
45.99456432
 30
0.0
 40
0.49585476
 50
0.08145814
 51
91.53240077
  0
LINE
  8
0
  6
CONTINUOUS
 62
       7
  5
16E
 10
119.40186989
 20
47.29633975
 30
0.0
 11
115.14510673
 21
47.29633975
 31
0.0
  0
LINE
  8
0
  6
CONTINUOUS
 62
       7
  5
16F
 10
119.40186989
 20
46.49024174
 30
0.0
 11
119.40186989
 21
47.76302807
 31
0.0
  0
ARC
  8
0
  6
CONTINUOUS
 62
       7
  5
170
 10
117.14620968
 20
44.50000224
 30
0.0
 40
4.49290773
 50
69.06813511
 51
110.93186489
  0
ARC
  8
0
  6
CONTINUOUS
 62
       7
  5
171
 10
118.41135994
 20
47.76408954
 30
0.0
 40
0.99236806
 50
32.71509253
 51
69.96529096
  0
ARC
  8
0
  6
CONTINUOUS
 62
       7
  5
172
 10
115.88173115
 20
47.75847758
 30
0.0
 40
0.99787139
 50
109.96055325
 51
117.9644247
  0
LINE
  8
0
  6
CENTER
 62
       2
  5
173
 10
117.15328071
 20
45.50029682
 30
0.0
 11
117.15328071
 21
49.99747518
 31
0.0
  0
LINE
  8
0
  6
CONTINUOUS
 62
       7
  5
174
 10
115.14510673
 20
46.49024174
 30
0.0
 11
119.40186989
 21
46.49024174
 31
0.0
  0
LINE
  8
0
  6
CONTINUOUS
 62
       7
  5
175
 10
114.65013427
 20
48.30042674
 30
0.0
 11
79.15353782
 21
48.30042674
 31
0.0
  0
ARC
  8
0
  6
CONTINUOUS
 62
       7
  5
176
 10
92.15010042
 20
44.50000783
 30
0.0
 40
4.49543354
 50
68.98393454
 51
111.01606546
  0
ARC
  8
0
  6
CONTINUOUS
 62
       7
  5
177
 10
90.90085988
 20
47.76575135
 30
0.0
 40
0.9989256
 50
111.30581874
 51
147.63910096
  0
ARC
  8
0
  6
CONTINUOUS
 62
       7
  5
178
 10
93.40332008
 20
47.77058312
 30
0.0
 40
0.99298018
 50
32.24829294
 51
68.80678736
  0
LINE
  8
0
  6
CENTER
 62
       2
  5
179
 10
92.15010042
 20
45.50029682
 30
0.0
 11
92.15010042
 21
49.99747518
 31
0.0
  0
LINE
  8
0
  6
CONTINUOUS
 62
       7
  5
17A
 10
115.14510673
 20
46.49024174
 30
0.0
 11
115.14510673
 21
47.79131221
 31
0.0
  0
ARC
  8
0
  6
CONTINUOUS
 62
       7
  5
17B
 10
114.65000505
 20
47.80513223
 30
0.0
 40
0.49529453
 50
358.40108989
 51
89.9850512
  0
ARC
  8
0
  6
CONTINUOUS
 62
       7
  5
17C
 10
118.40595791
 20
47.76595276
 30
0.0
 40
0.99591628
 50
359.83174031
 51
32.45693725
  0
ARC
  8
0
  6
CONTINUOUS
 62
       7
  5
17D
 10
115.88806875
 20
47.75532787
 30
0.0
 40
1.00300726
 50
110.2394142
 51
147.08020231
  0
ARC
  8
0
  6
CONTINUOUS
 62
       7
  5
17E
 10
115.94592046
 20
47.85847944
 30
0.0
 40
1.00248304
 50
153.84170434
 51
162.55547669
  0
ARC
  8
0
  6
CONTINUOUS
 62
       7
  5
17F
 10
79.15248286
 20
34.60949263
 30
0.0
 40
0.50821909
 50
181.43553616
 51
250.61921061
  0
ARC
  8
0
  6
CONTINUOUS
 62
       7
  5
180
 10
79.14993042
 20
47.7949196
 30
0.0
 40
0.50552001
 50
89.59113385
 51
180.40886615
  0
LINE
  8
0
  6
CENTER
 62
       2
  5
181
 10
-88.27294388
 20
-47.90807752
 30
0.0
 11
-88.27294388
 21
-53.31034837
 31
0.0
  0
LINE
  8
0
  6
CENTER
 62
       2
  5
182
 10
-90.26697579
 20
-37.90963382
 30
0.0
 11
-84.27073798
 21
-37.90963382
 31
0.0
  0
LINE
  8
0
  6
CENTER
 62
       2
  5
183
 10
116.64416618
 20
-47.90807752
 30
0.0
 11
116.64416618
 21
-53.31034837
 31
0.0
  0
LINE
  8
0
  6
CENTER
 62
       2
  5
184
 10
88.64286699
 20
-7.90016064
 30
0.0
 11
94.65324687
 21
-7.90016064
 31
0.0
  0
LINE
  8
0
  6
CONTINUOUS
 62
       7
  5
185
 10
-82.262564
 20
20.29912754
 30
0.0
 11
-115.27015608
 21
20.29912754
 31
0.0
  0
LINE
  8
0
  6
CONTINUOUS
 62
       7
  5
186
 10
-84.27073798
 20
45.28816577
 30
0.0
 11
-115.27015608
 21
45.28816577
 31
0.0
  0
LINE
  8
0
  6
CONTINUOUS
 62
       7
  5
187
 10
-114.76104155
 20
48.30042674
 30
0.0
 11
-89.77200333
 21
48.30042674
 31
0.0
  0
LINE
  8
0
  6
CONTINUOUS
 62
       7
  5
188
 10
-82.262564
 20
20.29912754
 30
0.0
 11
-82.262564
 21
48.30042674
 31
0.0
  0
LINE
  8
0
  6
CONTINUOUS
 62
       7
  5
189
 10
-73.26820729
 20
54.49465353
 30
0.0
 11
-73.26820729
 21
56.48868544
 31
0.0
  0
LINE
  8
0
  6
CONTINUOUS
 62
       7
  5
18A
 10
-81.27261908
 20
54.98962599
 30
0.0
 11
-81.27261908
 21
56.48868544
 31
0.0
  0
LINE
  8
0
  6
CONTINUOUS
 62
       7
  5
18B
 10
-73.26820729
 20
56.48868544
 30
0.0
 11
-74.27229428
 21
56.48868544
 31
0.0
  0
LINE
  8
0
  6
CONTINUOUS
 62
       7
  5
18C
 10
-80.26853209
 20
48.49841572
 30
0.0
 11
-80.26853209
 21
54.98962599
 31
0.0
  0
LINE
  8
0
  6
CONTINUOUS
 62
       7
  5
18D
 10
-75.96934272
 20
56.19170197
 30
0.0
 11
-76.26632619
 21
56.48868544
 31
0.0
  0
LINE
  8
0
  6
CONTINUOUS
 62
       7
  5
18E
 10
-76.26632619
 20
56.48868544
 30
0.0
 11
-81.27261908
 21
56.48868544
 31
0.0
  0
LINE
  8
0
  6
CONTINUOUS
 62
       7
  5
18F
 10
-75.96934272
 20
50.29445865
 30
0.0
 11
-75.96934272
 21
56.19170197
 31
0.0
  0
LINE
  8
0
  6
CONTINUOUS
 62
       7
  5
190
 10
-76.26632619
 20
49.99747518
 30
0.0
 11
-75.96934272
 21
50.29445865
 31
0.0
  0
LINE
  8
0
  6
CONTINUOUS
 62
       7
  5
191
 10
-76.26632619
 20
48.99338818
 30
0.0
 11
-76.26632619
 21
49.99747518
 31
0.0
  0
LINE
  8
0
  6
CONTINUOUS
 62
       7
  5
192
 10
-74.27229428
 20
48.82368334
 30
0.0
 11
-73.26820729
 21
54.49465353
 31
0.0
  0
LINE
  8
0
  6
CONTINUOUS
 62
       7
  5
193
 10
-75.2622392
 20
49.82777033
 30
0.0
 11
-74.27229428
 21
55.49874052
 31
0.0
  0
LINE
  8
0
  6
CONTINUOUS
 62
       7
  5
194
 10
-74.27229428
 20
55.49874052
 30
0.0
 11
-74.27229428
 21
56.48868544
 31
0.0
  0
LINE
  8
0
  6
CONTINUOUS
 62
       7
  5
195
 10
-80.26853209
 20
54.98962599
 30
0.0
 11
-81.27261908
 21
54.98962599
 31
0.0
  0
LINE
  8
0
  6
CONTINUOUS
 62
       7
  5
196
 10
-80.26853209
 20
48.49841572
 30
0.0
 11
-81.27261908
 21
48.49841572
 31
0.0
  0
LINE
  8
0
  6
CONTINUOUS
 62
       7
  5
197
 10
-81.27261908
 20
48.30042674
 30
0.0
 11
-81.27261908
 21
48.49841572
 31
0.0
  0
LINE
  8
0
  6
CONTINUOUS
 62
       7
  5
198
 10
-76.81786693
 20
48.30042674
 30
0.0
 11
-76.81786693
 21
56.48868544
 31
0.0
  0
LINE
  8
0
  6
CONTINUOUS
 62
       7
  5
199
 10
-78.71290435
 20
48.30042674
 30
0.0
 11
-78.71290435
 21
56.48868544
 31
0.0
  0
LINE
  8
0
  6
CONTINUOUS
 62
       7
  5
19A
 10
-76.61987795
 20
52.18949607
 30
0.0
 11
-76.61987795
 21
56.48868544
 31
0.0
  0
LINE
  8
0
  6
CONTINUOUS
 62
       7
  5
19B
 10
-78.91089334
 20
48.89439369
 30
0.0
 11
-78.91089334
 21
56.48868544
 31
0.0
  0
LINE
  8
0
  6
CONTINUOUS
 62
       7
  5
19C
 10
-76.81786693
 20
51.99150709
 30
0.0
 11
-76.61987795
 21
52.18949607
 31
0.0
  0
LINE
  8
0
  6
CONTINUOUS
 62
       7
  5
19D
 10
-78.71290435
 20
48.69640471
 30
0.0
 11
-78.91089334
 21
48.89439369
 31
0.0
  0
LINE
  8
0
  6
CONTINUOUS
 62
       7
  5
19E
 10
-75.2622392
 20
48.99338818
 30
0.0
 11
-75.2622392
 21
49.82777033
 31
0.0
  0
ARC
  8
0
  6
CONTINUOUS
 62
       7
  5
19F
 10
-75.7642827
 20
49.00007115
 30
0.0
 40
0.50208797
 50
180.76264942
 51
359.23735058
  0
LINE
  8
0
  6
CONTINUOUS
 62
       7
  5
1A0
 10
-115.27015608
 20
47.79131221
 30
0.0
 11
-115.27015608
 21
11.79974329
 31
0.0
  0
ARC
  8
0
  6
CONTINUOUS
 62
       7
  5
1A1
 10
-114.77186258
 20
47.80213324
 30
0.0
 40
0.49841098
 50
88.75595041
 51
181.24404959
  0
LINE
  8
0
  6
CONTINUOUS
 62
       7
  5
1A2
 10
-84.27073798
 20
20.29912754
 30
0.0
 11
-84.27073798
 21
48.30042674
 31
0.0
  0
LINE
  8
0
  6
CENTER
 62
       2
  5
1A3
 10
-77.76538564
 20
53.49056654
 30
0.0
 11
-77.76538564
 21
79.49783382
 31
0.0
  0
LINE
  8
0
  6
CONTINUOUS
 62
       7
  5
1A4
 10
-78.61390986
 20
56.48868544
 30
0.0
 11
-78.61390986
 21
60.94343759
 31
0.0
  0
LINE
  8
0
  6
CONTINUOUS
 62
       7
  5
1A5
 10
-76.91686143
 20
56.48868544
 30
0.0
 11
-76.91686143
 21
60.49089134
 31
0.0
  0
LINE
  8
0
  6
CONTINUOUS
 62
       7
  5
1A6
 10
-77.4542601
 20
66.48712915
 30
0.0
 11
-77.4542601
 21
76.49971492
 31
0.0
  0
LINE
  8
0
  6
CONTINUOUS
 62
       7
  5
1A7
 10
-78.09065326
 20
66.48712915
 30
0.0
 11
-78.09065326
 21
76.49971492
 31
0.0
  0
LINE
  8
0
  6
CONTINUOUS
 62
       7
  5
1A8
 10
-76.91686143
 20
66.48712915
 30
0.0
 11
-78.61390986
 21
66.48712915
 31
0.0
  0
LINE
  8
0
  6
CONTINUOUS
 62
       7
  5
1A9
 10
-77.4542601
 20
76.49971492
 30
0.0
 11
-78.09065326
 21
76.49971492
 31
0.0
  0
LINE
  8
0
  6
CONTINUOUS
 62
       2
  5
1AA
 10
-74.92282951
 20
61.5091204
 30
0.0
 11
-80.62208384
 21
63.03646399
 31
0.0
  0
LINE
  8
0
  6
CONTINUOUS
 62
       2
  5
1AB
 10
-74.92282951
 20
59.95349267
 30
0.0
 11
-80.62208384
 21
61.48083626
 31
0.0
  0
LINE
  8
0
  6
CONTINUOUS
 62
       7
  5
1AC
 10
-76.91686143
 20
62.04651907
 30
0.0
 11
-76.91686143
 21
66.48712915
 31
0.0
  0
LINE
  8
0
  6
CONTINUOUS
 62
       7
  5
1AD
 10
-78.61390986
 20
62.49906532
 30
0.0
 11
-78.61390986
 21
66.48712915
 31
0.0
  0
LINE
  8
0
  6
CONTINUOUS
 62
       7
  5
1AE
 10
-89.2628888
 20
46.49024174
 30
0.0
 11
-89.2628888
 21
47.79131221
 31
0.0
  0
LINE
  8
0
  6
CONTINUOUS
 62
       7
  5
1AF
 10
-84.76571044
 20
46.49024174
 30
0.0
 11
-89.2628888
 21
46.49024174
 31
0.0
  0
LINE
  8
0
  6
CONTINUOUS
 62
       7
  5
1B0
 10
-85.51524017
 20
47.29633975
 30
0.0
 11
-89.2628888
 21
47.29633975
 31
0.0
  0
LINE
  8
0
  6
CONTINUOUS
 62
       7
  5
1B1
 10
-85.51524017
 20
46.49024174
 30
0.0
 11
-85.51524017
 21
47.76302807
 31
0.0
  0
ARC
  8
0
  6
CONTINUOUS
 62
       7
  5
1B2
 10
-87.77090038
 20
44.50000937
 30
0.0
 40
4.49290107
 50
69.06810266
 51
110.93189734
  0
ARC
  8
0
  6
CONTINUOUS
 62
       7
  5
1B3
 10
-86.51045659
 20
47.75820645
 30
0.0
 40
0.99951042
 50
32.85302398
 51
69.82735951
  0
ARC
  8
0
  6
CONTINUOUS
 62
       7
  5
1B4
 10
-89.03377208
 20
47.76124134
 30
0.0
 40
0.9958252
 50
110.1017335
 51
147.21788301
  0
ARC
  8
0
  6
CONTINUOUS
 62
       7
  5
1B5
 10
-86.52212935
 20
47.76277515
 30
0.0
 40
1.00688921
 50
0.01439209
 51
32.27428547
  0
LINE
  8
0
  6
CENTER
 62
       2
  5
1B6
 10
-87.76382935
 20
45.50029682
 30
0.0
 11
-87.76382935
 21
49.99747518
 31
0.0
  0
ARC
  8
0
  6
CONTINUOUS
 62
       7
  5
1B7
 10
-84.76751932
 20
45.9934604
 30
0.0
 40
0.49678463
 50
0.20862437
 51
89.79137563
  0
ARC
  8
0
  6
CONTINUOUS
 62
       7
  5
1B8
 10
-89.76867541
 20
47.79464013
 30
0.0
 40
0.50579756
 50
359.62301723
 51
90.37698277
  0
LINE
  8
0
  6
CONTINUOUS
 62
       7
  5
1B9
 10
-85.67080294
 20
48.30042674
 30
0.0
 11
-74.76726674
 21
48.30042674
 31
0.0
  0
ARC
  8
0
  6
CONTINUOUS
 62
       7
  5
1BA
 10
-112.76700964
 20
44.5000053
 30
0.0
 40
4.49543591
 50
68.98394611
 51
111.01605389
  0
ARC
  8
0
  6
CONTINUOUS
 62
       7
  5
1BB
 10
-114.02105593
 20
47.7715869
 30
0.0
 40
0.99174553
 50
111.16965002
 51
147.77526968
  0
ARC
  8
0
  6
CONTINUOUS
 62
       7
  5
1BC
 10
-111.51860452
 20
47.7647369
 30
0.0
 40
1.00017435
 50
32.384371
 51
68.6707093
  0
LINE
  8
0
  6
CENTER
 62
       2
  5
1BD
 10
-112.76700964
 20
45.50029682
 30
0.0
 11
-112.76700964
 21
49.99747518
 31
0.0
  0
LINE
  8
0
  6
CONTINUOUS
 62
       7
  5
1BE
 10
-82.262564
 20
20.29912754
 30
0.0
 11
-78.59976779
 21
21.62848215
 31
0.0
  0
LINE
  8
0
  6
CONTINUOUS
 62
       7
  5
1BF
 10
-78.27450018
 20
22.09517047
 30
0.0
 11
-78.27450018
 21
32.80071769
 31
0.0
  0
LINE
  8
0
  6
CONTINUOUS
 62
       7
  5
1C0
 10
-78.27450018
 20
32.80071769
 30
0.0
 11
-74.5975619
 21
34.1300723
 31
0.0
  0
ARC
  8
0
  6
CONTINUOUS
 62
       7
  5
1C1
 10
-78.7784087
 20
22.09968445
 30
0.0
 40
0.50392874
 50
290.76258084
 51
359.48676247
  0
ARC
  8
0
  6
CONTINUOUS
 62
       7
  5
1C2
 10
-74.77687968
 20
34.60174636
 30
0.0
 40
0.50461003
 50
290.81545644
 51
359.43388687
  0
LINE
  8
0
  6
CONTINUOUS
 62
       7
  5
1C3
 10
-74.27229428
 20
34.59676062
 30
0.0
 11
-74.27229428
 21
48.82368334
 31
0.0
  0
ARC
  8
0
  6
CONTINUOUS
 62
       7
  5
1C4
 10
-74.7733289
 20
47.7993641
 30
0.0
 40
0.50109931
 50
359.07930616
 51
89.30683493
  0
LINE
  8
0
  6
CENTER
 62
       2
  5
1C5
 10
-15.77433093
 20
-22.90489723
 30
0.0
 11
22.22541197
 21
-22.90489723
 31
0.0
  0
LINE
  8
0
  6
CENTER
 62
       2
  5
1C6
 10
-100.26541949
 20
50.29445865
 30
0.0
 11
-100.26541949
 21
-54.30029329
 31
0.0
  0
LINE
  8
0
  6
CENTER
 62
       2
  5
1C7
 10
104.65169057
 20
50.29445865
 30
0.0
 11
104.65169057
 21
-54.30029329
 31
0.0
  0
TEXT
  8
0
  6
CONTINUOUS
 62
       7
  5
1C8
 10
-185.69512195
 20
105.3500061
 30
0.0
 40
4.5
  1
MODEL:A180-4ME2-81-PSL
 41
1.07317073
  7
MX_NOTE_STANDARD
 11
-185.69512195
 21
107.6000061
 31
0.0
 73
       2
  0
LINE
  8
0
  6
CONTINUOUS
 62
       7
  5
1C9
 10
-194.25
 20
132.6000061
 30
0.0
 11
194.80000305
 21
132.6000061
 31
0.0
  0
LINE
  8
0
  6
CONTINUOUS
 62
       7
  5
1CA
 10
194.80000305
 20
132.6000061
 30
0.0
 11
194.80000305
 21
-133.5
 31
0.0
  0
LINE
  8
0
  6
CONTINUOUS
 62
       7
  5
1CB
 10
-194.25
 20
132.6000061
 30
0.0
 11
-194.25
 21
-133.5
 31
0.0
  0
LINE
  8
0
  6
CONTINUOUS
 62
       7
  5
1CC
 10
-194.25
 20
-133.5
 30
0.0
 11
194.80000305
 21
-133.5
 31
0.0
  0
ENDSEC
  0
EOF
