  0
SECTION
  2
HEADER
  0
ENDSEC
  0
SECTION
  2
TABLES
  0
TABLE
  2
LTYPE
 70
     4
  0
LTYPE
  2
CONTINUOUS
 70
    64
  3
Solid line
 72
    65
 73
     0
 40
0.000000
  0
LTYPE
  2
DASHED
 70
    64
  3
__ __ __ __ __ __ __ __ __ __ __ __ __ __ __
 72
    65
 73
     2
 40
3.500000
 49
2.000000
 49
-1.500000
  0
LTYPE
  2
CENTER
 70
    64
  3
____ _ ____ _ ____ _ ____ _ ____ _ ____ _ ____
 72
    65
 73
     4
 40
17.500000
 49
13.000000
 49
-1.500000
 49
1.500000
 49
-1.500000
  0
LTYPE
  2
PHANTOM
 70
    64
  3
_____ _ _ _____ _ _ _____ _ _ _____ _ _ ____  
 72
    65
 73
     6
 40
15.500000
 49
8.000000
 49
-1.500000
 49
1.500000
 49
-1.500000
 49
1.500000
 49
-1.500000
  0
LTYPE
  2
DASHED1
 70
    64
  3
__ __ __ __ __ __ __ __ __ __ __ __ __ __ __
 72
    65
 73
     2
 40
1.500000
 49
1.000000
 49
-0.500000
  0
LTYPE
  2
DASHED2
 70
    64
  3
__ __ __ __ __ __ __ __ __ __ __ __ __ __ __
 72
    65
 73
     2
 40
3.500000
 49
2.500000
 49
-1.000000
  0
LTYPE
  2
DASHED3
 70
    64
  3
__ __ __ __ __ __ __ __ __ __ __ __ __ __ __
 72
    65
 73
     2
 40
6.000000
 49
4.000000
 49
-2.000000
  0
LTYPE
  2
DASHED4
 70
    64
  3
__ __ __ __ __ __ __ __ __ __ __ __ __ __ __
 72
    65
 73
     2
 40
12.000000
 49
10.000000
 49
-2.000000
  0
LTYPE
  2
DASHED5
 70
    64
  3
__ __ __ __ __ __ __ __ __ __ __ __ __ __ __
 72
    65
 73
     2
 40
17.000000
 49
15.000000
 49
-2.000000
  0
LTYPE
  2
DASHED6
 70
    64
  3
__ __ __ __ __ __ __ __ __ __ __ __ __ __ __
 72
    65
 73
     2
 40
29.000000
 49
27.000000
 49
-2.000000
  0
LTYPE
  2
PHANTOM1
 70
    64
  3
_____ _ _ _____ _ _ _____ _ _ _____ _ _ ____  
 72
    65
 73
     6
 40
31.000000
 49
25.000000
 49
-1.500000
 49
1.000000
 49
-1.000000
 49
1.000000
 49
-1.500000
  0
LTYPE
  2
PHANTOM2
 70
    64
  3
_____ _ _ _____ _ _ _____ _ _ _____ _ _ ____  
 72
    65
 73
     6
 40
36.000000
 49
27.000000
 49
-1.500000
 49
2.500000
 49
-1.000000
 49
2.500000
 49
-1.500000
  0
LTYPE
  2
PHANTOM3
 70
    64
  3
_____ _ _ _____ _ _ _____ _ _ _____ _ _ ____  
 72
    65
 73
     6
 40
78.000000
 49
64.000000
 49
-2.000000
 49
4.000000
 49
-2.000000
 49
4.000000
 49
-2.000000
  0
LTYPE
  2
CENTER1
 70
    64
  3
____ _ ____ _ ____ _ ____ _ ____ _ ____ _ ____
 72
    65
 73
     4
 40
19.000000
 49
14.000000
 49
-1.000000
 49
3.000000
 49
-1.000000
  0
LTYPE
  2
CENTER2
 70
    64
  3
____ _ ____ _ ____ _ ____ _ ____ _ ____ _ ____
 72
    65
 73
     4
 40
28.500000
 49
25.000000
 49
-1.000000
 49
1.500000
 49
-1.000000
  0
LTYPE
  2
CENTER3
 70
    64
  3
____ _ ____ _ ____ _ ____ _ ____ _ ____ _ ____
 72
    65
 73
     4
 40
31.500000
 49
27.000000
 49
-1.000000
 49
2.500000
 49
-1.000000
  0
LTYPE
  2
CENTER4
 70
    64
  3
____ _ ____ _ ____ _ ____ _ ____ _ ____ _ ____
 72
    65
 73
     4
 40
50.000000
 49
45.000000
 49
-1.000000
 49
3.000000
 49
-1.000000
  0
LTYPE
  2
CENTER5
 70
    64
  3
____ _ ____ _ ____ _ ____ _ ____ _ ____ _ ____
 72
    65
 73
     4
 40
100.000000
 49
92.000000
 49
-2.000000
 49
4.000000
 49
-2.000000
  0
LTYPE
  2
SBK1
 70
    64
  3
______ _ _ _ ______ _ _ _ ______ _ _ _ _____  
 72
    65
 73
     8
 40
60.500000
 49
45.000000
 49
-2.000000
 49
2.500000
 49
-2.000000
 49
2.500000
 49
-2.000000
 49
2.500000
 49
-2.000000
  0
LTYPE
  2
SBK2
 70
    64
  3
______ _ _ _ ______ _ _ _ ______ _ _ _ _____  
 72
    65
 73
     8
 40
84.000000
 49
64.000000
 49
-2.000000
 49
4.000000
 49
-2.000000
 49
4.000000
 49
-2.000000
 49
4.000000
 49
-2.000000
  0
LTYPE
  2
STCH
 70
    64
  3
__ __ __ __ __ __ __ __ __ __ __ __ __ __ __
 72
    65
 73
     2
 40
3.000000
 49
1.000000
 49
-2.000000
  0
LTYPE
  2
MTCH
 70
    64
  3
_____ _ _ _____ _ _ _____ _ _ _____ _ _ ____  
 72
    65
 73
     6
 40
80.000000
 49
66.000000
 49
-2.000000
 49
4.000000
 49
-2.000000
 49
4.000000
 49
-2.000000
  0
ENDTAB
  0
TABLE
  2
LAYER
 70
     1
  0
LAYER
  2
0
 70
     0
 62
     7
  6
CONTINUOUS
  0
ENDTAB
  0
TABLE
  2
STYLE
 70
     1
  0
STYLE
  2
STANDARD
 70
     0
 40
0.000000
 41
1.000000
 50
0.000000
 71
     0
 42
0.200000
  3
txt
  4
BIGFONT
  0
ENDTAB
  0
TABLE
  2
VIEW
 70
     0
  0
ENDTAB
  0
ENDSEC
  0
SECTION
  2
BLOCKS
  0
ENDSEC
  0
SECTION
  2
ENTITIES
  0
LINE
  8
0
 10
4.680000
 20
-50.000000
 11
4.680000
 21
-68.000000
  0
LINE
  8
0
  6
CENTER
 62
     2
 10
21.879999
 20
-59.000000
 11
-48.810001
 21
-59.000000
  0
LINE
  8
0
 10
18.680000
 20
-68.000000
 11
-45.220001
 21
-68.000000
  0
LINE
  8
0
 10
18.680000
 20
-50.000000
 11
-45.220001
 21
-50.000000
  0
LINE
  8
0
 10
-37.320000
 20
-50.000000
 11
-37.320000
 21
-68.000000
  0
LINE
  8
0
 10
-45.720001
 20
-50.500000
 11
-45.720001
 21
-67.500000
  0
LINE
  8
0
  6
CENTER
 62
     2
 10
1.430000
 20
-52.500000
 11
-3.740000
 21
-52.500000
  0
LINE
  8
0
  6
CENTER
 62
     2
 10
-28.610001
 20
-65.500000
 11
-34.130001
 21
-65.500000
  0
LINE
  8
0
  6
CENTER
 62
     2
 10
-31.320000
 20
-62.919998
 11
-31.320000
 21
-68.000000
  0
LINE
  8
0
  6
CENTER
 62
     2
 10
-1.320000
 20
-50.000000
 11
-1.320000
 21
-54.990002
  0
LINE
  8
0
  6
CENTER
 62
     2
 10
-41.160000
 20
-53.000000
 11
-46.959999
 21
-53.000000
  0
LINE
  8
0
 10
-42.320000
 20
-50.200001
 11
-42.320000
 21
-55.700001
  0
LINE
  8
0
 10
-42.820000
 20
-56.200001
 11
-45.220001
 21
-56.200001
  0
LINE
  8
0
 10
-43.490002
 20
-50.200001
 11
-42.320000
 21
-50.200001
  0
LINE
  8
0
 10
-43.490002
 20
-55.799999
 11
-42.320000
 21
-55.799999
  0
LINE
  8
0
 10
18.680000
 20
-50.000000
 11
18.680000
 21
-68.000000
  0
LINE
  8
0
  6
CENTER
 62
     2
 10
-74.989998
 20
68.000000
 11
-74.989998
 21
-1.950000
  0
LINE
  8
0
 10
-61.490002
 20
66.000000
 11
-61.490002
 21
2.100000
  0
LINE
  8
0
 10
-88.489998
 20
66.000000
 11
-88.489998
 21
65.500000
  0
LINE
  8
0
 10
-87.989998
 20
1.600000
 11
-61.990002
 21
1.600000
  0
LINE
  8
0
 10
-88.489998
 20
10.000000
 11
-61.490002
 21
10.000000
  0
LINE
  8
0
 10
-88.489998
 20
52.000000
 11
-61.490002
 21
52.000000
  0
LINE
  8
0
 10
-64.489998
 20
17.650000
 11
-61.490002
 21
17.650000
  0
LINE
  8
0
 10
-64.489998
 20
14.340000
 11
-61.490002
 21
14.340000
  0
LINE
  8
0
 10
-64.489998
 20
17.650000
 11
-64.489998
 21
14.340000
  0
LINE
  8
0
  6
CENTER
 62
     2
 10
-64.489998
 20
5.870000
 11
-64.489998
 21
0.420000
  0
LINE
  8
0
 10
-67.190002
 20
5.000000
 11
-61.689999
 21
5.000000
  0
LINE
  8
0
 10
-67.690002
 20
4.500000
 11
-67.690002
 21
2.100000
  0
LINE
  8
0
 10
-67.290001
 20
3.820000
 11
-67.290001
 21
5.000000
  0
LINE
  8
0
 10
-61.689999
 20
3.820000
 11
-61.689999
 21
5.000000
  0
LINE
  8
0
  6
CENTER
 62
     2
 10
-66.050003
 20
16.000000
 11
-59.720001
 21
16.000000
  0
LINE
  8
0
 10
-88.489998
 20
66.000000
 11
-61.490002
 21
66.000000
  0
LINE
  8
0
 10
9.000000
 20
66.000000
 11
9.000000
 21
2.100000
  0
LINE
  8
0
 10
-9.000000
 20
66.000000
 11
-9.000000
 21
2.100000
  0
LINE
  8
0
 10
-9.000000
 20
52.000000
 11
9.000000
 21
52.000000
  0
LINE
  8
0
 10
-9.000000
 20
10.000000
 11
9.000000
 21
10.000000
  0
LINE
  8
0
 10
-8.500000
 20
1.600000
 11
-3.110000
 21
1.600000
  0
LINE
  8
0
  6
CENTER
 62
     2
 10
6.500000
 20
50.590000
 11
6.500000
 21
41.580002
  0
LINE
  8
0
  6
CENTER
 62
     2
 10
-6.500000
 20
20.110001
 11
-6.500000
 21
11.700000
  0
LINE
  8
0
  6
CENTER
 62
     2
 10
-9.410000
 20
16.000000
 11
-2.340000
 21
16.000000
  0
LINE
  8
0
  6
CENTER
 62
     2
 10
-6.000000
 20
6.090000
 11
-6.000000
 21
0.140000
  0
LINE
  8
0
 10
-2.800000
 20
4.500000
 11
-2.800000
 21
2.100000
  0
LINE
  8
0
 10
-8.800000
 20
5.000000
 11
-3.300000
 21
5.000000
  0
LINE
  8
0
 10
-8.800000
 20
3.820000
 11
-8.800000
 21
5.000000
  0
LINE
  8
0
 10
-3.200000
 20
3.820000
 11
-3.200000
 21
5.000000
  0
LINE
  8
0
  6
CENTER
 62
     2
 10
2.160000
 20
46.000000
 11
9.590000
 21
46.000000
  0
LINE
  8
0
 10
-9.000000
 20
66.000000
 11
9.000000
 21
66.000000
  0
LINE
  8
0
  6
DASHED
 62
     2
 10
-4.280000
 20
66.000000
 11
-3.890000
 21
59.700001
  0
LINE
  8
0
  6
DASHED
 62
     2
 10
4.290000
 20
66.000000
 11
3.890000
 21
59.700001
  0
LINE
  8
0
  6
DASHED
 62
     2
 10
-4.860000
 20
65.999992
 11
-4.470000
 21
59.699997
  0
LINE
  8
0
  6
DASHED
 62
     2
 10
4.870000
 20
66.000000
 11
4.470000
 21
59.700001
  0
LINE
  8
0
  6
DASHED
 62
     2
 10
18.680000
 20
-54.709999
 11
12.380000
 21
-55.110001
  0
LINE
  8
0
  6
DASHED
 62
     2
 10
18.680000
 20
-54.130001
 11
12.380000
 21
-54.529999
  0
LINE
  8
0
  6
DASHED
 62
     2
 10
18.679998
 20
-63.859997
 11
12.380000
 21
-63.469997
  0
LINE
  8
0
  6
DASHED
 62
     2
 10
18.680000
 20
-63.279999
 11
12.379999
 21
-62.880001
  0
LINE
  8
0
  6
DASHED
 62
     2
 10
-79.269997
 20
66.000000
 11
-78.879997
 21
59.700001
  0
LINE
  8
0
  6
DASHED
 62
     2
 10
-79.849998
 20
66.000000
 11
-79.459999
 21
59.700001
  0
LINE
  8
0
  6
DASHED
 62
     2
 10
-70.120003
 20
66.000000
 11
-70.519997
 21
59.700001
  0
LINE
  8
0
  6
DASHED
 62
     2
 10
-70.709999
 20
66.000000
 11
-71.099998
 21
59.699997
  0
LINE
  8
0
  6
CENTER
 62
     2
 10
-26.320000
 20
-58.500000
 11
-34.320000
 21
-58.500000
  0
LINE
  8
0
  6
CENTER
 62
     2
 10
-30.320000
 20
-54.500000
 11
-30.320000
 21
-62.500000
  0
LINE
  8
0
  6
CENTER
 62
     2
 10
-2.320000
 20
-55.500000
 11
-2.320000
 21
-63.500000
  0
LINE
  8
0
  6
CENTER
 62
     2
 10
1.680000
 20
-59.500000
 11
-6.320000
 21
-59.500000
  0
LINE
  8
0
  6
CENTER
 62
     2
 10
-9.320000
 20
-53.000000
 11
-9.320000
 21
-61.000000
  0
LINE
  8
0
  6
CENTER
 62
     2
 10
-5.320000
 20
-57.000000
 11
-13.320000
 21
-57.000000
  0
LINE
  8
0
  6
CENTER
 62
     2
 10
-16.320000
 20
-55.000000
 11
-16.320000
 21
-63.000000
  0
LINE
  8
0
  6
CENTER
 62
     2
 10
-23.320000
 20
-57.000000
 11
-23.320000
 21
-65.000000
  0
LINE
  8
0
  6
CENTER
 62
     2
 10
-19.320000
 20
-61.000000
 11
-27.320000
 21
-61.000000
  0
LINE
  8
0
  6
CENTER
 62
     2
 10
70.000000
 20
68.000000
 11
70.000000
 21
-1.950000
  0
LINE
  8
0
 10
56.500000
 20
66.000000
 11
56.500000
 21
2.100000
  0
LINE
  8
0
 10
83.500000
 20
66.000000
 11
83.500000
 21
65.500000
  0
LINE
  8
0
 10
83.000000
 20
1.600000
 11
57.000000
 21
1.600000
  0
LINE
  8
0
 10
83.500000
 20
10.000000
 11
56.500000
 21
10.000000
  0
LINE
  8
0
 10
83.500000
 20
52.000000
 11
56.500000
 21
52.000000
  0
LINE
  8
0
 10
59.500000
 20
44.340000
 11
56.500000
 21
44.340000
  0
LINE
  8
0
 10
59.500000
 20
47.650002
 11
56.500000
 21
47.650002
  0
LINE
  8
0
 10
59.500000
 20
44.340000
 11
59.500000
 21
47.650002
  0
LINE
  8
0
  6
CENTER
 62
     2
 10
80.500000
 20
5.870000
 11
80.500000
 21
0.420000
  0
LINE
  8
0
 10
77.800003
 20
5.000000
 11
83.300003
 21
5.000000
  0
LINE
  8
0
 10
77.300003
 20
4.500000
 11
77.300003
 21
2.100000
  0
LINE
  8
0
 10
77.699997
 20
3.820000
 11
77.699997
 21
5.000000
  0
LINE
  8
0
 10
83.300003
 20
3.820000
 11
83.300003
 21
5.000000
  0
LINE
  8
0
  6
CENTER
 62
     2
 10
61.070000
 20
46.000000
 11
54.730000
 21
46.000000
  0
LINE
  8
0
 10
83.500000
 20
66.000000
 11
56.500000
 21
66.000000
  0
LINE
  8
0
  6
DASHED
 62
     2
 10
74.290001
 20
66.000000
 11
73.889999
 21
59.700001
  0
LINE
  8
0
  6
DASHED
 62
     2
 10
74.870003
 20
65.999992
 11
74.470001
 21
59.699997
  0
LINE
  8
0
  6
DASHED
 62
     2
 10
65.139999
 20
66.000000
 11
65.529999
 21
59.699997
  0
LINE
  8
0
  6
DASHED
 62
     2
 10
65.719994
 20
66.000000
 11
66.109993
 21
59.700001
  0
LINE
  8
0
  6
PHANTOM
 62
     2
 10
-89.489998
 20
66.500000
 11
-89.489998
 21
65.500000
  0
LINE
  8
0
  6
PHANTOM
 62
     2
 10
-119.489998
 20
66.500000
 11
-89.489998
 21
66.500000
  0
LINE
  8
0
  6
PHANTOM
 62
     2
 10
-119.489998
 20
-4.500000
 11
-89.489998
 21
-4.500000
  0
LINE
  8
0
  6
PHANTOM
 62
     2
 10
-119.489998
 20
66.500000
 11
-119.489998
 21
-4.500000
  0
LINE
  8
0
  6
CENTER
 62
     2
 10
-117.989998
 20
41.000000
 11
-100.989998
 21
41.000000
  0
LINE
  8
0
  6
CENTER
 62
     2
 10
-117.989998
 20
21.000000
 11
-100.989998
 21
21.000000
  0
LINE
  8
0
  6
CENTER
 62
     2
 10
-109.489998
 20
49.500000
 11
-109.489998
 21
32.500000
  0
LINE
  8
0
  6
CENTER
 62
     2
 10
-109.489998
 20
29.500000
 11
-109.489998
 21
12.500000
  0
LINE
  8
0
  6
PHANTOM
 62
     2
 10
-89.489998
 20
10.000000
 11
-89.489998
 21
3.500000
  0
LINE
  8
0
  6
CENTER
 62
     2
 10
-90.989998
 20
62.000000
 11
-86.989998
 21
62.000000
  0
LINE
  8
0
  6
PHANTOM
 62
     2
 10
-89.489998
 20
58.500000
 11
-89.489998
 21
52.000000
  0
LINE
  8
0
  6
CENTER
 62
     2
 10
-90.989998
 20
0.000000
 11
-86.989998
 21
0.000000
  0
LINE
  8
0
  6
PHANTOM
 62
     2
 10
-89.489998
 20
-3.500000
 11
-89.489998
 21
-4.500000
  0
LINE
  8
0
 10
-88.489998
 20
10.000000
 11
-88.489998
 21
3.500000
  0
LINE
  8
0
 10
-88.489998
 20
58.500000
 11
-88.489998
 21
52.000000
  0
LINE
  8
0
  6
PHANTOM
 62
     2
 10
-17.000000
 20
-4.500000
 11
17.000000
 21
-4.500000
  0
LINE
  8
0
  6
PHANTOM
 62
     2
 10
-17.000000
 20
66.500000
 11
17.000000
 21
66.500000
  0
LINE
  8
0
  6
PHANTOM
 62
     2
 10
-17.000000
 20
66.500000
 11
-17.000000
 21
-4.500000
  0
LINE
  8
0
  6
PHANTOM
 62
     2
 10
17.000000
 20
66.500000
 11
17.000000
 21
-4.500000
  0
LINE
  8
0
  6
CENTER
 62
     2
 10
-17.000000
 20
53.000000
 11
-10.000000
 21
53.000000
  0
LINE
  8
0
  6
CENTER
 62
     2
 10
10.000000
 20
21.000000
 11
17.000000
 21
21.000000
  0
LINE
  8
0
  6
CENTER
 62
     2
 10
13.500000
 20
24.500000
 11
13.500000
 21
17.500000
  0
LINE
  8
0
  6
CENTER
 62
     2
 10
-13.500000
 20
56.500000
 11
-13.500000
 21
49.500000
  0
LINE
  8
0
  6
CENTER
 62
     2
 10
-5.000000
 20
0.000000
 11
5.000000
 21
0.000000
  0
LINE
  8
0
 10
3.120000
 20
1.600000
 11
8.500000
 21
1.600000
  0
LINE
  8
0
  6
PHANTOM
 62
     2
 10
114.500000
 20
66.500000
 11
84.500000
 21
66.500000
  0
LINE
  8
0
  6
PHANTOM
 62
     2
 10
114.500000
 20
-4.500000
 11
84.500000
 21
-4.500000
  0
LINE
  8
0
  6
PHANTOM
 62
     2
 10
114.500000
 20
66.500000
 11
114.500000
 21
-4.500000
  0
LINE
  8
0
  6
CENTER
 62
     2
 10
99.500000
 20
19.500000
 11
99.500000
 21
2.500000
  0
LINE
  8
0
  6
PHANTOM
 62
     2
 10
84.500000
 20
58.500000
 11
84.500000
 21
52.000000
  0
LINE
  8
0
  6
PHANTOM
 62
     2
 10
84.500000
 20
10.000000
 11
84.500000
 21
3.500000
  0
LINE
  8
0
  6
PHANTOM
 62
     2
 10
84.500000
 20
-3.500000
 11
84.500000
 21
-4.500000
  0
LINE
  8
0
  6
CENTER
 62
     2
 10
93.500000
 20
62.000000
 11
82.000000
 21
62.000000
  0
LINE
  8
0
  6
CENTER
 62
     2
 10
93.500000
 20
0.000000
 11
82.000000
 21
0.000000
  0
LINE
  8
0
  6
CENTER
 62
     2
 10
99.500000
 20
59.500000
 11
99.500000
 21
42.500000
  0
LINE
  8
0
  6
CENTER
 62
     2
 10
104.500000
 20
39.500000
 11
104.500000
 21
22.500000
  0
LINE
  8
0
  6
CENTER
 62
     2
 10
89.500000
 20
66.000000
 11
89.500000
 21
58.000000
  0
LINE
  8
0
  6
CENTER
 62
     2
 10
89.500000
 20
4.000000
 11
89.500000
 21
-4.000000
  0
LINE
  8
0
  6
CENTER
 62
     2
 10
117.150002
 20
31.000000
 11
95.440002
 21
31.000000
  0
LINE
  8
0
  6
CENTER
 62
     2
 10
108.199997
 20
51.000000
 11
91.000000
 21
51.000000
  0
LINE
  8
0
  6
CENTER
 62
     2
 10
108.199997
 20
11.000000
 11
91.000000
 21
11.000000
  0
LINE
  8
0
  6
PHANTOM
 62
     2
 10
84.500000
 20
66.500000
 11
84.500000
 21
65.500000
  0
LINE
  8
0
 10
83.500000
 20
10.000000
 11
83.500000
 21
3.500000
  0
LINE
  8
0
 10
83.500000
 20
58.500000
 11
83.500000
 21
52.000000
  0
LINE
  8
0
  6
CENTER
 62
     2
 10
0.000000
 20
67.650002
 11
0.000000
 21
-7.010000
  0
LINE
  8
0
 10
84.507141
 20
-3.499835
 11
83.547150
 21
-3.499835
  0
LINE
  8
0
 10
83.547142
 20
-3.499836
 11
83.007149
 21
-1.999843
  0
LINE
  8
0
 10
83.007149
 20
1.600140
 11
83.007149
 21
-1.999843
  0
LINE
  8
0
 10
84.507141
 20
3.500131
 11
84.507141
 21
-3.499835
  0
LINE
  8
0
 10
84.507141
 20
3.500131
 11
83.507149
 21
3.500131
  0
LINE
  8
0
 10
83.507149
 20
3.500131
 11
83.507149
 21
2.100138
  0
LINE
  8
0
 10
84.507141
 20
10.000100
 11
83.507149
 21
10.000100
  0
LINE
  8
0
 10
83.507149
 20
51.999901
 11
83.507149
 21
10.000100
  0
LINE
  8
0
 10
84.507141
 20
51.999901
 11
83.507149
 21
51.999901
  0
LINE
  8
0
 10
84.507141
 20
51.999901
 11
84.507141
 21
10.000100
  0
LINE
  8
0
 10
84.507141
 20
58.499870
 11
83.507149
 21
58.499870
  0
LINE
  8
0
 10
83.507149
 20
65.499832
 11
83.507149
 21
58.499870
  0
LINE
  8
0
 10
84.507141
 20
65.499832
 11
84.507141
 21
58.499870
  0
LINE
  8
0
 10
84.507141
 20
65.499832
 11
83.507149
 21
65.499832
  0
LINE
  8
0
 10
-3.102837
 20
1.600145
 11
3.117134
 21
1.600145
  0
LINE
  8
0
 10
-89.492828
 20
-3.499835
 11
-88.532837
 21
-3.499835
  0
LINE
  8
0
 10
-88.532837
 20
-3.499836
 11
-87.992836
 21
-1.999843
  0
LINE
  8
0
 10
-87.992836
 20
1.600140
 11
-87.992836
 21
-1.999843
  0
LINE
  8
0
 10
-89.492828
 20
3.500131
 11
-89.492828
 21
-3.499835
  0
LINE
  8
0
 10
-89.492828
 20
3.500131
 11
-88.492836
 21
3.500131
  0
LINE
  8
0
 10
-88.492836
 20
3.500131
 11
-88.492836
 21
2.100138
  0
LINE
  8
0
 10
-89.492828
 20
10.000100
 11
-88.492836
 21
10.000100
  0
LINE
  8
0
 10
-88.492836
 20
51.999901
 11
-88.492836
 21
10.000100
  0
LINE
  8
0
 10
-89.492828
 20
51.999901
 11
-88.492836
 21
51.999901
  0
LINE
  8
0
 10
-89.492828
 20
51.999901
 11
-89.492828
 21
10.000100
  0
LINE
  8
0
 10
-89.492828
 20
58.499870
 11
-88.492836
 21
58.499870
  0
LINE
  8
0
 10
-88.492836
 20
65.499832
 11
-88.492836
 21
58.499870
  0
LINE
  8
0
 10
-89.492828
 20
65.499832
 11
-89.492828
 21
58.499870
  0
LINE
  8
0
 10
-89.492828
 20
65.499832
 11
-88.492836
 21
65.499832
  0
LINE
  8
0
 10
-138.399994
 20
94.500000
 11
138.350006
 21
94.500000
  0
LINE
  8
0
 10
138.350006
 20
94.500000
 11
138.350006
 21
-94.800003
  0
LINE
  8
0
 10
-138.399994
 20
-94.800003
 11
138.350006
 21
-94.800003
  0
LINE
  8
0
 10
-138.399994
 20
94.500000
 11
-138.399994
 21
-94.800003
  0
ARC
  8
0
 10
-45.220001
 20
-50.500000
 40
0.500000
 50
90.000000
 51
180.000000
  0
ARC
  8
0
 10
-45.220001
 20
-67.500000
 40
0.500000
 50
180.000000
 51
270.000000
  0
CIRCLE
  8
0
 10
-31.320000
 20
-65.500000
 40
1.599999
  0
CIRCLE
  8
0
 10
-1.320000
 20
-52.500000
 40
1.599999
  0
ARC
  8
0
 10
-41.820000
 20
-50.500000
 40
0.500000
 50
90.000000
 51
180.000000
  0
ARC
  8
0
 10
-42.820000
 20
-55.699997
 40
0.500000
 50
270.000000
 51
0.000000
  0
ARC
  8
0
 10
-45.220001
 20
-56.699997
 40
0.499996
 50
89.999565
 51
180.000443
  0
ARC
  8
0
 10
-39.720001
 20
-52.994999
 40
4.999875
 50
150.461227
 51
209.538773
  0
ARC
  8
0
 10
-43.493896
 20
-50.867847
 40
0.667862
 50
89.665863
 51
149.611038
  0
ARC
  8
0
 10
-43.489609
 20
-55.134628
 40
0.665372
 50
209.275269
 51
269.966492
  0
ARC
  8
0
 10
-61.991417
 20
2.101416
 40
0.501418
 50
270.161713
 51
359.838257
  0
ARC
  8
0
 10
-67.191422
 20
4.501422
 40
0.498580
 50
89.836922
 51
180.163452
  0
ARC
  8
0
 10
-61.991421
 20
5.501420
 40
0.501422
 50
270.162140
 51
359.837738
  0
ARC
  8
0
 10
-68.191422
 20
2.101422
 40
0.501424
 50
270.162140
 51
359.837555
  0
ARC
  8
0
 10
-64.489998
 20
7.599991
 40
5.006108
 50
240.567398
 51
299.432617
  0
ARC
  8
0
 10
-66.622360
 20
3.821720
 40
0.667643
 50
180.147644
 51
240.610336
  0
ARC
  8
0
 10
-62.361855
 20
3.824190
 40
0.671868
 50
299.599213
 51
359.642639
  0
ARC
  8
0
 10
-8.496418
 20
2.103582
 40
0.503595
 50
180.407593
 51
269.592468
  0
ARC
  8
0
 10
8.503566
 20
2.096434
 40
0.496447
 50
269.588470
 51
0.411565
  0
CIRCLE
  8
0
 10
-6.492852
 20
16.000000
 40
1.599999
  0
CIRCLE
  8
0
 10
6.507148
 20
46.000000
 40
1.599999
  0
ARC
  8
0
 10
6.507145
 20
45.994999
 40
2.992214
 50
33.580063
 51
326.419952
  0
ARC
  8
0
 10
-6.497117
 20
16.001278
 40
2.997117
 50
359.975555
 51
146.625946
  0
ARC
  8
0
 10
-6.499870
 20
15.997884
 40
2.999872
 50
213.549133
 51
0.040418
  0
ARC
  8
0
 10
-3.296440
 20
4.503560
 40
0.496453
 50
359.589142
 51
90.410873
  0
ARC
  8
0
 10
-8.496413
 20
5.503587
 40
0.503600
 50
180.408081
 51
269.591919
  0
ARC
  8
0
 10
-2.296419
 20
2.103581
 40
0.503594
 50
180.407410
 51
269.592590
  0
ARC
  8
0
 10
-6.000000
 20
7.599995
 40
5.006112
 50
240.567398
 51
299.432587
  0
ARC
  8
0
 10
-8.124945
 20
3.826067
 40
0.675082
 50
180.514908
 51
240.243317
  0
ARC
  8
0
 10
-3.864464
 20
3.819858
 40
0.664464
 50
299.229492
 51
0.012253
  0
CIRCLE
  8
0
 10
-30.319923
 20
-58.500015
 40
2.399988
  0
CIRCLE
  8
0
 10
-2.320061
 20
-59.500015
 40
2.399988
  0
CIRCLE
  8
0
 10
-9.320030
 20
-57.000015
 40
2.399988
  0
CIRCLE
  8
0
 10
-16.320000
 20
-59.000015
 40
2.399988
  0
CIRCLE
  8
0
 10
-23.319954
 20
-61.000000
 40
2.399988
  0
ARC
  8
0
 10
57.003582
 20
2.103582
 40
0.503595
 50
180.407593
 51
269.592468
  0
ARC
  8
0
 10
77.803589
 20
4.496411
 40
0.503601
 50
90.407967
 51
179.591705
  0
ARC
  8
0
 10
83.003563
 20
5.496439
 40
0.496451
 50
269.588806
 51
0.411039
  0
ARC
  8
0
 10
76.803566
 20
2.096432
 40
0.496445
 50
269.587921
 51
0.411734
  0
ARC
  8
0
 10
80.500000
 20
7.599995
 40
5.006112
 50
240.567413
 51
299.432587
  0
ARC
  8
0
 10
78.375053
 20
3.826067
 40
0.675084
 50
180.514908
 51
240.243530
  0
ARC
  8
0
 10
82.635536
 20
3.819858
 40
0.664463
 50
299.229431
 51
0.012253
  0
CIRCLE
  8
0
  6
PHANTOM
 62
     2
 10
-109.492775
 20
40.999939
 40
6.578468
  0
CIRCLE
  8
0
  6
PHANTOM
 62
     2
 10
-109.492775
 20
21.000046
 40
6.578468
  0
CIRCLE
  8
0
  6
PHANTOM
 62
     2
 10
-109.492775
 20
40.999939
 40
5.722472
  0
CIRCLE
  8
0
  6
PHANTOM
 62
     2
 10
-109.492775
 20
21.000046
 40
5.722472
  0
CIRCLE
  8
0
  6
PHANTOM
 62
     2
 10
-13.492790
 20
52.999908
 40
2.249989
  0
CIRCLE
  8
0
  6
PHANTOM
 62
     2
 10
13.507072
 20
21.000046
 40
2.249989
  0
CIRCLE
  8
0
  6
PHANTOM
 62
     2
 10
99.507072
 20
11.000092
 40
6.578468
  0
CIRCLE
  8
0
  6
PHANTOM
 62
     2
 10
99.507072
 20
11.000092
 40
5.722472
  0
CIRCLE
  8
0
  6
PHANTOM
 62
     2
 10
99.507072
 20
50.999908
 40
6.578468
  0
CIRCLE
  8
0
  6
PHANTOM
 62
     2
 10
99.507072
 20
50.999908
 40
5.722472
  0
CIRCLE
  8
0
  6
PHANTOM
 62
     2
 10
104.507057
 20
31.000000
 40
6.578468
  0
CIRCLE
  8
0
  6
PHANTOM
 62
     2
 10
104.507057
 20
31.000000
 40
5.722472
  0
CIRCLE
  8
0
  6
PHANTOM
 62
     2
 10
89.507103
 20
61.999847
 40
2.499988
  0
CIRCLE
  8
0
  6
PHANTOM
 62
     2
 10
89.507103
 20
0.000137
 40
2.499988
  0
CIRCLE
  8
0
  6
PHANTOM
 62
     2
 10
89.507103
 20
61.999847
 40
1.749991
  0
CIRCLE
  8
0
  6
PHANTOM
 62
     2
 10
89.507103
 20
0.000137
 40
1.749991
  0
ARC
  8
0
 10
83.007156
 20
2.100133
 40
0.499993
 50
269.999115
 51
0.000519
  0
ARC
  8
0
 10
0.008431
 20
-0.005128
 40
3.498704
 50
0.086483
 51
27.310951
  0
ARC
  8
0
 10
0.008427
 20
-0.000157
 40
3.498704
 50
152.780640
 51
0.005071
  0
ARC
  8
0
 10
-87.992844
 20
2.100133
 40
0.499992
 50
179.999481
 51
270.000885
  0
TEXT
  8
0
 10
89.707352
 20
-92.850006
 40
4.500000
  1
A180-4A
 50
0.000000
 41
1.052632
 51
0.000000
  7
STANDARD
  0
ENDSEC
  0
EOF
