  0
SECTION
  2
HEADER
  0
ENDSEC
  0
SECTION
  2
TABLES
  0
TABLE
  2
LTYPE
 70
     4
  0
LTYPE
  2
CONTINUOUS
 70
    64
  3
Solid line
 72
    65
 73
     0
 40
0.000000
  0
LTYPE
  2
DASHED
 70
    64
  3
__ __ __ __ __ __ __ __ __ __ __ __ __ __ __
 72
    65
 73
     2
 40
3.500000
 49
2.000000
 49
-1.500000
  0
LTYPE
  2
CENTER
 70
    64
  3
____ _ ____ _ ____ _ ____ _ ____ _ ____ _ ____
 72
    65
 73
     4
 40
17.500000
 49
13.000000
 49
-1.500000
 49
1.500000
 49
-1.500000
  0
LTYPE
  2
PHANTOM
 70
    64
  3
_____ _ _ _____ _ _ _____ _ _ _____ _ _ ____  
 72
    65
 73
     6
 40
15.500000
 49
8.000000
 49
-1.500000
 49
1.500000
 49
-1.500000
 49
1.500000
 49
-1.500000
  0
LTYPE
  2
DASHED1
 70
    64
  3
__ __ __ __ __ __ __ __ __ __ __ __ __ __ __
 72
    65
 73
     2
 40
1.500000
 49
1.000000
 49
-0.500000
  0
LTYPE
  2
DASHED2
 70
    64
  3
__ __ __ __ __ __ __ __ __ __ __ __ __ __ __
 72
    65
 73
     2
 40
3.500000
 49
2.500000
 49
-1.000000
  0
LTYPE
  2
DASHED3
 70
    64
  3
__ __ __ __ __ __ __ __ __ __ __ __ __ __ __
 72
    65
 73
     2
 40
6.000000
 49
4.000000
 49
-2.000000
  0
LTYPE
  2
DASHED4
 70
    64
  3
__ __ __ __ __ __ __ __ __ __ __ __ __ __ __
 72
    65
 73
     2
 40
12.000000
 49
10.000000
 49
-2.000000
  0
LTYPE
  2
DASHED5
 70
    64
  3
__ __ __ __ __ __ __ __ __ __ __ __ __ __ __
 72
    65
 73
     2
 40
17.000000
 49
15.000000
 49
-2.000000
  0
LTYPE
  2
DASHED6
 70
    64
  3
__ __ __ __ __ __ __ __ __ __ __ __ __ __ __
 72
    65
 73
     2
 40
29.000000
 49
27.000000
 49
-2.000000
  0
LTYPE
  2
PHANTOM1
 70
    64
  3
_____ _ _ _____ _ _ _____ _ _ _____ _ _ ____  
 72
    65
 73
     6
 40
31.000000
 49
25.000000
 49
-1.500000
 49
1.000000
 49
-1.000000
 49
1.000000
 49
-1.500000
  0
LTYPE
  2
PHANTOM2
 70
    64
  3
_____ _ _ _____ _ _ _____ _ _ _____ _ _ ____  
 72
    65
 73
     6
 40
36.000000
 49
27.000000
 49
-1.500000
 49
2.500000
 49
-1.000000
 49
2.500000
 49
-1.500000
  0
LTYPE
  2
PHANTOM3
 70
    64
  3
_____ _ _ _____ _ _ _____ _ _ _____ _ _ ____  
 72
    65
 73
     6
 40
78.000000
 49
64.000000
 49
-2.000000
 49
4.000000
 49
-2.000000
 49
4.000000
 49
-2.000000
  0
LTYPE
  2
CENTER1
 70
    64
  3
____ _ ____ _ ____ _ ____ _ ____ _ ____ _ ____
 72
    65
 73
     4
 40
19.000000
 49
14.000000
 49
-1.000000
 49
3.000000
 49
-1.000000
  0
LTYPE
  2
CENTER2
 70
    64
  3
____ _ ____ _ ____ _ ____ _ ____ _ ____ _ ____
 72
    65
 73
     4
 40
28.500000
 49
25.000000
 49
-1.000000
 49
1.500000
 49
-1.000000
  0
LTYPE
  2
CENTER3
 70
    64
  3
____ _ ____ _ ____ _ ____ _ ____ _ ____ _ ____
 72
    65
 73
     4
 40
31.500000
 49
27.000000
 49
-1.000000
 49
2.500000
 49
-1.000000
  0
LTYPE
  2
CENTER4
 70
    64
  3
____ _ ____ _ ____ _ ____ _ ____ _ ____ _ ____
 72
    65
 73
     4
 40
50.000000
 49
45.000000
 49
-1.000000
 49
3.000000
 49
-1.000000
  0
LTYPE
  2
CENTER5
 70
    64
  3
____ _ ____ _ ____ _ ____ _ ____ _ ____ _ ____
 72
    65
 73
     4
 40
100.000000
 49
92.000000
 49
-2.000000
 49
4.000000
 49
-2.000000
  0
LTYPE
  2
SBK1
 70
    64
  3
______ _ _ _ ______ _ _ _ ______ _ _ _ _____  
 72
    65
 73
     8
 40
60.500000
 49
45.000000
 49
-2.000000
 49
2.500000
 49
-2.000000
 49
2.500000
 49
-2.000000
 49
2.500000
 49
-2.000000
  0
LTYPE
  2
SBK2
 70
    64
  3
______ _ _ _ ______ _ _ _ ______ _ _ _ _____  
 72
    65
 73
     8
 40
84.000000
 49
64.000000
 49
-2.000000
 49
4.000000
 49
-2.000000
 49
4.000000
 49
-2.000000
 49
4.000000
 49
-2.000000
  0
LTYPE
  2
STCH
 70
    64
  3
__ __ __ __ __ __ __ __ __ __ __ __ __ __ __
 72
    65
 73
     2
 40
3.000000
 49
1.000000
 49
-2.000000
  0
LTYPE
  2
MTCH
 70
    64
  3
_____ _ _ _____ _ _ _____ _ _ _____ _ _ ____  
 72
    65
 73
     6
 40
80.000000
 49
66.000000
 49
-2.000000
 49
4.000000
 49
-2.000000
 49
4.000000
 49
-2.000000
  0
ENDTAB
  0
TABLE
  2
LAYER
 70
     1
  0
LAYER
  2
0
 70
     0
 62
     7
  6
CONTINUOUS
  0
ENDTAB
  0
TABLE
  2
STYLE
 70
     1
  0
STYLE
  2
STANDARD
 70
     0
 40
0.000000
 41
1.000000
 50
0.000000
 71
     0
 42
0.200000
  3
txt
  4
BIGFONT
  0
ENDTAB
  0
TABLE
  2
VIEW
 70
     0
  0
ENDTAB
  0
ENDSEC
  0
SECTION
  2
BLOCKS
  0
ENDSEC
  0
SECTION
  2
ENTITIES
  0
LINE
  8
0
 10
4.680000
 20
-50.000000
 11
4.680000
 21
-68.000000
  0
LINE
  8
0
  6
CENTER
 62
     2
 10
21.879999
 20
-59.000000
 11
-54.450001
 21
-59.000000
  0
LINE
  8
0
 10
18.680000
 20
-68.000000
 11
-51.320000
 21
-68.000000
  0
LINE
  8
0
 10
18.680000
 20
-50.000000
 11
-51.320000
 21
-50.000000
  0
LINE
  8
0
 10
-37.320000
 20
-50.000000
 11
-37.320000
 21
-68.000000
  0
LINE
  8
0
  6
CENTER
 62
     2
 10
1.430000
 20
-52.500000
 11
-3.740000
 21
-52.500000
  0
LINE
  8
0
  6
CENTER
 62
     2
 10
-28.610001
 20
-65.500000
 11
-34.130001
 21
-65.500000
  0
LINE
  8
0
  6
CENTER
 62
     2
 10
-31.320000
 20
-62.919998
 11
-31.320000
 21
-68.000000
  0
LINE
  8
0
  6
CENTER
 62
     2
 10
-1.320000
 20
-50.000000
 11
-1.320000
 21
-54.990002
  0
LINE
  8
0
 10
18.680000
 20
-50.000000
 11
18.680000
 21
-68.000000
  0
LINE
  8
0
  6
CENTER
 62
     2
 10
-74.989998
 20
79.050003
 11
-74.989998
 21
2.710000
  0
LINE
  8
0
 10
-61.490002
 20
76.000000
 11
-61.490002
 21
6.000000
  0
LINE
  8
0
 10
-88.489998
 20
76.000000
 11
-88.489998
 21
75.500000
  0
LINE
  8
0
 10
-88.489998
 20
20.000000
 11
-61.490002
 21
20.000000
  0
LINE
  8
0
 10
-88.489998
 20
62.000000
 11
-61.490002
 21
62.000000
  0
LINE
  8
0
 10
-64.489998
 20
27.650000
 11
-61.490002
 21
27.650000
  0
LINE
  8
0
 10
-64.489998
 20
24.340000
 11
-61.490002
 21
24.340000
  0
LINE
  8
0
 10
-64.489998
 20
27.650000
 11
-64.489998
 21
24.340000
  0
LINE
  8
0
  6
CENTER
 62
     2
 10
-66.050003
 20
26.000000
 11
-59.720001
 21
26.000000
  0
LINE
  8
0
 10
-88.489998
 20
76.000000
 11
-61.490002
 21
76.000000
  0
LINE
  8
0
 10
9.000000
 20
76.000000
 11
9.000000
 21
6.000000
  0
LINE
  8
0
 10
-9.000000
 20
76.000000
 11
-9.000000
 21
6.000000
  0
LINE
  8
0
 10
-9.000000
 20
62.000000
 11
9.000000
 21
62.000000
  0
LINE
  8
0
 10
-9.000000
 20
20.000000
 11
9.000000
 21
20.000000
  0
LINE
  8
0
  6
CENTER
 62
     2
 10
6.500000
 20
60.590000
 11
6.500000
 21
51.580002
  0
LINE
  8
0
  6
CENTER
 62
     2
 10
-6.500000
 20
30.110001
 11
-6.500000
 21
21.700001
  0
LINE
  8
0
  6
CENTER
 62
     2
 10
-9.410000
 20
26.000000
 11
-2.340000
 21
26.000000
  0
LINE
  8
0
  6
CENTER
 62
     2
 10
2.160000
 20
56.000000
 11
9.590000
 21
56.000000
  0
LINE
  8
0
 10
-9.000000
 20
76.000000
 11
9.000000
 21
76.000000
  0
LINE
  8
0
  6
DASHED
 62
     2
 10
-4.280000
 20
76.000000
 11
-3.890000
 21
69.700005
  0
LINE
  8
0
  6
DASHED
 62
     2
 10
4.290000
 20
76.000000
 11
3.890000
 21
69.699997
  0
LINE
  8
0
  6
DASHED
 62
     2
 10
-4.860000
 20
76.000000
 11
-4.470000
 21
69.699997
  0
LINE
  8
0
  6
DASHED
 62
     2
 10
4.870000
 20
76.000000
 11
4.470000
 21
69.699997
  0
LINE
  8
0
  6
DASHED
 62
     2
 10
18.680000
 20
-54.709999
 11
12.380000
 21
-55.110001
  0
LINE
  8
0
  6
DASHED
 62
     2
 10
18.680000
 20
-54.130001
 11
12.380000
 21
-54.529999
  0
LINE
  8
0
  6
DASHED
 62
     2
 10
18.679998
 20
-63.859997
 11
12.380000
 21
-63.469997
  0
LINE
  8
0
  6
DASHED
 62
     2
 10
18.680000
 20
-63.279999
 11
12.379999
 21
-62.880001
  0
LINE
  8
0
  6
DASHED
 62
     2
 10
-79.270004
 20
76.000000
 11
-78.880005
 21
69.700005
  0
LINE
  8
0
  6
DASHED
 62
     2
 10
-79.849998
 20
76.000000
 11
-79.459999
 21
69.700005
  0
LINE
  8
0
  6
DASHED
 62
     2
 10
-70.120003
 20
76.000000
 11
-70.519997
 21
69.699997
  0
LINE
  8
0
  6
DASHED
 62
     2
 10
-70.709999
 20
76.000000
 11
-71.099998
 21
69.699997
  0
LINE
  8
0
  6
CENTER
 62
     2
 10
-26.320000
 20
-58.500000
 11
-34.320000
 21
-58.500000
  0
LINE
  8
0
  6
CENTER
 62
     2
 10
-30.320000
 20
-54.500000
 11
-30.320000
 21
-62.500000
  0
LINE
  8
0
  6
CENTER
 62
     2
 10
-2.320000
 20
-55.500000
 11
-2.320000
 21
-63.500000
  0
LINE
  8
0
  6
CENTER
 62
     2
 10
1.680000
 20
-59.500000
 11
-6.320000
 21
-59.500000
  0
LINE
  8
0
  6
CENTER
 62
     2
 10
-9.320000
 20
-53.000000
 11
-9.320000
 21
-61.000000
  0
LINE
  8
0
  6
CENTER
 62
     2
 10
-5.320000
 20
-57.000000
 11
-13.320000
 21
-57.000000
  0
LINE
  8
0
  6
CENTER
 62
     2
 10
-16.320000
 20
-47.509998
 11
-16.320000
 21
-70.419998
  0
LINE
  8
0
  6
CENTER
 62
     2
 10
-23.320000
 20
-57.000000
 11
-23.320000
 21
-65.000000
  0
LINE
  8
0
  6
CENTER
 62
     2
 10
-19.320000
 20
-61.000000
 11
-27.320000
 21
-61.000000
  0
LINE
  8
0
  6
CENTER
 62
     2
 10
70.000000
 20
78.580002
 11
70.000000
 21
2.640000
  0
LINE
  8
0
 10
56.500000
 20
76.000000
 11
56.500000
 21
6.000000
  0
LINE
  8
0
 10
83.500000
 20
76.000000
 11
83.500000
 21
75.500000
  0
LINE
  8
0
 10
83.500000
 20
20.000000
 11
56.500000
 21
20.000000
  0
LINE
  8
0
 10
83.500000
 20
62.000000
 11
56.500000
 21
62.000000
  0
LINE
  8
0
 10
59.500000
 20
54.340000
 11
56.500000
 21
54.340000
  0
LINE
  8
0
 10
59.500000
 20
57.650002
 11
56.500000
 21
57.650002
  0
LINE
  8
0
 10
59.500000
 20
54.340000
 11
59.500000
 21
57.650002
  0
LINE
  8
0
  6
CENTER
 62
     2
 10
61.070000
 20
56.000000
 11
54.730000
 21
56.000000
  0
LINE
  8
0
 10
83.500000
 20
76.000000
 11
56.500000
 21
76.000000
  0
LINE
  8
0
  6
DASHED
 62
     2
 10
74.290001
 20
75.999992
 11
73.889999
 21
69.699997
  0
LINE
  8
0
  6
DASHED
 62
     2
 10
74.870003
 20
75.999992
 11
74.470001
 21
69.699997
  0
LINE
  8
0
  6
DASHED
 62
     2
 10
65.139999
 20
76.000000
 11
65.529999
 21
69.699997
  0
LINE
  8
0
  6
DASHED
 62
     2
 10
65.720001
 20
76.000000
 11
66.110001
 21
69.699997
  0
LINE
  8
0
  6
PHANTOM
 62
     2
 10
-89.489998
 20
76.500000
 11
-89.489998
 21
75.500000
  0
LINE
  8
0
  6
PHANTOM
 62
     2
 10
-119.489998
 20
76.500000
 11
-89.489998
 21
76.500000
  0
LINE
  8
0
  6
PHANTOM
 62
     2
 10
-119.489998
 20
5.500000
 11
-89.489998
 21
5.500000
  0
LINE
  8
0
  6
PHANTOM
 62
     2
 10
-119.489998
 20
76.500000
 11
-119.489998
 21
5.500000
  0
LINE
  8
0
  6
CENTER
 62
     2
 10
-117.989998
 20
51.000000
 11
-100.989998
 21
51.000000
  0
LINE
  8
0
  6
CENTER
 62
     2
 10
-117.989998
 20
31.000000
 11
-100.989998
 21
31.000000
  0
LINE
  8
0
  6
CENTER
 62
     2
 10
-109.489998
 20
59.500000
 11
-109.489998
 21
42.500000
  0
LINE
  8
0
  6
CENTER
 62
     2
 10
-109.489998
 20
39.500000
 11
-109.489998
 21
22.500000
  0
LINE
  8
0
  6
PHANTOM
 62
     2
 10
-89.489998
 20
20.000000
 11
-89.489998
 21
13.500000
  0
LINE
  8
0
  6
CENTER
 62
     2
 10
-90.989998
 20
72.000000
 11
-86.989998
 21
72.000000
  0
LINE
  8
0
  6
PHANTOM
 62
     2
 10
-89.489998
 20
68.500000
 11
-89.489998
 21
62.000000
  0
LINE
  8
0
  6
CENTER
 62
     2
 10
-90.989998
 20
10.000000
 11
-86.989998
 21
10.000000
  0
LINE
  8
0
  6
PHANTOM
 62
     2
 10
-89.489998
 20
6.500000
 11
-89.489998
 21
5.500000
  0
LINE
  8
0
 10
-88.489998
 20
20.000000
 11
-88.489998
 21
13.500000
  0
LINE
  8
0
 10
-88.489998
 20
68.500000
 11
-88.489998
 21
62.000000
  0
LINE
  8
0
  6
PHANTOM
 62
     2
 10
-17.000000
 20
5.500000
 11
17.000000
 21
5.500000
  0
LINE
  8
0
  6
PHANTOM
 62
     2
 10
-17.000000
 20
76.500000
 11
17.000000
 21
76.500000
  0
LINE
  8
0
  6
PHANTOM
 62
     2
 10
-17.000000
 20
76.500000
 11
-17.000000
 21
5.500000
  0
LINE
  8
0
  6
PHANTOM
 62
     2
 10
17.000000
 20
76.500000
 11
17.000000
 21
5.500000
  0
LINE
  8
0
  6
CENTER
 62
     2
 10
-17.000000
 20
63.000000
 11
-10.000000
 21
63.000000
  0
LINE
  8
0
  6
CENTER
 62
     2
 10
10.000000
 20
31.000000
 11
17.000000
 21
31.000000
  0
LINE
  8
0
  6
CENTER
 62
     2
 10
13.500000
 20
34.500000
 11
13.500000
 21
27.500000
  0
LINE
  8
0
  6
CENTER
 62
     2
 10
-13.500000
 20
66.500000
 11
-13.500000
 21
59.500000
  0
LINE
  8
0
  6
PHANTOM
 62
     2
 10
114.500000
 20
76.500000
 11
84.500000
 21
76.500000
  0
LINE
  8
0
  6
PHANTOM
 62
     2
 10
114.500000
 20
5.500000
 11
84.500000
 21
5.500000
  0
LINE
  8
0
  6
PHANTOM
 62
     2
 10
114.500000
 20
76.500000
 11
114.500000
 21
5.500000
  0
LINE
  8
0
  6
CENTER
 62
     2
 10
99.500000
 20
29.500000
 11
99.500000
 21
12.500000
  0
LINE
  8
0
  6
PHANTOM
 62
     2
 10
84.500000
 20
68.500000
 11
84.500000
 21
62.000000
  0
LINE
  8
0
  6
PHANTOM
 62
     2
 10
84.500000
 20
20.000000
 11
84.500000
 21
13.500000
  0
LINE
  8
0
  6
PHANTOM
 62
     2
 10
84.500000
 20
6.500000
 11
84.500000
 21
5.500000
  0
LINE
  8
0
  6
CENTER
 62
     2
 10
93.500000
 20
72.000000
 11
82.000000
 21
72.000000
  0
LINE
  8
0
  6
CENTER
 62
     2
 10
93.500000
 20
10.000000
 11
82.000000
 21
10.000000
  0
LINE
  8
0
  6
CENTER
 62
     2
 10
99.500000
 20
69.500000
 11
99.500000
 21
52.500000
  0
LINE
  8
0
  6
CENTER
 62
     2
 10
104.500000
 20
49.500000
 11
104.500000
 21
32.500000
  0
LINE
  8
0
  6
CENTER
 62
     2
 10
89.500000
 20
76.000000
 11
89.500000
 21
68.000000
  0
LINE
  8
0
  6
CENTER
 62
     2
 10
89.500000
 20
14.000000
 11
89.500000
 21
6.000000
  0
LINE
  8
0
  6
CENTER
 62
     2
 10
117.150002
 20
41.000000
 11
95.440002
 21
41.000000
  0
LINE
  8
0
  6
CENTER
 62
     2
 10
108.199997
 20
61.000000
 11
91.000000
 21
61.000000
  0
LINE
  8
0
  6
CENTER
 62
     2
 10
108.199997
 20
21.000000
 11
91.000000
 21
21.000000
  0
LINE
  8
0
  6
PHANTOM
 62
     2
 10
84.500000
 20
76.500000
 11
84.500000
 21
75.500000
  0
LINE
  8
0
 10
83.500000
 20
20.000000
 11
83.500000
 21
13.500000
  0
LINE
  8
0
 10
83.500000
 20
68.500000
 11
83.500000
 21
62.000000
  0
LINE
  8
0
 10
-88.489998
 20
6.000000
 11
-61.490002
 21
6.000000
  0
LINE
  8
0
 10
-88.489998
 20
6.000000
 11
-88.489998
 21
6.500000
  0
LINE
  8
0
  6
DASHED
 62
     2
 10
-79.849998
 20
6.000000
 11
-79.459999
 21
12.300000
  0
LINE
  8
0
  6
DASHED
 62
     2
 10
-79.269997
 20
6.000000
 11
-78.879997
 21
12.300000
  0
LINE
  8
0
  6
DASHED
 62
     2
 10
-70.120003
 20
6.000000
 11
-70.520004
 21
12.300000
  0
LINE
  8
0
  6
DASHED
 62
     2
 10
-70.709999
 20
6.000000
 11
-71.100006
 21
12.300000
  0
LINE
  8
0
 10
83.500000
 20
6.000000
 11
56.500000
 21
6.000000
  0
LINE
  8
0
 10
83.500000
 20
6.000000
 11
83.500000
 21
6.500000
  0
LINE
  8
0
  6
DASHED
 62
     2
 10
74.869995
 20
6.000000
 11
74.470001
 21
12.300000
  0
LINE
  8
0
  6
DASHED
 62
     2
 10
74.290001
 20
6.000000
 11
73.889999
 21
12.300000
  0
LINE
  8
0
  6
DASHED
 62
     2
 10
65.720001
 20
5.999999
 11
66.110001
 21
12.299999
  0
LINE
  8
0
  6
DASHED
 62
     2
 10
65.139999
 20
6.000000
 11
65.529999
 21
12.299999
  0
LINE
  8
0
 10
-9.000000
 20
6.000000
 11
9.000000
 21
6.000000
  0
LINE
  8
0
  6
DASHED
 62
     2
 10
-4.860000
 20
6.000000
 11
-4.470000
 21
12.299999
  0
LINE
  8
0
  6
DASHED
 62
     2
 10
-4.280000
 20
6.000000
 11
-3.890000
 21
12.300000
  0
LINE
  8
0
  6
DASHED
 62
     2
 10
4.290000
 20
6.000000
 11
3.890000
 21
12.300000
  0
LINE
  8
0
  6
DASHED
 62
     2
 10
4.870000
 20
6.000000
 11
4.470000
 21
12.300000
  0
LINE
  8
0
  6
DASHED
 62
     2
 10
-51.320000
 20
-54.129997
 11
-45.020000
 21
-54.529999
  0
LINE
  8
0
  6
DASHED
 62
     2
 10
-51.319996
 20
-54.709999
 11
-45.020000
 21
-55.109997
  0
LINE
  8
0
  6
DASHED
 62
     2
 10
-51.320000
 20
-63.279999
 11
-45.019997
 21
-62.879997
  0
LINE
  8
0
  6
DASHED
 62
     2
 10
-51.320000
 20
-63.859997
 11
-45.019997
 21
-63.469997
  0
LINE
  8
0
 10
-51.320000
 20
-50.000000
 11
-51.320000
 21
-68.000000
  0
LINE
  8
0
 10
84.507141
 20
13.500132
 11
83.507149
 21
13.500132
  0
LINE
  8
0
 10
84.507141
 20
6.500165
 11
84.507141
 21
13.500132
  0
LINE
  8
0
 10
83.507149
 20
6.500165
 11
83.507149
 21
13.500132
  0
LINE
  8
0
 10
84.507141
 20
6.500165
 11
83.507149
 21
6.500165
  0
LINE
  8
0
 10
84.507141
 20
20.000099
 11
83.507149
 21
20.000099
  0
LINE
  8
0
 10
83.507149
 20
61.999901
 11
83.507149
 21
20.000099
  0
LINE
  8
0
 10
84.507141
 20
61.999901
 11
83.507149
 21
61.999901
  0
LINE
  8
0
 10
84.507141
 20
61.999901
 11
84.507141
 21
20.000099
  0
LINE
  8
0
 10
84.507141
 20
68.499870
 11
83.507149
 21
68.499870
  0
LINE
  8
0
 10
83.507149
 20
75.499832
 11
83.507149
 21
68.499870
  0
LINE
  8
0
 10
84.507141
 20
75.499832
 11
84.507141
 21
68.499870
  0
LINE
  8
0
 10
84.507141
 20
75.499832
 11
83.507149
 21
75.499832
  0
LINE
  8
0
 10
-89.492828
 20
13.500132
 11
-88.492836
 21
13.500132
  0
LINE
  8
0
 10
-89.492828
 20
6.500165
 11
-89.492828
 21
13.500132
  0
LINE
  8
0
 10
-88.492836
 20
6.500165
 11
-88.492836
 21
13.500132
  0
LINE
  8
0
 10
-89.492828
 20
6.500165
 11
-88.492836
 21
6.500165
  0
LINE
  8
0
 10
-89.492828
 20
20.000099
 11
-88.492836
 21
20.000099
  0
LINE
  8
0
 10
-88.492836
 20
61.999901
 11
-88.492836
 21
20.000099
  0
LINE
  8
0
 10
-89.492828
 20
61.999901
 11
-88.492836
 21
61.999901
  0
LINE
  8
0
 10
-89.492828
 20
61.999901
 11
-89.492828
 21
20.000099
  0
LINE
  8
0
 10
-89.492828
 20
68.499870
 11
-88.492836
 21
68.499870
  0
LINE
  8
0
 10
-88.492836
 20
75.499832
 11
-88.492836
 21
68.499870
  0
LINE
  8
0
 10
-89.492828
 20
75.499832
 11
-89.492828
 21
68.499870
  0
LINE
  8
0
 10
-89.492828
 20
75.499832
 11
-88.492836
 21
75.499832
  0
LINE
  8
0
  6
CENTER
 62
     2
 10
0.000000
 20
77.650002
 11
0.000000
 21
2.990000
  0
LINE
  8
0
 10
-138.399994
 20
94.500000
 11
138.350006
 21
94.500000
  0
LINE
  8
0
 10
138.350006
 20
94.500000
 11
138.350006
 21
-94.800003
  0
LINE
  8
0
 10
-138.399994
 20
-94.800003
 11
138.350006
 21
-94.800003
  0
LINE
  8
0
 10
-138.399994
 20
94.500000
 11
-138.399994
 21
-94.800003
  0
CIRCLE
  8
0
 10
-31.320000
 20
-65.500000
 40
1.599999
  0
CIRCLE
  8
0
 10
-1.320000
 20
-52.500000
 40
1.599999
  0
CIRCLE
  8
0
 10
-6.492852
 20
26.000000
 40
1.599999
  0
CIRCLE
  8
0
 10
6.507148
 20
56.000000
 40
1.599999
  0
ARC
  8
0
 10
6.507145
 20
55.994999
 40
2.992214
 50
33.580063
 51
326.419952
  0
ARC
  8
0
 10
-6.497117
 20
26.001278
 40
2.997117
 50
359.975555
 51
146.625946
  0
ARC
  8
0
 10
-6.499870
 20
25.997885
 40
2.999872
 50
213.549133
 51
0.040400
  0
CIRCLE
  8
0
 10
-30.319923
 20
-58.500015
 40
2.399988
  0
CIRCLE
  8
0
 10
-2.320061
 20
-59.500015
 40
2.399988
  0
CIRCLE
  8
0
 10
-9.320030
 20
-57.000015
 40
2.399988
  0
CIRCLE
  8
0
 10
-16.320000
 20
-59.000015
 40
2.399988
  0
CIRCLE
  8
0
 10
-23.319954
 20
-61.000000
 40
2.399988
  0
CIRCLE
  8
0
  6
PHANTOM
 62
     2
 10
-109.492775
 20
50.999939
 40
6.578468
  0
CIRCLE
  8
0
  6
PHANTOM
 62
     2
 10
-109.492775
 20
31.000046
 40
6.578468
  0
CIRCLE
  8
0
  6
PHANTOM
 62
     2
 10
-109.492775
 20
50.999939
 40
5.722472
  0
CIRCLE
  8
0
  6
PHANTOM
 62
     2
 10
-109.492775
 20
31.000046
 40
5.722472
  0
CIRCLE
  8
0
  6
PHANTOM
 62
     2
 10
-13.492790
 20
62.999908
 40
2.249989
  0
CIRCLE
  8
0
  6
PHANTOM
 62
     2
 10
13.507072
 20
31.000046
 40
2.249989
  0
CIRCLE
  8
0
  6
PHANTOM
 62
     2
 10
99.507072
 20
21.000092
 40
6.578468
  0
CIRCLE
  8
0
  6
PHANTOM
 62
     2
 10
99.507072
 20
21.000092
 40
5.722472
  0
CIRCLE
  8
0
  6
PHANTOM
 62
     2
 10
99.507072
 20
60.999908
 40
6.578468
  0
CIRCLE
  8
0
  6
PHANTOM
 62
     2
 10
99.507072
 20
60.999908
 40
5.722472
  0
CIRCLE
  8
0
  6
PHANTOM
 62
     2
 10
104.507057
 20
41.000000
 40
6.578468
  0
CIRCLE
  8
0
  6
PHANTOM
 62
     2
 10
104.507057
 20
41.000000
 40
5.722472
  0
CIRCLE
  8
0
  6
PHANTOM
 62
     2
 10
89.507103
 20
71.999847
 40
2.499988
  0
CIRCLE
  8
0
  6
PHANTOM
 62
     2
 10
89.507103
 20
10.000137
 40
2.499988
  0
CIRCLE
  8
0
  6
PHANTOM
 62
     2
 10
89.507103
 20
71.999847
 40
1.749991
  0
CIRCLE
  8
0
  6
PHANTOM
 62
     2
 10
89.507103
 20
10.000137
 40
1.749991
  0
TEXT
  8
0
 10
87.457352
 20
-92.850006
 40
4.500000
  1
A180-4A2
 50
0.000000
 41
1.052632
 51
0.000000
  7
STANDARD
  0
ENDSEC
  0
EOF
