  0
SECTION
  2
HEADER
  9
$ACADVER
  1
AC1002
  9
$INSBASE
 10
0.0
 20
0.0
  9
$EXTMIN
 10
-262.2472
 20
-180.0
  9
$EXTMAX
 10
262.2472
 20
180.0
  9
$LIMMIN
 10
0.0
 20
0.0
  9
$LIMMAX
 10
12.0
 20
9.0
  9
$VIEWCTR
 10
20.22981726
 20
0.0
  9
$VIEWSIZE
 40
360.0
  9
$SNAPMODE
 70
     0
  9
$SNAPUNIT
 10
1.0
 20
1.0
  9
$SNAPBASE
 10
0.0
 20
0.0
  9
$SNAPANG
 50
0.0
  9
$SNAPSTYLE
 70
     0
  9
$SNAPISOPAIR
 70
     0
  9
$GRIDMODE
 70
     0
  9
$GRIDUNIT
 10
0.0
 20
0.0
  9
$ORTHOMODE
 70
     0
  9
$REGENMODE
 70
     1
  9
$FILLMODE
 70
     1
  9
$QTEXTMODE
 70
     0
  9
$DRAGMODE
 70
     2
  9
$LTSCALE
 40
1.0
  9
$OSMODE
 70
     0
  9
$ATTMODE
 70
     1
  9
$TEXTSIZE
 40
0.2
  9
$TRACEWID
 40
0.05
  9
$TEXTSTYLE
  7
AAA
  9
$CLAYER
  8
0
  9
$CELTYPE
  6
BYLAYER
  9
$CECOLOR
 62
   256
  9
$DIMSCALE
 40
1.0
  9
$DIMASZ
 40
0.18
  9
$DIMEXO
 40
0.0625
  9
$DIMDLI
 40
0.38
  9
$DIMRND
 40
0.0
  9
$DIMDLE
 40
0.0
  9
$DIMEXE
 40
0.18
  9
$DIMTP
 40
0.0
  9
$DIMTM
 40
0.0
  9
$DIMTXT
 40
0.18
  9
$DIMCEN
 40
0.09
  9
$DIMTSZ
 40
0.0
  9
$DIMTOL
 70
     0
  9
$DIMLIM
 70
     0
  9
$DIMTIH
 70
     1
  9
$DIMTOH
 70
     1
  9
$DIMSE1
 70
     0
  9
$DIMSE2
 70
     0
  9
$DIMTAD
 70
     0
  9
$DIMZIN
 70
     0
  9
$DIMBLK
  1

  9
$LUNITS
 70
     2
  9
$LUPREC
 70
     4
  9
$AXISMODE
 70
     0
  9
$AXISUNIT
 10
0.0
 20
0.0
  9
$SKETCHINC
 40
0.1
  9
$FILLETRAD
 40
0.0
  9
$AUNITS
 70
     0
  9
$AUPREC
 70
     0
  9
$MENU
  1
ACAD
  9
$ELEVATION
 40
0.0
  9
$THICKNESS
 40
0.0
  9
$VIEWDIR
 10
0.0
 20
0.0
 30
1.0
  9
$LIMCHECK
 70
     0
  9
$BLIPMODE
 70
     1
  9
$CHAMFERA
 40
0.0
  9
$CHAMFERB
 40
0.0
  9
$FASTZOOM
 70
     1
  9
$SKPOLY
 70
     0
  9
$TDCREATE
 40
2447873.8385532903
  9
$TDUPDATE
 40
2447873.8385532903
  9
$TDINDWG
 40
0.0011458333
  9
$TDUSRTIMER
 40
0.0011458333
  9
$USRTIMER
 70
     1
  9
$ANGBASE
 50
0.0
  9
$ANGDIR
 70
     0
  9
$PDMODE
 70
     0
  9
$PDSIZE
 40
0.0
  9
$PLINEWID
 40
0.0
  9
$COORDS
 70
     0
  9
$USERI1
 70
     0
  9
$USERI2
 70
     0
  9
$USERI3
 70
     0
  9
$USERI4
 70
     0
  9
$USERI5
 70
     0
  9
$USERR1
 40
0.0
  9
$USERR2
 40
0.0
  9
$USERR3
 40
0.0
  9
$USERR4
 40
0.0
  9
$USERR5
 40
0.0
  0
ENDSEC
  0
SECTION
  2
TABLES
  0
TABLE
  2
LTYPE
 70
     3
  0
LTYPE
  2
CONTINUOUS
 70
    64
  3
SOLID
 72
    65
 73
     0
 40
0.0
  0
LTYPE
  2
CENTER
 70
    64
  3
CENTER
 72
    65
 73
     4
 40
2.0
 49
1.25
 49
-0.25
 49
0.25
 49
-0.25
  0
LTYPE
  2
PHANTOM
 70
    64
  3
PHANTOM
 72
    65
 73
     6
 40
2.5
 49
1.25
 49
-0.25
 49
0.25
 49
-0.25
 49
0.25
 49
-0.25
  0
ENDTAB
  0
TABLE
  2
LAYER
 70
     1
  0
LAYER
  2
0
 70
    64
 62
     7
  6
CONTINUOUS
  0
ENDTAB
  0
TABLE
  2
STYLE
 70
     2
  0
STYLE
  2
AAA
 70
     0
 40
0.0
 41
1.0
 50
0.0
 71
     0
 42
0.2
  3
TXT
  4

  0
STYLE
  2
STANDARD
 70
    64
 40
0.0
 41
1.0
 50
0.0
 71
     0
 42
0.2
  3
TXT
  4
BIGFONT
  0
ENDTAB
  0
TABLE
  2
VIEW
 70
     0
  0
ENDTAB
  0
ENDSEC
  0
SECTION
  2
BLOCKS
  0
ENDSEC
  0
SECTION
  2
ENTITIES
  0
POINT
  8
0
  6
CONTINUOUS
 62
     7
 10
20.0
 20
125.0
  0
POINT
  8
0
  6
CONTINUOUS
 62
     7
 10
20.0
 20
0.0
  0
POINT
  8
0
  6
CONTINUOUS
 62
     7
 10
13.50001
 20
20.7
  0
POINT
  8
0
  6
CONTINUOUS
 62
     7
 10
140.0
 20
0.0
  0
POINT
  8
0
  6
CONTINUOUS
 62
     7
 10
113.0
 20
20.70001
  0
POINT
  8
0
  6
CONTINUOUS
 62
     7
 10
-113.0
 20
0.0
  0
POINT
  8
0
  6
CONTINUOUS
 62
     7
 10
-140.0
 20
0.0
  0
POINT
  8
0
  6
CONTINUOUS
 62
     7
 10
-113.0
 20
20.7
  0
POINT
  8
0
  6
CONTINUOUS
 62
     7
 10
20.0
 20
-120.0
  0
POINT
  8
0
  6
CONTINUOUS
 62
     7
 10
13.50001
 20
-93.0
  0
LINE
  8
0
  6
CONTINUOUS
 62
     7
 10
-262.2472
 20
-180.0
 11
-262.2472
 21
180.0
  0
LINE
  8
0
  6
CONTINUOUS
 62
     7
 10
262.2472
 20
180.0
 11
262.2472
 21
-180.0
  0
LINE
  8
0
  6
CONTINUOUS
 62
     7
 10
-262.2472
 20
-180.0
 11
262.2472
 21
-180.0
  0
LINE
  8
0
  6
CONTINUOUS
 62
     7
 10
-262.2472
 20
180.0
 11
262.2472
 21
180.0
  0
LINE
  8
0
  6
CONTINUOUS
 62
     7
 10
-262.2472
 20
159.7753
 11
-154.382
 21
159.7753
  0
LINE
  8
0
  6
CONTINUOUS
 62
     7
 10
-154.382
 20
159.7753
 11
-154.382
 21
180.0
  0
LINE
  8
0
  6
CONTINUOUS
 62
     7
 10
154.382
 20
-159.7753
 11
262.2472
 21
-159.7753
  0
LINE
  8
0
  6
CONTINUOUS
 62
     7
 10
182.7034
 20
-164.6383
 11
193.0652
 21
-164.6383
  0
LINE
  8
0
  6
CONTINUOUS
 62
     7
 10
182.7034
 20
-173.8271
 11
191.5012
 21
-173.8271
  0
LINE
  8
0
  6
CONTINUOUS
 62
     7
 10
182.7034
 20
-176.1732
 11
194.6293
 21
-176.1732
  0
LINE
  8
0
  6
CONTINUOUS
 62
     7
 10
182.7034
 20
-166.9844
 11
191.5012
 21
-166.9844
  0
LINE
  8
0
  6
CONTINUOUS
 62
     7
 10
182.7034
 20
-164.6383
 11
182.7034
 21
-166.9844
  0
LINE
  8
0
  6
CONTINUOUS
 62
     7
 10
194.6293
 20
-166.2024
 11
194.6293
 21
-176.1732
  0
LINE
  8
0
  6
CONTINUOUS
 62
     7
 10
191.5012
 20
-166.9844
 11
191.5012
 21
-173.8271
  0
LINE
  8
0
  6
CONTINUOUS
 62
     7
 10
196.3888
 20
-164.6383
 11
196.3888
 21
-166.9844
  0
LINE
  8
0
  6
CONTINUOUS
 62
     7
 10
207.5326
 20
-166.9844
 11
207.5326
 21
-174.6092
  0
LINE
  8
0
  6
CONTINUOUS
 62
     7
 10
204.4045
 20
-166.9844
 11
204.4045
 21
-173.8271
  0
LINE
  8
0
  6
CONTINUOUS
 62
     7
 10
182.7034
 20
-173.8271
 11
182.7034
 21
-176.1732
  0
LINE
  8
0
  6
CONTINUOUS
 62
     7
 10
196.3888
 20
-164.6383
 11
199.4796
 21
-164.6383
  0
LINE
  8
0
  6
CONTINUOUS
 62
     7
 10
196.3888
 20
-176.1732
 11
198.8176
 21
-176.1732
  0
LINE
  8
0
  6
CONTINUOUS
 62
     7
 10
196.3887
 20
-176.1731
 11
198.8509
 21
-166.9843
  0
LINE
  8
0
  6
CONTINUOUS
 62
     7
 10
196.3888
 20
-166.9844
 11
198.8509
 21
-166.9844
  0
LINE
  8
0
  6
CONTINUOUS
 62
     7
 10
198.8178
 20
-176.1733
 11
201.2799
 21
-166.9845
  0
LINE
  8
0
  6
CONTINUOUS
 62
     7
 10
202.0584
 20
-173.8271
 11
204.4045
 21
-173.8271
  0
LINE
  8
0
  6
CONTINUOUS
 62
     7
 10
202.0583
 20
-173.8271
 11
202.6869
 21
-176.1731
  0
LINE
  8
0
  6
CONTINUOUS
 62
     7
 10
202.6871
 20
-176.1732
 11
205.9686
 21
-176.1732
  0
LINE
  8
0
  6
CONTINUOUS
 62
     7
 10
201.2798
 20
-166.9844
 11
204.4045
 21
-166.9844
  0
LINE
  8
0
  6
CONTINUOUS
 62
     7
 10
201.9084
 20
-164.6383
 11
205.1865
 21
-164.6383
  0
LINE
  8
0
  6
CONTINUOUS
 62
     7
 10
199.4796
 20
-164.6384
 11
199.9458
 21
-162.8984
  0
LINE
  8
0
  6
CONTINUOUS
 62
     7
 10
201.9082
 20
-164.6382
 11
202.3744
 21
-162.8982
  0
LINE
  8
0
  6
CONTINUOUS
 62
     7
 10
209.4877
 20
-164.6383
 11
213.2023
 21
-164.6383
  0
LINE
  8
0
  6
CONTINUOUS
 62
     7
 10
209.4877
 20
-166.9844
 11
218.6106
 21
-166.9844
  0
LINE
  8
0
  6
CONTINUOUS
 62
     7
 10
213.2023
 20
-176.1732
 11
216.3303
 21
-176.1732
  0
LINE
  8
0
  6
CONTINUOUS
 62
     7
 10
209.4877
 20
-164.6383
 11
209.4877
 21
-166.9844
  0
LINE
  8
0
  6
CONTINUOUS
 62
     7
 10
221.0225
 20
-171.2385
 11
221.0225
 21
-173.8271
  0
LINE
  8
0
  6
CONTINUOUS
 62
     7
 10
209.4875
 20
-173.827
 11
213.2022
 21
-172.0948
  0
LINE
  8
0
  6
CONTINUOUS
 62
     7
 10
209.4879
 20
-171.2387
 11
218.6108
 21
-166.9846
  0
LINE
  8
0
  6
CONTINUOUS
 62
     7
 10
209.4877
 20
-171.2385
 11
209.4877
 21
-173.8271
  0
LINE
  8
0
  6
CONTINUOUS
 62
     7
 10
216.3302
 20
-171.6391
 11
221.0225
 21
-173.827
  0
LINE
  8
0
  6
CONTINUOUS
 62
     7
 10
218.0311
 20
-169.8436
 11
221.0228
 21
-171.2387
  0
LINE
  8
0
  6
CONTINUOUS
 62
     7
 10
221.0225
 20
-166.2024
 11
221.0225
 21
-167.4519
  0
LINE
  8
0
  6
CONTINUOUS
 62
     7
 10
213.2023
 20
-162.8984
 11
213.2023
 21
-164.6383
  0
LINE
  8
0
  6
CONTINUOUS
 62
     7
 10
216.3303
 20
-162.8984
 11
216.3303
 21
-164.6383
  0
LINE
  8
0
  6
CONTINUOUS
 62
     7
 10
216.3303
 20
-164.6383
 11
219.4585
 21
-164.6383
  0
LINE
  8
0
  6
CONTINUOUS
 62
     7
 10
213.2023
 20
-172.095
 11
213.2023
 21
-176.1732
  0
LINE
  8
0
  6
CONTINUOUS
 62
     7
 10
216.3303
 20
-171.6392
 11
216.3303
 21
-176.1732
  0
LINE
  8
0
  6
CONTINUOUS
 62
     7
 10
218.031
 20
-169.8436
 11
220.1197
 21
-168.8696
  0
LINE
  8
0
  6
CONTINUOUS
 62
     7
 10
231.5798
 20
-163.6022
 11
233.9258
 21
-163.6022
  0
LINE
  8
0
  6
CONTINUOUS
 62
     7
 10
222.0001
 20
-168.4483
 11
222.0001
 21
-170.9731
  0
LINE
  8
0
  6
CONTINUOUS
 62
     7
 10
233.9258
 20
-163.6022
 11
233.9258
 21
-164.6383
  0
LINE
  8
0
  6
CONTINUOUS
 62
     7
 10
231.5798
 20
-163.6022
 11
231.5798
 21
-164.1077
  0
LINE
  8
0
  6
CONTINUOUS
 62
     7
 10
228.4517
 20
-168.4072
 11
228.4517
 21
-176.1732
  0
LINE
  8
0
  6
CONTINUOUS
 62
     7
 10
222.0001
 20
-168.4484
 11
231.0869
 21
-164.8345
  0
LINE
  8
0
  6
CONTINUOUS
 62
     7
 10
222.0001
 20
-170.9732
 11
228.4517
 21
-168.4073
  0
LINE
  8
0
  6
CONTINUOUS
 62
     7
 10
228.4517
 20
-176.1732
 11
231.5798
 21
-176.1732
  0
LINE
  8
0
  6
CONTINUOUS
 62
     7
 10
231.5798
 20
-167.1632
 11
231.5798
 21
-176.1732
  0
LINE
  8
0
  6
CONTINUOUS
 62
     7
 10
231.5801
 20
-167.1633
 11
232.4471
 21
-166.8185
  0
LINE
  8
0
  6
CONTINUOUS
 62
     7
 10
199.7572
 20
-162.8984
 11
202.3746
 21
-162.8984
  0
LINE
  8
0
  6
CONTINUOUS
 62
     7
 10
206.2618
 20
-162.8984
 11
207.2589
 21
-162.8984
  0
LINE
  8
0
  6
CONTINUOUS
 62
     7
 10
213.2023
 20
-162.8984
 11
216.3303
 21
-162.8984
  0
LINE
  8
0
  6
CONTINUOUS
 62
     7
 10
206.2618
 20
-164.4624
 11
207.2589
 21
-164.4624
  0
LINE
  8
0
  6
CONTINUOUS
 62
     7
 10
206.2618
 20
-162.8984
 11
206.2618
 21
-164.4624
  0
LINE
  8
0
  6
CONTINUOUS
 62
     7
 10
207.2589
 20
-162.8984
 11
207.2589
 21
-164.4624
  0
LINE
  8
0
  6
CONTINUOUS
 62
     7
 10
207.8454
 20
-162.8984
 11
207.8454
 21
-164.4624
  0
LINE
  8
0
  6
CONTINUOUS
 62
     7
 10
208.9598
 20
-162.8984
 11
208.9598
 21
-164.4624
  0
LINE
  8
0
  6
CONTINUOUS
 62
     7
 10
207.8454
 20
-162.8984
 11
208.9598
 21
-162.8984
  0
LINE
  8
0
  6
CONTINUOUS
 62
     7
 10
207.8454
 20
-164.4624
 11
208.9598
 21
-164.4624
  0
LINE
  8
0
  6
CONTINUOUS
 62
     7
 10
154.382
 20
159.7753
 11
262.2472
 21
159.7753
  0
LINE
  8
0
  6
CONTINUOUS
 62
     7
 10
154.382
 20
180.0
 11
154.382
 21
159.7753
  0
LINE
  8
0
  6
CONTINUOUS
 62
     7
 10
154.382
 20
-159.7753
 11
154.382
 21
-180.0
  0
LINE
  8
0
  6
CONTINUOUS
 62
     7
 10
10.5
 20
99.5
 11
10.5
 21
98.0
  0
LINE
  8
0
  6
CONTINUOUS
 62
     7
 10
10.49999
 20
99.0
 11
5.49999
 21
99.0
  0
LINE
  8
0
  6
CONTINUOUS
 62
     7
 10
16.49999
 20
98.0
 11
21.99999
 21
98.0
  0
LINE
  8
0
  6
CENTER
 62
     2
 10
13.5
 20
127.3962
 11
13.5
 21
95.57367
  0
LINE
  8
0
  6
CONTINUOUS
 62
     7
 10
22.5
 20
124.5
 11
22.5
 21
98.5
  0
LINE
  8
0
  6
CONTINUOUS
 62
     7
 10
4.5
 20
124.5
 11
4.5
 21
98.50001
  0
LINE
  8
0
  6
CONTINUOUS
 62
     7
 10
4.99999
 20
98.0
 11
10.49999
 21
98.0
  0
LINE
  8
0
  6
CONTINUOUS
 62
     7
 10
5.0
 20
125.0
 11
22.0
 21
125.0
  0
LINE
  8
0
  6
CENTER
 62
     2
 10
12.20001
 20
74.5
 11
12.20001
 21
98.5969
  0
LINE
  8
0
  6
CONTINUOUS
 62
     7
 10
13.05
 20
87.5
 11
13.05
 21
91.84412
  0
LINE
  8
0
  6
CONTINUOUS
 62
     7
 10
11.35001
 20
87.5
 11
11.35001
 21
92.29964
  0
LINE
  8
0
  6
CONTINUOUS
 62
     7
 10
12.52
 20
77.5
 11
12.52
 21
87.5
  0
LINE
  8
0
  6
CONTINUOUS
 62
     7
 10
11.88
 20
77.5
 11
11.88
 21
87.5
  0
LINE
  8
0
  6
CONTINUOUS
 62
     7
 10
11.34999
 20
87.5
 11
13.04999
 21
87.5
  0
LINE
  8
0
  6
CONTINUOUS
 62
     7
 10
11.87999
 20
77.5
 11
12.51999
 21
77.5
  0
LINE
  8
0
  6
CENTER
 62
     2
 10
14.8
 20
74.5
 11
14.8
 21
98.53452
  0
LINE
  8
0
  6
CONTINUOUS
 62
     7
 10
15.64999
 20
87.5
 11
15.64999
 21
91.14745
  0
LINE
  8
0
  6
CONTINUOUS
 62
     7
 10
13.95
 20
87.5
 11
13.95
 21
91.60297
  0
LINE
  8
0
  6
CONTINUOUS
 62
     7
 10
15.12
 20
77.5
 11
15.12
 21
87.5
  0
LINE
  8
0
  6
CONTINUOUS
 62
     7
 10
14.48
 20
77.5
 11
14.48
 21
87.5
  0
LINE
  8
0
  6
CONTINUOUS
 62
     7
 10
13.95
 20
87.5
 11
15.65
 21
87.5
  0
LINE
  8
0
  6
CONTINUOUS
 62
     7
 10
14.48
 20
77.5
 11
15.12
 21
77.5
  0
LINE
  8
0
  6
PHANTOM
 62
     2
 10
17.64999
 20
92.16447
 11
9.34999
 21
94.38845
  0
LINE
  8
0
  6
PHANTOM
 62
     2
 10
17.64998
 20
90.61156
 11
9.35
 21
92.83554
  0
LINE
  8
0
  6
CONTINUOUS
 62
     7
 10
15.64999
 20
92.70036
 11
15.64999
 21
97.5
  0
LINE
  8
0
  6
CONTINUOUS
 62
     7
 10
13.95
 20
93.15588
 11
13.95
 21
97.5
  0
LINE
  8
0
  6
CONTINUOUS
 62
     7
 10
13.05
 20
93.39703
 11
13.05
 21
97.5
  0
LINE
  8
0
  6
CONTINUOUS
 62
     7
 10
11.35001
 20
93.85255
 11
11.35001
 21
97.5
  0
LINE
  8
0
  6
CENTER
 62
     2
 10
1.75
 20
111.5
 11
25.72743
 21
111.5
  0
LINE
  8
0
  6
CONTINUOUS
 62
     7
 10
10.99999
 20
97.5
 11
15.99999
 21
97.5
  0
LINE
  8
0
  6
CONTINUOUS
 62
     7
 10
21.5
 20
124.0
 11
21.5
 21
99.0
  0
LINE
  8
0
  6
CONTINUOUS
 62
     7
 10
5.5
 20
124.0
 11
5.5
 21
99.0
  0
LINE
  8
0
  6
CONTINUOUS
 62
     7
 10
21.5
 20
124.0
 11
5.5
 21
124.0
  0
LINE
  8
0
  6
CONTINUOUS
 62
     7
 10
21.49999
 20
99.0
 11
16.49999
 21
99.0
  0
LINE
  8
0
  6
CONTINUOUS
 62
     7
 10
5.49998
 20
99.0
 11
4.64643
 21
98.14645
  0
LINE
  8
0
  6
CONTINUOUS
 62
     7
 10
5.49998
 20
124.0
 11
4.64643
 21
124.8535
  0
LINE
  8
0
  6
CONTINUOUS
 62
     7
 10
21.5
 20
98.99999
 11
22.35355
 21
98.14645
  0
LINE
  8
0
  6
CONTINUOUS
 62
     7
 10
21.50002
 20
124.0
 11
22.35356
 21
124.8536
  0
LINE
  8
0
  6
CONTINUOUS
 62
     7
 10
16.5
 20
99.5
 11
16.5
 21
98.0
  0
LINE
  8
0
  6
CONTINUOUS
 62
     7
 10
12.0
 20
102.5
 11
12.0
 21
99.5
  0
LINE
  8
0
  6
CONTINUOUS
 62
     7
 10
15.0
 20
120.5
 11
15.0
 21
123.5
  0
LINE
  8
0
  6
CONTINUOUS
 62
     7
 10
18.0
 20
117.5
 11
21.0
 21
117.5
  0
LINE
  8
0
  6
CONTINUOUS
 62
     7
 10
8.99999
 20
105.5
 11
5.99999
 21
105.5
  0
LINE
  8
0
  6
CONTINUOUS
 62
     7
 10
15.0
 20
122.5
 11
7.0
 21
122.5
  0
LINE
  8
0
  6
CONTINUOUS
 62
     7
 10
19.99999
 20
100.5
 11
11.99999
 21
100.5
  0
LINE
  8
0
  6
CONTINUOUS
 62
     7
 10
20.0
 20
117.5
 11
20.0
 21
100.5
  0
LINE
  8
0
  6
CONTINUOUS
 62
     7
 10
7.0
 20
122.5
 11
7.0
 21
105.5
  0
LINE
  8
0
  6
CONTINUOUS
 62
     7
 10
6.77008
 20
102.2
 11
6.46771
 21
102.2
  0
LINE
  8
0
  6
CONTINUOUS
 62
     7
 10
6.77009
 20
102.8
 11
6.46771
 21
102.8
  0
LINE
  8
0
  6
CONTINUOUS
 62
     7
 10
6.49197
 20
102.9608
 11
6.79769
 21
102.9608
  0
LINE
  8
0
  6
CONTINUOUS
 62
     7
 10
20.22991
 20
120.8
 11
20.53229
 21
120.8
  0
LINE
  8
0
  6
CONTINUOUS
 62
     7
 10
20.2299
 20
120.2
 11
20.53229
 21
120.2
  0
LINE
  8
0
  6
CONTINUOUS
 62
     7
 10
20.50802
 20
120.0392
 11
20.20231
 21
120.0392
  0
LINE
  8
0
  6
CONTINUOUS
 62
     7
 10
8.26462
 20
103.6031
 11
8.63231
 21
103.2354
  0
LINE
  8
0
  6
CONTINUOUS
 62
     7
 10
7.89691
 20
103.2354
 11
8.26461
 21
102.8677
  0
LINE
  8
0
  6
CONTINUOUS
 62
     7
 10
8.26462
 20
103.6031
 11
7.89692
 21
103.2354
  0
LINE
  8
0
  6
CONTINUOUS
 62
     7
 10
10.1031
 20
101.7646
 11
9.73541
 21
101.3969
  0
LINE
  8
0
  6
CONTINUOUS
 62
     7
 10
10.39651
 20
104.2642
 11
9.36772
 21
103.2354
  0
LINE
  8
0
  6
CONTINUOUS
 62
     7
 10
10.76419
 20
103.8965
 11
9.73541
 21
102.8677
  0
LINE
  8
0
  6
CONTINUOUS
 62
     7
 10
9.73541
 20
102.1323
 11
10.10309
 21
101.7646
  0
LINE
  8
0
  6
CONTINUOUS
 62
     7
 10
9.3677
 20
101.7646
 11
9.7354
 21
101.3969
  0
LINE
  8
0
  6
CONTINUOUS
 62
     7
 10
8.26463
 20
102.1323
 11
7.23584
 21
101.1035
  0
LINE
  8
0
  6
CONTINUOUS
 62
     7
 10
8.63232
 20
101.7646
 11
7.60353
 21
100.7358
  0
LINE
  8
0
  6
CONTINUOUS
 62
     7
 10
17.26463
 20
121.6031
 11
17.63231
 21
121.2354
  0
LINE
  8
0
  6
CONTINUOUS
 62
     7
 10
16.89692
 20
121.2354
 11
17.26462
 21
120.8677
  0
LINE
  8
0
  6
CONTINUOUS
 62
     7
 10
17.26462
 20
121.6031
 11
16.89692
 21
121.2354
  0
LINE
  8
0
  6
CONTINUOUS
 62
     7
 10
19.1031
 20
119.7646
 11
18.7354
 21
119.3969
  0
LINE
  8
0
  6
CONTINUOUS
 62
     7
 10
19.39651
 20
122.2642
 11
18.36771
 21
121.2354
  0
LINE
  8
0
  6
CONTINUOUS
 62
     7
 10
19.7642
 20
121.8965
 11
18.73541
 21
120.8677
  0
LINE
  8
0
  6
CONTINUOUS
 62
     7
 10
18.73541
 20
120.1323
 11
19.1031
 21
119.7646
  0
LINE
  8
0
  6
CONTINUOUS
 62
     7
 10
4.591925
 20
119.7646
 11
18.7354
 21
119.3969
  0
LINE
  8
0
  6
CONTINUOUS
 62
     7
 10
17.26463
 20
120.1323
 11
16.23583
 21
119.1035
  0
LINE
  8
0
  6
CONTINUOUS
 62
     7
 10
17.63233
 20
119.7646
 11
16.60353
 21
118.7358
  0
LINE
  8
0
  6
CENTER
 62
     2
 10
12.99999
 20
102.5
 11
4.99999
 21
102.5
  0
LINE
  8
0
  6
CENTER
 62
     2
 10
22.0
 20
120.5
 11
14.0
 21
120.5
  0
LINE
  8
0
  6
CENTER
 62
     2
 10
18.0
 20
124.5
 11
18.0
 21
116.5
  0
LINE
  8
0
  6
CENTER
 62
     2
 10
9.0
 20
106.5
 11
9.0
 21
98.5
  0
LINE
  8
0
  6
CONTINUOUS
 62
     7
 10
20.5
 20
123.5
 11
6.5
 21
123.5
  0
LINE
  8
0
  6
CONTINUOUS
 62
     7
 10
21.0
 20
123.0
 11
21.0
 21
99.5
  0
LINE
  8
0
  6
CONTINUOUS
 62
     7
 10
6.0
 20
123.0
 11
6.0
 21
99.50001
  0
LINE
  8
0
  6
CONTINUOUS
 62
     7
 10
20.99999
 20
99.5
 11
5.99999
 21
99.5
  0
LINE
  8
0
  6
CENTER
 62
     2
 10
126.5
 20
55.75001
 11
126.5
 21
-37.05531
  0
LINE
  8
0
  6
CONTINUOUS
 62
     7
 10
113.0
 20
23.20001
 11
113.0
 21
-33.89999
  0
LINE
  8
0
  6
CONTINUOUS
 62
     7
 10
140.0
 20
23.2
 11
140.0
 21
-33.9
  0
LINE
  8
0
  6
CONTINUOUS
 62
     7
 10
138.9999
 20
24.19993
 11
139.9999
 21
23.19993
  0
LINE
  8
0
  6
CONTINUOUS
 62
     7
 10
114.0
 20
24.2
 11
113.0
 21
23.2
  0
LINE
  8
0
  6
CONTINUOUS
 62
     7
 10
138.5
 20
49.4
 11
114.5
 21
49.4
  0
LINE
  8
0
  6
CONTINUOUS
 62
     7
 10
139.0
 20
24.2
 11
114.0
 21
24.2
  0
LINE
  8
0
  6
CONTINUOUS
 62
     7
 10
138.5
 20
50.39996
 11
138.5
 21
24.2
  0
LINE
  8
0
  6
CONTINUOUS
 62
     7
 10
115.5
 20
52.4
 11
133.6742
 21
52.4
  0
LINE
  8
0
  6
CONTINUOUS
 62
     7
 10
138.5
 20
50.4
 11
114.5
 21
50.4
  0
LINE
  8
0
  6
CONTINUOUS
 62
     7
 10
138.5
 20
50.39999
 11
137.5
 21
52.39999
  0
LINE
  8
0
  6
CONTINUOUS
 62
     7
 10
114.5
 20
50.4
 11
115.5
 21
52.4
  0
LINE
  8
0
  6
CONTINUOUS
 62
     7
 10
132.5
 20
52.4
 11
132.5
 21
50.4
  0
LINE
  8
0
  6
CENTER
 62
     2
 10
135.5
 20
55.40001
 11
135.5
 21
46.4
  0
LINE
  8
0
  6
CONTINUOUS
 62
     7
 10
138.05
 20
51.0
 11
132.95
 21
51.0
  0
LINE
  8
0
  6
CONTINUOUS
 62
     7
 10
135.1999
 20
50.39996
 11
135.03918474
 21
50.99997
  0
LINE
  8
0
  6
CONTINUOUS
 62
     7
 10
135.8
 20
50.99998
 11
135.9607
 21
50.39998
  0
LINE
  8
0
  6
CONTINUOUS
 62
     7
 10
138.05
 20
51.0
 11
138.05
 21
50.4
  0
LINE
  8
0
  6
CONTINUOUS
 62
     7
 10
132.95
 20
51.00001
 11
132.95
 21
50.4
  0
LINE
  8
0
  6
CONTINUOUS
 62
     7
 10
137.75
 20
51.69374
 11
137.75
 21
51.0
  0
LINE
  8
0
  6
CONTINUOUS
 62
     7
 10
133.25
 20
51.69375
 11
133.25
 21
51.0
  0
LINE
  8
0
  6
CONTINUOUS
 62
     7
 10
137.3258
 20
52.4
 11
137.5
 21
52.4
  0
LINE
  8
0
  6
CENTER
 62
     2
 10
117.5
 20
55.40001
 11
117.5
 21
46.40001
  0
LINE
  8
0
  6
CENTER
 62
     2
 10
89.50002
 20
42.2
 11
117.5
 21
42.2
  0
LINE
  8
0
  6
CONTINUOUS
 62
     7
 10
102.5
 20
41.35
 11
106.4958
 21
41.35
  0
LINE
  8
0
  6
CONTINUOUS
 62
     7
 10
102.5
 20
43.05
 11
106.9513
 21
43.05
  0
LINE
  8
0
  6
CONTINUOUS
 62
     7
 10
92.50002
 20
42.52
 11
102.5
 21
42.52
  0
LINE
  8
0
  6
CONTINUOUS
 62
     7
 10
92.50002
 20
41.88
 11
102.5
 21
41.88
  0
LINE
  8
0
  6
CONTINUOUS
 62
     7
 10
102.5
 20
41.35001
 11
102.5
 21
43.05001
  0
LINE
  8
0
  6
CONTINUOUS
 62
     7
 10
92.5
 20
41.88002
 11
92.5
 21
42.52002
  0
LINE
  8
0
  6
PHANTOM
 62
     2
 10
105.9598
 20
39.35003
 11
107.4872
 21
45.05002
  0
LINE
  8
0
  6
PHANTOM
 62
     2
 10
107.5128
 20
39.35004
 11
109.0401
 21
45.05003
  0
LINE
  8
0
  6
CONTINUOUS
 62
     7
 10
108.0487
 20
41.35
 11
112.5
 21
41.35
  0
LINE
  8
0
  6
CONTINUOUS
 62
     7
 10
108.5042
 20
43.05
 11
112.5
 21
43.05
  0
LINE
  8
0
  6
CONTINUOUS
 62
     7
 10
140.0
 20
23.2
 11
113.0
 21
23.2
  0
LINE
  8
0
  6
CONTINUOUS
 62
     7
 10
114.5
 20
50.40003
 11
114.5
 21
24.20001
  0
LINE
  8
0
  6
CONTINUOUS
 62
     7
 10
139.5
 20
-34.4
 11
113.5
 21
-34.4
  0
LINE
  8
0
  6
CONTINUOUS
 62
     7
 10
116.0
 20
1.65831
 11
113.0
 21
1.65831
  0
LINE
  8
0
  6
CONTINUOUS
 62
     7
 10
116.0
 20
-1.65831
 11
113.0
 21
-1.65831
  0
LINE
  8
0
  6
CONTINUOUS
 62
     7
 10
116.0
 20
1.65832
 11
116.0
 21
-1.65831
  0
LINE
  8
0
  6
CENTER
 62
     2
 10
111.8287
 20
0.0
 11
117.482
 21
0.0
  0
LINE
  8
0
  6
CONTINUOUS
 62
     7
 10
140.0
 20
6.0
 11
113.0
 21
6.0
  0
LINE
  8
0
  6
CONTINUOUS
 62
     7
 10
140.0
 20
-26.0
 11
113.0
 21
-26.0
  0
LINE
  8
0
  6
CONTINUOUS
 62
     7
 10
113.0
 20
43.9
 11
114.5
 21
43.9
  0
LINE
  8
0
  6
CONTINUOUS
 62
     7
 10
112.5
 20
41.00001
 11
112.5
 21
43.40001
  0
LINE
  8
0
  6
CONTINUOUS
 62
     7
 10
113.0
 20
40.5
 11
114.5
 21
40.5
  0
LINE
  8
0
  6
CONTINUOUS
 62
     7
 10
139.8
 20
-32.17182
 11
139.8
 21
-31.0
  0
LINE
  8
0
  6
CONTINUOUS
 62
     7
 10
139.5
 20
-31.0
 11
134.3
 21
-31.0
  0
LINE
  8
0
  6
CONTINUOUS
 62
     7
 10
134.2
 20
-32.17183
 11
134.2
 21
-31.0
  0
LINE
  8
0
  6
CONTINUOUS
 62
     7
 10
133.8
 20
-31.5
 11
133.8
 21
-33.9
  0
LINE
  8
0
  6
CENTER
 62
     2
 10
137.0
 20
-29.90575
 11
137.0
 21
-35.85531
  0
LINE
  8
0
  6
CENTER
 62
     2
 10
13.5
 20
56.20001
 11
13.5
 21
-37.40432
  0
LINE
  8
0
  6
CONTINUOUS
 62
     7
 10
22.5
 20
23.2
 11
22.5
 21
-33.9
  0
LINE
  8
0
  6
CONTINUOUS
 62
     7
 10
4.5
 20
23.2
 11
4.5
 21
-33.9
  0
LINE
  8
0
  6
CONTINUOUS
 62
     7
 10
4.5
 20
6.0
 11
22.5
 21
6.0
  0
LINE
  8
0
  6
CONTINUOUS
 62
     7
 10
5.50001
 20
24.20001
 11
4.50001
 21
23.20001
  0
LINE
  8
0
  6
CONTINUOUS
 62
     7
 10
21.49995
 20
24.19997
 11
22.49995
 21
23.19997
  0
LINE
  8
0
  6
CENTER
 62
     2
 10
20.0
 20
4.5913
 11
20.0
 21
-4.41667
  0
LINE
  8
0
  6
CENTER
 62
     2
 10
15.6534
 20
0.0
 11
23.08437
 21
0.0
  0
LINE
  8
0
  6
CENTER
 62
     2
 10
10.5783
 20
20.7
 11
16.4097
 21
20.7
  0
LINE
  8
0
  6
CONTINUOUS
 62
     7
 10
6.0
 20
50.40001
 11
6.0
 21
24.2
  0
LINE
  8
0
  6
CONTINUOUS
 62
     7
 10
6.00002
 20
49.4
 11
21.00002
 21
49.4
  0
LINE
  8
0
  6
CONTINUOUS
 62
     7
 10
21.0
 20
50.39991
 11
21.0
 21
24.2
  0
LINE
  8
0
  6
CONTINUOUS
 62
     7
 10
5.50001
 20
24.2
 11
21.50001
 21
24.2
  0
LINE
  8
0
  6
CONTINUOUS
 62
     7
 10
6.00002
 20
50.39999
 11
21.00002
 21
50.39999
  0
LINE
  8
0
  6
CONTINUOUS
 62
     7
 10
7.00002
 20
52.4
 11
7.17426
 21
52.4
  0
LINE
  8
0
  6
CONTINUOUS
 62
     7
 10
20.99997
 20
50.39997
 11
19.99997
 21
52.39997
  0
LINE
  8
0
  6
CONTINUOUS
 62
     7
 10
5.99999
 20
50.39999
 11
7.0
 21
52.4
  0
LINE
  8
0
  6
CENTER
 62
     2
 10
9.0
 20
55.40001
 11
9.0
 21
46.4
  0
LINE
  8
0
  6
CONTINUOUS
 62
     7
 10
11.55002
 20
50.99999
 11
6.45001
 21
50.99999
  0
LINE
  8
0
  6
CONTINUOUS
 62
     7
 10
6.45
 20
50.99999
 11
6.45
 21
50.39999
  0
LINE
  8
0
  6
CONTINUOUS
 62
     7
 10
6.75001
 20
51.69374
 11
6.75001
 21
51.0
  0
LINE
  8
0
  6
CONTINUOUS
 62
     7
 10
10.82576
 20
52.4
 11
20.00002
 21
52.4
  0
LINE
  8
0
  6
CENTER
 62
     2
 10
18.0
 20
55.40001
 11
18.0
 21
46.4
  0
LINE
  8
0
  6
CONTINUOUS
 62
     7
 10
11.55
 20
50.99999
 11
11.55
 21
50.39999
  0
LINE
  8
0
  6
CONTINUOUS
 62
     7
 10
11.25
 20
51.69373
 11
11.25
 21
50.99999
  0
LINE
  8
0
  6
CONTINUOUS
 62
     7
 10
12.0
 20
52.4
 11
12.0
 21
50.39999
  0
LINE
  8
0
  6
CENTER
 62
     2
 10
12.2
 20
45.2
 11
12.2
 21
39.2
  0
LINE
  8
0
  6
CENTER
 62
     2
 10
14.8
 20
45.2
 11
14.8
 21
39.2
  0
LINE
  8
0
  6
CENTER
 62
     2
 10
9.50001
 20
42.2
 11
17.50001
 21
42.2
  0
LINE
  8
0
  6
CONTINUOUS
 62
     7
 10
4.50001
 20
23.2
 11
22.50001
 21
23.2
  0
LINE
  8
0
  6
CONTINUOUS
 62
     7
 10
4.49999
 20
-26.0
 11
22.49999
 21
-26.0
  0
LINE
  8
0
  6
CONTINUOUS
 62
     7
 10
4.99999
 20
-34.4
 11
21.99999
 21
-34.4
  0
LINE
  8
0
  6
CENTER
 62
     2
 10
3.79547
 20
-20.0
 11
11.64207
 21
-20.0
  0
LINE
  8
0
  6
CENTER
 62
     2
 10
7.0
 20
-15.55909
 11
7.0
 21
-24.15299
  0
LINE
  8
0
  6
CONTINUOUS
 62
     7
 10
12.20001
 20
40.5
 11
14.80001
 21
40.5
  0
LINE
  8
0
  6
CONTINUOUS
 62
     7
 10
12.20001
 20
43.9
 11
14.80002
 21
43.9
  0
LINE
  8
0
  6
CONTINUOUS
 62
     7
 10
4.70001
 20
-32.17182
 11
4.70001
 21
-30.99999
  0
LINE
  8
0
  6
CONTINUOUS
 62
     7
 10
4.99998
 20
-31.0
 11
10.19997
 21
-31.0
  0
LINE
  8
0
  6
CONTINUOUS
 62
     7
 10
10.30001
 20
-32.17183
 11
10.30001
 21
-31.0
  0
LINE
  8
0
  6
CONTINUOUS
 62
     7
 10
10.7
 20
-31.5
 11
10.7
 21
-33.89999
  0
LINE
  8
0
  6
CENTER
 62
     2
 10
7.5
 20
-29.90575
 11
7.5
 21
-35.8553
  0
LINE
  8
0
  6
CENTER
 62
     2
 10
-126.5
 20
55.75001
 11
-126.5
 21
-37.05531
  0
LINE
  8
0
  6
CONTINUOUS
 62
     7
 10
-113.0
 20
23.2
 11
-113.0
 21
-33.9
  0
LINE
  8
0
  6
CONTINUOUS
 62
     7
 10
-138.9999
 20
24.1999
 11
-139.9999
 21
23.1999
  0
LINE
  8
0
  6
CONTINUOUS
 62
     7
 10
-114.0
 20
24.19999
 11
-113.0
 21
23.19999
  0
LINE
  8
0
  6
CONTINUOUS
 62
     7
 10
-138.5
 20
49.4
 11
-114.5
 21
49.4
  0
LINE
  8
0
  6
CONTINUOUS
 62
     7
 10
-139.0
 20
24.2
 11
-114.0
 21
24.2
  0
LINE
  8
0
  6
CONTINUOUS
 62
     7
 10
-138.5
 20
50.4
 11
-138.5
 21
24.2
  0
LINE
  8
0
  6
CONTINUOUS
 62
     7
 10
-137.5
 20
52.4
 11
-119.3258
 21
52.4
  0
LINE
  8
0
  6
CONTINUOUS
 62
     7
 10
-138.5
 20
50.4
 11
-114.5
 21
50.4
  0
LINE
  8
0
  6
CONTINUOUS
 62
     7
 10
-138.5
 20
50.39998
 11
-137.5
 21
52.39999
  0
LINE
  8
0
  6
CONTINUOUS
 62
     7
 10
-114.5
 20
50.39998
 11
-115.5
 21
52.39998
  0
LINE
  8
0
  6
CONTINUOUS
 62
     7
 10
-120.5
 20
52.4
 11
-120.5
 21
50.4
  0
LINE
  8
0
  6
CENTER
 62
     2
 10
-117.5
 20
55.40001
 11
-117.5
 21
46.4
  0
LINE
  8
0
  6
CONTINUOUS
 62
     7
 10
-114.95
 20
51.0
 11
-120.05
 21
51.0
  0
LINE
  8
0
  6
CONTINUOUS
 62
     7
 10
-117.8
 20
50.39999
 11
-117.9608
 21
50.99998
  0
LINE
  8
0
  6
CONTINUOUS
 62
     7
 10
-117.2
 20
51.0
 11
-117.0392
 21
50.40001
  0
LINE
  8
0
  6
CONTINUOUS
 62
     7
 10
-114.95
 20
51.0
 11
-114.95
 21
50.4
  0
LINE
  8
0
  6
CONTINUOUS
 62
     7
 10
-120.05
 20
51.0
 11
-120.05
 21
50.4
  0
LINE
  8
0
  6
CONTINUOUS
 62
     7
 10
-115.25
 20
51.69375
 11
-115.25
 21
51.0
  0
LINE
  8
0
  6
CONTINUOUS
 62
     7
 10
-119.75
 20
51.69375
 11
-119.75
 21
51.0
  0
LINE
  8
0
  6
CONTINUOUS
 62
     7
 10
-115.6742
 20
52.4
 11
-115.5
 21
52.4
  0
LINE
  8
0
  6
CENTER
 62
     2
 10
-135.5
 20
55.40001
 11
-135.5
 21
46.4
  0
LINE
  8
0
  6
CENTER
 62
     2
 10
-89.5
 20
42.2
 11
-117.5
 21
42.2
  0
LINE
  8
0
  6
CONTINUOUS
 62
     7
 10
-102.5
 20
43.05
 11
-106.4958
 21
43.05
  0
LINE
  8
0
  6
CONTINUOUS
 62
     7
 10
-102.5
 20
41.35
 11
-106.9513
 21
41.35
  0
LINE
  8
0
  6
CONTINUOUS
 62
     7
 10
-92.5
 20
42.52
 11
-102.5
 21
42.52
  0
LINE
  8
0
  6
CONTINUOUS
 62
     7
 10
-92.5
 20
41.88
 11
-102.5
 21
41.88
  0
LINE
  8
0
  6
CONTINUOUS
 62
     7
 10
-102.5
 20
41.35
 11
-102.5
 21
43.05
  0
LINE
  8
0
  6
CONTINUOUS
 62
     7
 10
-92.5
 20
41.88
 11
-92.5
 21
42.52
  0
LINE
  8
0
  6
PHANTOM
 62
     2
 10
-105.9599
 20
45.05
 11
-107.4872
 21
39.34999
  0
LINE
  8
0
  6
PHANTOM
 62
     2
 10
-107.5128
 20
45.05
 11
-109.0401
 21
39.35001
  0
LINE
  8
0
  6
CONTINUOUS
 62
     7
 10
-108.0487
 20
43.05
 11
-112.5
 21
43.05
  0
LINE
  8
0
  6
CONTINUOUS
 62
     7
 10
-108.5042
 20
41.35
 11
-112.5
 21
41.35
  0
LINE
  8
0
  6
CONTINUOUS
 62
     7
 10
-140.0
 20
23.2
 11
-113.0
 21
23.2
  0
LINE
  8
0
  6
CONTINUOUS
 62
     7
 10
-114.5
 20
50.39996
 11
-114.5
 21
24.2
  0
LINE
  8
0
  6
CONTINUOUS
 62
     7
 10
-139.5
 20
-34.4
 11
-113.5
 21
-34.4
  0
LINE
  8
0
  6
CONTINUOUS
 62
     7
 10
-116.0
 20
-18.34169
 11
-113.0
 21
-18.34169
  0
LINE
  8
0
  6
CONTINUOUS
 62
     7
 10
-116.0
 20
-21.65831
 11
-113.0
 21
-21.65831
  0
LINE
  8
0
  6
CONTINUOUS
 62
     7
 10
-116.0
 20
-18.34169
 11
-116.0
 21
-21.65831
  0
LINE
  8
0
  6
CENTER
 62
     2
 10
-117.6367
 20
-20.0
 11
-111.4845
 21
-20.0
  0
LINE
  8
0
  6
CONTINUOUS
 62
     7
 10
-140.0
 20
23.2
 11
-140.0
 21
-33.9
  0
LINE
  8
0
  6
CONTINUOUS
 62
     7
 10
-140.0
 20
-26.0
 11
-113.0
 21
-26.0
  0
LINE
  8
0
  6
CONTINUOUS
 62
     7
 10
-140.0
 20
6.0
 11
-113.0
 21
6.0
  0
LINE
  8
0
  6
CONTINUOUS
 62
     7
 10
-113.0
 20
43.9
 11
-114.5
 21
43.9
  0
LINE
  8
0
  6
CONTINUOUS
 62
     7
 10
-112.5
 20
41.0
 11
-112.5
 21
43.4
  0
LINE
  8
0
  6
CONTINUOUS
 62
     7
 10
-113.0
 20
40.5
 11
-114.5
 21
40.5
  0
LINE
  8
0
  6
CONTINUOUS
 62
     7
 10
-113.2
 20
-32.17182
 11
-113.2
 21
-30.99999
  0
LINE
  8
0
  6
CONTINUOUS
 62
     7
 10
-113.5
 20
-31.0
 11
-118.7
 21
-31.0
  0
LINE
  8
0
  6
CONTINUOUS
 62
     7
 10
-118.8
 20
-32.17183
 11
-118.8
 21
-31.0
  0
LINE
  8
0
  6
CONTINUOUS
 62
     7
 10
-119.2
 20
-31.5
 11
-119.2
 21
-33.9
  0
LINE
  8
0
  6
CENTER
 62
     2
 10
-116.0
 20
-29.90575
 11
-116.0
 21
-35.85531
  0
LINE
  8
0
  6
PHANTOM
 62
     2
 10
9.35001
 20
-87.16444
 11
17.65002
 21
-89.38843
  0
LINE
  8
0
  6
CONTINUOUS
 62
     7
 10
12.52
 20
-72.5
 11
11.88002
 21
-72.5
  0
LINE
  8
0
  6
CONTINUOUS
 62
     7
 10
13.05
 20
-82.5
 11
11.35002
 21
-82.5
  0
LINE
  8
0
  6
CONTINUOUS
 62
     7
 10
12.52
 20
-72.5
 11
12.52
 21
-82.5
  0
LINE
  8
0
  6
CONTINUOUS
 62
     7
 10
11.88
 20
-72.5
 11
11.88
 21
-82.5
  0
LINE
  8
0
  6
CONTINUOUS
 62
     7
 10
13.05
 20
-82.5
 11
13.05
 21
-86.60297
  0
LINE
  8
0
  6
CONTINUOUS
 62
     7
 10
11.35001
 20
-82.5
 11
11.35001
 21
-86.14745
  0
LINE
  8
0
  6
CENTER
 62
     2
 10
12.2
 20
-69.5
 11
12.2
 21
-93.53452
  0
LINE
  8
0
  6
CONTINUOUS
 62
     7
 10
15.12001
 20
-72.5
 11
14.48001
 21
-72.5
  0
LINE
  8
0
  6
CONTINUOUS
 62
     7
 10
15.65001
 20
-82.5
 11
13.95001
 21
-82.5
  0
LINE
  8
0
  6
CONTINUOUS
 62
     7
 10
15.12
 20
-72.5
 11
15.12
 21
-82.5
  0
LINE
  8
0
  6
CONTINUOUS
 62
     7
 10
14.48
 20
-72.5
 11
14.48
 21
-82.5
  0
LINE
  8
0
  6
CONTINUOUS
 62
     7
 10
15.64999
 20
-82.5
 11
15.64999
 21
-87.29964
  0
LINE
  8
0
  6
CONTINUOUS
 62
     7
 10
13.95
 20
-82.5
 11
13.95
 21
-86.84412
  0
LINE
  8
0
  6
CENTER
 62
     2
 10
14.79999
 20
-69.5
 11
14.79999
 21
-93.5969
  0
LINE
  8
0
  6
CENTER
 62
     2
 10
18.5
 20
-100.5274
 11
18.5
 21
-93.66991
  0
LINE
  8
0
  6
CENTER
 62
     2
 10
8.5
 20
-119.1487
 11
8.5
 21
-112.6257
  0
LINE
  8
0
  6
CENTER
 62
     2
 10
15.10267
 20
-97.0
 11
21.68142
 21
-97.0
  0
LINE
  8
0
  6
CENTER
 62
     2
 10
5.17876
 20
-116.0
 11
11.92478
 21
-116.0
  0
LINE
  8
0
  6
CONTINUOUS
 62
     7
 10
8.34858
 20
-95.57576
 11
8.77283
 21
-95.1515
  0
LINE
  8
0
  6
CONTINUOUS
 62
     7
 10
7.07577
 20
-95.15144
 11
6.65151
 21
-94.72719
  0
LINE
  8
0
  6
CONTINUOUS
 62
     7
 10
6.6515
 20
-95.57572
 11
6.22724
 21
-95.15146
  0
LINE
  8
0
  6
CONTINUOUS
 62
     7
 10
6.22722
 20
-96.84856
 11
6.65149
 21
-96.42429
  0
LINE
  8
0
  6
CONTINUOUS
 62
     7
 10
6.65151
 20
-97.27283
 11
7.07578
 21
-96.84856
  0
LINE
  8
0
  6
CONTINUOUS
 62
     7
 10
6.22724
 20
-95.15147
 11
6.6515
 21
-94.72722
  0
LINE
  8
0
  6
CONTINUOUS
 62
     7
 10
8.34857
 20
-97.27282
 11
8.77283
 21
-96.84856
  0
LINE
  8
0
  6
CONTINUOUS
 62
     7
 10
7.92429
 20
-95.1515
 11
8.34854
 21
-94.72724
  0
LINE
  8
0
  6
CENTER
 62
     2
 10
1.75
 20
-106.5
 11
25.72744
 21
-106.5
  0
LINE
  8
0
  6
CONTINUOUS
 62
     7
 10
15.64999
 20
-88.85255
 11
15.64999
 21
-92.5
  0
LINE
  8
0
  6
CONTINUOUS
 62
     7
 10
13.95
 20
-88.39703
 11
13.95
 21
-92.5
  0
LINE
  8
0
  6
CONTINUOUS
 62
     7
 10
13.05
 20
-88.15588
 11
13.05
 21
-92.5
  0
LINE
  8
0
  6
CONTINUOUS
 62
     7
 10
11.35001
 20
-87.70036
 11
11.35001
 21
-92.5
  0
LINE
  8
0
  6
PHANTOM
 62
     2
 10
9.35
 20
-85.61154
 11
17.65
 21
-87.83553
  0
LINE
  8
0
  6
CONTINUOUS
 62
     7
 10
11.00001
 20
-92.5
 11
16.00001
 21
-92.5
  0
LINE
  8
0
  6
CENTER
 62
     2
 10
13.5
 20
-122.3962
 11
13.5
 21
-90.57367
  0
LINE
  8
0
  6
CONTINUOUS
 62
     7
 10
22.5
 20
-119.5
 11
22.5
 21
-93.5
  0
LINE
  8
0
  6
CONTINUOUS
 62
     7
 10
4.5
 20
-119.5
 11
4.5
 21
-93.49999
  0
LINE
  8
0
  6
CONTINUOUS
 62
     7
 10
5.00001
 20
-93.0
 11
22.00001
 21
-93.0
  0
LINE
  8
0
  6
CONTINUOUS
 62
     7
 10
5.0
 20
-120.0
 11
22.0
 21
-120.0
  0
LINE
  8
0
  6
CENTER
 62
     2
 10
7.5
 20
-100.1378
 11
7.5
 21
-91.83009
  0
LINE
  8
0
  6
CENTER
 62
     2
 10
19.5
 20
-121.179
 11
19.5
 21
-112.8321
  0
LINE
  8
0
  6
CENTER
 62
     2
 10
15.4677
 20
-117.0
 11
23.40973
 21
-117.0
  0
LINE
  8
0
  6
CENTER
 62
     2
 10
3.64292
 20
-96.0
 11
11.36726
 21
-96.0
  0
LINE
  8
0
  6
CONTINUOUS
 62
     7
 10
19.5
 20
-113.8
 11
22.0
 21
-113.8
  0
LINE
  8
0
  6
CONTINUOUS
 62
     7
 10
16.29999
 20
-119.5
 11
16.29999
 21
-117.0
  0
LINE
  8
0
  6
CONTINUOUS
 62
     7
 10
10.7
 20
-96.0
 11
10.7
 21
-93.5
  0
LINE
  8
0
  6
CONTINUOUS
 62
     7
 10
5.00001
 20
-99.2
 11
7.50001
 21
-99.2
  0
LINE
  8
0
  6
CONTINUOUS
 62
     7
 10
18.65149
 20
-118.2728
 11
18.22722
 21
-117.8485
  0
LINE
  8
0
  6
CONTINUOUS
 62
     7
 10
20.77281
 20
-116.1515
 11
20.34854
 21
-115.7272
  0
LINE
  8
0
  6
CONTINUOUS
 62
     7
 10
20.34856
 20
-118.2728
 11
19.92429
 21
-117.8485
  0
LINE
  8
0
  6
CONTINUOUS
 62
     7
 10
20.77281
 20
-117.8485
 11
20.34855
 21
-117.4243
  0
LINE
  8
0
  6
CONTINUOUS
 62
     7
 10
20.34857
 20
-118.2728
 11
20.77282
 21
-117.8485
  0
LINE
  8
0
  6
CONTINUOUS
 62
     7
 10
18.22724
 20
-116.1515
 11
18.6515
 21
-115.7272
  0
LINE
  8
0
  6
CONTINUOUS
 62
     7
 10
18.65151
 20
-118.2728
 11
19.07576
 21
-117.8486
  0
LINE
  8
0
  6
CONTINUOUS
 62
     7
 10
18.22726
 20
-117.8486
 11
18.65153
 21
-117.4243
  0
LINE
  8
0
  6
CONTINUOUS
 62
     7
 10
18.65151
 20
-116.5757
 11
18.22724
 21
-116.1515
  0
LINE
  8
0
  6
CONTINUOUS
 62
     7
 10
19.07576
 20
-116.1515
 11
18.65149
 21
-115.7272
  0
LINE
  8
0
  6
CONTINUOUS
 62
     7
 10
20.34856
 20
-116.5758
 11
20.77283
 21
-116.1515
  0
LINE
  8
0
  6
CONTINUOUS
 62
     7
 10
19.92432
 20
-116.1515
 11
20.34858
 21
-115.7273
  0
LINE
  8
0
  6
CONTINUOUS
 62
     7
 10
6.65148
 20
-97.27277
 11
6.22723
 21
-96.84852
  0
LINE
  8
0
  6
CONTINUOUS
 62
     7
 10
8.77284
 20
-95.15144
 11
8.34857
 21
-94.72717
  0
LINE
  8
0
  6
CONTINUOUS
 62
     7
 10
8.34856
 20
-97.27277
 11
7.92429
 21
-96.84851
  0
LINE
  8
0
  6
CONTINUOUS
 62
     7
 10
8.77282
 20
-96.8485
 11
8.34856
 21
-96.42424
  0
ARC
  8
0
  6
CONTINUOUS
 62
     7
 10
193.0652
 20
-166.2024
 40
1.56404
 50
0.0
 51
89.99999
  0
ARC
  8
0
  6
CONTINUOUS
 62
     7
 10
205.9686
 20
-174.6092
 40
1.56404
 50
270.0
 51
0.0
  0
ARC
  8
0
  6
CONTINUOUS
 62
     7
 10
205.1865
 20
-166.9844
 40
2.34607
 50
0.0
 51
89.99999
  0
ARC
  8
0
  6
CONTINUOUS
 62
     7
 10
219.4585
 20
-166.2024
 40
1.56404
 50
0.0
 51
89.99999
  0
ARC
  8
0
  6
CONTINUOUS
 62
     7
 10
219.4585
 20
-167.4519
 40
1.56405
 50
295.0
 51
0.0
  0
ARC
  8
0
  6
CONTINUOUS
 62
     7
 10
231.5798
 20
-164.6383
 40
2.34607
 50
291.6882
 51
0.0
  0
ARC
  8
0
  6
CONTINUOUS
 62
     7
 10
230.7978
 20
-164.1077
 40
0.78203
 50
291.688
 51
0.0
  0
ARC
  8
0
  6
CONTINUOUS
 62
     7
 10
5.0
 20
124.5
 40
0.5
 50
89.99999
 51
180.0
  0
ARC
  8
0
  6
CONTINUOUS
 62
     7
 10
4.99999
 20
98.5
 40
0.5
 50
180.0
 51
269.9999
  0
ARC
  8
0
  6
CONTINUOUS
 62
     7
 10
21.99999
 20
98.5
 40
0.5
 50
270.0
 51
0.0
  0
ARC
  8
0
  6
CONTINUOUS
 62
     7
 10
22.0
 20
124.5
 40
0.5
 50
0.0
 51
89.99999
  0
ARC
  8
0
  6
CONTINUOUS
 62
     7
 10
10.99999
 20
98.0
 40
0.5
 50
180.0
 51
270.0
  0
ARC
  8
0
  6
CONTINUOUS
 62
     7
 10
15.99999
 20
98.0
 40
0.5
 50
270.0
 51
0.0
  0
ARC
  8
0
  6
CONTINUOUS
 62
     7
 10
8.99999
 20
102.5
 40
3.0
 50
0.0
 51
89.99998
  0
ARC
  8
0
  6
CONTINUOUS
 62
     7
 10
18.0
 20
120.5
 40
3.0
 50
180.0
 51
270.0
  0
ARC
  8
0
  6
CONTINUOUS
 62
     7
 10
8.99999
 20
102.5
 40
2.55
 50
186.7564
 51
173.2438
  0
ARC
  8
0
  6
CONTINUOUS
 62
     7
 10
18.0
 20
120.5
 40
2.55
 50
6.7564
 51
353.2438
  0
CIRCLE
  8
0
  6
CONTINUOUS
 62
     7
 10
8.99999
 20
102.5
 40
2.25
  0
ARC
  8
0
  6
CONTINUOUS
 62
     7
 10
10.10308
 20
102.5
 40
0.52
 50
134.9998
 51
225.0002
  0
ARC
  8
0
  6
CONTINUOUS
 62
     7
 10
8.99999
 20
103.6031
 40
0.52
 50
225.0002
 51
314.9998
  0
ARC
  8
0
  6
CONTINUOUS
 62
     7
 10
8.99999
 20
101.3969
 40
0.52
 50
45.00022
 51
134.9998
  0
ARC
  8
0
  6
CONTINUOUS
 62
     7
 10
7.8969
 20
102.5
 40
0.52
 50
314.9998
 51
45.00022
  0
CIRCLE
  8
0
  6
CONTINUOUS
 62
     7
 10
18.0
 20
120.5
 40
2.25
  0
ARC
  8
0
  6
CONTINUOUS
 62
     7
 10
19.10309
 20
120.5
 40
0.52
 50
134.9997
 51
225.0003
  0
ARC
  8
0
  6
CONTINUOUS
 62
     7
 10
18.0
 20
121.6031
 40
0.52
 50
225.0003
 51
314.9997
  0
ARC
  8
0
  6
CONTINUOUS
 62
     7
 10
18.0
 20
119.3969
 40
0.52
 50
45.0003
 51
134.9997
  0
ARC
  8
0
  6
CONTINUOUS
 62
     7
 10
16.89691
 20
120.5
 40
0.52
 50
314.9997
 51
45.0003
  0
ARC
  8
0
  6
CONTINUOUS
 62
     7
 10
20.5
 20
123.0
 40
0.5
 50
0.0
 51
89.99999
  0
ARC
  8
0
  6
CONTINUOUS
 62
     7
 10
6.5
 20
123.0
 40
0.5
 50
89.99999
 51
180.0
  0
ARC
  8
0
  6
CONTINUOUS
 62
     7
 10
135.5
 20
46.7
 40
6.0
 50
73.80862
 51
106.1914
  0
ARC
  8
0
  6
CONTINUOUS
 62
     7
 10
136.95
 20
51.69374
 40
0.8
 50
0.0
 51
73.8082
  0
ARC
  8
0
  6
CONTINUOUS
 62
     7
 10
134.05
 20
51.69374
 40
0.8
 50
106.1918
 51
180.0
  0
ARC
  8
0
  6
CONTINUOUS
 62
     7
 10
117.5
 20
46.69999
 40
6.0
 50
73.80862
 51
106.1913
  0
ARC
  8
0
  6
CONTINUOUS
 62
     7
 10
116.05
 20
51.69374
 40
0.8
 50
106.1913
 51
118.0138
  0
ARC
  8
0
  6
CONTINUOUS
 62
     7
 10
118.95
 20
51.69374
 40
0.8
 50
61.98621
 51
73.80872
  0
ARC
  8
0
  6
CONTINUOUS
 62
     7
 10
139.5
 20
-33.9
 40
0.5
 50
270.0
 51
0.0
  0
ARC
  8
0
  6
CONTINUOUS
 62
     7
 10
113.5
 20
-33.89999
 40
0.5
 50
180.0
 51
270.0
  0
ARC
  8
0
  6
CONTINUOUS
 62
     7
 10
113.0
 20
43.40001
 40
0.5
 50
89.99999
 51
180.0
  0
ARC
  8
0
  6
CONTINUOUS
 62
     7
 10
113.0
 20
41.00001
 40
0.5
 50
180.0
 51
270.0
  0
ARC
  8
0
  6
CONTINUOUS
 62
     7
 10
137.0
 20
-28.4
 40
5.0
 50
240.5077
 51
299.4923
  0
ARC
  8
0
  6
CONTINUOUS
 62
     7
 10
139.1333
 20
-32.17183
 40
0.66666
 50
299.4921
 51
0.0
  0
ARC
  8
0
  6
CONTINUOUS
 62
     7
 10
139.5
 20
-30.5
 40
0.5
 50
270.0
 51
0.0
  0
ARC
  8
0
  6
CONTINUOUS
 62
     7
 10
134.3
 20
-31.49999
 40
0.5
 50
89.99999
 51
180.0
  0
ARC
  8
0
  6
CONTINUOUS
 62
     7
 10
134.8667
 20
-32.17183
 40
0.66667
 50
180.0
 51
240.5079
  0
ARC
  8
0
  6
CONTINUOUS
 62
     7
 10
133.3
 20
-33.89999
 40
0.5
 50
270.0
 51
0.0
  0
CIRCLE
  8
0
  6
CONTINUOUS
 62
     7
 10
20.0
 20
0.0
 40
1.6
  0
ARC
  8
0
  6
CONTINUOUS
 62
     7
 10
20.0
 20
0.0
 40
3.0
 50
33.55732
 51
326.4427
  0
CIRCLE
  8
0
  6
CONTINUOUS
 62
     7
 10
13.50001
 20
20.7
 40
1.65
  0
ARC
  8
0
  6
CONTINUOUS
 62
     7
 10
9.00001
 20
46.69999
 40
6.0
 50
73.80869
 51
106.1913
  0
ARC
  8
0
  6
CONTINUOUS
 62
     7
 10
10.45001
 20
51.69374
 40
0.8
 50
0.0
 51
73.80865
  0
ARC
  8
0
  6
CONTINUOUS
 62
     7
 10
7.55002
 20
51.69373
 40
0.8
 50
106.1913
 51
180.0
  0
ARC
  8
0
  6
CONTINUOUS
 62
     7
 10
18.00001
 20
46.69999
 40
6.0
 50
73.80865
 51
106.1913
  0
ARC
  8
0
  6
CONTINUOUS
 62
     7
 10
16.55002
 20
51.69373
 40
0.8
 50
106.1914
 51
118.0138
  0
ARC
  8
0
  6
CONTINUOUS
 62
     7
 10
19.45001
 20
51.69374
 40
0.8
 50
61.98621
 51
73.80872
  0
ARC
  8
0
  6
CONTINUOUS
 62
     7
 10
4.99999
 20
-33.9
 40
0.5
 50
180.0
 51
270.0
  0
ARC
  8
0
  6
CONTINUOUS
 62
     7
 10
21.99999
 20
-33.9
 40
0.5
 50
270.0
 51
0.0
  0
CIRCLE
  8
0
  6
CONTINUOUS
 62
     7
 10
6.99999
 20
-20.0
 40
1.6
  0
ARC
  8
0
  6
CONTINUOUS
 62
     7
 10
6.99999
 20
-20.0
 40
3.0
 50
0.0
 51
146.4427
  0
ARC
  8
0
  6
CONTINUOUS
 62
     7
 10
6.99999
 20
-20.0
 40
3.0
 50
213.5573
 51
0.0
  0
ARC
  8
0
  6
CONTINUOUS
 62
     7
 10
12.20001
 20
42.2
 40
1.7
 50
89.99997
 51
270.0
  0
CIRCLE
  8
0
  6
CONTINUOUS
 62
     7
 10
12.20001
 20
42.2
 40
0.85
  0
ARC
  8
0
  6
CONTINUOUS
 62
     7
 10
14.80002
 20
42.2
 40
1.7
 50
270.0
 51
89.99997
  0
CIRCLE
  8
0
  6
CONTINUOUS
 62
     7
 10
14.80002
 20
42.2
 40
0.85
  0
ARC
  8
0
  6
CONTINUOUS
 62
     7
 10
7.49998
 20
-28.39999
 40
5.0
 50
240.5076
 51
299.4923
  0
ARC
  8
0
  6
CONTINUOUS
 62
     7
 10
5.36665
 20
-32.17182
 40
0.66667
 50
180.0
 51
240.5076
  0
ARC
  8
0
  6
CONTINUOUS
 62
     7
 10
4.99998
 20
-30.49999
 40
0.5
 50
180.0
 51
270.0
  0
ARC
  8
0
  6
CONTINUOUS
 62
     7
 10
10.19997
 20
-31.49999
 40
0.5
 50
0.0
 51
89.99999
  0
ARC
  8
0
  6
CONTINUOUS
 62
     7
 10
9.63331
 20
-32.17182
 40
0.0
 50
299.4924
 51
0.0
  0
ARC
  8
0
  6
CONTINUOUS
 62
     7
 10
11.19997
 20
-33.89999
 40
0.5
 50
180.0
 51
270.0
  0
ARC
  8
0
  6
CONTINUOUS
 62
     7
 10
-117.5
 20
46.7
 40
6.0
 50
73.80869
 51
106.1913
  0
ARC
  8
0
  6
CONTINUOUS
 62
     7
 10
-116.05
 20
51.69374
 40
0.8
 50
0.0
 51
73.80872
  0
ARC
  8
0
  6
CONTINUOUS
 62
     7
 10
-118.95
 20
51.69374
 40
0.8
 50
106.1913
 51
180.0
  0
ARC
  8
0
  6
CONTINUOUS
 62
     7
 10
-135.5
 20
46.69999
 40
6.0
 50
73.80862
 51
106.1914
  0
ARC
  8
0
  6
CONTINUOUS
 62
     7
 10
-136.95
 20
51.69373
 40
0.8
 50
106.1918
 51
118.0138
  0
ARC
  8
0
  6
CONTINUOUS
 62
     7
 10
-134.05
 20
51.69374
 40
0.8
 50
61.98621
 51
73.8082
  0
ARC
  8
0
  6
CONTINUOUS
 62
     7
 10
-139.5
 20
-33.9
 40
0.5
 50
180.0
 51
270.0
  0
ARC
  8
0
  6
CONTINUOUS
 62
     7
 10
-113.5
 20
-33.9
 40
0.5
 50
270.0
 51
0.0
  0
ARC
  8
0
  6
CONTINUOUS
 62
     7
 10
-113.0
 20
43.4
 40
0.5
 50
0.0
 51
89.99999
  0
ARC
  8
0
  6
CONTINUOUS
 62
     7
 10
-113.0
 20
41.0
 40
0.5
 50
270.0
 51
0.0
  0
ARC
  8
0
  6
CONTINUOUS
 62
     7
 10
-116.0
 20
-28.4
 40
5.0
 50
240.5076
 51
299.4923
  0
ARC
  8
0
  6
CONTINUOUS
 62
     7
 10
-113.8667
 20
-32.17183
 40
0.66666
 50
299.4921
 51
0.0
  0
ARC
  8
0
  6
CONTINUOUS
 62
     7
 10
-113.5
 20
-30.5
 40
0.5
 50
270.0
 51
0.0
  0
ARC
  8
0
  6
CONTINUOUS
 62
     7
 10
-118.7
 20
-31.5
 40
0.5
 50
89.99999
 51
180.0
  0
ARC
  8
0
  6
CONTINUOUS
 62
     7
 10
-118.1333
 20
-32.17183
 40
0.66666
 50
180.0
 51
240.5073
  0
ARC
  8
0
  6
CONTINUOUS
 62
     7
 10
-119.7
 20
-33.9
 40
0.5
 50
270.0
 51
0.0
  0
ARC
  8
0
  6
CONTINUOUS
 62
     7
 10
11.00001
 20
-93.0
 40
0.5
 50
89.99999
 51
180.0
  0
ARC
  8
0
  6
CONTINUOUS
 62
     7
 10
16.00001
 20
-93.0
 40
0.5
 50
0.0
 51
89.99999
  0
CIRCLE
  8
0
  6
CONTINUOUS
 62
     7
 10
18.50001
 20
-97.0
 40
1.5
  0
CIRCLE
  8
0
  6
CONTINUOUS
 62
     7
 10
8.5
 20
-116.0
 40
1.5
  0
CIRCLE
  8
0
  6
CONTINUOUS
 62
     7
 10
8.5
 20
-116.0
 40
1.0
  0
ARC
  8
0
  6
CONTINUOUS
 62
     7
 10
5.0
 20
-119.5
 40
0.5
 50
180.0
 51
269.9999
  0
ARC
  8
0
  6
CONTINUOUS
 62
     7
 10
5.00001
 20
-93.5
 40
0.5
 50
89.99999
 51
180.0
  0
ARC
  8
0
  6
CONTINUOUS
 62
     7
 10
22.00001
 20
-93.5
 40
0.5
 50
0.0
 51
89.99999
  0
ARC
  8
0
  6
CONTINUOUS
 62
     7
 10
22.0
 20
-119.5
 40
0.5
 50
270.0
 51
0.0
  0
ARC
  8
0
  6
CONTINUOUS
 62
     7
 10
7.50001
 20
-96.0
 40
3.2
 50
270.0
 51
0.0
  0
ARC
  8
0
  6
CONTINUOUS
 62
     7
 10
19.5
 20
-117.0
 40
3.2
 50
89.99997
 51
180.0
  0
ARC
  8
0
  6
CONTINUOUS
 62
     7
 10
15.79999
 20
-119.5
 40
0.5
 50
270.0
 51
0.0
  0
ARC
  8
0
  6
CONTINUOUS
 62
     7
 10
22.0
 20
-113.3
 40
0.5
 50
270.0
 51
0.0
  0
ARC
  8
0
  6
CONTINUOUS
 62
     7
 10
5.00001
 20
-99.7
 40
0.5
 50
89.99999
 51
180.0
  0
ARC
  8
0
  6
CONTINUOUS
 62
     7
 10
11.2
 20
-93.5
 40
0.5
 50
89.99999
 51
180.0
  0
CIRCLE
  8
0
  6
CONTINUOUS
 62
     7
 10
19.5
 20
-117.0
 40
2.8
  0
ARC
  8
0
  6
CONTINUOUS
 62
     7
 10
18.2272
 20
-117.0
 40
0.6
 50
315.0
 51
44.99987
  0
ARC
  8
0
  6
CONTINUOUS
 62
     7
 10
19.5
 20
-118.2728
 40
0.6
 50
44.99987
 51
135.0
  0
ARC
  8
0
  6
CONTINUOUS
 62
     7
 10
19.5
 20
-115.7272
 40
0.6
 50
224.9999
 51
315.0
  0
ARC
  8
0
  6
CONTINUOUS
 62
     7
 10
20.7728
 20
-117.0
 40
0.6
 50
135.0
 51
224.9999
  0
CIRCLE
  8
0
  6
CONTINUOUS
 62
     7
 10
7.50001
 20
-96.0
 40
2.8
  0
ARC
  8
0
  6
CONTINUOUS
 62
     7
 10
6.22721
 20
-96.0
 40
0.6
 50
315.0
 51
44.99994
  0
ARC
  8
0
  6
CONTINUOUS
 62
     7
 10
7.50001
 20
-97.2728
 40
0.6
 50
44.99994
 51
135.0001
  0
ARC
  8
0
  6
CONTINUOUS
 62
     7
 10
7.50001
 20
-94.7272
 40
0.6
 50
224.9999
 51
315.0
  0
ARC
  8
0
  6
CONTINUOUS
 62
     7
 10
8.7728
 20
-96.0
 40
0.6
 50
135.0001
 51
224.9999
  0
CIRCLE
  8
0
  6
CONTINUOUS
 62
     7
 10
8.5
 20
-116.0
 40
2.35
  0
CIRCLE
  8
0
  6
CONTINUOUS
 62
     7
 10
18.50001
 20
-97.0
 40
2.35
  0
CIRCLE
  8
0
  6
CONTINUOUS
 62
     7
 10
18.50001
 20
-97.0
 40
1.0
  0
TEXT
  8
0
  6
CONTINUOUS
 62
     7
 10
161.9774
 20
167.0677
 40
6.0
  1
DATE : AUG ,1989
 41
0.8
  7
STANDARD
  0
TEXT
  8
0
  6
CONTINUOUS
 62
     7
 10
-228.1446
 20
166.5977
 40
7.0
  1
A181E1
 41
0.8
  7
STANDARD
  0
TEXT
  8
0
  6
CONTINUOUS
 62
     7
 10
-229.2471
 20
127.675
 40
7.0
  1
MODEL : A181E1
 41
0.8
  7
STANDARD
  0
ENDSEC
  0
EOF
