  0
SECTION
  2
HEADER
  9
$ACADVER
  1
AC1009
  9
$INSBASE
 10
0.0
 20
0.0
 30
0.0
  9
$EXTMIN
 10
-194.25
 20
-133.5
 30
0.0
  9
$EXTMAX
 10
194.80000305
 20
132.6000061
 30
0.0
  9
$LIMMIN
 10
-194.25
 20
-133.5
  9
$LIMMAX
 10
194.80000305
 20
132.6000061
  9
$ORTHOMODE
 70
       0
  9
$REGENMODE
 70
       1
  9
$FILLMODE
 70
       1
  9
$QTEXTMODE
 70
       0
  9
$MIRRTEXT
 70
       1
  9
$DRAGMODE
 70
       2
  9
$LTSCALE
 40
1.0
  9
$OSMODE
 70
       0
  9
$ATTMODE
 70
       1
  9
$TEXTSIZE
 40
3.20000005
  9
$TRACEWID
 40
0.05
  9
$TEXTSTYLE
  7
MX_NOTE_STANDARD
  9
$CLAYER
  8
0
  9
$CELTYPE
  6
CONTINUOUS
  9
$CECOLOR
 62
     256
  9
$DIMSCALE
 40
1.0
  9
$DIMASZ
 40
2.5
  9
$DIMEXO
 40
1.5
  9
$DIMDLI
 40
3.75
  9
$DIMRND
 40
0.0
  9
$DIMDLE
 40
0.0
  9
$DIMEXE
 40
1.5
  9
$DIMTP
 40
0.0
  9
$DIMTM
 40
0.0
  9
$DIMTXT
 40
3.20000005
  9
$DIMCEN
 40
2.5
  9
$DIMTSZ
 40
0.0
  9
$DIMTOL
 70
       0
  9
$DIMLIM
 70
       0
  9
$DIMTIH
 70
       0
  9
$DIMTOH
 70
       0
  9
$DIMSE1
 70
       0
  9
$DIMSE2
 70
       0
  9
$DIMTAD
 70
       1
  9
$DIMZIN
 70
       8
  9
$DIMBLK
  1

  9
$DIMASO
 70
       1
  9
$DIMSHO
 70
       1
  9
$DIMPOST
  1

  9
$DIMAPOST
  1

  9
$DIMALT
 70
       0
  9
$DIMALTD
 70
       4
  9
$DIMALTF
 40
0.0394
  9
$DIMLFAC
 40
1.0
  9
$DIMTOFL
 70
       1
  9
$DIMTVP
 40
0.0
  9
$DIMTIX
 70
       0
  9
$DIMSOXD
 70
       0
  9
$DIMSAH
 70
       0
  9
$DIMBLK1
  1

  9
$DIMBLK2
  1

  9
$DIMSTYLE
  2
MXDIMSTYLE
  9
$DIMCLRD
 70
       0
  9
$DIMCLRE
 70
       0
  9
$DIMCLRT
 70
       0
  9
$DIMTFAC
 40
1.0
  9
$DIMGAP
 40
1.0
  9
$LUNITS
 70
       2
  9
$LUPREC
 70
       4
  9
$AXISMODE
 70
       0
  9
$AXISUNIT
 10
0.0
 20
0.0
  9
$SKETCHINC
 40
0.1
  9
$FILLETRAD
 40
0.0
  9
$AUNITS
 70
       0
  9
$AUPREC
 70
       0
  9
$MENU
  1
acad
  9
$ELEVATION
 40
0.0
  9
$PELEVATION
 40
0.0
  9
$THICKNESS
 40
0.0
  9
$LIMCHECK
 70
       0
  9
$BLIPMODE
 70
       1
  9
$CHAMFERA
 40
0.0
  9
$CHAMFERB
 40
0.0
  9
$SKPOLY
 70
       0
  9
$TDCREATE
 40
2452884.695729167
  9
$TDUPDATE
 40
2452884.695729167
  9
$TDINDWG
 40
0.0000000000
  9
$TDUSRTIMER
 40
0.0000000000
  9
$USRTIMER
 70
       1
  9
$ANGBASE
 50
0.0
  9
$ANGDIR
 70
       0
  9
$PDMODE
 70
       0
  9
$PDSIZE
 40
0.0
  9
$PLINEWID
 40
0.0
  9
$COORDS
 70
       1
  9
$SPLFRAME
 70
       0
  9
$SPLINETYPE
 70
       6
  9
$SPLINESEGS
 70
       8
  9
$ATTDIA
 70
       0
  9
$ATTREQ
 70
       1
  9
$HANDLING
 70
       1
  9
$HANDSEED
  5
1CF
  9
$SURFTAB1
 70
       6
  9
$SURFTAB2
 70
       6
  9
$SURFTYPE
 70
       6
  9
$SURFU
 70
       6
  9
$SURFV
 70
       6
  9
$UCSNAME
  2

  9
$UCSORG
 10
0.0
 20
0.0
 30
0.0
  9
$UCSXDIR
 10
1.0
 20
0.0
 30
0.0
  9
$UCSYDIR
 10
0.0
 20
1.0
 30
0.0
  9
$PUCSNAME
  2

  9
$PUCSORG
 10
0.0
 20
0.0
 30
0.0
  9
$PUCSXDIR
 10
1.0
 20
0.0
 30
0.0
  9
$PUCSYDIR
 10
0.0
 20
1.0
 30
0.0
  9
$USERI1
 70
       0
  9
$USERI2
 70
       0
  9
$USERI3
 70
       0
  9
$USERI4
 70
       0
  9
$USERI5
 70
       0
  9
$USERR1
 40
0.0
  9
$USERR2
 40
0.0
  9
$USERR3
 40
0.0
  9
$USERR4
 40
0.0
  9
$USERR5
 40
0.0
  9
$WORLDVIEW
 70
       1
  9
$SHADEDGE
 70
       3
  9
$SHADEDIF
 70
      70
  9
$TILEMODE
 70
       1
  9
$MAXACTVP
 70
      16
  9
$PINSBASE
 10
0.0
 20
0.0
 30
0.0
  9
$PLIMCHECK
 70
       0
  9
$PEXTMIN
 10
1.00000000E+20
 20
1.00000000E+20
 30
1.00000000E+20
  9
$PEXTMAX
 10
-1.00000000E+20
 20
-1.00000000E+20
 30
-1.00000000E+20
  9
$PLIMMIN
 10
0.0
 20
0.0
  9
$PLIMMAX
 10
12.0
 20
9.0
  9
$UNITMODE
 70
       0
  9
$VISRETAIN
 70
       0
  9
$PLINEGEN
 70
       1
  9
$PSLTSCALE
 70
       0
  9
$TREEDEPTH
 70
    3020
  9
$DWGCODEPAGE
  3
dos932
  0
ENDSEC
  0
SECTION
  2
TABLES
  0
TABLE
  2
VPORT
 70
       1
  0
VPORT
  2
*ACTIVE
 70
       0
 10
0.0
 20
0.0
 11
1.0
 21
1.0
 12
0.27500153
 22
-0.44999695
 13
0.0
 23
0.0
 14
1.0
 24
1.0
 15
0.0
 25
0.0
 16
0.0
 26
0.0
 36
1.0
 17
0.0
 27
0.0
 37
0.0
 40
268.76100616
 41
1.73205081
 42
50.0
 43
0.0
 44
0.0
 50
0.0
 51
0.0
 71
       0
 72
     100
 73
       1
 74
       1
 75
       0
 76
       0
 77
       0
 78
       0
  0
ENDTAB
  0
TABLE
  2
LTYPE
 70
       3
  0
LTYPE
  2
CONTINUOUS
 70
      64
  3
Solid line
 72
      65
 73
       0
 40
0.0
  0
LTYPE
  2
PHANTOM
 70
      64
  3
Phantom ______  __  __  ______  __  __  ______
 72
      65
 73
       6
 40
63.5
 49
31.75
 49
-6.35
 49
6.35
 49
-6.35
 49
6.35
 49
-6.35
  0
LTYPE
  2
CENTER
 70
      64
  3
Center ____ _ ____ _ ____ _ ____ _ ____ _ ____
 72
      65
 73
       4
 40
50.8
 49
31.75
 49
-6.35
 49
6.35
 49
-6.35
  0
ENDTAB
  0
TABLE
  2
LAYER
 70
       2
  0
LAYER
  2
0
 70
       0
 62
       7
  6
CONTINUOUS
  0
LAYER
  2
DEFPOINTS
 70
       0
 62
       7
  6
CONTINUOUS
  0
ENDTAB
  0
TABLE
  2
STYLE
 70
       1
  0
STYLE
  2
MX_NOTE_STANDARD
 70
       0
 40
3.20000005
 41
1.0
 50
0.0
 71
       0
 42
3.20000005
  3
txt.shx
  4
extfont.shx
  0
ENDTAB
  0
TABLE
  2
VIEW
 70
       0
  0
ENDTAB
  0
TABLE
  2
UCS
 70
       0
  0
ENDTAB
  0
TABLE
  2
APPID
 70
       1
  0
APPID
  2
ACAD
 70
       0
  0
ENDTAB
  0
TABLE
  2
DIMSTYLE
 70
       1
  0
DIMSTYLE
  2
MXDIMSTYLE
 70
       0
  3

  4

  5

  6

  7

 40
1.0
 41
2.5
 42
1.5
 43
3.75
 44
1.5
 45
0.0
 46
0.0
 47
0.0
 48
0.0
 71
       0
 72
       0
 73
       0
 74
       0
 75
       0
 76
       0
 77
       1
 78
       8
140
3.20000005
141
2.5
142
0.0
143
0.0394
144
1.0
145
0.0
146
1.0
147
1.0
170
       0
171
       4
172
       1
173
       0
174
       0
175
       0
176
       0
177
       0
178
       0
  0
ENDTAB
  0
ENDSEC
  0
SECTION
  2
BLOCKS
  0
ENDSEC
  0
SECTION
  2
ENTITIES
  0
LINE
  8
0
  6
CONTINUOUS
 62
       7
  5
1E
 10
125.80332664
 20
-55.09443233
 30
0.0
 11
124.80332664
 21
-55.09443233
 31
0.0
  0
LINE
  8
0
  6
CONTINUOUS
 62
       7
  5
1F
 10
124.80332664
 20
-48.09443233
 30
0.0
 11
124.80332664
 21
-55.09443233
 31
0.0
  0
LINE
  8
0
  6
CONTINUOUS
 62
       7
  5
20
 10
124.80332664
 20
0.40556767
 30
0.0
 11
124.80332664
 21
-41.59443233
 31
0.0
  0
LINE
  8
0
  6
CONTINUOUS
 62
       7
  5
21
 10
124.80332664
 20
13.90556767
 30
0.0
 11
124.80332664
 21
6.90556767
 31
0.0
  0
LINE
  8
0
  6
CONTINUOUS
 62
       7
  5
22
 10
125.80332664
 20
-55.09443233
 30
0.0
 11
125.80332664
 21
13.90556767
 31
0.0
  0
LINE
  8
0
  6
CONTINUOUS
 62
       7
  5
23
 10
125.80332664
 20
13.90556767
 30
0.0
 11
124.80332664
 21
13.90556767
 31
0.0
  0
LINE
  8
0
  6
CONTINUOUS
 62
       7
  5
24
 10
-121.12563635
 20
-55.09443233
 30
0.0
 11
-120.12563635
 21
-55.09443233
 31
0.0
  0
LINE
  8
0
  6
CONTINUOUS
 62
       7
  5
25
 10
-120.12563635
 20
-48.09443233
 30
0.0
 11
-120.12563635
 21
-55.09443233
 31
0.0
  0
LINE
  8
0
  6
CONTINUOUS
 62
       7
  5
26
 10
-120.12563635
 20
0.40556767
 30
0.0
 11
-120.12563635
 21
-41.59443233
 31
0.0
  0
LINE
  8
0
  6
CONTINUOUS
 62
       7
  5
27
 10
-120.12563635
 20
13.90556767
 30
0.0
 11
-120.12563635
 21
6.90556767
 31
0.0
  0
LINE
  8
0
  6
CONTINUOUS
 62
       7
  5
28
 10
-121.12563635
 20
-55.09443233
 30
0.0
 11
-121.12563635
 21
13.90556767
 31
0.0
  0
LINE
  8
0
  6
CONTINUOUS
 62
       7
  5
29
 10
-121.12563635
 20
13.90556767
 30
0.0
 11
-120.12563635
 21
13.90556767
 31
0.0
  0
LINE
  8
0
  6
PHANTOM
 62
       2
  5
2B
 10
-13.63198653
 20
-56.09594623
 30
0.0
 11
-5.62757474
 21
-56.09594623
 31
0.0
  0
LINE
  8
0
  6
PHANTOM
 62
       2
  5
2C
 10
-13.63198653
 20
14.89724668
 30
0.0
 11
-4.12851529
 21
14.89724668
 31
0.0
  0
LINE
  8
0
  6
PHANTOM
 62
       2
  5
2D
 10
-13.63198653
 20
14.89724668
 30
0.0
 11
-13.63198653
 21
-56.09594623
 31
0.0
  0
LINE
  8
0
  6
PHANTOM
 62
       2
  5
2E
 10
20.36555047
 20
14.89724668
 30
0.0
 11
20.36555047
 21
-56.09594623
 31
0.0
  0
LINE
  8
0
  6
PHANTOM
 62
       2
  5
2F
 10
10.86207923
 20
14.89724668
 30
0.0
 11
20.36555047
 21
14.89724668
 31
0.0
  0
LINE
  8
0
  6
CENTER
 62
       2
  5
31
 10
-13.63198653
 20
1.40571161
 30
0.0
 11
-6.63166174
 21
1.40571161
 31
0.0
  0
LINE
  8
0
  6
CENTER
 62
       2
  5
32
 10
13.36522567
 20
-30.59779348
 30
0.0
 11
20.36555047
 21
-30.59779348
 31
0.0
  0
LINE
  8
0
  6
CENTER
 62
       2
  5
33
 10
16.8724591
 20
-27.10470211
 30
0.0
 11
16.8724591
 21
-34.10502691
 31
0.0
  0
LINE
  8
0
  6
CENTER
 62
       2
  5
34
 10
-10.13889517
 20
4.89880298
 30
0.0
 11
-10.13889517
 21
-2.10152182
 31
0.0
  0
LINE
  8
0
  6
PHANTOM
 62
       2
  5
35
 10
-121.11334482
 20
14.89724668
 30
0.0
 11
-121.11334482
 21
13.89315969
 31
0.0
  0
LINE
  8
0
  6
PHANTOM
 62
       2
  5
36
 10
-151.122818
 20
14.89724668
 30
0.0
 11
-121.11334482
 21
14.89724668
 31
0.0
  0
LINE
  8
0
  6
PHANTOM
 62
       2
  5
37
 10
-151.122818
 20
-56.09594623
 30
0.0
 11
-121.11334482
 21
-56.09594623
 31
0.0
  0
LINE
  8
0
  6
PHANTOM
 62
       2
  5
38
 10
-151.122818
 20
14.89724668
 30
0.0
 11
-151.122818
 21
-56.09594623
 31
0.0
  0
LINE
  8
0
  6
CENTER
 62
       2
  5
39
 10
-154.82804041
 20
-20.59934977
 30
0.0
 11
-116.8848658
 21
-20.59934977
 31
0.0
  0
LINE
  8
0
  6
CENTER
 62
       2
  5
3A
 10
-149.62375854
 20
-10.60090607
 30
0.0
 11
-132.62499004
 21
-10.60090607
 31
0.0
  0
LINE
  8
0
  6
CENTER
 62
       2
  5
3B
 10
-149.62375854
 20
-30.59779348
 30
0.0
 11
-132.62499004
 21
-30.59779348
 31
0.0
  0
LINE
  8
0
  6
CENTER
 62
       2
  5
3C
 10
-141.12437429
 20
-2.10152182
 30
0.0
 11
-141.12437429
 21
-19.10029032
 31
0.0
  0
LINE
  8
0
  6
CENTER
 62
       2
  5
3D
 10
-141.12437429
 20
-22.09840923
 30
0.0
 11
-141.12437429
 21
-39.09717773
 31
0.0
  0
LINE
  8
0
  6
PHANTOM
 62
       2
  5
3E
 10
155.80415774
 20
14.89724668
 30
0.0
 11
125.79468456
 21
14.89724668
 31
0.0
  0
LINE
  8
0
  6
PHANTOM
 62
       2
  5
3F
 10
155.80415774
 20
-56.09594623
 30
0.0
 11
125.79468456
 21
-56.09594623
 31
0.0
  0
LINE
  8
0
  6
PHANTOM
 62
       2
  5
40
 10
155.80415774
 20
14.89724668
 30
0.0
 11
155.80415774
 21
-56.09594623
 31
0.0
  0
LINE
  8
0
  6
CENTER
 62
       2
  5
41
 10
140.79942115
 20
-32.09685293
 30
0.0
 11
140.79942115
 21
-49.09562143
 31
0.0
  0
LINE
  8
0
  6
PHANTOM
 62
       2
  5
42
 10
-121.11334482
 20
-41.60032417
 30
0.0
 11
-121.11334482
 21
-48.10567651
 31
0.0
  0
LINE
  8
0
  6
CENTER
 62
       2
  5
43
 10
-122.61240427
 20
10.40006833
 30
0.0
 11
-118.62434044
 21
10.40006833
 31
0.0
  0
LINE
  8
0
  6
PHANTOM
 62
       2
  5
44
 10
-121.11334482
 20
6.89283489
 30
0.0
 11
-121.11334482
 21
0.40162462
 31
0.0
  0
LINE
  8
0
  6
CENTER
 62
       2
  5
45
 10
-122.61240427
 20
-51.59876787
 30
0.0
 11
-118.62434044
 21
-51.59876787
 31
0.0
  0
LINE
  8
0
  6
PHANTOM
 62
       2
  5
46
 10
-121.11334482
 20
-55.10600131
 30
0.0
 11
-121.11334482
 21
-56.09594623
 31
0.0
  0
LINE
  8
0
  6
PHANTOM
 62
       2
  5
47
 10
125.79468456
 20
14.89724668
 30
0.0
 11
125.79468456
 21
13.89315969
 31
0.0
  0
LINE
  8
0
  6
PHANTOM
 62
       2
  5
48
 10
125.79468456
 20
6.89283489
 30
0.0
 11
125.79468456
 21
0.40162462
 31
0.0
  0
LINE
  8
0
  6
PHANTOM
 62
       2
  5
49
 10
125.79468456
 20
-41.60032417
 30
0.0
 11
125.79468456
 21
-48.10567651
 31
0.0
  0
LINE
  8
0
  6
PHANTOM
 62
       2
  5
4A
 10
125.79468456
 20
-55.10600131
 30
0.0
 11
125.79468456
 21
-56.09594623
 31
0.0
  0
LINE
  8
0
  6
CENTER
 62
       2
  5
4B
 10
134.80318334
 20
10.40006833
 30
0.0
 11
123.29153812
 21
10.40006833
 31
0.0
  0
LINE
  8
0
  6
CENTER
 62
       2
  5
4C
 10
134.80318334
 20
-51.59876787
 30
0.0
 11
123.29153812
 21
-51.59876787
 31
0.0
  0
LINE
  8
0
  6
CENTER
 62
       2
  5
4D
 10
140.79942115
 20
7.89692188
 30
0.0
 11
140.79942115
 21
-9.10184662
 31
0.0
  0
LINE
  8
0
  6
CENTER
 62
       2
  5
4E
 10
145.79157197
 20
-12.09996552
 30
0.0
 11
145.79157197
 21
-29.09873403
 31
0.0
  0
LINE
  8
0
  6
CENTER
 62
       2
  5
4F
 10
130.80097745
 20
14.40227422
 30
0.0
 11
130.80097745
 21
6.39786243
 31
0.0
  0
LINE
  8
0
  6
CENTER
 62
       2
  5
50
 10
130.80097745
 20
-47.59656198
 30
0.0
 11
130.80097745
 21
-55.60097377
 31
0.0
  0
LINE
  8
0
  6
CENTER
 62
       2
  5
51
 10
158.44872489
 20
-20.59934977
 30
0.0
 11
122.83976789
 21
-20.59934977
 31
0.0
  0
LINE
  8
0
  6
CENTER
 62
       2
  5
52
 10
149.49679439
 20
-0.60246237
 30
0.0
 11
132.3000369
 21
-0.60246237
 31
0.0
  0
LINE
  8
0
  6
CENTER
 62
       2
  5
53
 10
149.49679439
 20
-40.59623718
 30
0.0
 11
132.3000369
 21
-40.59623718
 31
0.0
  0
CIRCLE
  8
0
  6
PHANTOM
 62
       2
  5
54
 10
-10.12565338
 20
1.4055761
 30
0.0
 40
2.24999878
  0
CIRCLE
  8
0
  6
PHANTOM
 62
       2
  5
55
 10
16.87433735
 20
-30.59444009
 30
0.0
 40
2.24999878
  0
CIRCLE
  8
0
  6
PHANTOM
 62
       2
  5
56
 10
-141.12562674
 20
-10.59442458
 30
0.0
 40
6.57849924
  0
CIRCLE
  8
0
  6
PHANTOM
 62
       2
  5
57
 10
-141.12562674
 20
-30.59441851
 30
0.0
 40
6.57849924
  0
CIRCLE
  8
0
  6
PHANTOM
 62
       2
  5
58
 10
-141.12562674
 20
-10.59442458
 30
0.0
 40
5.72250002
  0
CIRCLE
  8
0
  6
PHANTOM
 62
       2
  5
59
 10
-141.12562674
 20
-30.59441851
 30
0.0
 40
5.72250002
  0
CIRCLE
  8
0
  6
PHANTOM
 62
       2
  5
5A
 10
140.80331316
 20
-40.59441278
 30
0.0
 40
6.57849924
  0
CIRCLE
  8
0
  6
PHANTOM
 62
       2
  5
5B
 10
140.80331316
 20
-40.59441278
 30
0.0
 40
5.72250002
  0
CIRCLE
  8
0
  6
PHANTOM
 62
       2
  5
5C
 10
140.80331316
 20
-0.59441682
 30
0.0
 40
6.57849924
  0
CIRCLE
  8
0
  6
PHANTOM
 62
       2
  5
5D
 10
140.80331316
 20
-0.59441682
 30
0.0
 40
5.72250002
  0
CIRCLE
  8
0
  6
PHANTOM
 62
       2
  5
5E
 10
145.80331703
 20
-20.59443233
 30
0.0
 40
6.57849924
  0
CIRCLE
  8
0
  6
PHANTOM
 62
       2
  5
5F
 10
145.80331703
 20
-20.59443233
 30
0.0
 40
5.72250002
  0
CIRCLE
  8
0
  6
PHANTOM
 62
       2
  5
60
 10
130.80332698
 20
10.40558739
 30
0.0
 40
2.49999924
  0
CIRCLE
  8
0
  6
PHANTOM
 62
       2
  5
61
 10
130.80332698
 20
-51.59441429
 30
0.0
 40
2.49999924
  0
CIRCLE
  8
0
  6
PHANTOM
 62
       2
  5
62
 10
130.80332698
 20
10.40558739
 30
0.0
 40
1.7499992
  0
CIRCLE
  8
0
  6
PHANTOM
 62
       2
  5
63
 10
130.80332698
 20
-51.59441429
 30
0.0
 40
1.7499992
  0
LINE
  8
0
  6
CONTINUOUS
 62
       7
  5
64
 10
10.86207923
 20
12.60623129
 30
0.0
 11
10.86207923
 21
22.604675
 31
0.0
  0
LINE
  8
0
  6
CONTINUOUS
 62
       7
  5
65
 10
-4.12851529
 20
12.60623129
 30
0.0
 11
-4.12851529
 21
22.604675
 31
0.0
  0
LINE
  8
0
  6
CONTINUOUS
 62
       7
  5
66
 10
11.37119376
 20
12.60623129
 30
0.0
 11
-4.63762982
 21
12.60623129
 31
0.0
  0
LINE
  8
0
  6
CONTINUOUS
 62
       7
  5
67
 10
-4.12851529
 20
22.604675
 30
0.0
 11
10.86207923
 21
22.604675
 31
0.0
  0
LINE
  8
0
  6
CENTER
 62
       2
  5
68
 10
0.36866306
 20
17.89536558
 30
0.0
 11
5.86992841
 21
17.89536558
 31
0.0
  0
CIRCLE
  8
0
  6
CONTINUOUS
 62
       7
  5
69
 10
3.37435277
 20
17.90557163
 30
0.0
 40
2.09999985
  0
LINE
  8
0
  6
CONTINUOUS
 62
       7
  5
6A
 10
-3.63354283
 20
12.60623129
 30
0.0
 11
-3.63354283
 21
20.10152855
 31
0.0
  0
LINE
  8
0
  6
CONTINUOUS
 62
       7
  5
6B
 10
10.36710677
 20
12.60623129
 30
0.0
 11
10.36710677
 21
20.10152855
 31
0.0
  0
LINE
  8
0
  6
CONTINUOUS
 62
       7
  5
6C
 10
9.87213431
 20
20.59650101
 30
0.0
 11
6.36490087
 21
20.59650101
 31
0.0
  0
ARC
  8
0
  6
CONTINUOUS
 62
       7
  5
6D
 10
3.36678197
 20
17.90557168
 30
0.0
 40
2.50316725
 50
180.23361107
 51
359.76638893
  0
LINE
  8
0
  6
CONTINUOUS
 62
       7
  5
6E
 10
0.86363552
 20
17.89536558
 30
0.0
 11
0.86363552
 21
20.10152855
 31
0.0
  0
LINE
  8
0
  6
CONTINUOUS
 62
       7
  5
6F
 10
5.86992841
 20
17.89536558
 30
0.0
 11
5.86992841
 21
20.10152855
 31
0.0
  0
ARC
  8
0
  6
CONTINUOUS
 62
       7
  5
70
 10
-3.13405646
 20
20.09701464
 30
0.0
 40
0.49950677
 50
90.51777454
 51
179.48222546
  0
ARC
  8
0
  6
CONTINUOUS
 62
       7
  5
71
 10
9.87526288
 20
20.10465713
 30
0.0
 40
0.49185383
 50
359.63555121
 51
90.36444879
  0
LINE
  8
0
  6
CONTINUOUS
 62
       7
  5
72
 10
0.36866306
 20
20.59650101
 30
0.0
 11
-3.13857037
 21
20.59650101
 31
0.0
  0
ARC
  8
0
  6
CONTINUOUS
 62
       7
  5
73
 10
0.37352801
 20
20.1063935
 30
0.0
 40
0.49013166
 50
359.43128421
 51
90.56871579
  0
ARC
  8
0
  6
CONTINUOUS
 62
       7
  5
74
 10
6.36765186
 20
20.09877756
 30
0.0
 40
0.49773106
 50
90.31667912
 51
179.68332088
  0
LINE
  8
0
  6
CONTINUOUS
 62
       7
  5
75
 10
12.36113868
 20
0.40162462
 30
0.0
 11
-5.62757474
 21
0.40162462
 31
0.0
  0
LINE
  8
0
  6
CONTINUOUS
 62
       7
  5
76
 10
-5.62757474
 20
-61.682064
 30
0.0
 11
-5.62757474
 21
11.6021443
 31
0.0
  0
LINE
  8
0
  6
CONTINUOUS
 62
       7
  5
77
 10
-5.62757474
 20
11.6021443
 30
0.0
 11
-4.63762982
 21
12.60623129
 31
0.0
  0
LINE
  8
0
  6
CONTINUOUS
 62
       7
  5
78
 10
12.36113868
 20
11.6021443
 30
0.0
 11
11.37119376
 21
12.60623129
 31
0.0
  0
LINE
  8
0
  6
CONTINUOUS
 62
       7
  5
79
 10
12.36113868
 20
-61.682064
 30
0.0
 11
12.36113868
 21
11.6021443
 31
0.0
  0
LINE
  8
0
  6
CENTER
 62
       2
  5
7A
 10
3.36678197
 20
-64.97716638
 30
0.0
 11
3.36678197
 21
81.80338127
 31
0.0
  0
LINE
  8
0
  6
CONTINUOUS
 62
       7
  5
7B
 10
-5.62757474
 20
-41.60032417
 30
0.0
 11
12.36113868
 21
-41.60032417
 31
0.0
  0
LINE
  8
0
  6
CENTER
 62
       2
  5
7C
 10
5.86992841
 20
-5.59461318
 30
0.0
 11
13.8743402
 21
-5.59461318
 31
0.0
  0
LINE
  8
0
  6
CENTER
 62
       2
  5
7D
 10
-7.1266342
 20
-35.60408636
 30
0.0
 11
0.86363552
 21
-35.60408636
 31
0.0
  0
LINE
  8
0
  6
CENTER
 62
       2
  5
7E
 10
-3.13857037
 20
-39.60629226
 30
0.0
 11
-3.13857037
 21
-31.60188047
 31
0.0
  0
LINE
  8
0
  6
CENTER
 62
       2
  5
7F
 10
9.87213431
 20
-9.59681908
 30
0.0
 11
9.87213431
 21
-1.60654936
 31
0.0
  0
CIRCLE
  8
0
  6
CONTINUOUS
 62
       7
  5
80
 10
-3.12565658
 20
-35.59442239
 30
0.0
 40
1.60000027
  0
ARC
  8
0
  6
CONTINUOUS
 62
       7
  5
81
 10
-3.1256436
 20
-35.60408636
 30
0.0
 40
2.99957233
 50
213.47818018
 51
146.52181982
  0
ARC
  8
0
  6
CONTINUOUS
 62
       7
  5
82
 10
9.87435484
 20
-5.60168422
 30
0.0
 40
2.99087251
 50
33.75123322
 51
326.24876678
  0
CIRCLE
  8
0
  6
CONTINUOUS
 62
       7
  5
83
 10
9.87436213
 20
-5.59444228
 30
0.0
 40
1.60000027
  0
LINE
  8
0
  6
CONTINUOUS
 62
       7
  5
84
 10
11.86616622
 20
-62.19117853
 30
0.0
 11
-5.13260228
 21
-62.19117853
 31
0.0
  0
LINE
  8
0
  6
CENTER
 62
       2
  5
85
 10
-2.62945584
 20
-63.18112345
 30
0.0
 11
-2.62945584
 21
-57.80713674
 31
0.0
  0
LINE
  8
0
  6
CONTINUOUS
 62
       7
  5
86
 10
0.56665205
 20
-61.682064
 30
0.0
 11
0.56665205
 21
-59.30619619
 31
0.0
  0
LINE
  8
0
  6
CONTINUOUS
 62
       7
  5
87
 10
0.07167959
 20
-58.79708166
 30
0.0
 11
-5.13260228
 21
-58.79708166
 31
0.0
  0
ARC
  8
0
  6
CONTINUOUS
 62
       7
  5
88
 10
11.86956414
 20
-61.69931319
 30
0.0
 40
0.49187708
 50
269.60419348
 51
2.00966543
  0
ARC
  8
0
  6
CONTINUOUS
 62
       7
  5
89
 10
-5.1282328
 20
-61.69176154
 30
0.0
 40
0.4994361
 50
178.88741845
 51
269.49872264
  0
ARC
  8
0
  6
CONTINUOUS
 62
       7
  5
8A
 10
0.07197064
 20
-59.29196757
 30
0.0
 40
0.494886
 50
358.35244432
 51
90.03369677
  0
ARC
  8
0
  6
CONTINUOUS
 62
       7
  5
8B
 10
-5.12528317
 20
-58.29479008
 30
0.0
 40
0.5023449
 50
180.83482324
 51
269.16517676
  0
ARC
  8
0
  6
CONTINUOUS
 62
       7
  5
8C
 10
1.06899394
 20
-61.68884492
 30
0.0
 40
0.50238766
 50
179.22663301
 51
269.15950808
  0
LINE
  8
0
  6
CONTINUOUS
 62
       7
  5
8D
 10
-5.42958576
 20
-59.97087349
 30
0.0
 11
-5.42958576
 21
-58.69808717
 31
0.0
  0
LINE
  8
0
  6
CONTINUOUS
 62
       7
  5
8E
 10
0.17067408
 20
-59.97087349
 30
0.0
 11
0.17067408
 21
-58.81122373
 31
0.0
  0
ARC
  8
0
  6
CONTINUOUS
 62
       7
  5
8F
 10
-2.62945584
 20
-56.19443235
 30
0.0
 40
5.00321874
 50
240.53923557
 51
299.46076443
  0
ARC
  8
0
  6
CONTINUOUS
 62
       7
  5
90
 10
-4.7584007
 20
-59.96723654
 30
0.0
 40
0.67119492
 50
180.31046596
 51
240.37603181
  0
ARC
  8
0
  6
CONTINUOUS
 62
       7
  5
91
 10
-0.49485142
 20
-59.97054945
 30
0.0
 40
0.66552558
 50
299.3413993
 51
359.97210293
  0
LINE
  8
0
  6
CONTINUOUS
 62
       7
  5
92
 10
8.86804731
 20
13.10120375
 30
0.0
 11
-2.13448338
 21
13.10120375
 31
0.0
  0
LINE
  8
0
  6
CONTINUOUS
 62
       7
  5
93
 10
8.86804731
 20
20.10152855
 30
0.0
 11
7.36898786
 21
20.10152855
 31
0.0
  0
LINE
  8
0
  6
CONTINUOUS
 62
       7
  5
94
 10
-3.13857037
 20
14.10529074
 30
0.0
 11
-3.13857037
 21
19.09744156
 31
0.0
  0
LINE
  8
0
  6
CONTINUOUS
 62
       7
  5
95
 10
9.87213431
 20
14.10529074
 30
0.0
 11
9.87213431
 21
19.09744156
 31
0.0
  0
ARC
  8
0
  6
CONTINUOUS
 62
       7
  5
96
 10
8.87105611
 20
14.10228194
 30
0.0
 40
1.00108271
 50
269.82779459
 51
0.17220541
  0
ARC
  8
0
  6
CONTINUOUS
 62
       7
  5
97
 10
8.87525604
 20
19.10465029
 30
0.0
 40
0.99690433
 50
359.58568419
 51
90.41431581
  0
ARC
  8
0
  6
CONTINUOUS
 62
       7
  5
98
 10
-2.12991758
 20
14.10985654
 30
0.0
 40
1.00866312
 50
180.25935494
 51
269.74064506
  0
ARC
  8
0
  6
CONTINUOUS
 62
       7
  5
99
 10
-2.13408588
 20
19.09704406
 30
0.0
 40
1.00448457
 50
90.02267353
 51
179.97732647
  0
ARC
  8
0
  6
CONTINUOUS
 62
       7
  5
9A
 10
3.36678197
 20
18.10556664
 30
0.0
 40
2.99814378
 50
180.23337851
 51
359.76662149
  0
LINE
  8
0
  6
CONTINUOUS
 62
       7
  5
9B
 10
0.36866306
 20
18.09335457
 30
0.0
 11
0.36866306
 21
19.09744156
 31
0.0
  0
LINE
  8
0
  6
CONTINUOUS
 62
       7
  5
9C
 10
6.36490087
 20
18.09335457
 30
0.0
 11
6.36490087
 21
19.09744156
 31
0.0
  0
ARC
  8
0
  6
CONTINUOUS
 62
       7
  5
9D
 10
7.36763594
 20
19.09879348
 30
0.0
 40
1.00273598
 50
89.92275204
 51
180.07724796
  0
LINE
  8
0
  6
CONTINUOUS
 62
       7
  5
9E
 10
-2.13448338
 20
20.10152855
 30
0.0
 11
-0.63542393
 21
20.10152855
 31
0.0
  0
ARC
  8
0
  6
CONTINUOUS
 62
       7
  5
9F
 10
-0.62647887
 20
19.10638662
 30
0.0
 40
0.99518214
 50
359.48499789
 51
90.51500211
  0
LINE
  8
0
  6
CONTINUOUS
 62
       7
  5
A0
 10
1.28789763
 20
17.59838211
 30
0.0
 11
5.4456663
 21
17.59838211
 31
0.0
  0
LINE
  8
0
  6
CONTINUOUS
 62
       7
  5
A1
 10
1.28789763
 20
18.19234906
 30
0.0
 11
5.4456663
 21
18.19234906
 31
0.0
  0
LINE
  8
0
  6
CONTINUOUS
 62
       7
  5
A2
 10
3.66376544
 20
15.81648125
 30
0.0
 11
3.66376544
 21
16.7922841
 31
0.0
  0
LINE
  8
0
  6
CONTINUOUS
 62
       7
  5
A3
 10
3.06979849
 20
15.81648125
 30
0.0
 11
3.06979849
 21
16.7922841
 31
0.0
  0
LINE
  8
0
  6
CONTINUOUS
 62
       7
  5
A4
 10
3.06979849
 20
16.7922841
 30
0.0
 11
3.66376544
 21
16.7922841
 31
0.0
  0
ARC
  8
0
  6
CONTINUOUS
 62
       7
  5
A5
 10
-1.63078843
 20
46.80428163
 30
0.0
 40
4.49468223
 50
96.43434675
 51
110.94575248
  0
ARC
  8
0
  6
CONTINUOUS
 62
       7
  5
A6
 10
-2.88216687
 20
50.06927325
 30
0.0
 40
0.99809703
 50
110.85937947
 51
148.42897044
  0
ARC
  8
0
  6
CONTINUOUS
 62
       7
  5
A7
 10
8.38449325
 20
46.80308595
 30
0.0
 40
4.49365847
 50
69.13113021
 51
83.82254849
  0
ARC
  8
0
  6
CONTINUOUS
 62
       7
  5
A8
 10
9.62191329
 20
50.07673487
 30
0.0
 40
0.98892795
 50
31.3902437
 51
69.32140638
  0
LINE
  8
0
  6
CONTINUOUS
 62
       7
  5
A9
 10
-0.73441842
 20
50.60597419
 30
0.0
 11
-0.73441842
 21
39.6034435
 31
0.0
  0
LINE
  8
0
  6
CONTINUOUS
 62
       7
  5
AA
 10
7.46798235
 20
50.60597419
 30
0.0
 11
7.46798235
 21
39.6034435
 31
0.0
  0
LINE
  8
0
  6
CONTINUOUS
 62
       7
  5
AB
 10
-0.73441842
 20
39.6034435
 30
0.0
 11
7.46798235
 21
39.6034435
 31
0.0
  0
LINE
  8
0
  6
CONTINUOUS
 62
       7
  5
AC
 10
-3.52040627
 20
36.69017701
 30
0.0
 11
-3.52040627
 21
50.09685966
 31
0.0
  0
LINE
  8
0
  6
CONTINUOUS
 62
       7
  5
AD
 10
10.2539702
 20
36.69017701
 30
0.0
 11
10.2539702
 21
50.09685966
 31
0.0
  0
LINE
  8
0
  6
CONTINUOUS
 62
       7
  5
AE
 10
7.46798235
 20
41.49848092
 30
0.0
 11
7.36898786
 21
41.49848092
 31
0.0
  0
LINE
  8
0
  6
CONTINUOUS
 62
       7
  5
AF
 10
7.46798235
 20
42.79955138
 30
0.0
 11
7.36898786
 21
42.79955138
 31
0.0
  0
LINE
  8
0
  6
CONTINUOUS
 62
       7
  5
B0
 10
-0.63542393
 20
42.79955138
 30
0.0
 11
-0.73441842
 21
42.79955138
 31
0.0
  0
LINE
  8
0
  6
CONTINUOUS
 62
       7
  5
B1
 10
10.01355501
 20
35.10626514
 30
0.0
 11
-3.27999107
 21
35.10626514
 31
0.0
  0
LINE
  8
0
  6
CONTINUOUS
 62
       7
  5
B2
 10
10.36710677
 20
50.60597419
 30
0.0
 11
7.36898786
 21
50.60597419
 31
0.0
  0
LINE
  8
0
  6
CONTINUOUS
 62
       7
  5
B3
 10
10.86207923
 20
23.09964746
 30
0.0
 11
10.86207923
 21
50.09685966
 31
0.0
  0
LINE
  8
0
  6
CONTINUOUS
 62
       7
  5
B4
 10
-4.12851529
 20
23.09964746
 30
0.0
 11
-4.12851529
 21
50.09685966
 31
0.0
  0
LINE
  8
0
  6
CONTINUOUS
 62
       7
  5
B5
 10
-2.13448338
 20
34.10217815
 30
0.0
 11
8.86804731
 21
34.10217815
 31
0.0
  0
LINE
  8
0
  6
CONTINUOUS
 62
       7
  5
B6
 10
8.86804731
 20
34.10217815
 30
0.0
 11
8.86804731
 21
25.09367937
 31
0.0
  0
LINE
  8
0
  6
CONTINUOUS
 62
       7
  5
B7
 10
-2.13448338
 20
34.10217815
 30
0.0
 11
-2.13448338
 21
25.09367937
 31
0.0
  0
LINE
  8
0
  6
CONTINUOUS
 62
       7
  5
B8
 10
-2.13448338
 20
25.09367937
 30
0.0
 11
8.86804731
 21
25.09367937
 31
0.0
  0
LINE
  8
0
  6
CONTINUOUS
 62
       7
  5
B9
 10
10.01355501
 20
24.06130824
 30
0.0
 11
-3.27999107
 21
24.06130824
 31
0.0
  0
LINE
  8
0
  6
CONTINUOUS
 62
       7
  5
BA
 10
9.75899774
 20
36.19520455
 30
0.0
 11
-3.02543381
 21
36.19520455
 31
0.0
  0
LINE
  8
0
  6
CONTINUOUS
 62
       7
  5
BB
 10
10.52266954
 20
24.5562807
 30
0.0
 11
10.52266954
 21
35.38910655
 31
0.0
  0
LINE
  8
0
  6
CONTINUOUS
 62
       7
  5
BC
 10
7.46798235
 20
40.59338842
 30
0.0
 11
7.36898786
 21
40.59338842
 31
0.0
  0
LINE
  8
0
  6
CONTINUOUS
 62
       2
  5
BD
 10
10.14083364
 20
36.19520455
 30
0.0
 11
10.29639641
 21
35.54466932
 31
0.0
  0
LINE
  8
0
  6
CONTINUOUS
 62
       2
  5
BE
 10
-3.40726971
 20
36.19520455
 30
0.0
 11
-3.56283248
 21
35.54466932
 31
0.0
  0
LINE
  8
0
  6
CONTINUOUS
 62
       2
  5
BF
 10
10.40953298
 20
24.06130824
 30
0.0
 11
10.64994817
 21
23.04307917
 31
0.0
  0
LINE
  8
0
  6
CONTINUOUS
 62
       2
  5
C0
 10
-3.67596904
 20
24.06130824
 30
0.0
 11
-3.91638424
 21
23.04307917
 31
0.0
  0
LINE
  8
0
  6
CONTINUOUS
 62
       7
  5
C1
 10
10.52266954
 20
35.38910655
 30
0.0
 11
10.36710677
 21
35.24768584
 31
0.0
  0
LINE
  8
0
  6
CONTINUOUS
 62
       7
  5
C2
 10
-3.78910561
 20
24.5562807
 30
0.0
 11
-3.78910561
 21
35.38910655
 31
0.0
  0
LINE
  8
0
  6
CONTINUOUS
 62
       7
  5
C3
 10
-3.78910561
 20
35.38910655
 30
0.0
 11
-3.63354283
 21
35.24768584
 31
0.0
  0
LINE
  8
0
  6
CONTINUOUS
 62
       2
  5
C4
 10
10.57923782
 20
50.45041142
 30
0.0
 11
10.2539702
 21
50.45041142
 31
0.0
  0
LINE
  8
0
  6
CONTINUOUS
 62
       2
  5
C5
 10
-3.84567389
 20
50.45041142
 30
0.0
 11
-3.52040627
 21
50.45041142
 31
0.0
  0
ARC
  8
0
  6
CONTINUOUS
 62
       7
  5
C6
 10
-3.01652743
 20
50.10214633
 30
0.0
 40
0.50390657
 50
91.01273651
 51
180.6011224
  0
ARC
  8
0
  6
CONTINUOUS
 62
       7
  5
C7
 10
9.75786974
 20
50.10970865
 30
0.0
 40
0.49626683
 50
358.51637278
 51
89.86976831
  0
ARC
  8
0
  6
CONTINUOUS
 62
       7
  5
C8
 10
-3.62685965
 20
50.10430777
 30
0.0
 40
0.50171093
 50
90.76324732
 51
180.8506116
  0
ARC
  8
0
  6
CONTINUOUS
 62
       7
  5
C9
 10
-3.01567314
 20
36.69993768
 30
0.0
 40
0.5048275
 50
181.10786341
 51
268.89213659
  0
ARC
  8
0
  6
CONTINUOUS
 62
       7
  5
CA
 10
10.023401
 20
24.56049749
 30
0.0
 40
0.49928635
 50
268.87004645
 51
359.51609464
  0
ARC
  8
0
  6
CONTINUOUS
 62
       7
  5
CB
 10
-3.28243649
 20
24.56810951
 30
0.0
 40
0.50680718
 50
181.33739787
 51
270.27646104
  0
ARC
  8
0
  6
CONTINUOUS
 62
       7
  5
CC
 10
-3.62663093
 20
23.10655936
 30
0.0
 40
0.50193196
 50
180.78902215
 51
269.21097785
  0
ARC
  8
0
  6
CONTINUOUS
 62
       7
  5
CD
 10
10.36816999
 20
50.111839
 30
0.0
 40
0.49413633
 50
358.2628587
 51
90.12328239
  0
ARC
  8
0
  6
CONTINUOUS
 62
       7
  5
CE
 10
9.75678745
 20
36.69238731
 30
0.0
 40
0.49718767
 50
270.25471484
 51
359.74528516
  0
ARC
  8
0
  6
CONTINUOUS
 62
       7
  5
CF
 10
10.36772288
 20
23.09903135
 30
0.0
 40
0.49435673
 50
269.92859306
 51
0.07140694
  0
ARC
  8
0
  6
CONTINUOUS
 62
       7
  5
D0
 10
10.01964779
 20
35.60368323
 30
0.0
 40
0.4974554
 50
269.29822928
 51
314.30458969
  0
ARC
  8
0
  6
CONTINUOUS
 62
       7
  5
D1
 10
-3.28397699
 20
35.6089504
 30
0.0
 40
0.50270106
 50
225.94287813
 51
270.45430289
  0
LINE
  8
0
  6
CONTINUOUS
 62
       7
  5
D2
 10
-2.13448338
 20
58.7942329
 30
0.0
 11
8.86804731
 21
58.7942329
 31
0.0
  0
LINE
  8
0
  6
CONTINUOUS
 62
       7
  5
D3
 10
-2.13448338
 20
50.60597419
 30
0.0
 11
-2.13448338
 21
58.7942329
 31
0.0
  0
LINE
  8
0
  6
CONTINUOUS
 62
       7
  5
D4
 10
8.86804731
 20
50.60597419
 30
0.0
 11
8.86804731
 21
58.7942329
 31
0.0
  0
LINE
  8
0
  6
CONTINUOUS
 62
       7
  5
D5
 10
-0.63542393
 20
39.80143248
 30
0.0
 11
7.36898786
 21
39.80143248
 31
0.0
  0
LINE
  8
0
  6
CONTINUOUS
 62
       7
  5
D6
 10
7.36898786
 20
39.80143248
 30
0.0
 11
7.36898786
 21
58.7942329
 31
0.0
  0
LINE
  8
0
  6
CONTINUOUS
 62
       7
  5
D7
 10
-0.63542393
 20
39.80143248
 30
0.0
 11
-0.63542393
 21
58.7942329
 31
0.0
  0
LINE
  8
0
  6
CONTINUOUS
 62
       7
  5
D8
 10
7.36898786
 20
43.80363838
 30
0.0
 11
7.46798235
 21
43.80363838
 31
0.0
  0
LINE
  8
0
  6
CONTINUOUS
 62
       7
  5
D9
 10
-0.73441842
 20
43.80363838
 30
0.0
 11
-0.63542393
 21
43.80363838
 31
0.0
  0
LINE
  8
0
  6
CONTINUOUS
 62
       7
  5
DA
 10
-0.63542393
 20
51.12923079
 30
0.0
 11
7.36898786
 21
51.12923079
 31
0.0
  0
LINE
  8
0
  6
CONTINUOUS
 62
       7
  5
DB
 10
-0.63542393
 20
56.80020098
 30
0.0
 11
7.36898786
 21
56.80020098
 31
0.0
  0
LINE
  8
0
  6
CONTINUOUS
 62
       7
  5
DC
 10
-0.63542393
 20
50.60597419
 30
0.0
 11
-3.63354283
 21
50.60597419
 31
0.0
  0
LINE
  8
0
  6
CONTINUOUS
 62
       7
  5
DD
 10
-0.63542393
 20
41.49848092
 30
0.0
 11
-0.73441842
 21
41.49848092
 31
0.0
  0
LINE
  8
0
  6
CONTINUOUS
 62
       7
  5
DE
 10
-0.63542393
 20
40.59338842
 30
0.0
 11
-0.73441842
 21
40.59338842
 31
0.0
  0
LINE
  8
0
  6
CENTER
 62
       2
  5
DF
 10
0.86363552
 20
55.79611399
 30
0.0
 11
0.86363552
 21
81.80338127
 31
0.0
  0
LINE
  8
0
  6
CONTINUOUS
 62
       7
  5
E0
 10
1.71215974
 20
58.7942329
 30
0.0
 11
1.71215974
 21
63.80052578
 31
0.0
  0
LINE
  8
0
  6
CONTINUOUS
 62
       7
  5
E1
 10
0.01511131
 20
58.7942329
 30
0.0
 11
0.01511131
 21
64.25307203
 31
0.0
  0
LINE
  8
0
  6
CONTINUOUS
 62
       7
  5
E2
 10
0.55250998
 20
68.7926766
 30
0.0
 11
0.55250998
 21
78.80526237
 31
0.0
  0
LINE
  8
0
  6
CONTINUOUS
 62
       7
  5
E3
 10
1.18890314
 20
68.7926766
 30
0.0
 11
1.18890314
 21
78.80526237
 31
0.0
  0
LINE
  8
0
  6
CONTINUOUS
 62
       7
  5
E4
 10
0.01511131
 20
68.7926766
 30
0.0
 11
1.71215974
 21
68.7926766
 31
0.0
  0
LINE
  8
0
  6
CONTINUOUS
 62
       7
  5
E5
 10
0.55250998
 20
78.80526237
 30
0.0
 11
1.18890314
 21
78.80526237
 31
0.0
  0
LINE
  8
0
  6
CONTINUOUS
 62
       2
  5
E6
 10
8.71248454
 20
63.47525816
 30
0.0
 11
-1.97892061
 21
66.34609844
 31
0.0
  0
LINE
  8
0
  6
CONTINUOUS
 62
       2
  5
E7
 10
8.71248454
 20
61.91963043
 30
0.0
 11
-1.97892061
 21
64.7904707
 31
0.0
  0
LINE
  8
0
  6
CONTINUOUS
 62
       7
  5
E8
 10
0.01511131
 20
65.80869976
 30
0.0
 11
0.01511131
 21
68.7926766
 31
0.0
  0
LINE
  8
0
  6
CONTINUOUS
 62
       7
  5
E9
 10
1.71215974
 20
65.34201144
 30
0.0
 11
1.71215974
 21
68.7926766
 31
0.0
  0
LINE
  8
0
  6
CONTINUOUS
 62
       7
  5
EA
 10
4.21530618
 20
58.7942329
 30
0.0
 11
4.21530618
 21
63.12170641
 31
0.0
  0
LINE
  8
0
  6
CONTINUOUS
 62
       7
  5
EB
 10
2.51825775
 20
58.7942329
 30
0.0
 11
2.51825775
 21
63.57425266
 31
0.0
  0
LINE
  8
0
  6
CONTINUOUS
 62
       7
  5
EC
 10
3.04151435
 20
68.7926766
 30
0.0
 11
3.04151435
 21
78.80526237
 31
0.0
  0
LINE
  8
0
  6
CONTINUOUS
 62
       7
  5
ED
 10
3.69204958
 20
68.7926766
 30
0.0
 11
3.69204958
 21
78.80526237
 31
0.0
  0
LINE
  8
0
  6
CONTINUOUS
 62
       7
  5
EE
 10
2.51825775
 20
68.7926766
 30
0.0
 11
4.21530618
 21
68.7926766
 31
0.0
  0
LINE
  8
0
  6
CONTINUOUS
 62
       7
  5
EF
 10
3.04151435
 20
78.80526237
 30
0.0
 11
3.69204958
 21
78.80526237
 31
0.0
  0
LINE
  8
0
  6
CONTINUOUS
 62
       7
  5
F0
 10
2.51825775
 20
65.12988039
 30
0.0
 11
2.51825775
 21
68.7926766
 31
0.0
  0
LINE
  8
0
  6
CONTINUOUS
 62
       7
  5
F1
 10
4.21530618
 20
64.67733414
 30
0.0
 11
4.21530618
 21
68.7926766
 31
0.0
  0
LINE
  8
0
  6
CENTER
 62
       2
  5
F2
 10
5.86992841
 20
55.79611399
 30
0.0
 11
5.86992841
 21
81.80338127
 31
0.0
  0
LINE
  8
0
  6
CONTINUOUS
 62
       7
  5
F3
 10
6.71845263
 20
58.7942329
 30
0.0
 11
6.71845263
 21
62.4570291
 31
0.0
  0
LINE
  8
0
  6
CONTINUOUS
 62
       7
  5
F4
 10
5.02140419
 20
58.7942329
 30
0.0
 11
5.02140419
 21
62.90957535
 31
0.0
  0
LINE
  8
0
  6
CONTINUOUS
 62
       7
  5
F5
 10
5.54466079
 20
68.7926766
 30
0.0
 11
5.54466079
 21
78.80526237
 31
0.0
  0
LINE
  8
0
  6
CONTINUOUS
 62
       7
  5
F6
 10
6.18105396
 20
68.7926766
 30
0.0
 11
6.18105396
 21
78.80526237
 31
0.0
  0
LINE
  8
0
  6
CONTINUOUS
 62
       7
  5
F7
 10
5.02140419
 20
68.7926766
 30
0.0
 11
6.71845263
 21
68.7926766
 31
0.0
  0
LINE
  8
0
  6
CONTINUOUS
 62
       7
  5
F8
 10
5.54466079
 20
78.80526237
 30
0.0
 11
6.18105396
 21
78.80526237
 31
0.0
  0
LINE
  8
0
  6
CONTINUOUS
 62
       7
  5
F9
 10
5.02140419
 20
64.46520309
 30
0.0
 11
5.02140419
 21
68.7926766
 31
0.0
  0
LINE
  8
0
  6
CONTINUOUS
 62
       7
  5
FA
 10
6.71845263
 20
64.01265684
 30
0.0
 11
6.71845263
 21
68.7926766
 31
0.0
  0
LINE
  8
0
  6
CONTINUOUS
 62
       2
  5
FB
 10
8.61349005
 20
33.35264842
 30
0.0
 11
8.61349005
 21
25.84320909
 31
0.0
  0
LINE
  8
0
  6
CONTINUOUS
 62
       2
  5
FC
 10
-1.87992611
 20
33.35264842
 30
0.0
 11
-1.87992611
 21
25.84320909
 31
0.0
  0
LINE
  8
0
  6
CONTINUOUS
 62
       2
  5
FD
 10
-1.38495365
 20
33.84762088
 30
0.0
 11
8.11851759
 21
33.84762088
 31
0.0
  0
LINE
  8
0
  6
CONTINUOUS
 62
       2
  5
FE
 10
-1.38495365
 20
25.34823663
 30
0.0
 11
8.11851759
 21
25.34823663
 31
0.0
  0
LINE
  8
0
  6
CONTINUOUS
 62
       7
  5
FF
 10
-0.63542393
 20
29.35044253
 30
0.0
 11
2.87180951
 21
29.35044253
 31
0.0
  0
LINE
  8
0
  6
CONTINUOUS
 62
       7
  5
100
 10
-0.63542393
 20
31.34447444
 30
0.0
 11
-0.63542393
 21
29.35044253
 31
0.0
  0
LINE
  8
0
  6
CONTINUOUS
 62
       7
  5
101
 10
-0.63542393
 20
31.34447444
 30
0.0
 11
2.87180951
 21
31.34447444
 31
0.0
  0
LINE
  8
0
  6
CONTINUOUS
 62
       7
  5
102
 10
2.87180951
 20
31.34447444
 30
0.0
 11
2.87180951
 21
29.35044253
 31
0.0
  0
LINE
  8
0
  6
CONTINUOUS
 62
       7
  5
103
 10
3.86175443
 20
29.35044253
 30
0.0
 11
7.36898786
 21
29.35044253
 31
0.0
  0
LINE
  8
0
  6
CONTINUOUS
 62
       7
  5
104
 10
3.86175443
 20
31.34447444
 30
0.0
 11
3.86175443
 21
29.35044253
 31
0.0
  0
LINE
  8
0
  6
CONTINUOUS
 62
       7
  5
105
 10
3.86175443
 20
31.34447444
 30
0.0
 11
7.36898786
 21
31.34447444
 31
0.0
  0
LINE
  8
0
  6
CONTINUOUS
 62
       7
  5
106
 10
7.36898786
 20
31.34447444
 30
0.0
 11
7.36898786
 21
29.35044253
 31
0.0
  0
ARC
  8
0
  6
CONTINUOUS
 62
       2
  5
107
 10
8.12288905
 20
33.35701989
 30
0.0
 40
0.49062047
 50
359.48948396
 51
90.51051604
  0
ARC
  8
0
  6
CONTINUOUS
 62
       2
  5
108
 10
8.11517806
 20
25.84654863
 30
0.0
 40
0.49832318
 50
270.38397276
 51
359.61602724
  0
ARC
  8
0
  6
CONTINUOUS
 62
       2
  5
109
 10
-1.38171892
 20
33.34941369
 30
0.0
 40
0.4982177
 50
90.37200188
 51
179.62799812
  0
ARC
  8
0
  6
CONTINUOUS
 62
       2
  5
10A
 10
-1.37412463
 20
25.85403812
 30
0.0
 40
0.50591739
 50
181.22649412
 51
268.77350588
  0
LINE
  8
0
  6
CONTINUOUS
 62
       7
  5
10B
 10
-120.1233999
 20
0.40162462
 30
0.0
 11
-90.11392672
 21
0.40162462
 31
0.0
  0
LINE
  8
0
  6
CONTINUOUS
 62
       7
  5
10C
 10
-120.1233999
 20
12.60623129
 30
0.0
 11
-90.11392672
 21
12.60623129
 31
0.0
  0
LINE
  8
0
  6
CONTINUOUS
 62
       7
  5
10D
 10
-94.11613261
 20
-33.94946414
 30
0.0
 11
-94.11613261
 21
-37.25870859
 31
0.0
  0
LINE
  8
0
  6
CONTINUOUS
 62
       7
  5
10E
 10
-94.11613261
 20
-37.25870859
 30
0.0
 11
-90.11392672
 21
-37.25870859
 31
0.0
  0
LINE
  8
0
  6
CONTINUOUS
 62
       7
  5
10F
 10
-94.11613261
 20
-33.94946414
 30
0.0
 11
-90.11392672
 21
-33.94946414
 31
0.0
  0
LINE
  8
0
  6
CONTINUOUS
 62
       7
  5
110
 10
-120.1233999
 20
6.89283489
 30
0.0
 11
-120.1233999
 21
0.40162462
 31
0.0
  0
LINE
  8
0
  6
CONTINUOUS
 62
       7
  5
111
 10
94.79526646
 20
22.604675
 30
0.0
 11
94.79526646
 21
-61.682064
 31
0.0
  0
LINE
  8
0
  6
CONTINUOUS
 62
       7
  5
112
 10
124.80473964
 20
0.40162462
 30
0.0
 11
94.79526646
 21
0.40162462
 31
0.0
  0
LINE
  8
0
  6
CONTINUOUS
 62
       7
  5
113
 10
124.80473964
 20
12.60623129
 30
0.0
 11
94.79526646
 21
12.60623129
 31
0.0
  0
LINE
  8
0
  6
CONTINUOUS
 62
       7
  5
114
 10
98.79747236
 20
-3.93999096
 30
0.0
 11
98.79747236
 21
-7.26337748
 31
0.0
  0
LINE
  8
0
  6
CONTINUOUS
 62
       7
  5
115
 10
98.79747236
 20
-7.26337748
 30
0.0
 11
94.79526646
 21
-7.26337748
 31
0.0
  0
LINE
  8
0
  6
CONTINUOUS
 62
       7
  5
116
 10
98.79747236
 20
-3.93999096
 30
0.0
 11
94.79526646
 21
-3.93999096
 31
0.0
  0
LINE
  8
0
  6
CONTINUOUS
 62
       7
  5
117
 10
124.80473964
 20
-41.60032417
 30
0.0
 11
124.80473964
 21
-48.10567651
 31
0.0
  0
LINE
  8
0
  6
CONTINUOUS
 62
       7
  5
118
 10
124.80473964
 20
6.89283489
 30
0.0
 11
124.80473964
 21
0.40162462
 31
0.0
  0
LINE
  8
0
  6
CONTINUOUS
 62
       7
  5
119
 10
91.79714756
 20
22.604675
 30
0.0
 11
124.80473964
 21
22.604675
 31
0.0
  0
LINE
  8
0
  6
CONTINUOUS
 62
       7
  5
11A
 10
93.79117947
 20
47.59371322
 30
0.0
 11
124.80473964
 21
47.59371322
 31
0.0
  0
LINE
  8
0
  6
CONTINUOUS
 62
       7
  5
11B
 10
91.79714756
 20
22.604675
 30
0.0
 11
88.12020928
 21
23.9340296
 31
0.0
  0
LINE
  8
0
  6
CONTINUOUS
 62
       7
  5
11C
 10
87.79494166
 20
24.40071792
 30
0.0
 11
87.79494166
 21
35.10626514
 31
0.0
  0
LINE
  8
0
  6
CONTINUOUS
 62
       7
  5
11D
 10
87.79494166
 20
35.10626514
 30
0.0
 11
84.13214546
 21
36.43561975
 31
0.0
  0
LINE
  8
0
  6
CONTINUOUS
 62
       7
  5
11E
 10
91.79714756
 20
22.604675
 30
0.0
 11
91.79714756
 21
50.60597419
 31
0.0
  0
ARC
  8
0
  6
CONTINUOUS
 62
       7
  5
11F
 10
88.30483822
 20
24.40940538
 30
0.0
 40
0.50997056
 50
180.97609242
 51
248.77456427
  0
LINE
  8
0
  6
CONTINUOUS
 62
       7
  5
120
 10
82.80279085
 20
56.80020098
 30
0.0
 11
82.80279085
 21
58.7942329
 31
0.0
  0
LINE
  8
0
  6
CONTINUOUS
 62
       7
  5
121
 10
90.79306057
 20
57.29517344
 30
0.0
 11
90.79306057
 21
58.7942329
 31
0.0
  0
LINE
  8
0
  6
CONTINUOUS
 62
       7
  5
122
 10
82.80279085
 20
58.7942329
 30
0.0
 11
83.79273577
 21
58.7942329
 31
0.0
  0
LINE
  8
0
  6
CONTINUOUS
 62
       7
  5
123
 10
89.80311565
 20
50.80396318
 30
0.0
 11
89.80311565
 21
57.29517344
 31
0.0
  0
LINE
  8
0
  6
CONTINUOUS
 62
       7
  5
124
 10
83.79273577
 20
36.90230807
 30
0.0
 11
83.79273577
 21
51.12923079
 31
0.0
  0
LINE
  8
0
  6
CONTINUOUS
 62
       7
  5
125
 10
85.50392627
 20
58.49724942
 30
0.0
 11
85.80090975
 21
58.7942329
 31
0.0
  0
LINE
  8
0
  6
CONTINUOUS
 62
       7
  5
126
 10
85.80090975
 20
58.7942329
 30
0.0
 11
90.79306057
 21
58.7942329
 31
0.0
  0
LINE
  8
0
  6
CONTINUOUS
 62
       7
  5
127
 10
85.50392627
 20
52.6000061
 30
0.0
 11
85.50392627
 21
58.49724942
 31
0.0
  0
LINE
  8
0
  6
CONTINUOUS
 62
       7
  5
128
 10
85.80090975
 20
52.30302263
 30
0.0
 11
85.50392627
 21
52.6000061
 31
0.0
  0
LINE
  8
0
  6
CONTINUOUS
 62
       7
  5
129
 10
85.80090975
 20
51.29893564
 30
0.0
 11
85.80090975
 21
52.30302263
 31
0.0
  0
LINE
  8
0
  6
CONTINUOUS
 62
       7
  5
12A
 10
83.79273577
 20
51.12923079
 30
0.0
 11
82.80279085
 21
56.80020098
 31
0.0
  0
LINE
  8
0
  6
CONTINUOUS
 62
       7
  5
12B
 10
84.79682276
 20
52.13331778
 30
0.0
 11
83.79273577
 21
57.80428797
 31
0.0
  0
LINE
  8
0
  6
CONTINUOUS
 62
       7
  5
12C
 10
83.79273577
 20
57.80428797
 30
0.0
 11
83.79273577
 21
58.7942329
 31
0.0
  0
LINE
  8
0
  6
CONTINUOUS
 62
       7
  5
12D
 10
89.80311565
 20
57.29517344
 30
0.0
 11
90.79306057
 21
57.29517344
 31
0.0
  0
LINE
  8
0
  6
CONTINUOUS
 62
       7
  5
12E
 10
89.80311565
 20
50.80396318
 30
0.0
 11
90.79306057
 21
50.80396318
 31
0.0
  0
LINE
  8
0
  6
CONTINUOUS
 62
       7
  5
12F
 10
90.79306057
 20
50.60597419
 30
0.0
 11
90.79306057
 21
50.80396318
 31
0.0
  0
LINE
  8
0
  6
CONTINUOUS
 62
       7
  5
130
 10
86.35245049
 20
50.60597419
 30
0.0
 11
86.35245049
 21
58.7942329
 31
0.0
  0
LINE
  8
0
  6
CONTINUOUS
 62
       7
  5
131
 10
88.24748791
 20
50.60597419
 30
0.0
 11
88.24748791
 21
58.7942329
 31
0.0
  0
LINE
  8
0
  6
CONTINUOUS
 62
       7
  5
132
 10
86.15446151
 20
54.49504352
 30
0.0
 11
86.15446151
 21
58.7942329
 31
0.0
  0
LINE
  8
0
  6
CONTINUOUS
 62
       7
  5
133
 10
88.4454769
 20
51.19994114
 30
0.0
 11
88.4454769
 21
58.7942329
 31
0.0
  0
LINE
  8
0
  6
CONTINUOUS
 62
       7
  5
134
 10
86.35245049
 20
54.29705454
 30
0.0
 11
86.15446151
 21
54.49504352
 31
0.0
  0
LINE
  8
0
  6
CONTINUOUS
 62
       7
  5
135
 10
88.24748791
 20
51.00195216
 30
0.0
 11
88.4454769
 21
51.19994114
 31
0.0
  0
LINE
  8
0
  6
CONTINUOUS
 62
       7
  5
136
 10
84.79682276
 20
51.29893564
 30
0.0
 11
84.79682276
 21
52.13331778
 31
0.0
  0
ARC
  8
0
  6
CONTINUOUS
 62
       7
  5
137
 10
85.29886626
 20
51.30561764
 30
0.0
 40
0.50208796
 50
180.76253961
 51
359.23746039
  0
LINE
  8
0
  6
CONTINUOUS
 62
       7
  5
138
 10
124.80473964
 20
47.59371322
 30
0.0
 11
124.80473964
 21
14.10529074
 31
0.0
  0
LINE
  8
0
  6
CONTINUOUS
 62
       7
  5
139
 10
124.80473964
 20
47.59371322
 30
0.0
 11
124.80473964
 21
50.09685966
 31
0.0
  0
ARC
  8
0
  6
CONTINUOUS
 62
       7
  5
13A
 10
124.30526807
 20
50.10315982
 30
0.0
 40
0.4995113
 50
359.27732902
 51
78.04228748
  0
LINE
  8
0
  6
CONTINUOUS
 62
       7
  5
13B
 10
93.79117947
 20
22.604675
 30
0.0
 11
93.79117947
 21
50.60597419
 31
0.0
  0
LINE
  8
0
  6
CENTER
 62
       2
  5
13C
 10
87.2999692
 20
55.79611399
 30
0.0
 11
87.2999692
 21
81.80338127
 31
0.0
  0
LINE
  8
0
  6
CONTINUOUS
 62
       7
  5
13D
 10
88.14849342
 20
58.7942329
 30
0.0
 11
88.14849342
 21
62.79643879
 31
0.0
  0
LINE
  8
0
  6
CONTINUOUS
 62
       7
  5
13E
 10
86.45144498
 20
58.7942329
 30
0.0
 11
86.45144498
 21
63.24898504
 31
0.0
  0
LINE
  8
0
  6
CONTINUOUS
 62
       7
  5
13F
 10
86.97470159
 20
68.7926766
 30
0.0
 11
86.97470159
 21
78.80526237
 31
0.0
  0
LINE
  8
0
  6
CONTINUOUS
 62
       7
  5
140
 10
87.61109475
 20
68.7926766
 30
0.0
 11
87.61109475
 21
78.80526237
 31
0.0
  0
LINE
  8
0
  6
CONTINUOUS
 62
       7
  5
141
 10
86.45144498
 20
68.7926766
 30
0.0
 11
88.14849342
 21
68.7926766
 31
0.0
  0
LINE
  8
0
  6
CONTINUOUS
 62
       7
  5
142
 10
86.97470159
 20
78.80526237
 30
0.0
 11
87.61109475
 21
78.80526237
 31
0.0
  0
LINE
  8
0
  6
CONTINUOUS
 62
       2
  5
143
 10
90.14252533
 20
63.81466785
 30
0.0
 11
84.443271
 21
65.34201144
 31
0.0
  0
LINE
  8
0
  6
CONTINUOUS
 62
       2
  5
144
 10
90.14252533
 20
62.25904012
 30
0.0
 11
84.443271
 21
63.78638371
 31
0.0
  0
LINE
  8
0
  6
CONTINUOUS
 62
       7
  5
145
 10
86.45144498
 20
64.80461277
 30
0.0
 11
86.45144498
 21
68.7926766
 31
0.0
  0
LINE
  8
0
  6
CONTINUOUS
 62
       7
  5
146
 10
88.14849342
 20
64.35206652
 30
0.0
 11
88.14849342
 21
68.7926766
 31
0.0
  0
ARC
  8
0
  6
CONTINUOUS
 62
       7
  5
147
 10
124.30888538
 20
48.30011177
 30
0.0
 40
0.49585476
 50
0.08145814
 51
91.53240077
  0
LINE
  8
0
  6
CONTINUOUS
 62
       7
  5
148
 10
124.55018238
 20
49.6018872
 30
0.0
 11
120.29341922
 21
49.6018872
 31
0.0
  0
LINE
  8
0
  6
CONTINUOUS
 62
       7
  5
149
 10
124.55018238
 20
48.79578919
 30
0.0
 11
124.55018238
 21
50.06857552
 31
0.0
  0
ARC
  8
0
  6
CONTINUOUS
 62
       7
  5
14A
 10
122.29452216
 20
46.8055497
 30
0.0
 40
4.49290773
 50
69.06813511
 51
110.93186489
  0
ARC
  8
0
  6
CONTINUOUS
 62
       7
  5
14B
 10
123.55967243
 20
50.069637
 30
0.0
 40
0.99236806
 50
32.71509253
 51
69.96529096
  0
ARC
  8
0
  6
CONTINUOUS
 62
       7
  5
14C
 10
121.03004364
 20
50.06402503
 30
0.0
 40
0.99787139
 50
109.96055325
 51
117.9644247
  0
LINE
  8
0
  6
CENTER
 62
       2
  5
14D
 10
122.3015932
 20
47.80584427
 30
0.0
 11
122.3015932
 21
52.30302263
 31
0.0
  0
LINE
  8
0
  6
CONTINUOUS
 62
       7
  5
14E
 10
120.29341922
 20
48.79578919
 30
0.0
 11
124.55018238
 21
48.79578919
 31
0.0
  0
LINE
  8
0
  6
CONTINUOUS
 62
       7
  5
14F
 10
119.79844675
 20
50.60597419
 30
0.0
 11
84.3018503
 21
50.60597419
 31
0.0
  0
ARC
  8
0
  6
CONTINUOUS
 62
       7
  5
150
 10
97.29841291
 20
46.80555528
 30
0.0
 40
4.49543354
 50
68.98393454
 51
111.01606546
  0
ARC
  8
0
  6
CONTINUOUS
 62
       7
  5
151
 10
96.04917236
 20
50.0712988
 30
0.0
 40
0.9989256
 50
111.30581874
 51
147.63910096
  0
ARC
  8
0
  6
CONTINUOUS
 62
       7
  5
152
 10
98.55163256
 20
50.07613058
 30
0.0
 40
0.99298018
 50
32.24829294
 51
68.80678736
  0
LINE
  8
0
  6
CENTER
 62
       2
  5
153
 10
97.29841291
 20
47.80584427
 30
0.0
 11
97.29841291
 21
52.30302263
 31
0.0
  0
LINE
  8
0
  6
CONTINUOUS
 62
       7
  5
154
 10
120.29341922
 20
48.79578919
 30
0.0
 11
120.29341922
 21
50.09685966
 31
0.0
  0
ARC
  8
0
  6
CONTINUOUS
 62
       7
  5
155
 10
119.79831753
 20
50.11067968
 30
0.0
 40
0.49529453
 50
358.40108989
 51
89.9850512
  0
ARC
  8
0
  6
CONTINUOUS
 62
       7
  5
156
 10
123.55427039
 20
50.07150021
 30
0.0
 40
0.99591628
 50
359.83174031
 51
32.45693725
  0
ARC
  8
0
  6
CONTINUOUS
 62
       7
  5
157
 10
121.03638124
 20
50.06087532
 30
0.0
 40
1.00300726
 50
110.2394142
 51
147.08020231
  0
ARC
  8
0
  6
CONTINUOUS
 62
       7
  5
158
 10
121.09423294
 20
50.1640269
 30
0.0
 40
1.00248304
 50
153.84170434
 51
162.55547669
  0
ARC
  8
0
  6
CONTINUOUS
 62
       7
  5
159
 10
84.30079535
 20
36.91504008
 30
0.0
 40
0.50821909
 50
181.43553616
 51
250.61921061
  0
ARC
  8
0
  6
CONTINUOUS
 62
       7
  5
15A
 10
84.29824291
 20
50.10046705
 30
0.0
 40
0.50552001
 50
89.59113385
 51
180.40886615
  0
LINE
  8
0
  6
CENTER
 62
       2
  5
15B
 10
-93.12618769
 20
-57.59500568
 30
0.0
 11
-93.12618769
 21
-62.98313447
 31
0.0
  0
LINE
  8
0
  6
CENTER
 62
       2
  5
15C
 10
-95.1202196
 20
-35.60408636
 30
0.0
 11
-89.1239818
 21
-35.60408636
 31
0.0
  0
LINE
  8
0
  6
CENTER
 62
       2
  5
15D
 10
121.79247867
 20
-57.59500568
 30
0.0
 11
121.79247867
 21
-62.98313447
 31
0.0
  0
LINE
  8
0
  6
CENTER
 62
       2
  5
15E
 10
93.79117947
 20
-5.59461318
 30
0.0
 11
99.80155935
 21
-5.59461318
 31
0.0
  0
LINE
  8
0
  6
CONTINUOUS
 62
       7
  5
15F
 10
-87.11580781
 20
22.604675
 30
0.0
 11
-120.1233999
 21
22.604675
 31
0.0
  0
LINE
  8
0
  6
CONTINUOUS
 62
       7
  5
160
 10
-89.1239818
 20
47.59371322
 30
0.0
 11
-120.1233999
 21
47.59371322
 31
0.0
  0
LINE
  8
0
  6
CONTINUOUS
 62
       7
  5
161
 10
-119.61428537
 20
50.60597419
 30
0.0
 11
-94.62524714
 21
50.60597419
 31
0.0
  0
LINE
  8
0
  6
CONTINUOUS
 62
       7
  5
162
 10
-87.11580781
 20
22.604675
 30
0.0
 11
-87.11580781
 21
50.60597419
 31
0.0
  0
LINE
  8
0
  6
CONTINUOUS
 62
       7
  5
163
 10
-78.1214511
 20
56.80020098
 30
0.0
 11
-78.1214511
 21
58.7942329
 31
0.0
  0
LINE
  8
0
  6
CONTINUOUS
 62
       7
  5
164
 10
-86.12586289
 20
57.29517344
 30
0.0
 11
-86.12586289
 21
58.7942329
 31
0.0
  0
LINE
  8
0
  6
CONTINUOUS
 62
       7
  5
165
 10
-78.1214511
 20
58.7942329
 30
0.0
 11
-79.12553809
 21
58.7942329
 31
0.0
  0
LINE
  8
0
  6
CONTINUOUS
 62
       7
  5
166
 10
-85.1217759
 20
50.80396318
 30
0.0
 11
-85.1217759
 21
57.29517344
 31
0.0
  0
LINE
  8
0
  6
CONTINUOUS
 62
       7
  5
167
 10
-80.82258653
 20
58.49724942
 30
0.0
 11
-81.11957001
 21
58.7942329
 31
0.0
  0
LINE
  8
0
  6
CONTINUOUS
 62
       7
  5
168
 10
-81.11957001
 20
58.7942329
 30
0.0
 11
-86.12586289
 21
58.7942329
 31
0.0
  0
LINE
  8
0
  6
CONTINUOUS
 62
       7
  5
169
 10
-80.82258653
 20
52.6000061
 30
0.0
 11
-80.82258653
 21
58.49724942
 31
0.0
  0
LINE
  8
0
  6
CONTINUOUS
 62
       7
  5
16A
 10
-81.11957001
 20
52.30302263
 30
0.0
 11
-80.82258653
 21
52.6000061
 31
0.0
  0
LINE
  8
0
  6
CONTINUOUS
 62
       7
  5
16B
 10
-81.11957001
 20
51.29893564
 30
0.0
 11
-81.11957001
 21
52.30302263
 31
0.0
  0
LINE
  8
0
  6
CONTINUOUS
 62
       7
  5
16C
 10
-79.12553809
 20
51.12923079
 30
0.0
 11
-78.1214511
 21
56.80020098
 31
0.0
  0
LINE
  8
0
  6
CONTINUOUS
 62
       7
  5
16D
 10
-80.11548301
 20
52.13331778
 30
0.0
 11
-79.12553809
 21
57.80428797
 31
0.0
  0
LINE
  8
0
  6
CONTINUOUS
 62
       7
  5
16E
 10
-79.12553809
 20
57.80428797
 30
0.0
 11
-79.12553809
 21
58.7942329
 31
0.0
  0
LINE
  8
0
  6
CONTINUOUS
 62
       7
  5
16F
 10
-85.1217759
 20
57.29517344
 30
0.0
 11
-86.12586289
 21
57.29517344
 31
0.0
  0
LINE
  8
0
  6
CONTINUOUS
 62
       7
  5
170
 10
-85.1217759
 20
50.80396318
 30
0.0
 11
-86.12586289
 21
50.80396318
 31
0.0
  0
LINE
  8
0
  6
CONTINUOUS
 62
       7
  5
171
 10
-86.12586289
 20
50.60597419
 30
0.0
 11
-86.12586289
 21
50.80396318
 31
0.0
  0
LINE
  8
0
  6
CONTINUOUS
 62
       7
  5
172
 10
-81.67111075
 20
50.60597419
 30
0.0
 11
-81.67111075
 21
58.7942329
 31
0.0
  0
LINE
  8
0
  6
CONTINUOUS
 62
       7
  5
173
 10
-83.56614817
 20
50.60597419
 30
0.0
 11
-83.56614817
 21
58.7942329
 31
0.0
  0
LINE
  8
0
  6
CONTINUOUS
 62
       7
  5
174
 10
-81.47312176
 20
54.49504352
 30
0.0
 11
-81.47312176
 21
58.7942329
 31
0.0
  0
LINE
  8
0
  6
CONTINUOUS
 62
       7
  5
175
 10
-83.76413715
 20
51.19994114
 30
0.0
 11
-83.76413715
 21
58.7942329
 31
0.0
  0
LINE
  8
0
  6
CONTINUOUS
 62
       7
  5
176
 10
-81.67111075
 20
54.29705454
 30
0.0
 11
-81.47312176
 21
54.49504352
 31
0.0
  0
LINE
  8
0
  6
CONTINUOUS
 62
       7
  5
177
 10
-83.56614817
 20
51.00195216
 30
0.0
 11
-83.76413715
 21
51.19994114
 31
0.0
  0
LINE
  8
0
  6
CONTINUOUS
 62
       7
  5
178
 10
-80.11548301
 20
51.29893564
 30
0.0
 11
-80.11548301
 21
52.13331778
 31
0.0
  0
ARC
  8
0
  6
CONTINUOUS
 62
       7
  5
179
 10
-80.61752651
 20
51.30561824
 30
0.0
 40
0.50208797
 50
180.76260775
 51
359.23739225
  0
LINE
  8
0
  6
CONTINUOUS
 62
       7
  5
17A
 10
-120.1233999
 20
50.09685966
 30
0.0
 11
-120.1233999
 21
14.10529074
 31
0.0
  0
ARC
  8
0
  6
CONTINUOUS
 62
       7
  5
17B
 10
-119.62432699
 20
50.10690129
 30
0.0
 40
0.49917391
 50
88.84733214
 51
181.15266786
  0
LINE
  8
0
  6
CONTINUOUS
 62
       7
  5
17C
 10
-89.1239818
 20
22.604675
 30
0.0
 11
-89.1239818
 21
50.60597419
 31
0.0
  0
LINE
  8
0
  6
CENTER
 62
       2
  5
17D
 10
-82.61862946
 20
55.79611399
 30
0.0
 11
-82.61862946
 21
81.80338127
 31
0.0
  0
LINE
  8
0
  6
CONTINUOUS
 62
       7
  5
17E
 10
-83.46715368
 20
58.7942329
 30
0.0
 11
-83.46715368
 21
63.24898504
 31
0.0
  0
LINE
  8
0
  6
CONTINUOUS
 62
       7
  5
17F
 10
-81.77010524
 20
58.7942329
 30
0.0
 11
-81.77010524
 21
62.79643879
 31
0.0
  0
LINE
  8
0
  6
CONTINUOUS
 62
       7
  5
180
 10
-82.29336184
 20
68.7926766
 30
0.0
 11
-82.29336184
 21
78.80526237
 31
0.0
  0
LINE
  8
0
  6
CONTINUOUS
 62
       7
  5
181
 10
-82.94389707
 20
68.7926766
 30
0.0
 11
-82.94389707
 21
78.80526237
 31
0.0
  0
LINE
  8
0
  6
CONTINUOUS
 62
       7
  5
182
 10
-81.77010524
 20
68.7926766
 30
0.0
 11
-83.46715368
 21
68.7926766
 31
0.0
  0
LINE
  8
0
  6
CONTINUOUS
 62
       7
  5
183
 10
-82.29336184
 20
78.80526237
 30
0.0
 11
-82.94389707
 21
78.80526237
 31
0.0
  0
LINE
  8
0
  6
CONTINUOUS
 62
       2
  5
184
 10
-79.77607333
 20
63.81466785
 30
0.0
 11
-85.47532766
 21
65.34201144
 31
0.0
  0
LINE
  8
0
  6
CONTINUOUS
 62
       2
  5
185
 10
-79.77607333
 20
62.25904012
 30
0.0
 11
-85.47532766
 21
63.78638371
 31
0.0
  0
LINE
  8
0
  6
CONTINUOUS
 62
       7
  5
186
 10
-81.77010524
 20
64.35206652
 30
0.0
 11
-81.77010524
 21
68.7926766
 31
0.0
  0
LINE
  8
0
  6
CONTINUOUS
 62
       7
  5
187
 10
-83.46715368
 20
64.80461277
 30
0.0
 11
-83.46715368
 21
68.7926766
 31
0.0
  0
LINE
  8
0
  6
CONTINUOUS
 62
       7
  5
188
 10
-94.11613261
 20
48.79578919
 30
0.0
 11
-94.11613261
 21
50.09685966
 31
0.0
  0
LINE
  8
0
  6
CONTINUOUS
 62
       7
  5
189
 10
-89.61895426
 20
48.79578919
 30
0.0
 11
-94.11613261
 21
48.79578919
 31
0.0
  0
LINE
  8
0
  6
CONTINUOUS
 62
       7
  5
18A
 10
-90.36848398
 20
49.6018872
 30
0.0
 11
-94.11613261
 21
49.6018872
 31
0.0
  0
LINE
  8
0
  6
CONTINUOUS
 62
       7
  5
18B
 10
-90.36848398
 20
48.79578919
 30
0.0
 11
-90.36848398
 21
50.06857552
 31
0.0
  0
ARC
  8
0
  6
CONTINUOUS
 62
       7
  5
18C
 10
-92.6241442
 20
46.80555756
 30
0.0
 40
4.49290038
 50
69.06809929
 51
110.93190071
  0
ARC
  8
0
  6
CONTINUOUS
 62
       7
  5
18D
 10
-91.36307794
 20
50.06453199
 30
0.0
 40
0.99856546
 50
32.8348948
 51
69.84548869
  0
ARC
  8
0
  6
CONTINUOUS
 62
       7
  5
18E
 10
-93.87176149
 20
50.07791396
 30
0.0
 40
0.99078673
 50
111.15130888
 51
147.79361081
  0
ARC
  8
0
  6
CONTINUOUS
 62
       7
  5
18F
 10
-91.37392748
 20
50.06874109
 30
0.0
 40
1.00544351
 50
359.99056513
 51
32.29811243
  0
LINE
  8
0
  6
CENTER
 62
       2
  5
190
 10
-92.61707316
 20
47.80584427
 30
0.0
 11
-92.61707316
 21
52.30302263
 31
0.0
  0
ARC
  8
0
  6
CONTINUOUS
 62
       7
  5
191
 10
-89.61997144
 20
48.29979955
 30
0.0
 40
0.49599068
 50
0.11750264
 51
89.88249736
  0
ARC
  8
0
  6
CONTINUOUS
 62
       7
  5
192
 10
-94.62112959
 20
50.10097721
 30
0.0
 40
0.50501376
 50
359.53284222
 51
90.46715778
  0
LINE
  8
0
  6
CONTINUOUS
 62
       7
  5
193
 10
-90.52404676
 20
50.60597419
 30
0.0
 11
-79.62051055
 21
50.60597419
 31
0.0
  0
ARC
  8
0
  6
CONTINUOUS
 62
       7
  5
194
 10
-117.62025345
 20
46.80555476
 30
0.0
 40
4.49543403
 50
68.98393693
 51
111.01606307
  0
ARC
  8
0
  6
CONTINUOUS
 62
       7
  5
195
 10
-118.87367
 20
50.07636966
 30
0.0
 40
0.99268609
 50
111.18760573
 51
147.75731396
  0
ARC
  8
0
  6
CONTINUOUS
 62
       7
  5
196
 10
-116.37121161
 20
50.07105751
 30
0.0
 40
0.9992226
 50
32.36648721
 51
68.6885931
  0
LINE
  8
0
  6
CENTER
 62
       2
  5
197
 10
-117.62025345
 20
47.80584427
 30
0.0
 11
-117.62025345
 21
52.30302263
 31
0.0
  0
LINE
  8
0
  6
CONTINUOUS
 62
       7
  5
198
 10
-87.11580781
 20
22.604675
 30
0.0
 11
-83.45301161
 21
23.9340296
 31
0.0
  0
LINE
  8
0
  6
CONTINUOUS
 62
       7
  5
199
 10
-83.11360192
 20
24.40071792
 30
0.0
 11
-83.11360192
 21
35.10626514
 31
0.0
  0
LINE
  8
0
  6
CONTINUOUS
 62
       7
  5
19A
 10
-83.11360192
 20
35.10626514
 30
0.0
 11
-79.45080571
 21
36.43561975
 31
0.0
  0
ARC
  8
0
  6
CONTINUOUS
 62
       7
  5
19B
 10
-83.62336003
 20
24.41468523
 30
0.0
 40
0.50994943
 50
289.51475779
 51
358.43049544
  0
ARC
  8
0
  6
CONTINUOUS
 62
       7
  5
19C
 10
-79.62907765
 20
36.90656488
 30
0.0
 40
0.50355754
 50
290.73369768
 51
359.51564563
  0
LINE
  8
0
  6
CONTINUOUS
 62
       7
  5
19D
 10
-79.12553809
 20
36.90230807
 30
0.0
 11
-79.12553809
 21
51.12923079
 31
0.0
  0
ARC
  8
0
  6
CONTINUOUS
 62
       7
  5
19E
 10
-79.62576826
 20
50.10569365
 30
0.0
 40
0.50030817
 50
358.98827032
 51
89.39787077
  0
LINE
  8
0
  6
CENTER
 62
       2
  5
19F
 10
-15.62601845
 20
-20.59934977
 30
0.0
 11
22.37372445
 21
-20.59934977
 31
0.0
  0
LINE
  8
0
  6
CENTER
 62
       2
  5
1A0
 10
-105.11866331
 20
52.6000061
 30
0.0
 11
-105.11866331
 21
-64.18521044
 31
0.0
  0
LINE
  8
0
  6
CENTER
 62
       2
  5
1A1
 10
109.80000305
 20
52.6000061
 30
0.0
 11
109.80000305
 21
-64.18521044
 31
0.0
  0
LINE
  8
0
  6
PHANTOM
 62
       2
  5
1A2
 10
12.36113868
 20
-56.09594623
 30
0.0
 11
20.36555047
 21
-56.09594623
 31
0.0
  0
LINE
  8
0
  6
CONTINUOUS
 62
       7
  5
1A3
 10
-90.11392672
 20
22.604675
 30
0.0
 11
-90.11392672
 21
-61.682064
 31
0.0
  0
LINE
  8
0
  6
CONTINUOUS
 62
       7
  5
1A4
 10
-90.11392672
 20
-41.60032417
 30
0.0
 11
-120.1233999
 21
-41.60032417
 31
0.0
  0
LINE
  8
0
  6
CONTINUOUS
 62
       7
  5
1A5
 10
-95.92631761
 20
-59.77288451
 30
0.0
 11
-95.92631761
 21
-58.61323474
 31
0.0
  0
LINE
  8
0
  6
CONTINUOUS
 62
       7
  5
1A6
 10
-90.32605777
 20
-59.77288451
 30
0.0
 11
-90.32605777
 21
-58.59909267
 31
0.0
  0
LINE
  8
0
  6
CONTINUOUS
 62
       7
  5
1A7
 10
-90.62304125
 20
-62.19117853
 30
0.0
 11
-117.91723693
 21
-62.19117853
 31
0.0
  0
LINE
  8
0
  6
CONTINUOUS
 62
       7
  5
1A8
 10
-96.32229558
 20
-59.09406513
 30
0.0
 11
-96.32229558
 21
-61.682064
 31
0.0
  0
LINE
  8
0
  6
CONTINUOUS
 62
       7
  5
1A9
 10
-90.32605777
 20
-58.59909267
 30
0.0
 11
-95.81318105
 21
-58.59909267
 31
0.0
  0
LINE
  8
0
  6
CONTINUOUS
 62
       7
  5
1AA
 10
-118.27078869
 20
-62.03561576
 30
0.0
 11
-119.96783712
 21
-60.35270939
 31
0.0
  0
ARC
  8
0
  6
CONTINUOUS
 62
       7
  5
1AB
 10
-93.11911666
 20
-55.9944228
 30
0.0
 40
5.00845842
 50
240.4801727
 51
299.5198273
  0
ARC
  8
0
  6
CONTINUOUS
 62
       7
  5
1AC
 10
-95.2566751
 20
-59.77015051
 30
0.0
 40
0.66964809
 50
180.23392431
 51
240.45257346
  0
ARC
  8
0
  6
CONTINUOUS
 62
       7
  5
1AD
 10
-90.99838635
 20
-59.77687061
 30
0.0
 40
0.6723404
 50
301.07758408
 51
0.33969158
  0
ARC
  8
0
  6
CONTINUOUS
 62
       7
  5
1AE
 10
-96.82237534
 20
-61.69104422
 30
0.0
 40
0.50016039
 50
270.58507641
 51
1.0287825
  0
ARC
  8
0
  6
CONTINUOUS
 62
       7
  5
1AF
 10
-90.61821772
 20
-61.68688753
 30
0.0
 40
0.50431407
 50
269.45198407
 51
0.54801593
  0
ARC
  8
0
  6
CONTINUOUS
 62
       7
  5
1B0
 10
-95.82622912
 20
-59.09498836
 30
0.0
 40
0.49606732
 50
88.49277361
 51
179.89336748
  0
ARC
  8
0
  6
CONTINUOUS
 62
       7
  5
1B1
 10
-90.62199911
 20
-58.09084802
 30
0.0
 40
0.50824572
 50
269.88251739
 51
358.5036237
  0
ARC
  8
0
  6
CONTINUOUS
 62
       7
  5
1B2
 10
-117.91107722
 20
-61.69763444
 30
0.0
 40
0.49358252
 50
223.21605763
 51
269.28495338
  0
ARC
  8
0
  6
CONTINUOUS
 62
       7
  5
1B3
 10
-119.62422627
 20
-59.99052093
 30
0.0
 40
0.49924833
 50
180.99123306
 51
226.50775592
  0
LINE
  8
0
  6
CONTINUOUS
 62
       2
  5
1B4
 10
-93.12618769
 20
-57.59500568
 30
0.0
 11
-93.12618769
 21
-62.98313447
 31
0.0
  0
LINE
  8
0
  6
CONTINUOUS
 62
       7
  5
1B5
 10
-120.1233999
 20
-55.10600131
 30
0.0
 11
-120.1233999
 21
-59.99915763
 31
0.0
  0
LINE
  8
0
  6
CONTINUOUS
 62
       7
  5
1B6
 10
-120.1233999
 20
-41.60032417
 30
0.0
 11
-120.1233999
 21
-48.10567651
 31
0.0
  0
LINE
  8
0
  6
CONTINUOUS
 62
       7
  5
1B7
 10
94.79526646
 20
-41.60032417
 30
0.0
 11
124.80473964
 21
-41.60032417
 31
0.0
  0
LINE
  8
0
  6
CONTINUOUS
 62
       7
  5
1B8
 10
118.99234875
 20
-59.77288451
 30
0.0
 11
118.99234875
 21
-58.6102194
 31
0.0
  0
LINE
  8
0
  6
CONTINUOUS
 62
       7
  5
1B9
 10
124.59260859
 20
-59.77288451
 30
0.0
 11
124.59260859
 21
-58.59909267
 31
0.0
  0
LINE
  8
0
  6
CONTINUOUS
 62
       7
  5
1BA
 10
95.30438099
 20
-62.19117853
 30
0.0
 11
122.5844346
 21
-62.19117853
 31
0.0
  0
LINE
  8
0
  6
CONTINUOUS
 62
       7
  5
1BB
 10
118.59637078
 20
-59.09406513
 30
0.0
 11
118.59637078
 21
-61.682064
 31
0.0
  0
LINE
  8
0
  6
CONTINUOUS
 62
       7
  5
1BC
 10
124.59260859
 20
-58.59909267
 30
0.0
 11
119.09134324
 21
-58.59909267
 31
0.0
  0
LINE
  8
0
  6
CONTINUOUS
 62
       7
  5
1BD
 10
122.93798636
 20
-62.03561576
 30
0.0
 11
124.64917687
 21
-60.35270939
 31
0.0
  0
ARC
  8
0
  6
CONTINUOUS
 62
       7
  5
1BE
 10
121.79247867
 20
-55.99441624
 30
0.0
 40
5.00498384
 50
240.55064893
 51
299.44935107
  0
ARC
  8
0
  6
CONTINUOUS
 62
       7
  5
1BF
 10
119.66966387
 20
-59.76565923
 30
0.0
 40
0.67735366
 50
180.61118141
 51
240.07531636
  0
ARC
  8
0
  6
CONTINUOUS
 62
       7
  5
1C0
 10
123.93140902
 20
-59.77509272
 30
0.0
 40
0.66120325
 50
299.12215159
 51
0.19135065
  0
ARC
  8
0
  6
CONTINUOUS
 62
       7
  5
1C1
 10
118.10160243
 20
-61.69620809
 30
0.0
 40
0.49497048
 50
269.97637267
 51
1.63748624
  0
ARC
  8
0
  6
CONTINUOUS
 62
       7
  5
1C2
 10
95.29770931
 20
-61.68873568
 30
0.0
 40
0.50248714
 50
179.23924349
 51
270.76075651
  0
ARC
  8
0
  6
CONTINUOUS
 62
       7
  5
1C3
 10
119.09755217
 20
-59.10027406
 30
0.0
 40
0.50121985
 50
90.70977758
 51
179.29022242
  0
ARC
  8
0
  6
CONTINUOUS
 62
       7
  5
1C4
 10
124.30169042
 20
-58.09601471
 30
0.0
 40
0.50311452
 50
269.30925284
 51
359.07688825
  0
ARC
  8
0
  6
CONTINUOUS
 62
       7
  5
1C5
 10
122.57988289
 20
-61.70128897
 30
0.0
 40
0.4899107
 50
270.53233768
 51
316.9666513
  0
ARC
  8
0
  6
CONTINUOUS
 62
       7
  5
1C6
 10
124.3025154
 20
-59.98917866
 30
0.0
 40
0.50232337
 50
313.63930328
 51
358.86170774
  0
LINE
  8
0
  6
CONTINUOUS
 62
       7
  5
1C7
 10
124.80473964
 20
-55.10600131
 30
0.0
 11
124.80473964
 21
-59.99915763
 31
0.0
  0
TEXT
  8
0
  6
CONTINUOUS
 62
       7
  5
1C8
 10
-185.70161291
 20
105.3500061
 30
0.0
 40
4.5
  1
MODEL:A183-4ME2-81-PSL
 41
1.06451613
  7
MX_NOTE_STANDARD
 11
-185.70161291
 21
107.6000061
 31
0.0
 73
       2
  0
LINE
  8
0
  6
CONTINUOUS
 62
       7
  5
1C9
 10
-194.25
 20
132.6000061
 30
0.0
 11
194.80000305
 21
132.6000061
 31
0.0
  0
LINE
  8
0
  6
CONTINUOUS
 62
       7
  5
1CA
 10
194.80000305
 20
132.6000061
 30
0.0
 11
194.80000305
 21
-133.5
 31
0.0
  0
LINE
  8
0
  6
CONTINUOUS
 62
       7
  5
1CB
 10
-194.25
 20
132.6000061
 30
0.0
 11
-194.25
 21
-133.5
 31
0.0
  0
LINE
  8
0
  6
CONTINUOUS
 62
       7
  5
1CC
 10
-194.25
 20
-133.5
 30
0.0
 11
194.80000305
 21
-133.5
 31
0.0
  0
ENDSEC
  0
EOF
