  0
SECTION
  2
HEADER
  0
ENDSEC
  0
SECTION
  2
TABLES
  0
TABLE
  2
LTYPE
 70
     4
  0
LTYPE
  2
CONTINUOUS
 70
    64
  3
Solid line
 72
    65
 73
     0
 40
0.000000
  0
LTYPE
  2
DASHED
 70
    64
  3
__ __ __ __ __ __ __ __ __ __ __ __ __ __ __
 72
    65
 73
     2
 40
3.500000
 49
2.000000
 49
-1.500000
  0
LTYPE
  2
CENTER
 70
    64
  3
____ _ ____ _ ____ _ ____ _ ____ _ ____ _ ____
 72
    65
 73
     4
 40
17.500000
 49
13.000000
 49
-1.500000
 49
1.500000
 49
-1.500000
  0
LTYPE
  2
PHANTOM
 70
    64
  3
_____ _ _ _____ _ _ _____ _ _ _____ _ _ ____  
 72
    65
 73
     6
 40
15.500000
 49
8.000000
 49
-1.500000
 49
1.500000
 49
-1.500000
 49
1.500000
 49
-1.500000
  0
LTYPE
  2
DASHED1
 70
    64
  3
__ __ __ __ __ __ __ __ __ __ __ __ __ __ __
 72
    65
 73
     2
 40
1.500000
 49
1.000000
 49
-0.500000
  0
LTYPE
  2
DASHED2
 70
    64
  3
__ __ __ __ __ __ __ __ __ __ __ __ __ __ __
 72
    65
 73
     2
 40
3.500000
 49
2.500000
 49
-1.000000
  0
LTYPE
  2
DASHED3
 70
    64
  3
__ __ __ __ __ __ __ __ __ __ __ __ __ __ __
 72
    65
 73
     2
 40
6.000000
 49
4.000000
 49
-2.000000
  0
LTYPE
  2
DASHED4
 70
    64
  3
__ __ __ __ __ __ __ __ __ __ __ __ __ __ __
 72
    65
 73
     2
 40
12.000000
 49
10.000000
 49
-2.000000
  0
LTYPE
  2
DASHED5
 70
    64
  3
__ __ __ __ __ __ __ __ __ __ __ __ __ __ __
 72
    65
 73
     2
 40
17.000000
 49
15.000000
 49
-2.000000
  0
LTYPE
  2
DASHED6
 70
    64
  3
__ __ __ __ __ __ __ __ __ __ __ __ __ __ __
 72
    65
 73
     2
 40
29.000000
 49
27.000000
 49
-2.000000
  0
LTYPE
  2
PHANTOM1
 70
    64
  3
_____ _ _ _____ _ _ _____ _ _ _____ _ _ ____  
 72
    65
 73
     6
 40
31.000000
 49
25.000000
 49
-1.500000
 49
1.000000
 49
-1.000000
 49
1.000000
 49
-1.500000
  0
LTYPE
  2
PHANTOM2
 70
    64
  3
_____ _ _ _____ _ _ _____ _ _ _____ _ _ ____  
 72
    65
 73
     6
 40
36.000000
 49
27.000000
 49
-1.500000
 49
2.500000
 49
-1.000000
 49
2.500000
 49
-1.500000
  0
LTYPE
  2
PHANTOM3
 70
    64
  3
_____ _ _ _____ _ _ _____ _ _ _____ _ _ ____  
 72
    65
 73
     6
 40
78.000000
 49
64.000000
 49
-2.000000
 49
4.000000
 49
-2.000000
 49
4.000000
 49
-2.000000
  0
LTYPE
  2
CENTER1
 70
    64
  3
____ _ ____ _ ____ _ ____ _ ____ _ ____ _ ____
 72
    65
 73
     4
 40
19.000000
 49
14.000000
 49
-1.000000
 49
3.000000
 49
-1.000000
  0
LTYPE
  2
CENTER2
 70
    64
  3
____ _ ____ _ ____ _ ____ _ ____ _ ____ _ ____
 72
    65
 73
     4
 40
28.500000
 49
25.000000
 49
-1.000000
 49
1.500000
 49
-1.000000
  0
LTYPE
  2
CENTER3
 70
    64
  3
____ _ ____ _ ____ _ ____ _ ____ _ ____ _ ____
 72
    65
 73
     4
 40
31.500000
 49
27.000000
 49
-1.000000
 49
2.500000
 49
-1.000000
  0
LTYPE
  2
CENTER4
 70
    64
  3
____ _ ____ _ ____ _ ____ _ ____ _ ____ _ ____
 72
    65
 73
     4
 40
50.000000
 49
45.000000
 49
-1.000000
 49
3.000000
 49
-1.000000
  0
LTYPE
  2
CENTER5
 70
    64
  3
____ _ ____ _ ____ _ ____ _ ____ _ ____ _ ____
 72
    65
 73
     4
 40
100.000000
 49
92.000000
 49
-2.000000
 49
4.000000
 49
-2.000000
  0
LTYPE
  2
SBK1
 70
    64
  3
______ _ _ _ ______ _ _ _ ______ _ _ _ _____  
 72
    65
 73
     8
 40
60.500000
 49
45.000000
 49
-2.000000
 49
2.500000
 49
-2.000000
 49
2.500000
 49
-2.000000
 49
2.500000
 49
-2.000000
  0
LTYPE
  2
SBK2
 70
    64
  3
______ _ _ _ ______ _ _ _ ______ _ _ _ _____  
 72
    65
 73
     8
 40
84.000000
 49
64.000000
 49
-2.000000
 49
4.000000
 49
-2.000000
 49
4.000000
 49
-2.000000
 49
4.000000
 49
-2.000000
  0
LTYPE
  2
STCH
 70
    64
  3
__ __ __ __ __ __ __ __ __ __ __ __ __ __ __
 72
    65
 73
     2
 40
3.000000
 49
1.000000
 49
-2.000000
  0
LTYPE
  2
MTCH
 70
    64
  3
_____ _ _ _____ _ _ _____ _ _ _____ _ _ ____  
 72
    65
 73
     6
 40
80.000000
 49
66.000000
 49
-2.000000
 49
4.000000
 49
-2.000000
 49
4.000000
 49
-2.000000
  0
ENDTAB
  0
TABLE
  2
LAYER
 70
     1
  0
LAYER
  2
0
 70
     0
 62
     7
  6
CONTINUOUS
  0
ENDTAB
  0
TABLE
  2
STYLE
 70
     1
  0
STYLE
  2
STANDARD
 70
     0
 40
0.000000
 41
1.000000
 50
0.000000
 71
     0
 42
0.200000
  3
txt
  4
BIGFONT
  0
ENDTAB
  0
TABLE
  2
VIEW
 70
     0
  0
ENDTAB
  0
ENDSEC
  0
SECTION
  2
BLOCKS
  0
ENDSEC
  0
SECTION
  2
ENTITIES
  0
LINE
  8
0
 10
-281.250000
 20
195.500000
 11
282.099976
 21
195.500000
  0
LINE
  8
0
 10
-281.250000
 20
195.500000
 11
-281.250000
 21
-195.000000
  0
LINE
  8
0
 10
282.099976
 20
195.500000
 11
282.099976
 21
-195.000000
  0
LINE
  8
0
 10
-281.250000
 20
-195.000000
 11
282.099976
 21
-195.000000
  0
LINE
  8
0
 10
162.099976
 20
-175.000000
 11
162.099976
 21
-195.000000
  0
LINE
  8
0
 10
162.099976
 20
-175.000000
 11
282.099976
 21
-175.000000
  0
LINE
  8
0
 10
162.099976
 20
175.500000
 11
282.099976
 21
175.500000
  0
LINE
  8
0
 10
-281.250000
 20
175.500000
 11
-161.250000
 21
175.500000
  0
LINE
  8
0
 10
162.099976
 20
195.500000
 11
162.099976
 21
175.500000
  0
LINE
  8
0
 10
-161.250000
 20
195.500000
 11
-161.250000
 21
175.500000
  0
LINE
  8
0
 10
8.774994
 20
39.000000
 11
-14.225006
 21
39.000000
  0
LINE
  8
0
 10
8.774994
 20
92.000000
 11
-14.225006
 21
92.000000
  0
LINE
  8
0
 10
-14.225006
 20
21.500000
 11
8.774994
 21
21.500000
  0
LINE
  8
0
 10
8.774994
 20
109.500000
 11
-14.225006
 21
109.500000
  0
LINE
  8
0
  6
CENTER
 62
     2
 10
-2.725006
 20
-11.499809
 11
-2.725006
 21
145.073303
  0
LINE
  8
0
 10
-14.225006
 20
109.500000
 11
-14.225006
 21
21.500000
  0
LINE
  8
0
 10
8.774994
 20
109.500000
 11
8.774994
 21
21.500000
  0
LINE
  8
0
 10
8.774994
 20
35.500000
 11
19.774994
 21
35.500000
  0
LINE
  8
0
 10
8.774994
 20
104.000000
 11
9.275024
 21
104.000000
  0
LINE
  8
0
  6
CENTER
 62
     2
 10
15.274994
 20
102.500000
 11
15.274994
 21
94.500000
  0
LINE
  8
0
  6
CENTER
 62
     2
 10
11.274994
 20
98.500000
 11
19.274994
 21
98.500000
  0
LINE
  8
0
 10
11.275024
 20
103.000000
 11
19.774994
 21
103.000000
  0
LINE
  8
0
 10
19.774994
 20
103.000000
 11
19.774994
 21
35.500000
  0
LINE
  8
0
 10
9.274994
 20
92.000000
 11
9.274994
 21
39.000000
  0
LINE
  8
0
 10
8.774994
 20
39.000000
 11
9.274994
 21
39.000000
  0
LINE
  8
0
 10
8.774994
 20
92.000000
 11
9.274994
 21
92.000000
  0
LINE
  8
0
 10
13.774994
 20
94.500000
 11
13.774994
 21
35.500000
  0
LINE
  8
0
 10
12.275024
 20
94.500000
 11
19.774994
 21
94.500000
  0
LINE
  8
0
 10
8.774994
 20
104.000000
 11
11.275024
 21
104.000000
  0
LINE
  8
0
 10
11.275024
 20
104.000000
 11
11.275024
 21
95.500000
  0
LINE
  8
0
 10
9.774963
 20
105.200012
 11
9.774963
 21
104.000000
  0
LINE
  8
0
 10
8.774994
 20
105.200012
 11
9.774963
 21
105.200012
  0
LINE
  8
0
 10
-23.225006
 20
35.500000
 11
-14.225006
 21
35.500000
  0
LINE
  8
0
  6
CENTER
 62
     2
 10
-18.725006
 20
44.000000
 11
-18.725006
 21
36.000000
  0
LINE
  8
0
  6
CENTER
 62
     2
 10
-22.725006
 20
40.000000
 11
-14.725006
 21
40.000000
  0
LINE
  8
0
 10
-23.225006
 20
103.000000
 11
-16.724976
 21
103.000000
  0
LINE
  8
0
 10
-23.225006
 20
103.000000
 11
-23.225006
 21
35.500000
  0
LINE
  8
0
 10
-14.725006
 20
92.000000
 11
-14.725006
 21
35.500000
  0
LINE
  8
0
 10
-14.725006
 20
92.000000
 11
-14.225006
 21
92.000000
  0
LINE
  8
0
 10
-14.725006
 20
39.000000
 11
-14.225006
 21
39.000000
  0
LINE
  8
0
 10
-17.225006
 20
103.000000
 11
-17.225006
 21
44.500000
  0
LINE
  8
0
 10
-23.225006
 20
44.500000
 11
-15.725006
 21
44.500000
  0
LINE
  8
0
 10
-16.724976
 20
104.000000
 11
-14.225006
 21
104.000000
  0
LINE
  8
0
 10
-16.724976
 20
103.000000
 11
-16.724976
 21
104.000000
  0
LINE
  8
0
 10
-11.725006
 20
55.500000
 11
-14.225006
 21
55.500000
  0
LINE
  8
0
 10
-11.725006
 20
49.500000
 11
-14.225006
 21
49.500000
  0
LINE
  8
0
 10
5.774994
 20
43.000000
 11
8.774994
 21
43.000000
  0
LINE
  8
0
 10
5.774994
 20
48.000000
 11
8.774994
 21
48.000000
  0
LINE
  8
0
 10
6.274994
 20
67.500000
 11
8.774994
 21
67.500000
  0
LINE
  8
0
 10
6.274994
 20
73.500000
 11
8.774994
 21
73.500000
  0
LINE
  8
0
 10
-11.225006
 20
87.999985
 11
-14.225006
 21
87.999985
  0
LINE
  8
0
 10
-11.225006
 20
82.999985
 11
-14.225006
 21
82.999985
  0
LINE
  8
0
 10
-11.725006
 20
81.499985
 11
-14.225006
 21
81.499985
  0
LINE
  8
0
 10
-11.725006
 20
75.500000
 11
-14.225006
 21
75.500000
  0
LINE
  8
0
 10
-12.725006
 20
90.499985
 11
-12.725006
 21
87.999985
  0
LINE
  8
0
 10
7.274994
 20
90.499985
 11
7.274994
 21
73.500000
  0
LINE
  8
0
 10
-12.725006
 20
90.499985
 11
7.274994
 21
90.499985
  0
LINE
  8
0
 10
-12.725006
 20
40.500000
 11
7.274994
 21
40.500000
  0
LINE
  8
0
 10
-12.725006
 20
49.500000
 11
-12.725006
 21
40.500000
  0
LINE
  8
0
 10
-12.725006
 20
75.500000
 11
-12.725006
 21
55.500000
  0
LINE
  8
0
 10
-12.725006
 20
82.999985
 11
-12.725006
 21
81.499985
  0
LINE
  8
0
 10
7.274994
 20
67.500000
 11
7.274994
 21
48.000000
  0
LINE
  8
0
 10
7.274994
 20
43.000000
 11
7.274994
 21
40.500000
  0
LINE
  8
0
 10
-14.225016
 20
38.999962
 11
-12.725003
 21
40.499973
  0
LINE
  8
0
 10
7.274972
 20
40.500019
 11
8.774984
 21
39.000008
  0
LINE
  8
0
 10
8.775020
 20
91.999985
 11
7.275007
 21
90.499969
  0
LINE
  8
0
 10
-14.225064
 20
91.999901
 11
-12.725074
 21
90.499916
  0
LINE
  8
0
 10
4.714222
 20
44.439377
 11
6.835543
 21
46.560696
  0
LINE
  8
0
 10
-12.285740
 20
84.439453
 11
-10.164419
 21
86.560776
  0
LINE
  8
0
 10
-12.285623
 20
86.560738
 11
-10.164302
 21
84.439415
  0
LINE
  8
0
 10
4.714294
 20
46.560722
 11
6.835614
 21
44.439404
  0
LINE
  8
0
 10
-12.785762
 20
77.439430
 11
-10.664442
 21
79.560753
  0
LINE
  8
0
 10
-12.785575
 20
79.560722
 11
-10.664265
 21
77.439415
  0
LINE
  8
0
 10
5.214265
 20
69.439369
 11
7.335586
 21
71.560684
  0
LINE
  8
0
 10
5.214370
 20
71.560776
 11
7.335690
 21
69.439453
  0
LINE
  8
0
 10
-12.785715
 20
51.439388
 11
-10.664394
 21
53.560707
  0
LINE
  8
0
 10
-12.785628
 20
53.560734
 11
-10.664309
 21
51.439411
  0
LINE
  8
0
 62
     4
 10
-1.425011
 20
124.199982
 11
-4.024986
 21
124.199982
  0
LINE
  8
0
 62
     4
 10
-1.425011
 20
120.799988
 11
-4.024986
 21
120.799988
  0
LINE
  8
0
 62
     4
 10
-14.224998
 20
130.500000
 11
-14.224998
 21
109.500000
  0
LINE
  8
0
 62
     4
 10
8.774994
 20
130.500000
 11
8.774994
 21
109.500000
  0
LINE
  8
0
 62
     4
 10
-14.224998
 20
129.499969
 11
8.774994
 21
129.499969
  0
LINE
  8
0
 62
     4
 10
-14.224998
 20
130.499969
 11
8.774994
 21
130.499969
  0
LINE
  8
0
 62
     4
 10
7.774650
 20
132.499817
 11
8.774656
 21
130.499802
  0
LINE
  8
0
 62
     4
 10
-11.474998
 20
133.199982
 11
-9.974998
 21
133.199982
  0
LINE
  8
0
 62
     4
 10
4.525002
 20
133.199982
 11
6.025002
 21
133.199982
  0
LINE
  8
0
 62
     4
 10
-13.224968
 20
132.499969
 11
7.774971
 21
132.499969
  0
LINE
  8
0
 62
     4
 10
-13.224879
 20
132.499908
 11
-14.224886
 21
130.499893
  0
LINE
  8
0
 62
     4
 10
-4.024986
 20
6.799988
 11
-1.425011
 21
6.799988
  0
LINE
  8
0
 62
     4
 10
-4.024986
 20
10.199982
 11
-1.425011
 21
10.199982
  0
LINE
  8
0
 62
     4
 10
8.774994
 20
0.500000
 11
8.774994
 21
21.500000
  0
LINE
  8
0
 62
     4
 10
-14.224998
 20
0.500000
 11
-14.224998
 21
21.500000
  0
LINE
  8
0
 62
     4
 10
8.774994
 20
1.500000
 11
-14.224998
 21
1.500000
  0
LINE
  8
0
 62
     4
 10
8.774994
 20
0.500000
 11
-14.224998
 21
0.500000
  0
LINE
  8
0
 62
     4
 10
-13.225148
 20
-1.500133
 11
-14.225155
 21
0.499881
  0
LINE
  8
0
 62
     4
 10
6.025002
 20
-2.200012
 11
4.525002
 21
-2.200012
  0
LINE
  8
0
 62
     4
 10
-9.974998
 20
-2.200012
 11
-11.474998
 21
-2.200012
  0
LINE
  8
0
 62
     4
 10
7.774971
 20
-1.500000
 11
-13.224968
 21
-1.500000
  0
LINE
  8
0
 62
     4
 10
7.775128
 20
-1.500080
 11
8.775133
 21
0.499935
  0
LINE
  8
0
 10
-177.225006
 20
103.000000
 11
-177.225006
 21
35.500000
  0
LINE
  8
0
 10
-134.225006
 20
92.000000
 11
-134.225006
 21
39.000000
  0
LINE
  8
0
 10
-175.225006
 20
104.000000
 11
-135.225006
 21
104.000000
  0
LINE
  8
0
 10
-136.725006
 20
105.200012
 11
-136.725006
 21
104.000000
  0
LINE
  8
0
 10
-136.725006
 20
105.200012
 11
-159.225006
 21
105.200012
  0
LINE
  8
0
 10
-138.624969
 20
105.787292
 11
-138.624969
 21
105.200012
  0
LINE
  8
0
 10
-140.824982
 20
105.787292
 11
-140.824982
 21
105.200012
  0
LINE
  8
0
 10
-140.824982
 20
105.400024
 11
-138.624969
 21
105.400024
  0
LINE
  8
0
 10
-140.124969
 20
106.200012
 11
-139.324982
 21
106.200012
  0
LINE
  8
0
  6
CENTER
 62
     2
 10
-167.225006
 20
96.500000
 11
-167.225006
 21
84.500000
  0
LINE
  8
0
  6
CENTER
 62
     2
 10
-173.225006
 20
90.500000
 11
-161.225006
 21
90.500000
  0
LINE
  8
0
  6
CENTER
 62
     2
 10
-156.225006
 20
83.500000
 11
-156.225006
 21
68.500000
  0
LINE
  8
0
  6
CENTER
 62
     2
 10
-163.725006
 20
76.000000
 11
-148.725006
 21
76.000000
  0
LINE
  8
0
  6
CENTER
 62
     2
 10
-156.225006
 20
62.500000
 11
-156.225006
 21
47.500000
  0
LINE
  8
0
  6
CENTER
 62
     2
 10
-163.725006
 20
55.000000
 11
-148.725006
 21
55.000000
  0
LINE
  8
0
 10
-141.225006
 20
102.528748
 11
-141.225006
 21
44.500000
  0
LINE
  8
0
 10
-135.225006
 20
104.000000
 11
-135.225006
 21
35.500000
  0
LINE
  8
0
 10
-133.225037
 20
92.000000
 11
-135.225006
 21
92.000000
  0
LINE
  8
0
 10
-133.225037
 20
39.000000
 11
-135.225006
 21
39.000000
  0
LINE
  8
0
 10
-169.225006
 20
44.500000
 11
-169.225006
 21
35.604736
  0
LINE
  8
0
 10
-175.225006
 20
104.000000
 11
-175.225006
 21
103.000000
  0
LINE
  8
0
  6
CENTER
 62
     2
 10
-181.225006
 20
40.000000
 11
-164.187714
 21
40.000000
  0
LINE
  8
0
  6
CENTER
 62
     2
 10
-181.225006
 20
98.500000
 11
-164.187714
 21
98.500000
  0
LINE
  8
0
 10
-136.725006
 20
105.200012
 11
-136.725006
 21
104.000000
  0
LINE
  8
0
 10
-159.225006
 20
105.200012
 11
-159.225006
 21
104.000000
  0
LINE
  8
0
 10
-155.124969
 20
105.787292
 11
-155.124969
 21
105.200012
  0
LINE
  8
0
 10
-157.324982
 20
105.787292
 11
-157.324982
 21
105.200012
  0
LINE
  8
0
 10
-157.324982
 20
105.400024
 11
-155.124969
 21
105.400024
  0
LINE
  8
0
 10
-156.624969
 20
106.200012
 11
-155.824982
 21
106.200012
  0
LINE
  8
0
 10
-133.225037
 20
109.500000
 11
-133.225037
 21
21.500000
  0
LINE
  8
0
 10
-133.225037
 20
109.500000
 11
-98.225037
 21
109.500000
  0
LINE
  8
0
 10
-98.225037
 20
92.000000
 11
-133.225037
 21
92.000000
  0
LINE
  8
0
 10
-98.225037
 20
39.000000
 11
-133.225037
 21
39.000000
  0
LINE
  8
0
 10
-133.225037
 20
21.500000
 11
-98.225037
 21
21.500000
  0
LINE
  8
0
 10
-98.225037
 20
109.500000
 11
-98.225037
 21
21.500000
  0
LINE
  8
0
 10
-177.225006
 20
35.500000
 11
-135.225006
 21
35.500000
  0
LINE
  8
0
 10
-177.225006
 20
103.000000
 11
-135.225006
 21
103.000000
  0
LINE
  8
0
 10
-169.225006
 20
44.500000
 11
-135.225006
 21
44.500000
  0
LINE
  8
0
 10
-94.725006
 20
90.500000
 11
-94.725006
 21
87.099991
  0
LINE
  8
0
 10
-96.225006
 20
92.000000
 11
-96.225006
 21
81.500000
  0
LINE
  8
0
 10
-98.225037
 20
92.000000
 11
-96.225006
 21
92.000000
  0
LINE
  8
0
 10
-96.225006
 20
88.000000
 11
-94.725006
 21
88.000000
  0
LINE
  8
0
 10
-96.225006
 20
83.000000
 11
-94.725006
 21
83.000000
  0
LINE
  8
0
 10
-98.225037
 20
81.500000
 11
-94.725006
 21
81.500000
  0
LINE
  8
0
 10
-98.225037
 20
75.500015
 11
-94.725006
 21
75.500015
  0
LINE
  8
0
 10
-98.225037
 20
55.500015
 11
-94.725006
 21
55.500015
  0
LINE
  8
0
 10
-98.225037
 20
49.500015
 11
-94.725006
 21
49.500015
  0
LINE
  8
0
 10
-98.225037
 20
39.000015
 11
-96.225006
 21
39.000015
  0
LINE
  8
0
 10
-96.225166
 20
39.000168
 11
-94.725151
 21
40.500175
  0
LINE
  8
0
 10
-96.225105
 20
91.999977
 11
-94.725151
 21
90.499992
  0
LINE
  8
0
 10
-96.225006
 20
49.500000
 11
-96.225006
 21
39.000015
  0
LINE
  8
0
 10
-96.225006
 20
75.500000
 11
-96.225006
 21
55.500000
  0
LINE
  8
0
 10
-96.556793
 20
75.750015
 11
-98.225037
 21
75.750015
  0
LINE
  8
0
 10
-97.525055
 20
81.250000
 11
-97.525055
 21
75.750015
  0
LINE
  8
0
 10
-95.525024
 20
79.500015
 11
-95.525024
 21
77.500000
  0
LINE
  8
0
 10
-96.556793
 20
81.250000
 11
-98.225037
 21
81.250000
  0
LINE
  8
0
 10
-96.556793
 20
49.750015
 11
-98.225037
 21
49.750015
  0
LINE
  8
0
 10
-97.525055
 20
55.250000
 11
-97.525055
 21
49.750015
  0
LINE
  8
0
 10
-95.525024
 20
53.500015
 11
-95.525024
 21
51.500000
  0
LINE
  8
0
 10
-96.556793
 20
55.250015
 11
-98.225037
 21
55.250015
  0
LINE
  8
0
 10
-96.225006
 20
87.750000
 11
-96.225006
 21
83.250000
  0
LINE
  8
0
 10
-95.337616
 20
87.750000
 11
-96.225006
 21
87.750000
  0
LINE
  8
0
 10
-95.337585
 20
83.250015
 11
-96.225006
 21
83.250015
  0
LINE
  8
0
 10
-94.525024
 20
86.300003
 11
-94.525024
 21
84.700012
  0
LINE
  8
0
 10
-94.725006
 20
83.900009
 11
-94.725006
 21
40.500015
  0
LINE
  8
0
 62
     1
 10
-89.685135
 20
119.649887
 11
-91.212440
 21
125.349876
  0
LINE
  8
0
 62
     1
 10
-91.237679
 20
119.650002
 11
-92.764999
 21
125.349991
  0
LINE
  8
0
 62
     1
 10
-89.685371
 20
11.350139
 11
-91.212685
 21
5.650121
  0
LINE
  8
0
 62
     1
 10
-91.237419
 20
11.349896
 11
-92.764732
 21
5.649879
  0
LINE
  8
0
 62
     4
 10
-98.225037
 20
130.500000
 11
-98.225037
 21
109.500000
  0
LINE
  8
0
 62
     4
 10
-133.225037
 20
129.500000
 11
-98.225037
 21
129.500000
  0
LINE
  8
0
 62
     4
 10
-133.225037
 20
129.500000
 11
-133.225037
 21
109.500000
  0
LINE
  8
0
 62
     4
 10
-133.225037
 20
130.500000
 11
-98.225037
 21
130.500000
  0
LINE
  8
0
 62
     4
 10
-133.225037
 20
130.500000
 11
-133.225037
 21
129.500000
  0
LINE
  8
0
 62
     4
 10
-133.225021
 20
130.500015
 11
-132.225021
 21
132.500015
  0
LINE
  8
0
 62
     4
 10
-109.725037
 20
132.500000
 11
-109.725037
 21
130.500000
  0
LINE
  8
0
 62
     4
 10
-99.224937
 20
132.500107
 11
-98.224907
 21
130.500061
  0
LINE
  8
0
 62
     4
 10
-108.475037
 20
131.200012
 11
-102.975037
 21
131.200012
  0
LINE
  8
0
 62
     4
 10
-102.975037
 20
131.200012
 11
-102.975037
 21
130.500000
  0
LINE
  8
0
 62
     4
 10
-108.475037
 20
131.200012
 11
-108.475037
 21
130.500000
  0
LINE
  8
0
 62
     4
 10
-106.475037
 20
133.200012
 11
-104.975037
 21
133.200012
  0
LINE
  8
0
 62
     4
 10
-126.475037
 20
133.200012
 11
-124.975037
 21
133.200012
  0
LINE
  8
0
 62
     4
 10
-99.225067
 20
132.500000
 11
-103.455170
 21
132.500000
  0
LINE
  8
0
 62
     4
 10
-107.994904
 20
132.500000
 11
-132.224945
 21
132.500000
  0
LINE
  8
0
 62
     4
 10
-86.225037
 20
121.649994
 11
-90.220795
 21
121.649994
  0
LINE
  8
0
 62
     4
 10
-86.225037
 20
123.350006
 11
-90.676331
 21
123.350006
  0
LINE
  8
0
 62
     4
 10
-76.225006
 20
122.179993
 11
-86.225037
 21
122.179993
  0
LINE
  8
0
 62
     4
 10
-76.225006
 20
122.819992
 11
-86.225037
 21
122.819992
  0
LINE
  8
0
 62
     4
 10
-86.225006
 20
123.349976
 11
-86.225006
 21
121.649979
  0
LINE
  8
0
 62
     4
 10
-76.225006
 20
122.819977
 11
-76.225006
 21
122.179993
  0
LINE
  8
0
 62
     4
 10
-91.773712
 20
121.649994
 11
-96.225067
 21
121.649994
  0
LINE
  8
0
 62
     4
 10
-92.229248
 20
123.350006
 11
-96.225067
 21
123.350006
  0
LINE
  8
0
 62
     4
 10
-96.225037
 20
120.800003
 11
-98.225037
 21
120.800003
  0
LINE
  8
0
 62
     4
 10
-96.225006
 20
124.199982
 11
-96.225006
 21
120.799988
  0
LINE
  8
0
 62
     4
 10
-96.225037
 20
124.199997
 11
-98.225037
 21
124.199997
  0
LINE
  8
0
 62
     4
 10
-101.725037
 20
132.500000
 11
-101.725037
 21
130.500000
  0
LINE
  8
0
 62
     4
 10
-98.225037
 20
0.500000
 11
-98.225037
 21
21.500000
  0
LINE
  8
0
 62
     4
 10
-133.225037
 20
1.500000
 11
-98.225037
 21
1.500000
  0
LINE
  8
0
 62
     4
 10
-133.225037
 20
1.500000
 11
-133.225037
 21
21.500000
  0
LINE
  8
0
 62
     4
 10
-133.225037
 20
0.500000
 11
-98.225037
 21
0.500000
  0
LINE
  8
0
 62
     4
 10
-133.225037
 20
0.500000
 11
-133.225037
 21
1.500000
  0
LINE
  8
0
 62
     4
 10
-133.224960
 20
0.500056
 11
-132.224960
 21
-1.499933
  0
LINE
  8
0
 62
     4
 10
-121.725037
 20
-1.500000
 11
-121.725037
 21
0.500000
  0
LINE
  8
0
 62
     4
 10
-99.225380
 20
-1.499846
 11
-98.225388
 21
0.500176
  0
LINE
  8
0
 62
     4
 10
-122.975037
 20
-0.200012
 11
-128.475037
 21
-0.200012
  0
LINE
  8
0
 62
     4
 10
-128.475037
 20
-0.200012
 11
-128.475037
 21
0.500000
  0
LINE
  8
0
 62
     4
 10
-122.975037
 20
-0.200012
 11
-122.975037
 21
0.500000
  0
LINE
  8
0
 62
     4
 10
-124.975037
 20
-2.200012
 11
-126.475037
 21
-2.200012
  0
LINE
  8
0
 62
     4
 10
-104.975037
 20
-2.200012
 11
-106.475037
 21
-2.200012
  0
LINE
  8
0
 62
     4
 10
-132.225006
 20
-1.500000
 11
-127.994904
 21
-1.500000
  0
LINE
  8
0
 62
     4
 10
-123.455170
 20
-1.500000
 11
-99.225128
 21
-1.500000
  0
LINE
  8
0
 62
     4
 10
-86.225037
 20
9.350006
 11
-90.220795
 21
9.350006
  0
LINE
  8
0
 62
     4
 10
-86.225037
 20
7.649994
 11
-90.676331
 21
7.649994
  0
LINE
  8
0
 62
     4
 10
-76.225006
 20
8.820007
 11
-86.225037
 21
8.820007
  0
LINE
  8
0
 62
     4
 10
-76.225006
 20
8.180008
 11
-86.225037
 21
8.180008
  0
LINE
  8
0
 62
     4
 10
-86.225006
 20
7.650024
 11
-86.225006
 21
9.350021
  0
LINE
  8
0
 62
     4
 10
-76.225006
 20
8.180023
 11
-76.225006
 21
8.820007
  0
LINE
  8
0
 62
     4
 10
-91.773712
 20
9.350006
 11
-96.225067
 21
9.350006
  0
LINE
  8
0
 62
     4
 10
-92.229248
 20
7.649994
 11
-96.225067
 21
7.649994
  0
LINE
  8
0
 62
     4
 10
-96.225037
 20
10.199997
 11
-98.225037
 21
10.199997
  0
LINE
  8
0
 62
     4
 10
-96.225006
 20
6.800018
 11
-96.225006
 21
10.200012
  0
LINE
  8
0
 62
     4
 10
-96.225037
 20
6.800003
 11
-98.225037
 21
6.800003
  0
LINE
  8
0
 62
     4
 10
-129.725037
 20
-1.500000
 11
-129.725037
 21
0.500000
  0
LINE
  8
0
 10
130.775024
 20
109.500000
 11
130.775024
 21
21.500000
  0
LINE
  8
0
 10
130.775024
 20
109.500000
 11
95.775024
 21
109.500000
  0
LINE
  8
0
 10
95.775024
 20
92.000000
 11
130.775024
 21
92.000000
  0
LINE
  8
0
 10
95.775024
 20
39.000000
 11
130.775024
 21
39.000000
  0
LINE
  8
0
 10
130.775024
 20
21.500000
 11
95.775024
 21
21.500000
  0
LINE
  8
0
 10
95.775024
 20
109.500000
 11
95.775024
 21
21.500000
  0
LINE
  8
0
 10
132.775024
 20
104.000000
 11
172.775024
 21
104.000000
  0
LINE
  8
0
 10
131.775024
 20
92.000000
 11
131.775024
 21
39.000000
  0
LINE
  8
0
 10
174.775024
 20
103.000000
 11
174.775024
 21
35.500000
  0
LINE
  8
0
  6
CENTER
 62
     2
 10
146.275024
 20
85.500000
 11
161.275024
 21
85.500000
  0
LINE
  8
0
  6
CENTER
 62
     2
 10
153.775024
 20
93.000000
 11
153.775024
 21
78.000000
  0
LINE
  8
0
  6
CENTER
 62
     2
 10
153.775024
 20
53.000000
 11
153.775024
 21
38.000000
  0
LINE
  8
0
  6
CENTER
 62
     2
 10
146.275024
 20
45.500000
 11
161.275024
 21
45.500000
  0
LINE
  8
0
  6
CENTER
 62
     2
 10
147.275024
 20
73.000000
 11
147.275024
 21
58.000000
  0
LINE
  8
0
  6
CENTER
 62
     2
 10
139.775024
 20
65.500000
 11
154.775024
 21
65.500000
  0
LINE
  8
0
 10
132.775024
 20
104.000000
 11
132.775024
 21
35.500000
  0
LINE
  8
0
 10
138.775024
 20
94.500000
 11
138.775024
 21
35.500000
  0
LINE
  8
0
 10
166.775024
 20
102.790512
 11
166.775024
 21
94.500000
  0
LINE
  8
0
 10
172.775024
 20
104.000000
 11
172.775024
 21
102.947632
  0
LINE
  8
0
 10
130.775024
 20
92.000000
 11
132.775024
 21
92.000000
  0
LINE
  8
0
 10
130.775024
 20
39.000000
 11
132.775024
 21
39.000000
  0
LINE
  8
0
  6
CENTER
 62
     2
 10
162.844360
 20
98.500000
 11
178.775024
 21
98.500000
  0
LINE
  8
0
  6
CENTER
 62
     2
 10
162.557648
 20
40.000000
 11
178.775024
 21
40.000000
  0
LINE
  8
0
 10
134.274994
 20
105.200012
 11
134.274994
 21
104.000000
  0
LINE
  8
0
 10
134.274994
 20
105.200012
 11
156.774994
 21
105.200012
  0
LINE
  8
0
 10
136.174957
 20
105.787292
 11
136.174957
 21
105.200012
  0
LINE
  8
0
 10
138.374969
 20
105.787292
 11
138.374969
 21
105.200012
  0
LINE
  8
0
 10
138.374969
 20
105.400024
 11
136.174957
 21
105.400024
  0
LINE
  8
0
 10
137.674957
 20
106.200012
 11
136.874969
 21
106.200012
  0
LINE
  8
0
 10
134.274994
 20
105.200012
 11
134.274994
 21
104.000000
  0
LINE
  8
0
 10
156.774994
 20
105.200012
 11
156.774994
 21
104.000000
  0
LINE
  8
0
 10
152.674957
 20
105.787292
 11
152.674957
 21
105.200012
  0
LINE
  8
0
 10
154.874969
 20
105.787292
 11
154.874969
 21
105.200012
  0
LINE
  8
0
 10
154.874969
 20
105.400024
 11
152.674957
 21
105.400024
  0
LINE
  8
0
 10
154.174957
 20
106.200012
 11
153.374969
 21
106.200012
  0
LINE
  8
0
 10
174.775024
 20
35.500000
 11
132.775024
 21
35.500000
  0
LINE
  8
0
 10
174.775024
 20
103.000000
 11
132.775024
 21
103.000000
  0
LINE
  8
0
 10
166.775024
 20
94.500000
 11
132.775024
 21
94.500000
  0
LINE
  8
0
 10
92.274994
 20
90.500000
 11
92.274994
 21
51.100006
  0
LINE
  8
0
 10
93.774994
 20
92.000000
 11
93.774994
 21
73.500000
  0
LINE
  8
0
 10
95.775024
 20
92.000000
 11
93.774994
 21
92.000000
  0
LINE
  8
0
 10
93.774994
 20
47.000015
 11
92.274994
 21
47.000015
  0
LINE
  8
0
 10
93.774994
 20
52.000015
 11
92.274994
 21
52.000015
  0
LINE
  8
0
 10
95.775024
 20
73.500015
 11
92.274994
 21
73.500015
  0
LINE
  8
0
 10
95.775024
 20
67.500015
 11
92.274994
 21
67.500015
  0
LINE
  8
0
 10
95.775024
 20
39.000015
 11
93.774994
 21
39.000015
  0
LINE
  8
0
 10
93.774994
 20
38.999928
 11
92.274971
 21
40.499924
  0
LINE
  8
0
 10
93.774963
 20
92.000137
 11
92.274994
 21
90.500160
  0
LINE
  8
0
 10
93.774994
 20
67.500000
 11
93.774994
 21
39.000015
  0
LINE
  8
0
 10
94.106781
 20
73.250000
 11
95.775024
 21
73.250000
  0
LINE
  8
0
 10
93.075012
 20
69.500000
 11
93.075012
 21
71.500000
  0
LINE
  8
0
 10
94.106781
 20
67.750015
 11
95.775024
 21
67.750015
  0
LINE
  8
0
 10
93.774994
 20
47.250015
 11
93.774994
 21
51.750000
  0
LINE
  8
0
 10
92.887604
 20
47.250015
 11
93.774994
 21
47.250015
  0
LINE
  8
0
 10
92.887573
 20
51.750015
 11
93.774994
 21
51.750015
  0
LINE
  8
0
 10
92.075012
 20
48.700012
 11
92.075012
 21
50.300018
  0
LINE
  8
0
 10
92.274994
 20
47.900024
 11
92.274994
 21
40.500015
  0
LINE
  8
0
 10
95.075043
 20
67.750000
 11
95.075043
 21
73.250000
  0
LINE
  8
0
 10
95.775024
 20
109.500000
 11
130.775024
 21
109.500000
  0
LINE
  8
0
 62
     4
 10
95.775055
 20
130.500000
 11
95.775055
 21
109.500000
  0
LINE
  8
0
 62
     4
 10
130.775024
 20
129.500000
 11
95.775055
 21
129.500000
  0
LINE
  8
0
 62
     4
 10
130.775024
 20
129.500000
 11
130.775024
 21
109.500000
  0
LINE
  8
0
 62
     4
 10
130.775024
 20
130.500000
 11
95.775055
 21
130.500000
  0
LINE
  8
0
 62
     4
 10
130.775024
 20
130.500000
 11
130.775024
 21
129.500000
  0
LINE
  8
0
 62
     4
 10
130.774872
 20
130.499878
 11
129.774872
 21
132.499893
  0
LINE
  8
0
 62
     4
 10
119.275055
 20
132.500000
 11
119.275055
 21
130.500000
  0
LINE
  8
0
 62
     4
 10
96.775047
 20
132.500046
 11
95.775024
 21
130.500000
  0
LINE
  8
0
 62
     4
 10
120.525024
 20
131.200012
 11
126.025024
 21
131.200012
  0
LINE
  8
0
 62
     4
 10
126.025024
 20
131.200012
 11
126.025024
 21
130.500000
  0
LINE
  8
0
 62
     4
 10
120.525024
 20
131.200012
 11
120.525024
 21
130.500000
  0
LINE
  8
0
 62
     4
 10
122.525024
 20
133.200012
 11
124.025024
 21
133.200012
  0
LINE
  8
0
 62
     4
 10
102.525055
 20
133.200012
 11
104.025055
 21
133.200012
  0
LINE
  8
0
 62
     4
 10
129.775024
 20
132.500000
 11
125.544922
 21
132.500000
  0
LINE
  8
0
 62
     4
 10
121.005188
 20
132.500000
 11
96.775146
 21
132.500000
  0
LINE
  8
0
 62
     4
 10
83.775055
 20
121.649994
 11
87.770813
 21
121.649994
  0
LINE
  8
0
 62
     4
 10
83.775055
 20
123.350006
 11
88.226349
 21
123.350006
  0
LINE
  8
0
 62
     4
 10
73.775024
 20
122.179993
 11
83.775055
 21
122.179993
  0
LINE
  8
0
 62
     4
 10
73.775024
 20
122.819992
 11
83.775055
 21
122.819992
  0
LINE
  8
0
 62
     4
 10
83.775024
 20
123.349976
 11
83.775024
 21
121.649979
  0
LINE
  8
0
 62
     4
 10
73.775024
 20
122.819977
 11
73.775024
 21
122.179993
  0
LINE
  8
0
 62
     4
 10
89.323730
 20
121.649994
 11
93.775085
 21
121.649994
  0
LINE
  8
0
 62
     4
 10
89.779266
 20
123.350006
 11
93.775085
 21
123.350006
  0
LINE
  8
0
 62
     4
 10
93.775055
 20
120.800003
 11
95.775055
 21
120.800003
  0
LINE
  8
0
 62
     4
 10
93.775024
 20
124.199982
 11
93.775024
 21
120.799988
  0
LINE
  8
0
 62
     4
 10
93.775055
 20
124.199997
 11
95.775055
 21
124.199997
  0
LINE
  8
0
 62
     4
 10
127.275024
 20
132.500000
 11
127.275024
 21
130.500000
  0
LINE
  8
0
 62
     4
 10
95.775055
 20
0.500000
 11
95.775055
 21
21.500000
  0
LINE
  8
0
 62
     4
 10
130.775024
 20
1.500000
 11
95.775055
 21
1.500000
  0
LINE
  8
0
 62
     4
 10
130.775024
 20
1.500000
 11
130.775024
 21
21.500000
  0
LINE
  8
0
 62
     4
 10
130.775024
 20
0.500000
 11
95.775055
 21
0.500000
  0
LINE
  8
0
 62
     4
 10
130.775024
 20
0.500000
 11
130.775024
 21
1.500000
  0
LINE
  8
0
 62
     4
 10
130.774948
 20
0.500041
 11
129.774948
 21
-1.499973
  0
LINE
  8
0
 62
     4
 10
107.275055
 20
-1.500000
 11
107.275055
 21
0.500000
  0
LINE
  8
0
 62
     4
 10
96.775101
 20
-1.500031
 11
95.775085
 21
0.500010
  0
LINE
  8
0
 62
     4
 10
106.025055
 20
-0.200012
 11
100.525055
 21
-0.200012
  0
LINE
  8
0
 62
     4
 10
100.525055
 20
-0.200012
 11
100.525055
 21
0.500000
  0
LINE
  8
0
 62
     4
 10
106.025055
 20
-0.200012
 11
106.025055
 21
0.500000
  0
LINE
  8
0
 62
     4
 10
104.025055
 20
-2.200012
 11
102.525055
 21
-2.200012
  0
LINE
  8
0
 62
     4
 10
124.025024
 20
-2.200012
 11
122.525024
 21
-2.200012
  0
LINE
  8
0
 62
     4
 10
96.775085
 20
-1.500000
 11
101.005188
 21
-1.500000
  0
LINE
  8
0
 62
     4
 10
105.544922
 20
-1.500000
 11
129.774963
 21
-1.500000
  0
LINE
  8
0
 62
     4
 10
83.775055
 20
9.350006
 11
87.770813
 21
9.350006
  0
LINE
  8
0
 62
     4
 10
83.775055
 20
7.649994
 11
88.226349
 21
7.649994
  0
LINE
  8
0
 62
     4
 10
73.775024
 20
8.820007
 11
83.775055
 21
8.820007
  0
LINE
  8
0
 62
     4
 10
73.775024
 20
8.180008
 11
83.775055
 21
8.180008
  0
LINE
  8
0
 62
     4
 10
83.775024
 20
7.650024
 11
83.775024
 21
9.350021
  0
LINE
  8
0
 62
     4
 10
73.775024
 20
8.180023
 11
73.775024
 21
8.820007
  0
LINE
  8
0
 62
     4
 10
89.323730
 20
9.350006
 11
93.775085
 21
9.350006
  0
LINE
  8
0
 62
     4
 10
89.779266
 20
7.649994
 11
93.775085
 21
7.649994
  0
LINE
  8
0
 62
     4
 10
93.775055
 20
10.199997
 11
95.775055
 21
10.199997
  0
LINE
  8
0
 62
     4
 10
93.775024
 20
6.800018
 11
93.775024
 21
10.200012
  0
LINE
  8
0
 62
     4
 10
93.775055
 20
6.800003
 11
95.775055
 21
6.800003
  0
LINE
  8
0
 62
     4
 10
99.275055
 20
-1.500000
 11
99.275055
 21
0.500000
  0
LINE
  8
0
 62
     1
 10
87.234787
 20
119.649986
 11
88.762108
 21
125.350006
  0
LINE
  8
0
 62
     1
 10
88.787834
 20
119.650032
 11
90.315140
 21
125.349991
  0
LINE
  8
0
 62
     1
 10
87.235382
 20
11.350167
 11
88.762703
 21
5.650150
  0
LINE
  8
0
 62
     1
 10
88.788063
 20
11.350051
 11
90.315376
 21
5.650033
  0
LINE
  8
0
 10
-14.225006
 20
-115.000000
 11
8.774994
 21
-115.000000
  0
LINE
  8
0
 10
-23.225037
 20
-159.000000
 11
19.774994
 21
-159.000000
  0
LINE
  8
0
 10
-17.225037
 20
-117.000000
 11
13.774994
 21
-117.000000
  0
LINE
  8
0
  6
CENTER
 62
     2
 10
-2.725006
 20
-47.411453
 11
-2.725006
 21
-163.797394
  0
LINE
  8
0
 10
9.274994
 20
-116.000031
 11
9.274994
 21
-117.000031
  0
LINE
  8
0
 10
-14.725006
 20
-116.000031
 11
-14.725006
 21
-117.000031
  0
LINE
  8
0
 10
-23.225006
 20
-151.000000
 11
-14.725037
 21
-151.000000
  0
LINE
  8
0
 10
-14.725037
 20
-116.000000
 11
9.274963
 21
-116.000000
  0
LINE
  8
0
  6
CENTER
 62
     2
 10
-18.725037
 20
-146.885010
 11
-18.725037
 21
-163.061783
  0
LINE
  8
0
  6
CENTER
 62
     2
 10
15.274963
 20
-146.885010
 11
15.274963
 21
-163.232056
  0
LINE
  8
0
 10
-14.225006
 20
-115.000000
 11
-14.225006
 21
-116.000000
  0
LINE
  8
0
 10
8.774994
 20
-115.000000
 11
8.774994
 21
-116.000000
  0
LINE
  8
0
 10
-23.225037
 20
-123.000000
 11
-23.225037
 21
-159.000000
  0
LINE
  8
0
 10
19.774994
 20
-123.000000
 11
19.774994
 21
-159.000000
  0
LINE
  8
0
 10
-17.225073
 20
-116.999969
 11
-23.225079
 21
-122.999977
  0
LINE
  8
0
 10
13.775134
 20
-116.999916
 11
19.775129
 21
-122.999908
  0
LINE
  8
0
 10
-14.725037
 20
-151.000000
 11
-14.725037
 21
-117.000000
  0
LINE
  8
0
 62
     4
 10
8.774994
 20
-78.000000
 11
8.774994
 21
-115.000000
  0
LINE
  8
0
 62
     4
 10
-14.225006
 20
-80.000000
 11
8.774994
 21
-80.000000
  0
LINE
  8
0
 62
     4
 10
-14.225006
 20
-78.000000
 11
-14.225006
 21
-115.000000
  0
LINE
  8
0
 62
     4
 10
-14.225006
 20
-78.000000
 11
8.775024
 21
-78.000000
  0
LINE
  8
0
 62
     4
 10
7.274854
 20
-76.500099
 11
8.774867
 21
-78.000114
  0
LINE
  8
0
 62
     4
 10
-14.224950
 20
-78.000206
 11
-12.724913
 21
-76.500168
  0
LINE
  8
0
 62
     4
 10
-12.724945
 20
-76.500000
 11
7.275024
 21
-76.500000
  0
LINE
  8
0
 62
     4
 10
-11.813229
 20
-108.588974
 11
-9.757508
 21
-106.533249
  0
LINE
  8
0
 62
     4
 10
-11.885887
 20
-106.339287
 11
-9.694186
 21
-108.530991
  0
LINE
  8
0
 62
     4
 10
5.274994
 20
-83.500000
 11
8.774994
 21
-83.500000
  0
LINE
  8
0
 62
     4
 10
-10.725006
 20
-103.500000
 11
-14.225006
 21
-103.500000
  0
LINE
  8
0
 62
     4
 10
-10.725006
 20
-111.500000
 11
-14.225006
 21
-111.500000
  0
LINE
  8
0
 62
     4
 10
6.363199
 20
-86.411125
 11
4.307483
 21
-88.466850
  0
LINE
  8
0
 62
     4
 10
6.435854
 20
-88.660751
 11
4.244132
 21
-86.469032
  0
LINE
  8
0
 62
     4
 10
5.274994
 20
-91.500000
 11
8.774994
 21
-91.500000
  0
LINE
  8
0
 62
     4
 10
-2.274994
 20
-68.000000
 11
-2.274994
 21
-72.092468
  0
LINE
  8
0
 62
     4
 10
-0.574982
 20
-68.000000
 11
-0.574982
 21
-71.636948
  0
LINE
  8
0
 62
     4
 10
-1.745026
 20
-57.999969
 11
-1.745026
 21
-68.000000
  0
LINE
  8
0
 62
     4
 10
-1.105011
 20
-57.999969
 11
-1.105011
 21
-68.000000
  0
LINE
  8
0
 62
     4
 10
-0.575043
 20
-67.999969
 11
-2.275055
 21
-67.999969
  0
LINE
  8
0
 62
     4
 10
-1.105011
 20
-57.999969
 11
-1.745026
 21
-57.999969
  0
LINE
  8
0
 62
     4
 10
-4.875031
 20
-68.000000
 11
-4.875031
 21
-72.789146
  0
LINE
  8
0
 62
     4
 10
-3.175018
 20
-68.000000
 11
-3.175018
 21
-72.333626
  0
LINE
  8
0
 62
     4
 10
-4.345001
 20
-57.999969
 11
-4.345001
 21
-68.000000
  0
LINE
  8
0
 62
     4
 10
-3.704987
 20
-57.999969
 11
-3.704987
 21
-68.000000
  0
LINE
  8
0
 62
     4
 10
-3.175018
 20
-67.999969
 11
-4.875031
 21
-67.999969
  0
LINE
  8
0
 62
     4
 10
-3.705048
 20
-57.999969
 11
-4.345001
 21
-57.999969
  0
LINE
  8
0
 62
     4
 10
-4.875031
 20
-74.342117
 11
-4.875031
 21
-76.500000
  0
LINE
  8
0
 62
     4
 10
-3.175018
 20
-73.886597
 11
-3.175018
 21
-76.500000
  0
LINE
  8
0
 62
     4
 10
-2.274994
 20
-73.645439
 11
-2.274994
 21
-76.500000
  0
LINE
  8
0
 62
     4
 10
-0.574982
 20
-73.189926
 11
-0.574982
 21
-76.500000
  0
LINE
  8
0
 62
     4
 10
-13.225006
 20
-81.000000
 11
-13.225006
 21
-103.500000
  0
LINE
  8
0
 62
     4
 10
7.774994
 20
-81.000000
 11
7.774994
 21
-83.500000
  0
LINE
  8
0
 62
     4
 10
-13.225006
 20
-81.000000
 11
7.774994
 21
-81.000000
  0
LINE
  8
0
 62
     4
 10
-13.225006
 20
-114.000000
 11
7.774994
 21
-114.000000
  0
LINE
  8
0
 62
     4
 10
-14.225005
 20
-79.999992
 11
-13.225004
 21
-80.999992
  0
LINE
  8
0
 62
     4
 10
8.774987
 20
-80.000008
 11
7.774997
 21
-80.999992
  0
LINE
  8
0
 62
     4
 10
8.774993
 20
-114.999992
 11
7.774997
 21
-114.000000
  0
LINE
  8
0
 62
     4
 10
-14.225005
 20
-115.000000
 11
-13.225009
 21
-114.000000
  0
LINE
  8
0
 62
     4
 10
-13.225006
 20
-111.500000
 11
-13.225006
 21
-114.000000
  0
LINE
  8
0
 62
     4
 10
7.774994
 20
-91.500000
 11
7.774994
 21
-114.000000
  0
LINE
  8
0
 62
     1
 10
0.125064
 20
-71.449379
 11
-5.574950
 21
-72.976707
  0
LINE
  8
0
 62
     1
 10
0.125036
 20
-73.002319
 11
-5.574951
 21
-74.529633
  0
LINE
  8
0
  6
CENTER
 62
     1
 10
-1.425018
 20
-55.938194
 11
-1.425018
 21
-78.926712
  0
LINE
  8
0
  6
CENTER
 62
     1
 10
-4.025055
 20
-55.938194
 11
-4.025055
 21
-78.926712
  0
LINE
  8
0
 10
106.275024
 20
-75.000000
 11
106.275024
 21
-143.500000
  0
LINE
  8
0
 10
149.275024
 20
-75.000000
 11
149.275024
 21
-143.500000
  0
LINE
  8
0
 10
106.275024
 20
-143.500000
 11
149.275024
 21
-143.500000
  0
LINE
  8
0
 10
106.275024
 20
-75.000000
 11
149.275024
 21
-75.000000
  0
LINE
  8
0
 10
134.275024
 20
-73.800003
 11
116.275024
 21
-73.800003
  0
LINE
  8
0
 10
132.375000
 20
-73.212708
 11
132.375000
 21
-73.800003
  0
LINE
  8
0
 10
130.174988
 20
-73.212708
 11
130.174988
 21
-73.800003
  0
LINE
  8
0
 10
130.174988
 20
-73.599991
 11
132.375000
 21
-73.599991
  0
LINE
  8
0
 10
130.875000
 20
-72.800003
 11
131.674988
 21
-72.800003
  0
LINE
  8
0
  6
CENTER
 62
     2
 10
109.275024
 20
-133.500000
 11
124.275024
 21
-133.500000
  0
LINE
  8
0
  6
CENTER
 62
     2
 10
116.775024
 20
-126.000000
 11
116.775024
 21
-141.000000
  0
LINE
  8
0
  6
CENTER
 62
     2
 10
140.775024
 20
-117.500000
 11
140.775024
 21
-132.500000
  0
LINE
  8
0
  6
CENTER
 62
     2
 10
133.275024
 20
-125.000000
 11
148.275024
 21
-125.000000
  0
LINE
  8
0
  6
CENTER
 62
     2
 10
140.775024
 20
-94.500000
 11
140.775024
 21
-109.500000
  0
LINE
  8
0
  6
CENTER
 62
     2
 10
133.275024
 20
-102.000000
 11
148.275024
 21
-102.000000
  0
LINE
  8
0
  6
CENTER
 62
     2
 10
116.775024
 20
-86.000000
 11
116.775024
 21
-101.000000
  0
LINE
  8
0
  6
CENTER
 62
     2
 10
109.275024
 20
-93.500000
 11
124.275024
 21
-93.500000
  0
LINE
  8
0
  6
CENTER
 62
     2
 10
116.775024
 20
-106.000000
 11
116.775024
 21
-121.000000
  0
LINE
  8
0
  6
CENTER
 62
     2
 10
109.275024
 20
-113.500000
 11
124.275024
 21
-113.500000
  0
LINE
  8
0
  6
CENTER
 62
     2
 10
131.275024
 20
-85.000000
 11
131.275024
 21
-92.000000
  0
LINE
  8
0
  6
CENTER
 62
     2
 10
127.775024
 20
-88.500000
 11
134.775024
 21
-88.500000
  0
LINE
  8
0
 10
106.275024
 20
-76.000000
 11
149.275024
 21
-76.000000
  0
LINE
  8
0
  6
CENTER
 62
     2
 10
106.775024
 20
-80.500000
 11
114.775024
 21
-80.500000
  0
LINE
  8
0
  6
CENTER
 62
     2
 10
140.775024
 20
-139.000000
 11
148.775024
 21
-139.000000
  0
LINE
  8
0
  6
CENTER
 62
     2
 10
144.775024
 20
-135.000000
 11
144.775024
 21
-143.000000
  0
LINE
  8
0
  6
CENTER
 62
     2
 10
110.775024
 20
-76.500000
 11
110.775024
 21
-84.500000
  0
LINE
  8
0
 10
134.275024
 20
-73.800003
 11
134.275024
 21
-75.000000
  0
LINE
  8
0
 10
116.275055
 20
-73.800003
 11
116.275055
 21
-75.000000
  0
LINE
  8
0
 10
124.875000
 20
-73.212708
 11
124.875000
 21
-73.800003
  0
LINE
  8
0
 10
122.674988
 20
-73.212708
 11
122.674988
 21
-73.800003
  0
LINE
  8
0
 10
122.674988
 20
-73.599991
 11
124.875000
 21
-73.599991
  0
LINE
  8
0
 10
123.375000
 20
-72.800003
 11
124.174988
 21
-72.800003
  0
ARC
  8
0
 10
-11.725006
 20
71.000000
 40
3.000000
 50
179.600311
 51
180.000000
  0
ARC
  8
0
 10
-11.725006
 20
71.500000
 40
3.000000
 50
177.494873
 51
180.000000
  0
CIRCLE
  8
0
 10
-2.725006
 20
25.000000
 40
2.299999
  0
CIRCLE
  8
0
 10
-2.725006
 20
25.000000
 40
1.500000
  0
CIRCLE
  8
0
 10
-2.725006
 20
106.000000
 40
2.299999
  0
CIRCLE
  8
0
 10
-2.725006
 20
106.000000
 40
1.500000
  0
ARC
  8
0
 10
-11.725006
 20
70.000000
 40
3.000000
 50
179.600311
 51
180.000000
  0
ARC
  8
0
 10
-11.725006
 20
70.500000
 40
3.000000
 50
177.494873
 51
180.000000
  0
ARC
  8
0
 10
-11.725006
 20
70.500000
 40
3.000000
 50
177.559631
 51
180.000000
  0
ARC
  8
0
 10
6.274994
 20
70.999985
 40
3.000000
 50
0.000000
 51
0.399688
  0
ARC
  8
0
 10
6.274994
 20
71.500000
 40
3.000000
 50
0.000000
 51
2.505128
  0
ARC
  8
0
 10
6.274994
 20
69.999985
 40
3.000000
 50
0.000000
 51
0.399688
  0
ARC
  8
0
 10
6.274994
 20
70.499985
 40
3.000000
 50
0.000000
 51
2.505128
  0
ARC
  8
0
 10
6.274994
 20
70.499985
 40
3.000000
 50
0.000000
 51
2.440372
  0
CIRCLE
  8
0
 10
15.274994
 20
98.500000
 40
2.250000
  0
ARC
  8
0
 10
12.275024
 20
95.500000
 40
1.000000
 50
180.000000
 51
270.000000
  0
CIRCLE
  8
0
 10
-18.725006
 20
40.000000
 40
2.250000
  0
ARC
  8
0
 10
-15.725006
 20
43.500000
 40
1.000000
 50
0.000000
 51
90.000000
  0
ARC
  8
0
 10
-11.725006
 20
78.500000
 40
3.000000
 50
0.000000
 51
89.999985
  0
ARC
  8
0
 10
-11.725006
 20
52.500000
 40
3.000000
 50
0.000000
 51
89.999985
  0
ARC
  8
0
 10
5.774994
 20
45.500000
 40
2.500000
 50
89.999977
 51
270.000000
  0
ARC
  8
0
 10
-11.225006
 20
85.499985
 40
2.500000
 50
0.000000
 51
89.999977
  0
ARC
  8
0
 10
-11.725006
 20
52.500000
 40
3.000000
 50
270.000031
 51
0.000000
  0
ARC
  8
0
 10
-11.725006
 20
78.500000
 40
3.000000
 50
270.000031
 51
0.000000
  0
ARC
  8
0
 10
6.274994
 20
70.500000
 40
3.000000
 50
89.999985
 51
270.000000
  0
ARC
  8
0
 10
-11.225006
 20
85.499985
 40
2.500000
 50
270.000031
 51
0.000000
  0
CIRCLE
  8
0
 10
-11.725006
 20
52.500000
 40
2.500000
  0
CIRCLE
  8
0
 10
-11.725006
 20
78.500000
 40
2.500000
  0
CIRCLE
  8
0
 10
6.274994
 20
70.500000
 40
2.500000
  0
CIRCLE
  8
0
 10
5.774994
 20
45.500000
 40
2.250000
  0
CIRCLE
  8
0
 10
-11.225006
 20
85.499985
 40
2.250000
  0
ARC
  8
0
 62
     4
 10
-1.425011
 20
122.500015
 40
1.699997
 50
269.999878
 51
90.000198
  0
ARC
  8
0
 62
     4
 10
-4.024986
 20
122.500015
 40
1.699997
 50
89.999916
 51
270.000153
  0
CIRCLE
  8
0
 62
     4
 10
-4.024986
 20
122.500015
 40
0.850000
  0
CIRCLE
  8
0
 62
     4
 10
-1.425011
 20
122.500015
 40
0.850000
  0
ARC
  8
0
 62
     4
 10
-11.474998
 20
131.200012
 40
2.000000
 50
90.000031
 51
139.458878
  0
ARC
  8
0
 62
     4
 10
-9.974998
 20
131.200012
 40
2.000000
 50
40.541149
 51
90.000031
  0
ARC
  8
0
 62
     4
 10
4.525002
 20
131.200012
 40
2.000000
 50
90.000031
 51
139.458359
  0
ARC
  8
0
 62
     4
 10
6.025002
 20
131.200012
 40
2.000000
 50
90.000031
 51
95.183693
  0
ARC
  8
0
 62
     4
 10
6.025002
 20
131.200012
 40
2.000002
 50
40.541679
 51
90.000031
  0
ARC
  8
0
 62
     4
 10
-11.474998
 20
-0.200012
 40
2.000000
 50
220.541611
 51
270.000031
  0
ARC
  8
0
 62
     4
 10
-4.024986
 20
8.499985
 40
1.699997
 50
89.999855
 51
270.000153
  0
ARC
  8
0
 62
     4
 10
-1.425011
 20
8.499985
 40
1.699997
 50
269.999908
 51
90.000145
  0
CIRCLE
  8
0
 62
     4
 10
-1.425011
 20
8.499985
 40
0.850000
  0
CIRCLE
  8
0
 62
     4
 10
-4.024986
 20
8.499985
 40
0.850000
  0
ARC
  8
0
 62
     4
 10
6.025002
 20
-0.200012
 40
2.000000
 50
270.000000
 51
319.458893
  0
ARC
  8
0
 62
     4
 10
4.525002
 20
-0.200012
 40
2.000000
 50
220.541168
 51
270.000000
  0
ARC
  8
0
 62
     4
 10
-9.974998
 20
-0.200012
 40
2.000000
 50
270.000031
 51
319.458466
  0
ARC
  8
0
 62
     4
 10
-11.474998
 20
-0.200012
 40
2.000000
 50
270.000031
 51
275.183685
  0
CIRCLE
  8
0
 62
     2
 10
-156.225006
 20
55.000000
 40
6.578500
  0
CIRCLE
  8
0
 10
-156.225006
 20
55.000000
 40
5.722500
  0
CIRCLE
  8
0
 62
     2
 10
-156.225006
 20
76.000000
 40
6.578500
  0
CIRCLE
  8
0
 10
-156.225006
 20
76.000000
 40
5.722500
  0
CIRCLE
  8
0
 62
     2
 10
-167.225006
 20
90.500000
 40
4.864000
  0
CIRCLE
  8
0
 10
-167.225006
 20
90.500000
 40
4.278000
  0
ARC
  8
0
 10
-139.324982
 20
105.400024
 40
0.800000
 50
28.953182
 51
90.000000
  0
ARC
  8
0
 10
-140.124969
 20
105.400024
 40
0.800003
 50
90.000000
 51
151.046814
  0
ARC
  8
0
 10
-156.624969
 20
105.400024
 40
0.800003
 50
90.000000
 51
151.046814
  0
ARC
  8
0
 10
-155.824982
 20
105.400024
 40
0.800000
 50
28.953182
 51
90.000000
  0
ARC
  8
0
 10
-97.525055
 20
79.500015
 40
2.000000
 50
0.000000
 51
61.044472
  0
ARC
  8
0
 10
-97.525055
 20
77.500000
 40
2.000001
 50
298.955536
 51
0.000000
  0
ARC
  8
0
 10
-96.609894
 20
75.950012
 40
0.199997
 50
270.000000
 51
300.556305
  0
ARC
  8
0
 10
-97.525055
 20
53.500015
 40
2.000000
 50
0.000000
 51
61.044472
  0
ARC
  8
0
 10
-97.525055
 20
51.500015
 40
2.000001
 50
298.955536
 51
0.000000
  0
ARC
  8
0
 10
-96.609894
 20
49.950027
 40
0.200001
 50
270.000000
 51
300.556305
  0
ARC
  8
0
 10
-96.225006
 20
86.300003
 40
1.699997
 50
0.000000
 51
58.533295
  0
ARC
  8
0
 10
-96.225006
 20
84.699997
 40
1.699998
 50
301.467072
 51
0.000000
  0
ARC
  8
0
 62
     4
 10
-106.475037
 20
131.200012
 40
2.000000
 50
90.000000
 51
180.000000
  0
ARC
  8
0
 62
     4
 10
-104.975037
 20
131.200012
 40
2.000000
 50
0.000000
 51
90.000000
  0
ARC
  8
0
 62
     4
 10
-126.475037
 20
131.200012
 40
2.000000
 50
90.000000
 51
139.458298
  0
ARC
  8
0
 62
     4
 10
-124.975037
 20
131.200012
 40
2.000003
 50
40.788296
 51
90.000000
  0
ARC
  8
0
 62
     4
 10
-104.975037
 20
-0.200012
 40
2.000000
 50
270.000000
 51
319.458252
  0
ARC
  8
0
 62
     4
 10
-106.475037
 20
-0.200012
 40
1.999999
 50
220.788147
 51
270.000000
  0
ARC
  8
0
 62
     4
 10
-124.975037
 20
-0.200012
 40
2.000000
 50
270.000000
 51
359.999878
  0
ARC
  8
0
 62
     4
 10
-126.475037
 20
-0.200012
 40
2.000000
 50
179.999878
 51
270.000000
  0
CIRCLE
  8
0
 62
     2
 10
153.775024
 20
45.500000
 40
6.578500
  0
CIRCLE
  8
0
 10
153.775024
 20
45.500000
 40
5.722500
  0
CIRCLE
  8
0
 62
     2
 10
147.275024
 20
65.500000
 40
6.578500
  0
CIRCLE
  8
0
 10
147.275024
 20
65.500000
 40
5.722500
  0
CIRCLE
  8
0
 62
     2
 10
153.775024
 20
85.500000
 40
6.578500
  0
CIRCLE
  8
0
 10
153.775024
 20
85.500000
 40
5.722500
  0
ARC
  8
0
 10
136.874969
 20
105.400024
 40
0.800003
 50
90.000000
 51
151.046814
  0
ARC
  8
0
 10
137.674957
 20
105.400024
 40
0.800000
 50
28.953182
 51
90.000000
  0
ARC
  8
0
 10
154.174957
 20
105.400024
 40
0.800000
 50
28.953182
 51
90.000000
  0
ARC
  8
0
 10
153.374969
 20
105.400024
 40
0.800003
 50
90.000000
 51
151.046814
  0
ARC
  8
0
 10
95.075043
 20
69.500000
 40
2.000000
 50
180.000000
 51
241.044662
  0
ARC
  8
0
 10
95.075043
 20
71.500015
 40
2.000001
 50
118.955528
 51
180.000000
  0
ARC
  8
0
 10
94.159882
 20
73.050003
 40
0.199997
 50
90.000000
 51
120.556305
  0
ARC
  8
0
 10
93.774994
 20
48.700027
 40
1.699997
 50
180.000000
 51
238.533295
  0
ARC
  8
0
 10
93.774994
 20
50.300003
 40
1.700002
 50
121.467278
 51
180.000000
  0
ARC
  8
0
 62
     4
 10
122.525024
 20
131.200012
 40
2.000000
 50
90.000000
 51
180.000000
  0
ARC
  8
0
 62
     4
 10
124.025024
 20
131.200012
 40
2.000000
 50
0.000000
 51
90.000000
  0
ARC
  8
0
 62
     4
 10
102.525055
 20
131.200012
 40
2.000000
 50
90.000000
 51
139.458298
  0
ARC
  8
0
 62
     4
 10
104.025055
 20
131.200012
 40
2.000003
 50
40.788296
 51
90.000000
  0
ARC
  8
0
 62
     4
 10
124.025024
 20
-0.200012
 40
2.000000
 50
270.000000
 51
319.458282
  0
ARC
  8
0
 62
     4
 10
122.525024
 20
-0.200012
 40
2.000000
 50
220.788177
 51
270.000000
  0
ARC
  8
0
 62
     4
 10
104.025055
 20
-0.200012
 40
2.000000
 50
270.000000
 51
359.999939
  0
ARC
  8
0
 62
     4
 10
102.525055
 20
-0.200012
 40
2.000000
 50
179.999939
 51
270.000000
  0
ARC
  8
0
 62
     4
 10
-10.725006
 20
-107.500000
 40
4.000000
 50
270.000000
 51
89.999985
  0
CIRCLE
  8
0
 62
     4
 10
5.274994
 20
-87.500000
 40
2.750000
  0
CIRCLE
  8
0
 62
     4
 10
-10.725006
 20
-107.500000
 40
2.750000
  0
ARC
  8
0
 62
     4
 10
5.274994
 20
-87.500000
 40
4.000000
 50
90.000031
 51
270.000000
  0
CIRCLE
  8
0
 62
     2
 10
140.775024
 20
-102.000000
 40
6.578500
  0
CIRCLE
  8
0
 10
140.775024
 20
-102.000000
 40
5.722500
  0
ARC
  8
0
 10
131.674988
 20
-73.599991
 40
0.800000
 50
28.953182
 51
90.000000
  0
ARC
  8
0
 10
130.875000
 20
-73.599991
 40
0.800003
 50
90.000000
 51
151.046814
  0
CIRCLE
  8
0
 10
116.775024
 20
-133.500000
 40
5.722500
  0
CIRCLE
  8
0
 62
     2
 10
116.775024
 20
-133.500000
 40
6.578500
  0
CIRCLE
  8
0
 10
116.775024
 20
-113.500000
 40
5.722500
  0
CIRCLE
  8
0
 62
     2
 10
116.775024
 20
-113.500000
 40
6.578500
  0
CIRCLE
  8
0
 10
116.775024
 20
-93.500000
 40
5.722500
  0
CIRCLE
  8
0
 62
     2
 10
116.775024
 20
-93.500000
 40
6.578500
  0
CIRCLE
  8
0
 10
140.775024
 20
-125.000000
 40
5.722500
  0
CIRCLE
  8
0
 62
     2
 10
140.775024
 20
-125.000000
 40
6.578500
  0
CIRCLE
  8
0
 62
     2
 10
131.275024
 20
-88.500000
 40
2.500000
  0
CIRCLE
  8
0
 10
131.275024
 20
-88.500000
 40
2.100000
  0
CIRCLE
  8
0
 10
110.775024
 20
-80.500000
 40
2.250000
  0
CIRCLE
  8
0
 10
144.775024
 20
-139.000000
 40
2.250000
  0
ARC
  8
0
 10
123.375000
 20
-73.599991
 40
0.800003
 50
90.000000
 51
151.046814
  0
ARC
  8
0
 10
124.174988
 20
-73.599991
 40
0.800000
 50
28.953182
 51
90.000000
  0
TEXT
  8
0
 10
174.200241
 20
180.830002
 40
6.300000
  1
DATE: NOV ,1993
 50
0.000000
 41
1.052632
 51
0.000000
  7
STANDARD
  0
TEXT
  8
0
 10
167.564667
 20
-192.100006
 40
9.000000
  1
KOGANEI CORP.
 50
0.000000
 41
1.052632
 51
0.000000
  7
STANDARD
  0
TEXT
  8
0
 10
-247.099716
 20
180.830002
 40
6.300000
  1
A240-4E2
 50
0.000000
 41
1.052632
 51
0.000000
  7
STANDARD
  0
TEXT
  8
0
 10
-270.049713
 20
155.830002
 40
6.300000
  1
MODEL:A240-4E2-25
 50
0.000000
 41
1.052632
 51
0.000000
  7
STANDARD
  0
TEXT
  8
0
 10
156.933624
 20
-101.669998
 40
6.300000
  1
(-27)
 50
0.000000
 41
1.052632
 51
0.000000
  7
STANDARD
  0
TEXT
  8
0
 10
-169.425034
 20
77.678436
 40
3.000000
  1
A
 50
-90.000000
 41
1.052631
 51
0.000000
  7
STANDARD
  0
TEXT
  8
0
 10
-160.425034
 20
93.678436
 40
3.000000
  1
PR
 50
-90.000000
 41
1.052631
 51
0.000000
  7
STANDARD
  0
TEXT
  8
0
 10
-169.425034
 20
56.678436
 40
3.000000
  1
B
 50
-90.000000
 41
1.052631
 51
0.000000
  7
STANDARD
  0
TEXT
  8
0
 10
166.975021
 20
42.321564
 40
3.000000
  1
R2
 50
90.000000
 41
1.052631
 51
0.000000
  7
STANDARD
  0
TEXT
  8
0
 10
160.475021
 20
63.821564
 40
3.000000
  1
P
 50
90.000000
 41
1.052631
 51
0.000000
  7
STANDARD
  0
TEXT
  8
0
 10
166.975021
 20
82.321564
 40
3.000000
  1
R1
 50
90.000000
 41
1.052631
 51
0.000000
  7
STANDARD
  0
TEXT
  8
0
 10
142.718018
 20
-95.879997
 40
3.200000
  1
A
 50
0.000000
 41
1.052632
 51
0.000000
  7
STANDARD
  0
TEXT
  8
0
 10
142.718018
 20
-134.880005
 40
3.200000
  1
B
 50
0.000000
 41
1.052632
 51
0.000000
  7
STANDARD
  0
TEXT
  8
0
 10
114.968025
 20
-86.379997
 40
3.200000
  1
R
 50
0.000000
 41
1.052632
 51
0.000000
  7
STANDARD
  0
TEXT
  8
0
 10
114.968025
 20
-126.379997
 40
3.200000
  1
R
 50
0.000000
 41
1.052632
 51
0.000000
  7
STANDARD
  0
TEXT
  8
0
 10
114.968025
 20
-106.379997
 40
3.200000
  1
P
 50
0.000000
 41
1.052632
 51
0.000000
  7
STANDARD
  0
TEXT
  8
0
 10
128.155029
 20
-91.906998
 40
3.200000
  1
PR
 50
90.000000
 41
1.052632
 51
0.000000
  7
STANDARD
  0
ENDSEC
  0
EOF
