  0
SECTION
  2
HEADER
  0
ENDSEC
  0
SECTION
  2
TABLES
  0
TABLE
  2
LTYPE
 70
     4
  0
LTYPE
  2
CONTINUOUS
 70
    64
  3
Solid line
 72
    65
 73
     0
 40
0.000000
  0
LTYPE
  2
DASHED
 70
    64
  3
__ __ __ __ __ __ __ __ __ __ __ __ __ __ __
 72
    65
 73
     2
 40
3.500000
 49
2.000000
 49
-1.500000
  0
LTYPE
  2
CENTER
 70
    64
  3
____ _ ____ _ ____ _ ____ _ ____ _ ____ _ ____
 72
    65
 73
     4
 40
17.500000
 49
13.000000
 49
-1.500000
 49
1.500000
 49
-1.500000
  0
LTYPE
  2
PHANTOM
 70
    64
  3
_____ _ _ _____ _ _ _____ _ _ _____ _ _ ____  
 72
    65
 73
     6
 40
15.500000
 49
8.000000
 49
-1.500000
 49
1.500000
 49
-1.500000
 49
1.500000
 49
-1.500000
  0
LTYPE
  2
DASHED1
 70
    64
  3
__ __ __ __ __ __ __ __ __ __ __ __ __ __ __
 72
    65
 73
     2
 40
1.500000
 49
1.000000
 49
-0.500000
  0
LTYPE
  2
DASHED2
 70
    64
  3
__ __ __ __ __ __ __ __ __ __ __ __ __ __ __
 72
    65
 73
     2
 40
3.500000
 49
2.500000
 49
-1.000000
  0
LTYPE
  2
DASHED3
 70
    64
  3
__ __ __ __ __ __ __ __ __ __ __ __ __ __ __
 72
    65
 73
     2
 40
6.000000
 49
4.000000
 49
-2.000000
  0
LTYPE
  2
DASHED4
 70
    64
  3
__ __ __ __ __ __ __ __ __ __ __ __ __ __ __
 72
    65
 73
     2
 40
12.000000
 49
10.000000
 49
-2.000000
  0
LTYPE
  2
DASHED5
 70
    64
  3
__ __ __ __ __ __ __ __ __ __ __ __ __ __ __
 72
    65
 73
     2
 40
17.000000
 49
15.000000
 49
-2.000000
  0
LTYPE
  2
DASHED6
 70
    64
  3
__ __ __ __ __ __ __ __ __ __ __ __ __ __ __
 72
    65
 73
     2
 40
29.000000
 49
27.000000
 49
-2.000000
  0
LTYPE
  2
PHANTOM1
 70
    64
  3
_____ _ _ _____ _ _ _____ _ _ _____ _ _ ____  
 72
    65
 73
     6
 40
31.000000
 49
25.000000
 49
-1.500000
 49
1.000000
 49
-1.000000
 49
1.000000
 49
-1.500000
  0
LTYPE
  2
PHANTOM2
 70
    64
  3
_____ _ _ _____ _ _ _____ _ _ _____ _ _ ____  
 72
    65
 73
     6
 40
36.000000
 49
27.000000
 49
-1.500000
 49
2.500000
 49
-1.000000
 49
2.500000
 49
-1.500000
  0
LTYPE
  2
PHANTOM3
 70
    64
  3
_____ _ _ _____ _ _ _____ _ _ _____ _ _ ____  
 72
    65
 73
     6
 40
78.000000
 49
64.000000
 49
-2.000000
 49
4.000000
 49
-2.000000
 49
4.000000
 49
-2.000000
  0
LTYPE
  2
CENTER1
 70
    64
  3
____ _ ____ _ ____ _ ____ _ ____ _ ____ _ ____
 72
    65
 73
     4
 40
19.000000
 49
14.000000
 49
-1.000000
 49
3.000000
 49
-1.000000
  0
LTYPE
  2
CENTER2
 70
    64
  3
____ _ ____ _ ____ _ ____ _ ____ _ ____ _ ____
 72
    65
 73
     4
 40
28.500000
 49
25.000000
 49
-1.000000
 49
1.500000
 49
-1.000000
  0
LTYPE
  2
CENTER3
 70
    64
  3
____ _ ____ _ ____ _ ____ _ ____ _ ____ _ ____
 72
    65
 73
     4
 40
31.500000
 49
27.000000
 49
-1.000000
 49
2.500000
 49
-1.000000
  0
LTYPE
  2
CENTER4
 70
    64
  3
____ _ ____ _ ____ _ ____ _ ____ _ ____ _ ____
 72
    65
 73
     4
 40
50.000000
 49
45.000000
 49
-1.000000
 49
3.000000
 49
-1.000000
  0
LTYPE
  2
CENTER5
 70
    64
  3
____ _ ____ _ ____ _ ____ _ ____ _ ____ _ ____
 72
    65
 73
     4
 40
100.000000
 49
92.000000
 49
-2.000000
 49
4.000000
 49
-2.000000
  0
LTYPE
  2
SBK1
 70
    64
  3
______ _ _ _ ______ _ _ _ ______ _ _ _ _____  
 72
    65
 73
     8
 40
60.500000
 49
45.000000
 49
-2.000000
 49
2.500000
 49
-2.000000
 49
2.500000
 49
-2.000000
 49
2.500000
 49
-2.000000
  0
LTYPE
  2
SBK2
 70
    64
  3
______ _ _ _ ______ _ _ _ ______ _ _ _ _____  
 72
    65
 73
     8
 40
84.000000
 49
64.000000
 49
-2.000000
 49
4.000000
 49
-2.000000
 49
4.000000
 49
-2.000000
 49
4.000000
 49
-2.000000
  0
LTYPE
  2
STCH
 70
    64
  3
__ __ __ __ __ __ __ __ __ __ __ __ __ __ __
 72
    65
 73
     2
 40
3.000000
 49
1.000000
 49
-2.000000
  0
LTYPE
  2
MTCH
 70
    64
  3
_____ _ _ _____ _ _ _____ _ _ _____ _ _ ____  
 72
    65
 73
     6
 40
80.000000
 49
66.000000
 49
-2.000000
 49
4.000000
 49
-2.000000
 49
4.000000
 49
-2.000000
  0
ENDTAB
  0
TABLE
  2
LAYER
 70
     1
  0
LAYER
  2
0
 70
     0
 62
     7
  6
CONTINUOUS
  0
ENDTAB
  0
TABLE
  2
STYLE
 70
     1
  0
STYLE
  2
STANDARD
 70
     0
 40
0.000000
 41
1.000000
 50
0.000000
 71
     0
 42
0.200000
  3
txt
  4
BIGFONT
  0
ENDTAB
  0
TABLE
  2
VIEW
 70
     0
  0
ENDTAB
  0
ENDSEC
  0
SECTION
  2
BLOCKS
  0
ENDSEC
  0
SECTION
  2
ENTITIES
  0
LINE
  8
0
 10
-281.250000
 20
195.500000
 11
282.099976
 21
195.500000
  0
LINE
  8
0
 10
-281.250000
 20
195.500000
 11
-281.250000
 21
-195.000000
  0
LINE
  8
0
 10
282.099976
 20
195.500000
 11
282.099976
 21
-195.000000
  0
LINE
  8
0
 10
-281.250000
 20
-195.000000
 11
282.099976
 21
-195.000000
  0
LINE
  8
0
 10
162.099976
 20
-175.000000
 11
162.099976
 21
-195.000000
  0
LINE
  8
0
 10
162.099976
 20
-175.000000
 11
282.099976
 21
-175.000000
  0
LINE
  8
0
 10
162.099976
 20
175.500000
 11
282.099976
 21
175.500000
  0
LINE
  8
0
 10
-281.250000
 20
175.500000
 11
-161.250000
 21
175.500000
  0
LINE
  8
0
 10
162.099976
 20
195.500000
 11
162.099976
 21
175.500000
  0
LINE
  8
0
 10
-161.250000
 20
195.500000
 11
-161.250000
 21
175.500000
  0
LINE
  8
0
 62
     4
 10
-1.425018
 20
139.199966
 11
-4.024994
 21
139.199966
  0
LINE
  8
0
 62
     4
 10
-1.425018
 20
135.799973
 11
-4.024994
 21
135.799973
  0
LINE
  8
0
 10
8.774994
 20
124.499985
 11
8.774994
 21
6.500015
  0
LINE
  8
0
 10
-14.225006
 20
124.499985
 11
-14.225006
 21
6.500015
  0
LINE
  8
0
 10
8.774994
 20
39.000000
 11
-14.225006
 21
39.000000
  0
LINE
  8
0
 10
8.774994
 20
92.000000
 11
-14.225006
 21
92.000000
  0
LINE
  8
0
 10
-14.225006
 20
6.500015
 11
8.774994
 21
6.500015
  0
LINE
  8
0
 10
8.774994
 20
124.499985
 11
-14.225006
 21
124.499985
  0
LINE
  8
0
  6
CENTER
 62
     2
 10
-2.725006
 20
-17.868896
 11
-2.725006
 21
149.499985
  0
LINE
  8
0
 62
     4
 10
-14.225006
 20
145.499985
 11
-14.225006
 21
124.499985
  0
LINE
  8
0
 62
     4
 10
8.774994
 20
145.499985
 11
8.774994
 21
124.499985
  0
LINE
  8
0
 10
-11.725006
 20
55.500000
 11
-14.225006
 21
55.500000
  0
LINE
  8
0
 10
-11.725006
 20
49.500000
 11
-14.225006
 21
49.500000
  0
LINE
  8
0
 10
5.774994
 20
43.000000
 11
8.774994
 21
43.000000
  0
LINE
  8
0
 10
5.774994
 20
48.000000
 11
8.774994
 21
48.000000
  0
LINE
  8
0
 10
6.274994
 20
67.500000
 11
8.774994
 21
67.500000
  0
LINE
  8
0
 10
6.274994
 20
73.500000
 11
8.774994
 21
73.500000
  0
LINE
  8
0
 10
-11.225006
 20
87.999985
 11
-14.225006
 21
87.999985
  0
LINE
  8
0
 10
-11.225006
 20
82.999985
 11
-14.225006
 21
82.999985
  0
LINE
  8
0
 10
-11.725006
 20
81.499985
 11
-14.225006
 21
81.499985
  0
LINE
  8
0
 10
-11.725006
 20
75.500000
 11
-14.225006
 21
75.500000
  0
LINE
  8
0
 10
-12.725006
 20
90.499985
 11
-12.725006
 21
87.999985
  0
LINE
  8
0
 10
7.274994
 20
90.499985
 11
7.274994
 21
73.500000
  0
LINE
  8
0
 10
-12.725006
 20
90.499985
 11
7.274994
 21
90.499985
  0
LINE
  8
0
 10
-12.725006
 20
40.500000
 11
7.274994
 21
40.500000
  0
LINE
  8
0
 10
-12.725006
 20
49.500000
 11
-12.725006
 21
40.500000
  0
LINE
  8
0
 10
-12.725006
 20
75.500000
 11
-12.725006
 21
55.500000
  0
LINE
  8
0
 10
-12.725006
 20
82.999985
 11
-12.725006
 21
81.499985
  0
LINE
  8
0
 10
7.274994
 20
67.500000
 11
7.274994
 21
48.000000
  0
LINE
  8
0
 10
7.274994
 20
43.000000
 11
7.274994
 21
40.500000
  0
LINE
  8
0
 10
-14.225078
 20
39.000065
 11
-12.725065
 21
40.500076
  0
LINE
  8
0
 10
7.275007
 20
40.500061
 11
8.775020
 21
39.000046
  0
LINE
  8
0
 10
8.774917
 20
92.000084
 11
7.274926
 21
90.500099
  0
LINE
  8
0
 10
-14.225002
 20
91.999977
 11
-12.725012
 21
90.499985
  0
LINE
  8
0
 62
     4
 10
-14.225006
 20
144.499954
 11
8.774994
 21
144.499954
  0
LINE
  8
0
 62
     4
 10
-14.225006
 20
145.499954
 11
8.774994
 21
145.499954
  0
LINE
  8
0
 62
     4
 10
7.774669
 20
147.499786
 11
8.774675
 21
145.499771
  0
LINE
  8
0
 62
     4
 10
-11.475006
 20
148.199966
 11
-9.975006
 21
148.199966
  0
LINE
  8
0
 62
     4
 10
4.524994
 20
148.199966
 11
6.024994
 21
148.199966
  0
LINE
  8
0
 62
     4
 10
-13.224976
 20
147.499954
 11
7.774963
 21
147.499954
  0
LINE
  8
0
 62
     4
 10
-13.224886
 20
147.499893
 11
-14.224893
 21
145.499878
  0
LINE
  8
0
 10
4.714329
 20
44.439289
 11
6.835649
 21
46.560612
  0
LINE
  8
0
 10
-12.285597
 20
84.439285
 11
-10.164276
 21
86.560608
  0
LINE
  8
0
 10
-12.285642
 20
86.560776
 11
-10.164321
 21
84.439453
  0
LINE
  8
0
 10
4.714231
 20
46.560776
 11
6.835551
 21
44.439457
  0
LINE
  8
0
 10
-12.785565
 20
77.439323
 11
-10.664245
 21
79.560638
  0
LINE
  8
0
 10
-12.785631
 20
79.560722
 11
-10.664310
 21
77.439400
  0
LINE
  8
0
 10
5.214379
 20
69.439278
 11
7.335699
 21
71.560600
  0
LINE
  8
0
 10
5.214465
 20
71.560814
 11
7.335785
 21
69.439499
  0
LINE
  8
0
 10
-12.785631
 20
51.439270
 11
-10.664310
 21
53.560593
  0
LINE
  8
0
 10
-12.785692
 20
53.560696
 11
-10.664371
 21
51.439377
  0
LINE
  8
0
 10
-23.225006
 20
35.500000
 11
-14.225006
 21
35.500000
  0
LINE
  8
0
 10
8.774994
 20
35.500000
 11
19.774994
 21
35.500000
  0
LINE
  8
0
 10
8.774994
 20
104.000000
 11
9.274994
 21
104.000000
  0
LINE
  8
0
  6
CENTER
 62
     2
 10
15.274994
 20
102.500000
 11
15.274994
 21
94.500000
  0
LINE
  8
0
  6
CENTER
 62
     2
 10
11.274994
 20
98.500000
 11
19.274994
 21
98.500000
  0
LINE
  8
0
  6
CENTER
 62
     2
 10
-18.725006
 20
44.000000
 11
-18.725006
 21
36.000000
  0
LINE
  8
0
  6
CENTER
 62
     2
 10
-22.725006
 20
40.000000
 11
-14.725006
 21
40.000000
  0
LINE
  8
0
 10
-23.225006
 20
103.000000
 11
-16.724976
 21
103.000000
  0
LINE
  8
0
 10
11.274994
 20
103.000000
 11
19.774994
 21
103.000000
  0
LINE
  8
0
 10
-23.225006
 20
103.000000
 11
-23.225006
 21
35.500000
  0
LINE
  8
0
 10
19.774994
 20
103.000000
 11
19.774994
 21
35.500000
  0
LINE
  8
0
 10
-14.725006
 20
92.000000
 11
-14.725006
 21
35.500000
  0
LINE
  8
0
 10
9.274994
 20
92.000000
 11
9.274994
 21
39.000000
  0
LINE
  8
0
 10
-14.725006
 20
92.000000
 11
-14.225006
 21
92.000000
  0
LINE
  8
0
 10
-14.725006
 20
39.000000
 11
-14.225006
 21
39.000000
  0
LINE
  8
0
 10
8.774994
 20
39.000000
 11
9.274994
 21
39.000000
  0
LINE
  8
0
 10
8.774994
 20
92.000000
 11
9.274994
 21
92.000000
  0
LINE
  8
0
 10
13.774994
 20
94.500000
 11
13.774994
 21
35.500000
  0
LINE
  8
0
 10
-17.225006
 20
103.000000
 11
-17.225006
 21
44.500000
  0
LINE
  8
0
 10
-23.225006
 20
44.500000
 11
-15.725006
 21
44.500000
  0
LINE
  8
0
 10
12.274994
 20
94.500000
 11
19.774994
 21
94.500000
  0
LINE
  8
0
 10
-16.724976
 20
104.000000
 11
-14.225006
 21
104.000000
  0
LINE
  8
0
 10
-16.724976
 20
103.000000
 11
-16.724976
 21
104.000000
  0
LINE
  8
0
 10
8.774994
 20
104.000000
 11
11.274994
 21
104.000000
  0
LINE
  8
0
 10
11.274994
 20
104.000000
 11
11.274994
 21
95.500000
  0
LINE
  8
0
 10
9.774994
 20
105.199997
 11
9.774994
 21
104.000000
  0
LINE
  8
0
 10
8.774994
 20
105.199997
 11
9.774994
 21
105.199997
  0
LINE
  8
0
 62
     4
 10
-4.024994
 20
-8.199997
 11
-1.425018
 21
-8.199997
  0
LINE
  8
0
 62
     4
 10
-4.024994
 20
-4.800003
 11
-1.425018
 21
-4.800003
  0
LINE
  8
0
 62
     4
 10
8.774994
 20
-14.499985
 11
8.774994
 21
6.500015
  0
LINE
  8
0
 62
     4
 10
-14.225006
 20
-14.499985
 11
-14.225006
 21
6.500015
  0
LINE
  8
0
 62
     4
 10
8.774994
 20
-13.499985
 11
-14.225006
 21
-13.499985
  0
LINE
  8
0
 62
     4
 10
8.774994
 20
-14.499985
 11
-14.225006
 21
-14.499985
  0
LINE
  8
0
 62
     4
 10
-13.225158
 20
-16.500124
 11
-14.225164
 21
-14.500110
  0
LINE
  8
0
 62
     4
 10
6.024994
 20
-17.199997
 11
4.524994
 21
-17.199997
  0
LINE
  8
0
 62
     4
 10
-9.975006
 20
-17.199997
 11
-11.475006
 21
-17.199997
  0
LINE
  8
0
 62
     4
 10
7.774963
 20
-16.499985
 11
-13.224976
 21
-16.499985
  0
LINE
  8
0
 62
     4
 10
7.775123
 20
-16.500063
 11
8.775129
 21
-14.500049
  0
LINE
  8
0
 10
-94.725006
 20
90.500000
 11
-94.725006
 21
87.099991
  0
LINE
  8
0
 10
-96.225006
 20
92.000000
 11
-96.225006
 21
81.500000
  0
LINE
  8
0
 10
-98.225037
 20
92.000000
 11
-96.225006
 21
92.000000
  0
LINE
  8
0
 10
-96.225006
 20
88.000000
 11
-94.725006
 21
88.000000
  0
LINE
  8
0
 10
-96.225006
 20
83.000000
 11
-94.725006
 21
83.000000
  0
LINE
  8
0
 10
-98.225037
 20
81.500000
 11
-94.725006
 21
81.500000
  0
LINE
  8
0
 10
-98.225037
 20
75.500015
 11
-94.725006
 21
75.500015
  0
LINE
  8
0
 10
-98.225037
 20
55.500015
 11
-94.725006
 21
55.500015
  0
LINE
  8
0
 10
-98.225037
 20
49.500015
 11
-94.725006
 21
49.500015
  0
LINE
  8
0
 10
-98.225037
 20
39.000015
 11
-96.225006
 21
39.000015
  0
LINE
  8
0
 10
-96.225021
 20
38.999989
 11
-94.725006
 21
40.500000
  0
LINE
  8
0
 10
-96.225067
 20
91.999931
 11
-94.725113
 21
90.499947
  0
LINE
  8
0
 10
-96.225006
 20
49.500000
 11
-96.225006
 21
39.000015
  0
LINE
  8
0
 10
-96.225006
 20
75.500000
 11
-96.225006
 21
55.500000
  0
LINE
  8
0
 10
-96.556793
 20
75.750015
 11
-98.225037
 21
75.750015
  0
LINE
  8
0
 10
-97.525055
 20
81.250000
 11
-97.525055
 21
75.750015
  0
LINE
  8
0
 10
-95.525024
 20
79.500015
 11
-95.525024
 21
77.500000
  0
LINE
  8
0
 10
-96.556793
 20
81.250000
 11
-98.225037
 21
81.250000
  0
LINE
  8
0
 10
-96.556793
 20
49.750015
 11
-98.225037
 21
49.750015
  0
LINE
  8
0
 10
-97.525055
 20
55.250000
 11
-97.525055
 21
49.750015
  0
LINE
  8
0
 10
-95.525024
 20
53.500015
 11
-95.525024
 21
51.500000
  0
LINE
  8
0
 10
-96.556793
 20
55.250015
 11
-98.225037
 21
55.250015
  0
LINE
  8
0
 10
-96.225006
 20
87.750000
 11
-96.225006
 21
83.250000
  0
LINE
  8
0
 10
-95.337616
 20
87.750000
 11
-96.225006
 21
87.750000
  0
LINE
  8
0
 10
-95.337585
 20
83.250015
 11
-96.225006
 21
83.250015
  0
LINE
  8
0
 10
-94.525024
 20
86.300003
 11
-94.525024
 21
84.700012
  0
LINE
  8
0
 10
-94.725006
 20
83.900009
 11
-94.725006
 21
40.500015
  0
LINE
  8
0
 10
-98.225037
 20
124.499985
 11
-98.225037
 21
6.500015
  0
LINE
  8
0
 10
-133.225037
 20
124.499985
 11
-133.225037
 21
6.500015
  0
LINE
  8
0
 10
-133.225037
 20
124.499985
 11
-98.225037
 21
124.499985
  0
LINE
  8
0
 10
-98.225037
 20
92.000000
 11
-133.225037
 21
92.000000
  0
LINE
  8
0
 10
-98.225037
 20
39.000000
 11
-133.225037
 21
39.000000
  0
LINE
  8
0
 62
     4
 10
-98.225037
 20
145.499985
 11
-98.225037
 21
124.499985
  0
LINE
  8
0
 62
     4
 10
-133.225037
 20
144.499985
 11
-98.225037
 21
144.499985
  0
LINE
  8
0
 62
     4
 10
-133.225037
 20
144.499985
 11
-133.225037
 21
124.499985
  0
LINE
  8
0
 62
     4
 10
-133.225037
 20
145.499985
 11
-98.225037
 21
145.499985
  0
LINE
  8
0
 62
     4
 10
-133.225037
 20
145.499985
 11
-133.225037
 21
144.499985
  0
LINE
  8
0
 62
     4
 10
-133.225037
 20
145.500000
 11
-132.225037
 21
147.500000
  0
LINE
  8
0
 62
     4
 10
-109.725037
 20
147.499985
 11
-109.725037
 21
145.499985
  0
LINE
  8
0
 62
     4
 10
-99.224937
 20
147.500076
 11
-98.224907
 21
145.500031
  0
LINE
  8
0
 62
     4
 10
-108.475037
 20
146.199997
 11
-102.975037
 21
146.199997
  0
LINE
  8
0
 62
     4
 10
-102.975037
 20
146.199997
 11
-102.975037
 21
145.499985
  0
LINE
  8
0
 62
     4
 10
-108.475037
 20
146.199997
 11
-108.475037
 21
145.499985
  0
LINE
  8
0
 62
     4
 10
-106.475037
 20
148.199997
 11
-104.975037
 21
148.199997
  0
LINE
  8
0
 62
     4
 10
-126.475037
 20
148.199997
 11
-124.975037
 21
148.199997
  0
LINE
  8
0
 62
     4
 10
-99.225067
 20
147.499985
 11
-103.455170
 21
147.499985
  0
LINE
  8
0
 62
     4
 10
-107.994904
 20
147.499985
 11
-132.224945
 21
147.499985
  0
LINE
  8
0
 62
     4
 10
-86.225037
 20
136.649979
 11
-90.220795
 21
136.649979
  0
LINE
  8
0
 62
     4
 10
-86.225037
 20
138.349991
 11
-90.676331
 21
138.349991
  0
LINE
  8
0
 62
     4
 10
-76.225006
 20
137.179977
 11
-86.225037
 21
137.179977
  0
LINE
  8
0
 62
     4
 10
-76.225006
 20
137.819977
 11
-86.225037
 21
137.819977
  0
LINE
  8
0
 62
     4
 10
-86.225006
 20
138.349960
 11
-86.225006
 21
136.649963
  0
LINE
  8
0
 62
     4
 10
-76.225006
 20
137.819962
 11
-76.225006
 21
137.179977
  0
LINE
  8
0
 62
     1
 10
-89.685112
 20
134.649887
 11
-91.212425
 21
140.349869
  0
LINE
  8
0
 62
     1
 10
-91.237686
 20
134.649979
 11
-92.764999
 21
140.349960
  0
LINE
  8
0
 62
     4
 10
-91.773712
 20
136.649979
 11
-96.225067
 21
136.649979
  0
LINE
  8
0
 62
     4
 10
-92.229248
 20
138.349991
 11
-96.225067
 21
138.349991
  0
LINE
  8
0
 62
     4
 10
-96.225037
 20
135.799988
 11
-98.225037
 21
135.799988
  0
LINE
  8
0
 62
     4
 10
-96.225006
 20
139.199966
 11
-96.225006
 21
135.799973
  0
LINE
  8
0
 62
     4
 10
-96.225037
 20
139.199982
 11
-98.225037
 21
139.199982
  0
LINE
  8
0
 10
-133.225037
 20
6.500015
 11
-98.225037
 21
6.500015
  0
LINE
  8
0
 62
     4
 10
-101.725037
 20
147.499985
 11
-101.725037
 21
145.499985
  0
LINE
  8
0
 62
     4
 10
-98.225037
 20
-14.499985
 11
-98.225037
 21
6.500015
  0
LINE
  8
0
 62
     4
 10
-133.225037
 20
-13.499985
 11
-98.225037
 21
-13.499985
  0
LINE
  8
0
 62
     4
 10
-133.225037
 20
-13.499985
 11
-133.225037
 21
6.500015
  0
LINE
  8
0
 62
     4
 10
-133.225037
 20
-14.499985
 11
-98.225037
 21
-14.499985
  0
LINE
  8
0
 62
     4
 10
-133.225037
 20
-14.499985
 11
-133.225037
 21
-13.499985
  0
LINE
  8
0
 62
     4
 10
-133.224945
 20
-14.499915
 11
-132.224945
 21
-16.499905
  0
LINE
  8
0
 62
     4
 10
-121.725037
 20
-16.499985
 11
-121.725037
 21
-14.499985
  0
LINE
  8
0
 62
     4
 10
-99.225365
 20
-16.499836
 11
-98.225372
 21
-14.499815
  0
LINE
  8
0
 62
     4
 10
-122.975037
 20
-15.199997
 11
-128.475037
 21
-15.199997
  0
LINE
  8
0
 62
     4
 10
-128.475037
 20
-15.199997
 11
-128.475037
 21
-14.499985
  0
LINE
  8
0
 62
     4
 10
-122.975037
 20
-15.199997
 11
-122.975037
 21
-14.499985
  0
LINE
  8
0
 62
     4
 10
-124.975037
 20
-17.199997
 11
-126.475037
 21
-17.199997
  0
LINE
  8
0
 62
     4
 10
-104.975037
 20
-17.199997
 11
-106.475037
 21
-17.199997
  0
LINE
  8
0
 62
     4
 10
-132.225006
 20
-16.499985
 11
-127.994904
 21
-16.499985
  0
LINE
  8
0
 62
     4
 10
-123.455170
 20
-16.499985
 11
-99.225128
 21
-16.499985
  0
LINE
  8
0
 62
     4
 10
-86.225037
 20
-5.649979
 11
-90.220795
 21
-5.649979
  0
LINE
  8
0
 62
     4
 10
-86.225037
 20
-7.349991
 11
-90.676331
 21
-7.349991
  0
LINE
  8
0
 62
     4
 10
-76.225006
 20
-6.179977
 11
-86.225037
 21
-6.179977
  0
LINE
  8
0
 62
     4
 10
-76.225006
 20
-6.819977
 11
-86.225037
 21
-6.819977
  0
LINE
  8
0
 62
     4
 10
-86.225006
 20
-7.349960
 11
-86.225006
 21
-5.649963
  0
LINE
  8
0
 62
     4
 10
-76.225006
 20
-6.819962
 11
-76.225006
 21
-6.179977
  0
LINE
  8
0
 62
     1
 10
-89.685349
 20
-3.649847
 11
-91.212662
 21
-9.349867
  0
LINE
  8
0
 62
     1
 10
-91.237450
 20
-3.650079
 11
-92.764763
 21
-9.350098
  0
LINE
  8
0
 62
     4
 10
-91.773712
 20
-5.649979
 11
-96.225067
 21
-5.649979
  0
LINE
  8
0
 62
     4
 10
-92.229248
 20
-7.349991
 11
-96.225067
 21
-7.349991
  0
LINE
  8
0
 62
     4
 10
-96.225037
 20
-4.799988
 11
-98.225037
 21
-4.799988
  0
LINE
  8
0
 62
     4
 10
-96.225006
 20
-8.199966
 11
-96.225006
 21
-4.799973
  0
LINE
  8
0
 62
     4
 10
-96.225037
 20
-8.199982
 11
-98.225037
 21
-8.199982
  0
LINE
  8
0
 62
     4
 10
-129.725037
 20
-16.499985
 11
-129.725037
 21
-14.499985
  0
LINE
  8
0
 10
-177.225006
 20
103.000000
 11
-177.225006
 21
35.500000
  0
LINE
  8
0
 10
-134.225006
 20
92.000000
 11
-134.225006
 21
39.000000
  0
LINE
  8
0
 10
-175.225006
 20
104.000000
 11
-135.225006
 21
104.000000
  0
LINE
  8
0
 10
-136.725006
 20
105.200012
 11
-136.725006
 21
104.000000
  0
LINE
  8
0
 10
-136.725006
 20
105.199997
 11
-159.225006
 21
105.199997
  0
LINE
  8
0
 10
-138.624969
 20
105.787292
 11
-138.624969
 21
105.199997
  0
LINE
  8
0
 10
-140.824982
 20
105.787292
 11
-140.824982
 21
105.199997
  0
LINE
  8
0
 10
-140.824982
 20
105.400009
 11
-138.624969
 21
105.400009
  0
LINE
  8
0
 10
-140.124969
 20
106.199997
 11
-139.324982
 21
106.199997
  0
LINE
  8
0
  6
CENTER
 62
     2
 10
-167.225006
 20
96.500000
 11
-167.225006
 21
84.500000
  0
LINE
  8
0
  6
CENTER
 62
     2
 10
-173.225006
 20
90.500000
 11
-161.225006
 21
90.500000
  0
LINE
  8
0
  6
CENTER
 62
     2
 10
-156.225006
 20
83.500000
 11
-156.225006
 21
68.500000
  0
LINE
  8
0
  6
CENTER
 62
     2
 10
-163.725006
 20
76.000000
 11
-148.725006
 21
76.000000
  0
LINE
  8
0
  6
CENTER
 62
     2
 10
-156.225006
 20
62.500000
 11
-156.225006
 21
47.500000
  0
LINE
  8
0
  6
CENTER
 62
     2
 10
-163.725006
 20
55.000000
 11
-148.725006
 21
55.000000
  0
LINE
  8
0
 10
-141.225006
 20
103.000000
 11
-141.225006
 21
44.500000
  0
LINE
  8
0
 10
-135.225006
 20
104.000000
 11
-135.225006
 21
35.500000
  0
LINE
  8
0
 10
-133.225037
 20
92.000000
 11
-135.225006
 21
92.000000
  0
LINE
  8
0
 10
-133.225037
 20
39.000000
 11
-135.225006
 21
39.000000
  0
LINE
  8
0
 10
-169.225006
 20
44.500000
 11
-169.225006
 21
35.604736
  0
LINE
  8
0
 10
-175.225006
 20
104.000000
 11
-175.225006
 21
103.000000
  0
LINE
  8
0
  6
CENTER
 62
     2
 10
-181.225006
 20
40.000000
 11
-164.187714
 21
40.000000
  0
LINE
  8
0
  6
CENTER
 62
     2
 10
-181.225006
 20
98.500000
 11
-164.187714
 21
98.500000
  0
LINE
  8
0
 10
-136.725006
 20
105.199997
 11
-136.725006
 21
104.000000
  0
LINE
  8
0
 10
-159.225006
 20
105.199997
 11
-159.225006
 21
104.000000
  0
LINE
  8
0
 10
-155.124969
 20
105.787292
 11
-155.124969
 21
105.199997
  0
LINE
  8
0
 10
-157.324982
 20
105.787292
 11
-157.324982
 21
105.199997
  0
LINE
  8
0
 10
-157.324982
 20
105.400009
 11
-155.124969
 21
105.400009
  0
LINE
  8
0
 10
-156.624969
 20
106.199997
 11
-155.824982
 21
106.199997
  0
LINE
  8
0
 10
-177.225006
 20
35.500000
 11
-135.225006
 21
35.500000
  0
LINE
  8
0
 10
-177.225006
 20
103.000000
 11
-135.225006
 21
103.000000
  0
LINE
  8
0
 10
-169.225006
 20
44.500000
 11
-135.225006
 21
44.500000
  0
LINE
  8
0
 10
95.775024
 20
124.499985
 11
95.775024
 21
6.500015
  0
LINE
  8
0
 10
130.774994
 20
124.499985
 11
130.774994
 21
6.500015
  0
LINE
  8
0
 10
130.774994
 20
124.499985
 11
95.775024
 21
124.499985
  0
LINE
  8
0
 10
95.775024
 20
92.000000
 11
130.774994
 21
92.000000
  0
LINE
  8
0
 10
95.775024
 20
39.000000
 11
130.774994
 21
39.000000
  0
LINE
  8
0
 62
     4
 10
95.775024
 20
145.499985
 11
95.775024
 21
124.499985
  0
LINE
  8
0
 62
     4
 10
130.774994
 20
144.499985
 11
95.775024
 21
144.499985
  0
LINE
  8
0
 62
     4
 10
130.774994
 20
144.499985
 11
130.774994
 21
124.499985
  0
LINE
  8
0
 62
     4
 10
130.774994
 20
145.499985
 11
95.775024
 21
145.499985
  0
LINE
  8
0
 62
     4
 10
130.774994
 20
145.499985
 11
130.774994
 21
144.499985
  0
LINE
  8
0
 62
     4
 10
130.774826
 20
145.499863
 11
129.774826
 21
147.499878
  0
LINE
  8
0
 62
     4
 10
119.275024
 20
147.499985
 11
119.275024
 21
145.499985
  0
LINE
  8
0
 62
     4
 10
96.775002
 20
147.500031
 11
95.774979
 21
145.499985
  0
LINE
  8
0
 62
     4
 10
120.524994
 20
146.199997
 11
126.024994
 21
146.199997
  0
LINE
  8
0
 62
     4
 10
126.024994
 20
146.199997
 11
126.024994
 21
145.499985
  0
LINE
  8
0
 62
     4
 10
120.524994
 20
146.199997
 11
120.524994
 21
145.499985
  0
LINE
  8
0
 62
     4
 10
122.524994
 20
148.199997
 11
124.024994
 21
148.199997
  0
LINE
  8
0
 62
     4
 10
102.525024
 20
148.199997
 11
104.025024
 21
148.199997
  0
LINE
  8
0
 62
     4
 10
129.774994
 20
147.499985
 11
125.544891
 21
147.499985
  0
LINE
  8
0
 62
     4
 10
121.005157
 20
147.499985
 11
96.775116
 21
147.499985
  0
LINE
  8
0
 62
     4
 10
83.775024
 20
136.649979
 11
87.770782
 21
136.649979
  0
LINE
  8
0
 62
     4
 10
83.775024
 20
138.349991
 11
88.226318
 21
138.349991
  0
LINE
  8
0
 62
     4
 10
73.774994
 20
137.179977
 11
83.775024
 21
137.179977
  0
LINE
  8
0
 62
     4
 10
73.774994
 20
137.819977
 11
83.775024
 21
137.819977
  0
LINE
  8
0
 62
     4
 10
83.774994
 20
138.349960
 11
83.774994
 21
136.649963
  0
LINE
  8
0
 62
     4
 10
73.774994
 20
137.819962
 11
73.774994
 21
137.179977
  0
LINE
  8
0
 62
     1
 10
87.234749
 20
134.649963
 11
88.762070
 21
140.349991
  0
LINE
  8
0
 62
     1
 10
88.787796
 20
134.650024
 11
90.315102
 21
140.349976
  0
LINE
  8
0
 62
     4
 10
89.323700
 20
136.649979
 11
93.775055
 21
136.649979
  0
LINE
  8
0
 62
     4
 10
89.779236
 20
138.349991
 11
93.775055
 21
138.349991
  0
LINE
  8
0
 62
     4
 10
93.775024
 20
135.799988
 11
95.775024
 21
135.799988
  0
LINE
  8
0
 62
     4
 10
93.774994
 20
139.199966
 11
93.774994
 21
135.799973
  0
LINE
  8
0
 62
     4
 10
93.775024
 20
139.199982
 11
95.775024
 21
139.199982
  0
LINE
  8
0
 10
130.774994
 20
6.500015
 11
95.775024
 21
6.500015
  0
LINE
  8
0
 10
132.774994
 20
104.000000
 11
172.774994
 21
104.000000
  0
LINE
  8
0
 10
131.774994
 20
92.000000
 11
131.774994
 21
39.000000
  0
LINE
  8
0
 10
174.774994
 20
103.000000
 11
174.774994
 21
35.500000
  0
LINE
  8
0
 10
92.274994
 20
90.500000
 11
92.274994
 21
51.100006
  0
LINE
  8
0
 10
93.774994
 20
92.000000
 11
93.774994
 21
73.500000
  0
LINE
  8
0
 10
95.775024
 20
92.000000
 11
93.774994
 21
92.000000
  0
LINE
  8
0
 10
93.774994
 20
47.000015
 11
92.274994
 21
47.000015
  0
LINE
  8
0
 10
93.774994
 20
52.000015
 11
92.274994
 21
52.000015
  0
LINE
  8
0
 10
95.775024
 20
73.500015
 11
92.274994
 21
73.500015
  0
LINE
  8
0
 10
95.775024
 20
67.500015
 11
92.274994
 21
67.500015
  0
LINE
  8
0
 10
95.775024
 20
39.000015
 11
93.774994
 21
39.000015
  0
LINE
  8
0
 10
93.775063
 20
38.999977
 11
92.275040
 21
40.499977
  0
LINE
  8
0
 10
93.775009
 20
91.999962
 11
92.275040
 21
90.499985
  0
LINE
  8
0
 10
93.774994
 20
67.500000
 11
93.774994
 21
39.000015
  0
LINE
  8
0
 10
94.106781
 20
73.250000
 11
95.775024
 21
73.250000
  0
LINE
  8
0
 10
95.075043
 20
67.750000
 11
95.075043
 21
73.250000
  0
LINE
  8
0
 10
93.075012
 20
69.500000
 11
93.075012
 21
71.500000
  0
LINE
  8
0
 10
94.106781
 20
67.750015
 11
95.775024
 21
67.750015
  0
LINE
  8
0
 10
93.774994
 20
47.250015
 11
93.774994
 21
51.750000
  0
LINE
  8
0
 10
92.887604
 20
47.250015
 11
93.774994
 21
47.250015
  0
LINE
  8
0
 10
92.887573
 20
51.750015
 11
93.774994
 21
51.750015
  0
LINE
  8
0
 10
92.075012
 20
48.700012
 11
92.075012
 21
50.300018
  0
LINE
  8
0
 10
92.274994
 20
47.900024
 11
92.274994
 21
40.500015
  0
LINE
  8
0
  6
CENTER
 62
     2
 10
146.274994
 20
85.500000
 11
161.274994
 21
85.500000
  0
LINE
  8
0
  6
CENTER
 62
     2
 10
153.774994
 20
93.000000
 11
153.774994
 21
78.000000
  0
LINE
  8
0
  6
CENTER
 62
     2
 10
153.774994
 20
53.000000
 11
153.774994
 21
38.000000
  0
LINE
  8
0
  6
CENTER
 62
     2
 10
146.274994
 20
45.500000
 11
161.274994
 21
45.500000
  0
LINE
  8
0
  6
CENTER
 62
     2
 10
147.274994
 20
73.000000
 11
147.274994
 21
58.000000
  0
LINE
  8
0
  6
CENTER
 62
     2
 10
139.774994
 20
65.500000
 11
154.774994
 21
65.500000
  0
LINE
  8
0
 10
132.774994
 20
104.000000
 11
132.774994
 21
35.500000
  0
LINE
  8
0
 10
138.774994
 20
94.133469
 11
138.774994
 21
35.971268
  0
LINE
  8
0
 10
166.774994
 20
102.790512
 11
166.774994
 21
94.500000
  0
LINE
  8
0
 10
172.774994
 20
104.000000
 11
172.774994
 21
102.947632
  0
LINE
  8
0
 10
130.774994
 20
92.000000
 11
132.774994
 21
92.000000
  0
LINE
  8
0
 10
130.774994
 20
39.000000
 11
132.774994
 21
39.000000
  0
LINE
  8
0
  6
CENTER
 62
     2
 10
162.844330
 20
98.500000
 11
178.774994
 21
98.500000
  0
LINE
  8
0
  6
CENTER
 62
     2
 10
162.557648
 20
40.000000
 11
178.774994
 21
40.000000
  0
LINE
  8
0
 10
134.274994
 20
105.200027
 11
134.274994
 21
104.000000
  0
LINE
  8
0
 10
134.274994
 20
105.199997
 11
156.774994
 21
105.199997
  0
LINE
  8
0
 10
136.174957
 20
105.787292
 11
136.174957
 21
105.199997
  0
LINE
  8
0
 10
138.374969
 20
105.787292
 11
138.374969
 21
105.199997
  0
LINE
  8
0
 10
138.374969
 20
105.400009
 11
136.174957
 21
105.400009
  0
LINE
  8
0
 10
137.674957
 20
106.199997
 11
136.874969
 21
106.199997
  0
LINE
  8
0
 10
134.274994
 20
105.199997
 11
134.274994
 21
104.000000
  0
LINE
  8
0
 10
156.774994
 20
105.199997
 11
156.774994
 21
104.000000
  0
LINE
  8
0
 10
152.674957
 20
105.787292
 11
152.674957
 21
105.199997
  0
LINE
  8
0
 10
154.874969
 20
105.787292
 11
154.874969
 21
105.199997
  0
LINE
  8
0
 10
154.874969
 20
105.400009
 11
152.674957
 21
105.400009
  0
LINE
  8
0
 10
154.174957
 20
106.199997
 11
153.374969
 21
106.199997
  0
LINE
  8
0
 62
     4
 10
127.274994
 20
147.499985
 11
127.274994
 21
145.499985
  0
LINE
  8
0
 62
     4
 10
95.775024
 20
-14.499985
 11
95.775024
 21
6.500015
  0
LINE
  8
0
 62
     4
 10
130.774994
 20
-13.499985
 11
95.775024
 21
-13.499985
  0
LINE
  8
0
 62
     4
 10
130.774994
 20
-13.499985
 11
130.774994
 21
6.500015
  0
LINE
  8
0
 62
     4
 10
130.774994
 20
-14.499985
 11
95.775024
 21
-14.499985
  0
LINE
  8
0
 62
     4
 10
130.774994
 20
-14.499985
 11
130.774994
 21
-13.499985
  0
LINE
  8
0
 62
     4
 10
130.774918
 20
-14.499936
 11
129.774902
 21
-16.499950
  0
LINE
  8
0
 62
     4
 10
107.275024
 20
-16.499985
 11
107.275024
 21
-14.499985
  0
LINE
  8
0
 62
     4
 10
96.775070
 20
-16.500027
 11
95.775055
 21
-14.499984
  0
LINE
  8
0
 62
     4
 10
106.025024
 20
-15.199997
 11
100.525024
 21
-15.199997
  0
LINE
  8
0
 62
     4
 10
100.525024
 20
-15.199997
 11
100.525024
 21
-14.499985
  0
LINE
  8
0
 62
     4
 10
106.025024
 20
-15.199997
 11
106.025024
 21
-14.499985
  0
LINE
  8
0
 62
     4
 10
104.025024
 20
-17.199997
 11
102.525024
 21
-17.199997
  0
LINE
  8
0
 62
     4
 10
124.024994
 20
-17.199997
 11
122.524994
 21
-17.199997
  0
LINE
  8
0
 62
     4
 10
96.775055
 20
-16.499985
 11
101.005157
 21
-16.499985
  0
LINE
  8
0
 62
     4
 10
105.544891
 20
-16.499985
 11
129.774933
 21
-16.499985
  0
LINE
  8
0
 62
     4
 10
83.775024
 20
-5.649979
 11
87.770782
 21
-5.649979
  0
LINE
  8
0
 62
     4
 10
83.775024
 20
-7.349991
 11
88.226318
 21
-7.349991
  0
LINE
  8
0
 62
     4
 10
73.774994
 20
-6.179977
 11
83.775024
 21
-6.179977
  0
LINE
  8
0
 62
     4
 10
73.774994
 20
-6.819977
 11
83.775024
 21
-6.819977
  0
LINE
  8
0
 62
     4
 10
83.774994
 20
-7.349960
 11
83.774994
 21
-5.649963
  0
LINE
  8
0
 62
     4
 10
73.774994
 20
-6.819962
 11
73.774994
 21
-6.179977
  0
LINE
  8
0
 62
     1
 10
87.235359
 20
-3.649820
 11
88.762680
 21
-9.349836
  0
LINE
  8
0
 62
     1
 10
88.788040
 20
-3.649934
 11
90.315353
 21
-9.349952
  0
LINE
  8
0
 62
     4
 10
89.323700
 20
-5.649979
 11
93.775055
 21
-5.649979
  0
LINE
  8
0
 62
     4
 10
89.779236
 20
-7.349991
 11
93.775055
 21
-7.349991
  0
LINE
  8
0
 62
     4
 10
93.775024
 20
-4.799988
 11
95.775024
 21
-4.799988
  0
LINE
  8
0
 62
     4
 10
93.774994
 20
-8.199966
 11
93.774994
 21
-4.799973
  0
LINE
  8
0
 62
     4
 10
93.775024
 20
-8.199982
 11
95.775024
 21
-8.199982
  0
LINE
  8
0
 62
     4
 10
99.275024
 20
-16.499985
 11
99.275024
 21
-14.499985
  0
LINE
  8
0
 10
174.774994
 20
35.500000
 11
132.774994
 21
35.500000
  0
LINE
  8
0
 10
174.774994
 20
103.000000
 11
132.774994
 21
103.000000
  0
LINE
  8
0
 10
166.774994
 20
94.500000
 11
132.774994
 21
94.500000
  0
LINE
  8
0
 10
-14.225006
 20
-114.999985
 11
8.774994
 21
-114.999985
  0
LINE
  8
0
 62
     4
 10
8.774994
 20
-77.999985
 11
8.774994
 21
-114.999985
  0
LINE
  8
0
 62
     4
 10
-14.225006
 20
-79.999985
 11
8.774994
 21
-79.999985
  0
LINE
  8
0
 62
     4
 10
-14.225006
 20
-77.999985
 11
-14.225006
 21
-114.999985
  0
LINE
  8
0
 62
     4
 10
-14.225006
 20
-77.999985
 11
8.775024
 21
-77.999985
  0
LINE
  8
0
 62
     4
 10
7.274846
 20
-76.500084
 11
8.774858
 21
-78.000092
  0
LINE
  8
0
 62
     4
 10
-14.224947
 20
-78.000198
 11
-12.724907
 21
-76.500160
  0
LINE
  8
0
 62
     4
 10
-12.724945
 20
-76.499985
 11
7.275024
 21
-76.499985
  0
LINE
  8
0
 10
-23.225037
 20
-159.000000
 11
19.774994
 21
-159.000000
  0
LINE
  8
0
 10
-17.225037
 20
-116.999985
 11
13.774994
 21
-116.999985
  0
LINE
  8
0
  6
CENTER
 62
     2
 10
-2.725006
 20
-56.447800
 11
-2.725006
 21
-171.721420
  0
LINE
  8
0
 10
9.274994
 20
-116.000015
 11
9.274994
 21
-117.000015
  0
LINE
  8
0
 10
-14.725006
 20
-116.000015
 11
-14.725006
 21
-117.000015
  0
LINE
  8
0
 10
-23.225006
 20
-151.000000
 11
-14.725037
 21
-151.000000
  0
LINE
  8
0
 10
-14.725037
 20
-115.999985
 11
9.274963
 21
-115.999985
  0
LINE
  8
0
  6
CENTER
 62
     2
 10
-18.725037
 20
-146.884995
 11
-18.725037
 21
-163.061752
  0
LINE
  8
0
  6
CENTER
 62
     2
 10
15.274963
 20
-146.884995
 11
15.274963
 21
-163.232040
  0
LINE
  8
0
 62
     4
 10
-11.813229
 20
-108.588959
 11
-9.757508
 21
-106.533241
  0
LINE
  8
0
 62
     4
 10
-11.885881
 20
-106.339279
 11
-9.694180
 21
-108.530983
  0
LINE
  8
0
 62
     4
 10
5.274994
 20
-83.499985
 11
8.774994
 21
-83.499985
  0
LINE
  8
0
 62
     4
 10
-10.725006
 20
-103.499985
 11
-14.225006
 21
-103.499985
  0
LINE
  8
0
 62
     4
 10
-10.725006
 20
-111.499985
 11
-14.225006
 21
-111.499985
  0
LINE
  8
0
 62
     4
 10
6.363199
 20
-86.411102
 11
4.307483
 21
-88.466827
  0
LINE
  8
0
 62
     4
 10
6.435868
 20
-88.660713
 11
4.244145
 21
-86.468994
  0
LINE
  8
0
 62
     4
 10
5.274994
 20
-91.499985
 11
8.774994
 21
-91.499985
  0
LINE
  8
0
 10
-14.225006
 20
-114.999985
 11
-14.225006
 21
-115.999985
  0
LINE
  8
0
 10
8.774994
 20
-114.999985
 11
8.774994
 21
-115.999985
  0
LINE
  8
0
 10
-23.225037
 20
-122.999985
 11
-23.225037
 21
-158.999985
  0
LINE
  8
0
 10
19.774994
 20
-122.999985
 11
19.774994
 21
-158.999985
  0
LINE
  8
0
 10
-14.725037
 20
-150.999985
 11
-14.725037
 21
-116.999985
  0
LINE
  8
0
 10
-17.225088
 20
-116.999931
 11
-23.225096
 21
-122.999939
  0
LINE
  8
0
 10
13.774956
 20
-117.000008
 11
19.774963
 21
-123.000015
  0
LINE
  8
0
 62
     1
 10
0.125069
 20
-71.449371
 11
-5.574945
 21
-72.976700
  0
LINE
  8
0
 62
     1
 10
0.125032
 20
-73.002304
 11
-5.574955
 21
-74.529617
  0
LINE
  8
0
  6
CENTER
 62
     1
 10
-1.425018
 20
-55.938179
 11
-1.425018
 21
-78.926697
  0
LINE
  8
0
 62
     4
 10
-2.274994
 20
-67.999985
 11
-2.274994
 21
-72.092453
  0
LINE
  8
0
 62
     4
 10
-0.574982
 20
-67.999985
 11
-0.574982
 21
-71.636932
  0
LINE
  8
0
 62
     4
 10
-1.745026
 20
-57.999954
 11
-1.745026
 21
-67.999985
  0
LINE
  8
0
 62
     4
 10
-1.105011
 20
-57.999954
 11
-1.105011
 21
-67.999985
  0
LINE
  8
0
 62
     4
 10
-0.575043
 20
-67.999954
 11
-2.275055
 21
-67.999954
  0
LINE
  8
0
 62
     4
 10
-1.105011
 20
-57.999954
 11
-1.745026
 21
-57.999954
  0
LINE
  8
0
 62
     4
 10
-4.875031
 20
-67.999985
 11
-4.875031
 21
-72.789131
  0
LINE
  8
0
 62
     4
 10
-3.175018
 20
-67.999985
 11
-3.175018
 21
-72.333611
  0
LINE
  8
0
 62
     4
 10
-4.345001
 20
-57.999954
 11
-4.345001
 21
-67.999985
  0
LINE
  8
0
 62
     4
 10
-3.704987
 20
-57.999954
 11
-3.704987
 21
-67.999985
  0
LINE
  8
0
 62
     4
 10
-3.175018
 20
-67.999954
 11
-4.875031
 21
-67.999954
  0
LINE
  8
0
 62
     4
 10
-3.705048
 20
-57.999954
 11
-4.345001
 21
-57.999954
  0
LINE
  8
0
  6
CENTER
 62
     1
 10
-4.025055
 20
-55.938179
 11
-4.025055
 21
-78.926697
  0
LINE
  8
0
 62
     4
 10
-4.875031
 20
-74.342102
 11
-4.875031
 21
-76.499985
  0
LINE
  8
0
 62
     4
 10
-3.175018
 20
-73.886581
 11
-3.175018
 21
-76.499985
  0
LINE
  8
0
 62
     4
 10
-2.274994
 20
-73.645424
 11
-2.274994
 21
-76.499985
  0
LINE
  8
0
 62
     4
 10
-0.574982
 20
-73.189911
 11
-0.574982
 21
-76.499985
  0
LINE
  8
0
 62
     4
 10
-13.225006
 20
-80.999985
 11
-13.225006
 21
-103.499985
  0
LINE
  8
0
 62
     4
 10
7.774994
 20
-80.999985
 11
7.774994
 21
-83.499985
  0
LINE
  8
0
 62
     4
 10
-13.225006
 20
-80.999985
 11
7.774994
 21
-80.999985
  0
LINE
  8
0
 62
     4
 10
-13.225006
 20
-113.999985
 11
7.774994
 21
-113.999985
  0
LINE
  8
0
 62
     4
 10
-14.225005
 20
-79.999985
 11
-13.225004
 21
-80.999985
  0
LINE
  8
0
 62
     4
 10
8.774993
 20
-79.999977
 11
7.774997
 21
-80.999969
  0
LINE
  8
0
 62
     4
 10
8.774993
 20
-114.999985
 11
7.774992
 21
-113.999977
  0
LINE
  8
0
 62
     4
 10
-14.225005
 20
-114.999985
 11
-13.225009
 21
-113.999992
  0
LINE
  8
0
 62
     4
 10
-13.225006
 20
-111.499985
 11
-13.225006
 21
-113.999985
  0
LINE
  8
0
 62
     4
 10
7.774994
 20
-91.499985
 11
7.774994
 21
-113.999985
  0
LINE
  8
0
 10
106.275024
 20
-75.000000
 11
106.275024
 21
-143.500000
  0
LINE
  8
0
 10
149.275024
 20
-75.000000
 11
149.275024
 21
-143.500000
  0
LINE
  8
0
 10
106.275024
 20
-143.500000
 11
149.275024
 21
-143.500000
  0
LINE
  8
0
 10
106.275024
 20
-75.000000
 11
149.275024
 21
-75.000000
  0
LINE
  8
0
 10
134.275024
 20
-73.800003
 11
116.275024
 21
-73.800003
  0
LINE
  8
0
 10
132.375000
 20
-73.212708
 11
132.375000
 21
-73.800003
  0
LINE
  8
0
 10
130.174988
 20
-73.212708
 11
130.174988
 21
-73.800003
  0
LINE
  8
0
 10
130.174988
 20
-73.599991
 11
132.375000
 21
-73.599991
  0
LINE
  8
0
 10
130.875000
 20
-72.800003
 11
131.674988
 21
-72.800003
  0
LINE
  8
0
  6
CENTER
 62
     2
 10
109.275024
 20
-133.500000
 11
124.275024
 21
-133.500000
  0
LINE
  8
0
  6
CENTER
 62
     2
 10
116.775024
 20
-126.000000
 11
116.775024
 21
-141.000000
  0
LINE
  8
0
  6
CENTER
 62
     2
 10
140.775024
 20
-117.500000
 11
140.775024
 21
-132.500000
  0
LINE
  8
0
  6
CENTER
 62
     2
 10
133.275024
 20
-125.000000
 11
148.275024
 21
-125.000000
  0
LINE
  8
0
  6
CENTER
 62
     2
 10
140.775024
 20
-94.500000
 11
140.775024
 21
-109.500000
  0
LINE
  8
0
  6
CENTER
 62
     2
 10
133.275024
 20
-102.000000
 11
148.275024
 21
-102.000000
  0
LINE
  8
0
  6
CENTER
 62
     2
 10
116.775024
 20
-86.000000
 11
116.775024
 21
-101.000000
  0
LINE
  8
0
  6
CENTER
 62
     2
 10
109.275024
 20
-93.500000
 11
124.275024
 21
-93.500000
  0
LINE
  8
0
  6
CENTER
 62
     2
 10
116.775024
 20
-106.000000
 11
116.775024
 21
-121.000000
  0
LINE
  8
0
  6
CENTER
 62
     2
 10
109.275024
 20
-113.500000
 11
124.275024
 21
-113.500000
  0
LINE
  8
0
  6
CENTER
 62
     2
 10
131.275024
 20
-85.000000
 11
131.275024
 21
-92.000000
  0
LINE
  8
0
  6
CENTER
 62
     2
 10
127.775024
 20
-88.500000
 11
134.775024
 21
-88.500000
  0
LINE
  8
0
 10
106.275024
 20
-76.000000
 11
149.275024
 21
-76.000000
  0
LINE
  8
0
  6
CENTER
 62
     2
 10
106.775024
 20
-80.500000
 11
114.775024
 21
-80.500000
  0
LINE
  8
0
  6
CENTER
 62
     2
 10
140.775024
 20
-139.000000
 11
148.775024
 21
-139.000000
  0
LINE
  8
0
  6
CENTER
 62
     2
 10
144.775024
 20
-135.000000
 11
144.775024
 21
-143.000000
  0
LINE
  8
0
  6
CENTER
 62
     2
 10
110.775024
 20
-76.500000
 11
110.775024
 21
-84.500000
  0
LINE
  8
0
 10
134.275024
 20
-73.800003
 11
134.275024
 21
-75.000000
  0
LINE
  8
0
 10
116.275055
 20
-73.800003
 11
116.275055
 21
-75.000000
  0
LINE
  8
0
 10
124.875000
 20
-73.212708
 11
124.875000
 21
-73.800003
  0
LINE
  8
0
 10
122.674988
 20
-73.212708
 11
122.674988
 21
-73.800003
  0
LINE
  8
0
 10
122.674988
 20
-73.599991
 11
124.875000
 21
-73.599991
  0
LINE
  8
0
 10
123.375000
 20
-72.800003
 11
124.174988
 21
-72.800003
  0
ARC
  8
0
 62
     4
 10
-1.425018
 20
137.500000
 40
1.699997
 50
269.999878
 51
90.000198
  0
ARC
  8
0
 62
     4
 10
-4.024994
 20
137.500000
 40
1.699997
 50
89.999916
 51
270.000153
  0
CIRCLE
  8
0
 62
     4
 10
-4.024994
 20
137.500000
 40
0.850000
  0
CIRCLE
  8
0
 62
     4
 10
-1.425018
 20
137.500000
 40
0.850000
  0
ARC
  8
0
 10
-11.725006
 20
71.000000
 40
3.000000
 50
179.600311
 51
180.000000
  0
ARC
  8
0
 10
-11.725006
 20
71.500000
 40
3.000000
 50
177.494873
 51
180.000000
  0
CIRCLE
  8
0
 10
-2.725006
 20
10.000015
 40
2.299999
  0
CIRCLE
  8
0
 10
-2.725006
 20
10.000015
 40
1.500000
  0
CIRCLE
  8
0
 10
-2.725006
 20
120.999985
 40
2.299999
  0
CIRCLE
  8
0
 10
-2.725006
 20
120.999985
 40
1.500000
  0
ARC
  8
0
 10
-11.725006
 20
70.000000
 40
3.000000
 50
179.600311
 51
180.000000
  0
ARC
  8
0
 10
-11.725006
 20
70.500000
 40
3.000000
 50
177.494873
 51
180.000000
  0
ARC
  8
0
 10
-11.725006
 20
70.500000
 40
3.000000
 50
177.559631
 51
180.000000
  0
ARC
  8
0
 10
6.274994
 20
70.999985
 40
3.000000
 50
0.000000
 51
0.399688
  0
ARC
  8
0
 10
6.274994
 20
71.500000
 40
3.000000
 50
0.000000
 51
2.505128
  0
ARC
  8
0
 10
-11.725006
 20
78.500000
 40
3.000000
 50
0.000000
 51
89.999985
  0
ARC
  8
0
 10
-11.725006
 20
52.500000
 40
3.000000
 50
0.000000
 51
89.999985
  0
ARC
  8
0
 10
5.774994
 20
45.500000
 40
2.500000
 50
89.999977
 51
270.000000
  0
ARC
  8
0
 10
-11.225006
 20
85.499985
 40
2.500000
 50
0.000000
 51
89.999977
  0
ARC
  8
0
 10
-11.725006
 20
52.500000
 40
3.000000
 50
270.000031
 51
0.000000
  0
ARC
  8
0
 10
-11.725006
 20
78.500000
 40
3.000000
 50
270.000031
 51
0.000000
  0
ARC
  8
0
 10
6.274994
 20
70.500000
 40
3.000000
 50
89.999985
 51
270.000000
  0
ARC
  8
0
 10
-11.225006
 20
85.499985
 40
2.500000
 50
270.000031
 51
0.000000
  0
CIRCLE
  8
0
 10
-11.725006
 20
52.500000
 40
2.500000
  0
CIRCLE
  8
0
 10
-11.725006
 20
78.500000
 40
2.500000
  0
CIRCLE
  8
0
 10
6.274994
 20
70.500000
 40
2.500000
  0
CIRCLE
  8
0
 10
5.774994
 20
45.500000
 40
2.250000
  0
CIRCLE
  8
0
 10
-11.225006
 20
85.499985
 40
2.250000
  0
ARC
  8
0
 62
     4
 10
-11.475006
 20
146.199997
 40
2.000000
 50
90.000031
 51
139.458878
  0
ARC
  8
0
 62
     4
 10
-9.975006
 20
146.199997
 40
2.000000
 50
40.541149
 51
90.000031
  0
ARC
  8
0
 62
     4
 10
4.524994
 20
146.199997
 40
2.000000
 50
90.000031
 51
139.458359
  0
ARC
  8
0
 62
     4
 10
6.024994
 20
146.199997
 40
2.000000
 50
90.000031
 51
95.183693
  0
ARC
  8
0
 62
     4
 10
6.024994
 20
146.199997
 40
2.000002
 50
40.541679
 51
90.000031
  0
ARC
  8
0
 10
6.274994
 20
69.999985
 40
3.000000
 50
0.000000
 51
0.399688
  0
ARC
  8
0
 10
6.274994
 20
70.499985
 40
3.000000
 50
0.000000
 51
2.505128
  0
ARC
  8
0
 10
6.274994
 20
70.499985
 40
3.000000
 50
0.000000
 51
2.440372
  0
CIRCLE
  8
0
 10
15.274994
 20
98.500000
 40
2.250000
  0
CIRCLE
  8
0
 10
-18.725006
 20
40.000000
 40
2.250000
  0
ARC
  8
0
 10
-15.725006
 20
43.500000
 40
1.000000
 50
0.000000
 51
90.000000
  0
ARC
  8
0
 10
12.274994
 20
95.500000
 40
1.000000
 50
180.000000
 51
270.000000
  0
ARC
  8
0
 62
     4
 10
-11.475006
 20
-15.199997
 40
1.999999
 50
220.541595
 51
270.000031
  0
ARC
  8
0
 62
     4
 10
-4.024994
 20
-6.500000
 40
1.699997
 50
89.999855
 51
270.000153
  0
ARC
  8
0
 62
     4
 10
-1.425018
 20
-6.500000
 40
1.699997
 50
269.999908
 51
90.000145
  0
CIRCLE
  8
0
 62
     4
 10
-1.425018
 20
-6.500000
 40
0.850000
  0
CIRCLE
  8
0
 62
     4
 10
-4.024994
 20
-6.500000
 40
0.850000
  0
ARC
  8
0
 62
     4
 10
6.024994
 20
-15.199997
 40
2.000000
 50
270.000000
 51
319.458862
  0
ARC
  8
0
 62
     4
 10
4.524994
 20
-15.199997
 40
2.000000
 50
220.541153
 51
270.000000
  0
ARC
  8
0
 62
     4
 10
-9.975006
 20
-15.199997
 40
2.000000
 50
270.000031
 51
319.458435
  0
ARC
  8
0
 62
     4
 10
-11.475006
 20
-15.199997
 40
2.000000
 50
270.000031
 51
275.183685
  0
ARC
  8
0
 10
-97.525055
 20
79.500015
 40
2.000000
 50
0.000000
 51
61.044472
  0
ARC
  8
0
 10
-97.525055
 20
77.500000
 40
2.000001
 50
298.955536
 51
0.000000
  0
ARC
  8
0
 10
-96.609894
 20
75.950012
 40
0.199997
 50
270.000000
 51
300.556305
  0
ARC
  8
0
 10
-97.525055
 20
53.500015
 40
2.000000
 50
0.000000
 51
61.044472
  0
ARC
  8
0
 10
-97.525055
 20
51.500015
 40
2.000001
 50
298.955536
 51
0.000000
  0
ARC
  8
0
 10
-96.609894
 20
49.950027
 40
0.200001
 50
270.000000
 51
300.556305
  0
ARC
  8
0
 10
-96.225006
 20
86.300003
 40
1.699997
 50
0.000000
 51
58.533295
  0
ARC
  8
0
 10
-96.225006
 20
84.699997
 40
1.699998
 50
301.467072
 51
0.000000
  0
ARC
  8
0
 62
     4
 10
-106.475037
 20
146.199997
 40
2.000000
 50
90.000000
 51
180.000000
  0
ARC
  8
0
 62
     4
 10
-104.975037
 20
146.199997
 40
2.000000
 50
0.000000
 51
90.000000
  0
ARC
  8
0
 62
     4
 10
-126.475037
 20
146.199997
 40
2.000000
 50
90.000000
 51
139.458298
  0
ARC
  8
0
 62
     4
 10
-124.975037
 20
146.199997
 40
2.000003
 50
40.788296
 51
90.000000
  0
ARC
  8
0
 62
     4
 10
-104.975037
 20
-15.199997
 40
2.000000
 50
270.000000
 51
319.458252
  0
ARC
  8
0
 62
     4
 10
-106.475037
 20
-15.199997
 40
1.999998
 50
220.788132
 51
270.000000
  0
ARC
  8
0
 62
     4
 10
-124.975037
 20
-15.199997
 40
2.000000
 50
270.000000
 51
359.999878
  0
ARC
  8
0
 62
     4
 10
-126.475037
 20
-15.199997
 40
2.000000
 50
179.999893
 51
270.000000
  0
CIRCLE
  8
0
 62
     2
 10
-156.225006
 20
55.000000
 40
6.578500
  0
CIRCLE
  8
0
 10
-156.225006
 20
55.000000
 40
5.722500
  0
CIRCLE
  8
0
 62
     2
 10
-156.225006
 20
76.000000
 40
6.578500
  0
CIRCLE
  8
0
 10
-156.225006
 20
76.000000
 40
5.722500
  0
CIRCLE
  8
0
 62
     2
 10
-167.225006
 20
90.500000
 40
4.864000
  0
CIRCLE
  8
0
 10
-167.225006
 20
90.500000
 40
4.278000
  0
ARC
  8
0
 10
-139.324982
 20
105.400009
 40
0.800000
 50
28.953182
 51
90.000000
  0
ARC
  8
0
 10
-140.124969
 20
105.400009
 40
0.800003
 50
90.000000
 51
151.046814
  0
ARC
  8
0
 10
-156.624969
 20
105.400009
 40
0.800003
 50
90.000000
 51
151.046814
  0
ARC
  8
0
 10
-155.824982
 20
105.400009
 40
0.800000
 50
28.953182
 51
90.000000
  0
ARC
  8
0
 62
     4
 10
122.524994
 20
146.199997
 40
2.000000
 50
90.000000
 51
180.000000
  0
ARC
  8
0
 62
     4
 10
124.024994
 20
146.199997
 40
2.000000
 50
0.000000
 51
90.000000
  0
ARC
  8
0
 62
     4
 10
102.525024
 20
146.199997
 40
2.000000
 50
90.000000
 51
139.458298
  0
ARC
  8
0
 62
     4
 10
104.025024
 20
146.199997
 40
2.000003
 50
40.788296
 51
90.000000
  0
CIRCLE
  8
0
 62
     2
 10
153.774994
 20
45.500000
 40
6.578500
  0
CIRCLE
  8
0
 10
153.774994
 20
45.500000
 40
5.722500
  0
CIRCLE
  8
0
 62
     2
 10
147.274994
 20
65.500000
 40
6.578500
  0
CIRCLE
  8
0
 10
147.274994
 20
65.500000
 40
5.722500
  0
CIRCLE
  8
0
 62
     2
 10
153.774994
 20
85.500000
 40
6.578500
  0
CIRCLE
  8
0
 10
153.774994
 20
85.500000
 40
5.722500
  0
ARC
  8
0
 10
95.075043
 20
69.500000
 40
2.000000
 50
180.000000
 51
241.044662
  0
ARC
  8
0
 10
95.075043
 20
71.500015
 40
2.000001
 50
118.955528
 51
180.000000
  0
ARC
  8
0
 10
94.159882
 20
73.050003
 40
0.199997
 50
90.000000
 51
120.556305
  0
ARC
  8
0
 10
93.774994
 20
48.700027
 40
1.699997
 50
180.000000
 51
238.533295
  0
ARC
  8
0
 10
93.774994
 20
50.300003
 40
1.700002
 50
121.467278
 51
180.000000
  0
ARC
  8
0
 10
136.874969
 20
105.400009
 40
0.800003
 50
90.000000
 51
151.046814
  0
ARC
  8
0
 10
137.674957
 20
105.400009
 40
0.800000
 50
28.953182
 51
90.000000
  0
ARC
  8
0
 10
154.174957
 20
105.400009
 40
0.800000
 50
28.953182
 51
90.000000
  0
ARC
  8
0
 10
153.374969
 20
105.400009
 40
0.800003
 50
90.000000
 51
151.046814
  0
ARC
  8
0
 62
     4
 10
124.024994
 20
-15.199997
 40
2.000000
 50
270.000000
 51
319.458252
  0
ARC
  8
0
 62
     4
 10
122.524994
 20
-15.199997
 40
1.999999
 50
220.788177
 51
270.000000
  0
ARC
  8
0
 62
     4
 10
104.025024
 20
-15.199997
 40
2.000000
 50
270.000000
 51
359.999939
  0
ARC
  8
0
 62
     4
 10
102.525024
 20
-15.199997
 40
2.000000
 50
179.999939
 51
270.000000
  0
ARC
  8
0
 62
     4
 10
-10.725006
 20
-107.499985
 40
4.000000
 50
270.000000
 51
89.999985
  0
CIRCLE
  8
0
 62
     4
 10
5.274994
 20
-87.499985
 40
2.750000
  0
CIRCLE
  8
0
 62
     4
 10
-10.725006
 20
-107.499985
 40
2.750000
  0
ARC
  8
0
 62
     4
 10
5.274994
 20
-87.499985
 40
4.000000
 50
90.000031
 51
270.000000
  0
CIRCLE
  8
0
 62
     2
 10
140.775024
 20
-102.000000
 40
6.578500
  0
CIRCLE
  8
0
 10
140.775024
 20
-102.000000
 40
5.722500
  0
ARC
  8
0
 10
131.674988
 20
-73.599991
 40
0.800000
 50
28.953182
 51
90.000000
  0
ARC
  8
0
 10
130.875000
 20
-73.599991
 40
0.800003
 50
90.000000
 51
151.046814
  0
CIRCLE
  8
0
 10
116.775024
 20
-133.500000
 40
5.722500
  0
CIRCLE
  8
0
 62
     2
 10
116.775024
 20
-133.500000
 40
6.578500
  0
CIRCLE
  8
0
 10
116.775024
 20
-113.500000
 40
5.722500
  0
CIRCLE
  8
0
 62
     2
 10
116.775024
 20
-113.500000
 40
6.578500
  0
CIRCLE
  8
0
 10
116.775024
 20
-93.500000
 40
5.722500
  0
CIRCLE
  8
0
 62
     2
 10
116.775024
 20
-93.500000
 40
6.578500
  0
CIRCLE
  8
0
 10
140.775024
 20
-125.000000
 40
5.722500
  0
CIRCLE
  8
0
 62
     2
 10
140.775024
 20
-125.000000
 40
6.578500
  0
CIRCLE
  8
0
 62
     2
 10
131.275024
 20
-88.500000
 40
2.500000
  0
CIRCLE
  8
0
 10
131.275024
 20
-88.500000
 40
2.100000
  0
CIRCLE
  8
0
 10
110.775024
 20
-80.500000
 40
2.250000
  0
CIRCLE
  8
0
 10
144.775024
 20
-139.000000
 40
2.250000
  0
ARC
  8
0
 10
123.375000
 20
-73.599991
 40
0.800003
 50
90.000000
 51
151.046814
  0
ARC
  8
0
 10
124.174988
 20
-73.599991
 40
0.800000
 50
28.953182
 51
90.000000
  0
TEXT
  8
0
 10
174.200241
 20
180.830002
 40
6.300000
  1
DATE: NOV ,1993
 50
0.000000
 41
1.052632
 51
0.000000
  7
STANDARD
  0
TEXT
  8
0
 10
167.564667
 20
-192.100006
 40
9.000000
  1
KOGANEI CORP.
 50
0.000000
 41
1.052632
 51
0.000000
  7
STANDARD
  0
TEXT
  8
0
 10
-247.099716
 20
180.830002
 40
6.300000
  1
A243-4E2
 50
0.000000
 41
1.052632
 51
0.000000
  7
STANDARD
  0
TEXT
  8
0
 10
-270.049713
 20
155.830002
 40
6.300000
  1
MODEL:A243-4E2-25
 50
0.000000
 41
1.052632
 51
0.000000
  7
STANDARD
  0
TEXT
  8
0
 10
154.266953
 20
-100.336670
 40
6.300000
  1
(-27)
 50
0.000000
 41
1.052632
 51
0.000000
  7
STANDARD
  0
TEXT
  8
0
 10
-169.425034
 20
77.678436
 40
3.000000
  1
A
 50
-90.000000
 41
1.052631
 51
0.000000
  7
STANDARD
  0
TEXT
  8
0
 10
-160.425034
 20
93.678436
 40
3.000000
  1
PR
 50
-90.000000
 41
1.052631
 51
0.000000
  7
STANDARD
  0
TEXT
  8
0
 10
-169.425034
 20
56.678436
 40
3.000000
  1
B
 50
-90.000000
 41
1.052631
 51
0.000000
  7
STANDARD
  0
TEXT
  8
0
 10
166.974991
 20
42.321564
 40
3.000000
  1
R2
 50
90.000000
 41
1.052631
 51
0.000000
  7
STANDARD
  0
TEXT
  8
0
 10
160.474991
 20
63.821564
 40
3.000000
  1
P
 50
90.000000
 41
1.052631
 51
0.000000
  7
STANDARD
  0
TEXT
  8
0
 10
166.974991
 20
82.321564
 40
3.000000
  1
R1
 50
90.000000
 41
1.052631
 51
0.000000
  7
STANDARD
  0
TEXT
  8
0
 10
142.718018
 20
-95.879997
 40
3.200000
  1
A
 50
0.000000
 41
1.052632
 51
0.000000
  7
STANDARD
  0
TEXT
  8
0
 10
142.718018
 20
-134.880005
 40
3.200000
  1
B
 50
0.000000
 41
1.052632
 51
0.000000
  7
STANDARD
  0
TEXT
  8
0
 10
114.968025
 20
-86.379997
 40
3.200000
  1
R
 50
0.000000
 41
1.052632
 51
0.000000
  7
STANDARD
  0
TEXT
  8
0
 10
114.968025
 20
-126.379997
 40
3.200000
  1
R
 50
0.000000
 41
1.052632
 51
0.000000
  7
STANDARD
  0
TEXT
  8
0
 10
114.968025
 20
-106.379997
 40
3.200000
  1
P
 50
0.000000
 41
1.052632
 51
0.000000
  7
STANDARD
  0
TEXT
  8
0
 10
128.155029
 20
-91.906998
 40
3.200000
  1
PR
 50
90.000000
 41
1.052632
 51
0.000000
  7
STANDARD
  0
ENDSEC
  0
EOF
