  0
SECTION
  2
HEADER
  9
$ACADVER
  1
AC1009
  9
$DWGCODEPAGE
  3
dos932
  9
$INSBASE
 10
0.0
 20
0.0
 30
0.0
  9
$EXTMIN
 10
-281.25
 20
-195.0
 30
0.0
  9
$EXTMAX
 10
282.09985352
 20
195.5
 30
0.0
  9
$LIMMIN
 10
-281.25
 20
-195.0
  9
$LIMMAX
 10
282.09985352
 20
195.5
  9
$ORTHOMODE
 70
       0
  9
$REGENMODE
 70
       1
  9
$FILLMODE
 70
       1
  9
$QTEXTMODE
 70
       0
  9
$MIRRTEXT
 70
       1
  9
$DRAGMODE
 70
       2
  9
$LTSCALE
 40
1.0
  9
$OSMODE
 70
       0
  9
$ATTMODE
 70
       1
  9
$TEXTSIZE
 40
3.20000005
  9
$TRACEWID
 40
0.05
  9
$TEXTSTYLE
  7
MX_NOTE_STANDARD
  9
$CLAYER
  8
0
  9
$CELTYPE
  6
CONTINUOUS
  9
$CECOLOR
 62
     256
  9
$DIMSCALE
 40
1.0
  9
$DIMASZ
 40
2.5
  9
$DIMEXO
 40
1.5
  9
$DIMDLI
 40
3.75
  9
$DIMRND
 40
0.0
  9
$DIMDLE
 40
0.0
  9
$DIMEXE
 40
1.5
  9
$DIMTP
 40
0.0
  9
$DIMTM
 40
0.0
  9
$DIMTXT
 40
3.20000005
  9
$DIMCEN
 40
2.5
  9
$DIMTSZ
 40
0.0
  9
$DIMTOL
 70
       0
  9
$DIMLIM
 70
       0
  9
$DIMTIH
 70
       0
  9
$DIMTOH
 70
       0
  9
$DIMSE1
 70
       0
  9
$DIMSE2
 70
       0
  9
$DIMTAD
 70
       1
  9
$DIMZIN
 70
       8
  9
$DIMBLK
  1

  9
$DIMASO
 70
       1
  9
$DIMSHO
 70
       1
  9
$DIMPOST
  1

  9
$DIMAPOST
  1

  9
$DIMALT
 70
       0
  9
$DIMALTD
 70
       4
  9
$DIMALTF
 40
0.03937008
  9
$DIMLFAC
 40
1.0
  9
$DIMTOFL
 70
       1
  9
$DIMTVP
 40
0.0
  9
$DIMTIX
 70
       0
  9
$DIMSOXD
 70
       0
  9
$DIMSAH
 70
       0
  9
$DIMBLK1
  1

  9
$DIMBLK2
  1

  9
$DIMSTYLE
  2
MXDIMSTYLE
  9
$DIMCLRD
 70
       0
  9
$DIMCLRE
 70
       0
  9
$DIMCLRT
 70
       0
  9
$DIMTFAC
 40
1.0
  9
$DIMGAP
 40
1.0
  9
$LUNITS
 70
       2
  9
$LUPREC
 70
       4
  9
$AXISMODE
 70
       0
  9
$AXISUNIT
 10
0.0
 20
0.0
  9
$SKETCHINC
 40
0.1
  9
$FILLETRAD
 40
0.0
  9
$AUNITS
 70
       0
  9
$AUPREC
 70
       0
  9
$MENU
  1
acad
  9
$ELEVATION
 40
0.0
  9
$PELEVATION
 40
0.0
  9
$THICKNESS
 40
0.0
  9
$LIMCHECK
 70
       0
  9
$BLIPMODE
 70
       1
  9
$CHAMFERA
 40
0.0
  9
$CHAMFERB
 40
0.0
  9
$SKPOLY
 70
       0
  9
$TDCREATE
 40
2453706.547986111
  9
$TDUPDATE
 40
2453706.547986111
  9
$TDINDWG
 40
0.0000000000
  9
$TDUSRTIMER
 40
0.0000000000
  9
$USRTIMER
 70
       1
  9
$ANGBASE
 50
0.0
  9
$ANGDIR
 70
       0
  9
$PDMODE
 70
       0
  9
$PDSIZE
 40
0.0
  9
$PLINEWID
 40
0.0
  9
$COORDS
 70
       1
  9
$SPLFRAME
 70
       0
  9
$SPLINETYPE
 70
       6
  9
$SPLINESEGS
 70
       8
  9
$ATTDIA
 70
       0
  9
$ATTREQ
 70
       1
  9
$HANDLING
 70
       1
  9
$HANDSEED
  5
238
  9
$SURFTAB1
 70
       6
  9
$SURFTAB2
 70
       6
  9
$SURFTYPE
 70
       6
  9
$SURFU
 70
       6
  9
$SURFV
 70
       6
  9
$UCSNAME
  2

  9
$UCSORG
 10
0.0
 20
0.0
 30
0.0
  9
$UCSXDIR
 10
1.0
 20
0.0
 30
0.0
  9
$UCSYDIR
 10
0.0
 20
1.0
 30
0.0
  9
$PUCSNAME
  2

  9
$PUCSORG
 10
0.0
 20
0.0
 30
0.0
  9
$PUCSXDIR
 10
1.0
 20
0.0
 30
0.0
  9
$PUCSYDIR
 10
0.0
 20
1.0
 30
0.0
  9
$USERI1
 70
       0
  9
$USERI2
 70
       0
  9
$USERI3
 70
       0
  9
$USERI4
 70
       0
  9
$USERI5
 70
       0
  9
$USERR1
 40
0.0
  9
$USERR2
 40
0.0
  9
$USERR3
 40
0.0
  9
$USERR4
 40
0.0
  9
$USERR5
 40
0.0
  9
$WORLDVIEW
 70
       1
  9
$SHADEDGE
 70
       3
  9
$SHADEDIF
 70
      70
  9
$TILEMODE
 70
       1
  9
$MAXACTVP
 70
      16
  9
$PINSBASE
 10
0.0
 20
0.0
 30
0.0
  9
$PLIMCHECK
 70
       0
  9
$PEXTMIN
 10
1.00000000E+20
 20
1.00000000E+20
 30
1.00000000E+20
  9
$PEXTMAX
 10
-1.00000000E+20
 20
-1.00000000E+20
 30
-1.00000000E+20
  9
$PLIMMIN
 10
0.0
 20
0.0
  9
$PLIMMAX
 10
12.0
 20
9.0
  9
$UNITMODE
 70
       0
  9
$VISRETAIN
 70
       0
  9
$PLINEGEN
 70
       1
  9
$PSLTSCALE
 70
       0
  9
$TREEDEPTH
 70
    3020
  9
$DWGCODEPAGE
  3
dos932
  0
ENDSEC
  0
SECTION
  2
TABLES
  0
TABLE
  2
VPORT
 70
       1
  0
VPORT
  2
*ACTIVE
 70
       0
 10
0.0
 20
0.0
 11
1.0
 21
1.0
 12
0.42492676
 22
0.25
 13
0.0
 23
0.0
 14
1.0
 24
1.0
 15
0.0
 25
0.0
 16
0.0
 26
0.0
 36
1.0
 17
0.0
 27
0.0
 37
0.0
 40
394.405
 41
1.73205081
 42
50.0
 43
0.0
 44
0.0
 50
0.0
 51
0.0
 71
       0
 72
     100
 73
       1
 74
       1
 75
       0
 76
       0
 77
       0
 78
       0
  0
ENDTAB
  0
TABLE
  2
LTYPE
 70
       2
  0
LTYPE
  2
CONTINUOUS
 70
      64
  3
Solid line
 72
      65
 73
       0
 40
0.0
  0
LTYPE
  2
DASHED
 70
      64
  3
Dashed __ __ __ __ __ __ __ __ __ __ __ __ __ _
 72
      65
 73
       2
 40
4.0
 49
2.0
 49
-2.0
  0
ENDTAB
  0
TABLE
  2
LAYER
 70
       2
  0
LAYER
  2
0
 70
       0
 62
       7
  6
CONTINUOUS
  0
LAYER
  2
DEFPOINTS
 70
       0
 62
       7
  6
CONTINUOUS
  0
ENDTAB
  0
TABLE
  2
STYLE
 70
       1
  0
STYLE
  2
MX_NOTE_STANDARD
 70
       0
 40
0.0
 41
1.0
 50
0.0
 71
       0
 42
3.20000005
  3
txt.shx
  4
extfont.shx
  0
ENDTAB
  0
TABLE
  2
VIEW
 70
       0
  0
ENDTAB
  0
TABLE
  2
UCS
 70
       0
  0
ENDTAB
  0
TABLE
  2
APPID
 70
       1
  0
APPID
  2
ACAD
 70
       0
  0
ENDTAB
  0
TABLE
  2
DIMSTYLE
 70
       1
  0
DIMSTYLE
  2
MXDIMSTYLE
 70
       0
  3

  4

  5

  6

  7

 40
1.0
 41
2.5
 42
1.5
 43
3.75
 44
1.5
 45
0.0
 46
0.0
 47
0.0
 48
0.0
 71
       0
 72
       0
 73
       0
 74
       0
 75
       0
 76
       0
 77
       1
 78
       8
140
3.20000005
141
2.5
142
0.0
143
0.03937008
144
1.0
145
0.0
146
1.0
147
1.0
170
       0
171
       4
172
       1
173
       0
174
       0
175
       0
176
       0
177
       0
178
       0
  0
ENDTAB
  0
ENDSEC
  0
SECTION
  2
BLOCKS
  0
ENDSEC
  0
SECTION
  2
ENTITIES
  0
LINE
  8
0
  6
CONTINUOUS
 62
       7
  5
1E
 10
-152.99939689
 20
-145.98754866
 30
0.0
 11
-135.49939696
 21
-145.98754866
 31
0.0
  0
LINE
  8
0
  6
CONTINUOUS
 62
       7
  5
1F
 10
-140.49939689
 20
-99.98754866
 30
0.0
 11
-20.49939689
 21
-99.98754866
 31
0.0
  0
LINE
  8
0
  6
CONTINUOUS
 62
       7
  5
20
 10
-152.99939689
 20
-145.9875487
 30
0.0
 11
-152.99939689
 21
-110.98754866
 31
0.0
  0
LINE
  8
0
  6
CONTINUOUS
 62
       7
  5
21
 10
-7.99939689
 20
-145.9875487
 30
0.0
 11
-7.99939689
 21
-110.98754866
 31
0.0
  0
LINE
  8
0
  6
CONTINUOUS
 62
       2
  5
22
 10
-80.49939689
 20
-135.64079044
 30
0.0
 11
-80.49939689
 21
-107.26853191
 31
0.0
  0
LINE
  8
0
  6
CONTINUOUS
 62
       7
  5
23
 10
-130.49939689
 20
-140.98754866
 30
0.0
 11
-30.49939689
 21
-140.98754866
 31
0.0
  0
LINE
  8
0
  6
CONTINUOUS
 62
       7
  5
24
 10
-135.49939689
 20
-145.98754859
 30
0.0
 11
-130.49939689
 21
-140.98754859
 31
0.0
  0
LINE
  8
0
  6
CONTINUOUS
 62
       7
  5
25
 10
-30.49939689
 20
-140.9875487
 30
0.0
 11
-25.49939693
 21
-145.98754866
 31
0.0
  0
LINE
  8
0
  6
CONTINUOUS
 62
       7
  5
26
 10
-25.49939693
 20
-145.98754866
 30
0.0
 11
-7.99939689
 21
-145.98754866
 31
0.0
  0
LINE
  8
0
  6
CONTINUOUS
 62
       7
  5
27
 10
-20.49939689
 20
-110.98754866
 30
0.0
 11
-7.99939689
 21
-110.98754866
 31
0.0
  0
LINE
  8
0
  6
CONTINUOUS
 62
       7
  5
28
 10
-140.49939689
 20
-110.98754866
 30
0.0
 11
-140.49939689
 21
-99.98754866
 31
0.0
  0
LINE
  8
0
  6
CONTINUOUS
 62
       7
  5
29
 10
-20.49939689
 20
-110.98754866
 30
0.0
 11
-20.49939689
 21
-99.98754866
 31
0.0
  0
LINE
  8
0
  6
CONTINUOUS
 62
       7
  5
2A
 10
-140.49939689
 20
-100.98754866
 30
0.0
 11
-20.49939689
 21
-100.98754866
 31
0.0
  0
LINE
  8
0
  6
CONTINUOUS
 62
       7
  5
2B
 10
-140.49939689
 20
-103.98754866
 30
0.0
 11
-134.49939689
 21
-103.98754866
 31
0.0
  0
LINE
  8
0
  6
CONTINUOUS
 62
       7
  5
2C
 10
-152.99939689
 20
-110.98754866
 30
0.0
 11
-140.49939689
 21
-110.98754866
 31
0.0
  0
LINE
  8
0
  6
CONTINUOUS
 62
       7
  5
2D
 10
-20.49939689
 20
-100.98754866
 30
0.0
 11
-7.99939689
 21
-110.98754866
 31
0.0
  0
LINE
  8
0
  6
CONTINUOUS
 62
       7
  5
2E
 10
-152.99939689
 20
-110.98754866
 30
0.0
 11
-140.49939689
 21
-100.98754866
 31
0.0
  0
LINE
  8
0
  6
CONTINUOUS
 62
       2
  5
2F
 10
-140.93777776
 20
-120.98754866
 30
0.0
 11
-18.27448039
 21
-120.98754866
 31
0.0
  0
LINE
  8
0
  6
CONTINUOUS
 62
       2
  5
30
 10
-124.49939689
 20
-135.64079044
 30
0.0
 11
-124.49939689
 21
-107.26853191
 31
0.0
  0
LINE
  8
0
  6
CONTINUOUS
 62
       2
  5
31
 10
-36.49939689
 20
-135.64079044
 30
0.0
 11
-36.49939689
 21
-107.26853191
 31
0.0
  0
CIRCLE
  8
0
  6
DASHED
 62
       7
  5
33
 10
-36.49939689
 20
-120.98754866
 30
0.0
 40
9.5
  0
CIRCLE
  8
0
  6
DASHED
 62
       7
  5
34
 10
-80.49939689
 20
-120.98754866
 30
0.0
 40
9.5
  0
CIRCLE
  8
0
  6
DASHED
 62
       7
  5
35
 10
-124.49939689
 20
-120.98754866
 30
0.0
 40
9.5
  0
CIRCLE
  8
0
  6
DASHED
 62
       7
  5
36
 10
-124.49939689
 20
-120.98754866
 30
0.0
 40
10.5
  0
CIRCLE
  8
0
  6
DASHED
 62
       7
  5
37
 10
-80.49939689
 20
-120.98754866
 30
0.0
 40
10.5
  0
CIRCLE
  8
0
  6
DASHED
 62
       7
  5
38
 10
-36.49939689
 20
-120.98754866
 30
0.0
 40
10.5
  0
ARC
  8
0
  6
CONTINUOUS
 62
       7
  5
39
 10
-36.49939689
 20
-119.15421533
 30
0.0
 40
18.16666667
 50
56.60151153
 51
123.39848847
  0
LINE
  8
0
  6
CONTINUOUS
 62
       7
  5
3A
 10
-26.49939689
 20
-103.98754866
 30
0.0
 11
-20.49939689
 21
-103.98754866
 31
0.0
  0
ARC
  8
0
  6
CONTINUOUS
 62
       7
  5
3B
 10
-80.49939689
 20
-119.15421533
 30
0.0
 40
18.16666667
 50
56.60151153
 51
123.39848847
  0
ARC
  8
0
  6
CONTINUOUS
 62
       7
  5
3C
 10
-124.49939689
 20
-119.15421533
 30
0.0
 40
18.16666667
 50
56.60151153
 51
123.39848847
  0
LINE
  8
0
  6
CONTINUOUS
 62
       7
  5
3D
 10
-70.49939689
 20
-103.98754866
 30
0.0
 11
-46.49939689
 21
-103.98754866
 31
0.0
  0
LINE
  8
0
  6
CONTINUOUS
 62
       7
  5
3E
 10
-114.49939689
 20
-103.98754866
 30
0.0
 11
-90.49939689
 21
-103.98754866
 31
0.0
  0
LINE
  8
0
  6
CONTINUOUS
 62
       7
  5
3F
 10
147.00060311
 20
-145.98754866
 30
0.0
 11
212.00060311
 21
-145.98754866
 31
0.0
  0
LINE
  8
0
  6
CONTINUOUS
 62
       7
  5
40
 10
159.50060311
 20
-99.98754866
 30
0.0
 11
199.50060311
 21
-99.98754866
 31
0.0
  0
LINE
  8
0
  6
CONTINUOUS
 62
       7
  5
41
 10
147.00060311
 20
-110.98754866
 30
0.0
 11
212.00060311
 21
-110.98754866
 31
0.0
  0
LINE
  8
0
  6
CONTINUOUS
 62
       7
  5
42
 10
147.00060311
 20
-145.9875487
 30
0.0
 11
147.00060311
 21
-100.98754866
 31
0.0
  0
LINE
  8
0
  6
CONTINUOUS
 62
       7
  5
43
 10
212.00060311
 20
-145.9875487
 30
0.0
 11
212.00060311
 21
-100.98754866
 31
0.0
  0
LINE
  8
0
  6
CONTINUOUS
 62
       2
  5
44
 10
179.50060311
 20
-150.92646743
 30
0.0
 11
179.50060311
 21
-13.4992998
 31
0.0
  0
LINE
  8
0
  6
CONTINUOUS
 62
       7
  5
45
 10
147.00060311
 20
-100.98754866
 30
0.0
 11
212.00060311
 21
-100.98754866
 31
0.0
  0
LINE
  8
0
  6
CONTINUOUS
 62
       7
  5
46
 10
159.50060311
 20
-109.98754866
 30
0.0
 11
159.50060311
 21
-99.98754866
 31
0.0
  0
LINE
  8
0
  6
CONTINUOUS
 62
       7
  5
47
 10
199.50060311
 20
-109.98754866
 30
0.0
 11
199.50060311
 21
-99.98754866
 31
0.0
  0
LINE
  8
0
  6
CONTINUOUS
 62
       7
  5
48
 10
199.50060311
 20
-100.98754866
 30
0.0
 11
212.00060311
 21
-103.98754866
 31
0.0
  0
LINE
  8
0
  6
CONTINUOUS
 62
       7
  5
49
 10
159.50060311
 20
-100.98754866
 30
0.0
 11
147.00060311
 21
-103.98754866
 31
0.0
  0
ARC
  8
0
  6
CONTINUOUS
 62
       7
  5
4A
 10
198.50060311
 20
-109.98754866
 30
0.0
 40
1.0
 50
270.0
 51
0.0
  0
ARC
  8
0
  6
CONTINUOUS
 62
       7
  5
4B
 10
160.50060311
 20
-109.98754866
 30
0.0
 40
1.0
 50
180.0
 51
270.0
  0
LINE
  8
0
  6
CONTINUOUS
 62
       7
  5
4C
 10
-152.99939689
 20
58.51245134
 30
0.0
 11
-152.99939689
 21
70.01245134
 31
0.0
  0
LINE
  8
0
  6
CONTINUOUS
 62
       7
  5
4D
 10
-7.99939689
 20
58.51245134
 30
0.0
 11
-7.99939689
 21
70.01245134
 31
0.0
  0
LINE
  8
0
  6
CONTINUOUS
 62
       2
  5
4E
 10
-80.49939689
 20
128.98926406
 30
0.0
 11
-80.49939689
 21
49.15211256
 31
0.0
  0
LINE
  8
0
  6
CONTINUOUS
 62
       7
  5
4F
 10
-150.99939689
 20
121.51245134
 30
0.0
 11
-9.99939689
 21
121.51245134
 31
0.0
  0
LINE
  8
0
  6
CONTINUOUS
 62
       7
  5
50
 10
-150.99939689
 20
56.51245134
 30
0.0
 11
-9.99939689
 21
56.51245134
 31
0.0
  0
LINE
  8
0
  6
CONTINUOUS
 62
       7
  5
51
 10
-152.99939689
 20
109.01245134
 30
0.0
 11
-7.99939689
 21
109.01245134
 31
0.0
  0
LINE
  8
0
  6
CONTINUOUS
 62
       7
  5
52
 10
-152.99939689
 20
69.01245134
 30
0.0
 11
-7.99939689
 21
69.01245134
 31
0.0
  0
LINE
  8
0
  6
CONTINUOUS
 62
       7
  5
53
 10
-20.49939689
 20
56.5124513
 30
0.0
 11
-20.49939689
 21
70.01245134
 31
0.0
  0
LINE
  8
0
  6
CONTINUOUS
 62
       7
  5
54
 10
-140.49939689
 20
56.5124513
 30
0.0
 11
-140.49939689
 21
70.01245134
 31
0.0
  0
ARC
  8
0
  6
CONTINUOUS
 62
       7
  5
55
 10
-17.49939689
 20
112.01245134
 30
0.0
 40
3.0
 50
180.0
 51
270.0
  0
ARC
  8
0
  6
CONTINUOUS
 62
       7
  5
56
 10
-143.49939689
 20
112.01245134
 30
0.0
 40
3.0
 50
270.0
 51
0.0
  0
ARC
  8
0
  6
CONTINUOUS
 62
       7
  5
57
 10
-143.49939689
 20
66.01245134
 30
0.0
 40
3.0
 50
0.0
 51
90.0
  0
ARC
  8
0
  6
CONTINUOUS
 62
       7
  5
58
 10
-17.49939689
 20
66.01245134
 30
0.0
 40
3.0
 50
90.0
 51
180.0
  0
LINE
  8
0
  6
CONTINUOUS
 62
       2
  5
59
 10
-105.49939689
 20
71.81727124
 30
0.0
 11
-105.49939689
 21
51.42765038
 31
0.0
  0
LINE
  8
0
  6
CONTINUOUS
 62
       2
  5
5A
 10
-55.49939689
 20
72.35858861
 30
0.0
 11
-55.49939689
 21
51.42765038
 31
0.0
  0
POLYLINE
  8
0
  6
CONTINUOUS
 62
       7
  5
5B
 66
       1
 10
0.0
 20
0.0
 30
0.0
  0
VERTEX
  8
0
  6
CONTINUOUS
 62
       7
  5
1B3
 10
-65.49939689
 20
56.51245134
 30
0.0
  0
VERTEX
  8
0
  6
CONTINUOUS
 62
       7
  5
1B4
 10
-65.4138455
 20
58.14402874
 30
0.0
  0
VERTEX
  8
0
  6
CONTINUOUS
 62
       7
  5
1B5
 10
-65.15865515
 20
59.7476894
 30
0.0
  0
VERTEX
  8
0
  6
CONTINUOUS
 62
       7
  5
1B6
 10
-64.73819221
 20
61.29599424
 30
0.0
  0
VERTEX
  8
0
  6
CONTINUOUS
 62
       7
  5
1B7
 10
-64.15965093
 20
62.76245134
 30
0.0
  0
VERTEX
  8
0
  6
CONTINUOUS
 62
       7
  5
1B8
 10
-63.43293029
 20
64.1219692
 30
0.0
  0
VERTEX
  8
0
  6
CONTINUOUS
 62
       7
  5
1B9
 10
-62.5704647
 20
65.3512861
 30
0.0
  0
VERTEX
  8
0
  6
CONTINUOUS
 62
       7
  5
1BA
 10
-61.58701118
 20
66.42936809
 30
0.0
  0
VERTEX
  8
0
  6
CONTINUOUS
 62
       7
  5
1BB
 10
-60.49939689
 20
67.33776889
 30
0.0
  0
VERTEX
  8
0
  6
CONTINUOUS
 62
       7
  5
1BC
 10
-59.32623121
 20
68.0609455
 30
0.0
  0
VERTEX
  8
0
  6
CONTINUOUS
 62
       7
  5
1BD
 10
-58.08758734
 20
68.58652417
 30
0.0
  0
VERTEX
  8
0
  6
CONTINUOUS
 62
       7
  5
1BE
 10
-56.80465881
 20
68.90551211
 30
0.0
  0
VERTEX
  8
0
  6
CONTINUOUS
 62
       7
  5
1BF
 10
-55.49939689
 20
69.01245134
 30
0.0
  0
VERTEX
  8
0
  6
CONTINUOUS
 62
       7
  5
1C0
 10
-54.19413497
 20
68.90551211
 30
0.0
  0
VERTEX
  8
0
  6
CONTINUOUS
 62
       7
  5
1C1
 10
-52.91120644
 20
68.58652417
 30
0.0
  0
VERTEX
  8
0
  6
CONTINUOUS
 62
       7
  5
1C2
 10
-51.67256257
 20
68.0609455
 30
0.0
  0
VERTEX
  8
0
  6
CONTINUOUS
 62
       7
  5
1C3
 10
-50.49939689
 20
67.33776889
 30
0.0
  0
VERTEX
  8
0
  6
CONTINUOUS
 62
       7
  5
1C4
 10
-49.4117826
 20
66.42936809
 30
0.0
  0
VERTEX
  8
0
  6
CONTINUOUS
 62
       7
  5
1C5
 10
-48.42832908
 20
65.3512861
 30
0.0
  0
VERTEX
  8
0
  6
CONTINUOUS
 62
       7
  5
1C6
 10
-47.56586349
 20
64.1219692
 30
0.0
  0
VERTEX
  8
0
  6
CONTINUOUS
 62
       7
  5
1C7
 10
-46.83914285
 20
62.76245134
 30
0.0
  0
VERTEX
  8
0
  6
CONTINUOUS
 62
       7
  5
1C8
 10
-46.26060156
 20
61.29599424
 30
0.0
  0
VERTEX
  8
0
  6
CONTINUOUS
 62
       7
  5
1C9
 10
-45.84013863
 20
59.7476894
 30
0.0
  0
VERTEX
  8
0
  6
CONTINUOUS
 62
       7
  5
1CA
 10
-45.58494828
 20
58.14402874
 30
0.0
  0
VERTEX
  8
0
  6
CONTINUOUS
 62
       7
  5
1CB
 10
-45.49939689
 20
56.51245134
 30
0.0
  0
VERTEX
  8
0
  6
CONTINUOUS
 62
       7
  5
1CC
 10
-45.49939689
 20
56.51245134
 30
0.0
  0
SEQEND
  8
0
  6
CONTINUOUS
 62
       7
  5
1CD
  0
POLYLINE
  8
0
  6
CONTINUOUS
 62
       7
  5
5C
 66
       1
 10
0.0
 20
0.0
 30
0.0
  0
VERTEX
  8
0
  6
CONTINUOUS
 62
       7
  5
1CE
 10
-115.49939689
 20
56.51245134
 30
0.0
  0
VERTEX
  8
0
  6
CONTINUOUS
 62
       7
  5
1CF
 10
-115.4138455
 20
58.14402874
 30
0.0
  0
VERTEX
  8
0
  6
CONTINUOUS
 62
       7
  5
1D0
 10
-115.15865515
 20
59.7476894
 30
0.0
  0
VERTEX
  8
0
  6
CONTINUOUS
 62
       7
  5
1D1
 10
-114.73819221
 20
61.29599424
 30
0.0
  0
VERTEX
  8
0
  6
CONTINUOUS
 62
       7
  5
1D2
 10
-114.15965093
 20
62.76245134
 30
0.0
  0
VERTEX
  8
0
  6
CONTINUOUS
 62
       7
  5
1D3
 10
-113.43293029
 20
64.1219692
 30
0.0
  0
VERTEX
  8
0
  6
CONTINUOUS
 62
       7
  5
1D4
 10
-112.5704647
 20
65.3512861
 30
0.0
  0
VERTEX
  8
0
  6
CONTINUOUS
 62
       7
  5
1D5
 10
-111.58701118
 20
66.42936809
 30
0.0
  0
VERTEX
  8
0
  6
CONTINUOUS
 62
       7
  5
1D6
 10
-110.49939689
 20
67.33776889
 30
0.0
  0
VERTEX
  8
0
  6
CONTINUOUS
 62
       7
  5
1D7
 10
-109.32623121
 20
68.0609455
 30
0.0
  0
VERTEX
  8
0
  6
CONTINUOUS
 62
       7
  5
1D8
 10
-108.08758734
 20
68.58652417
 30
0.0
  0
VERTEX
  8
0
  6
CONTINUOUS
 62
       7
  5
1D9
 10
-106.80465881
 20
68.90551211
 30
0.0
  0
VERTEX
  8
0
  6
CONTINUOUS
 62
       7
  5
1DA
 10
-105.49939689
 20
69.01245134
 30
0.0
  0
VERTEX
  8
0
  6
CONTINUOUS
 62
       7
  5
1DB
 10
-104.19413497
 20
68.90551211
 30
0.0
  0
VERTEX
  8
0
  6
CONTINUOUS
 62
       7
  5
1DC
 10
-102.91120644
 20
68.58652417
 30
0.0
  0
VERTEX
  8
0
  6
CONTINUOUS
 62
       7
  5
1DD
 10
-101.67256257
 20
68.0609455
 30
0.0
  0
VERTEX
  8
0
  6
CONTINUOUS
 62
       7
  5
1DE
 10
-100.49939689
 20
67.33776889
 30
0.0
  0
VERTEX
  8
0
  6
CONTINUOUS
 62
       7
  5
1DF
 10
-99.4117826
 20
66.42936809
 30
0.0
  0
VERTEX
  8
0
  6
CONTINUOUS
 62
       7
  5
1E0
 10
-98.42832908
 20
65.3512861
 30
0.0
  0
VERTEX
  8
0
  6
CONTINUOUS
 62
       7
  5
1E1
 10
-97.56586349
 20
64.1219692
 30
0.0
  0
VERTEX
  8
0
  6
CONTINUOUS
 62
       7
  5
1E2
 10
-96.83914285
 20
62.76245134
 30
0.0
  0
VERTEX
  8
0
  6
CONTINUOUS
 62
       7
  5
1E3
 10
-96.26060156
 20
61.29599424
 30
0.0
  0
VERTEX
  8
0
  6
CONTINUOUS
 62
       7
  5
1E4
 10
-95.84013863
 20
59.7476894
 30
0.0
  0
VERTEX
  8
0
  6
CONTINUOUS
 62
       7
  5
1E5
 10
-95.58494828
 20
58.14402874
 30
0.0
  0
VERTEX
  8
0
  6
CONTINUOUS
 62
       7
  5
1E6
 10
-95.49939689
 20
56.51245134
 30
0.0
  0
VERTEX
  8
0
  6
CONTINUOUS
 62
       7
  5
1E7
 10
-95.49939689
 20
56.51245134
 30
0.0
  0
SEQEND
  8
0
  6
CONTINUOUS
 62
       7
  5
1E8
  0
LINE
  8
0
  6
CONTINUOUS
 62
       2
  5
5D
 10
-124.49939689
 20
128.98926406
 30
0.0
 11
-124.49939689
 21
106.10070455
 31
0.0
  0
LINE
  8
0
  6
CONTINUOUS
 62
       2
  5
5E
 10
-36.49939689
 20
128.98926406
 30
0.0
 11
-36.49939689
 21
106.10070455
 31
0.0
  0
POLYLINE
  8
0
  6
CONTINUOUS
 62
       7
  5
5F
 66
       1
 10
0.0
 20
0.0
 30
0.0
  0
VERTEX
  8
0
  6
CONTINUOUS
 62
       7
  5
1E9
 10
-46.49939689
 20
121.51245134
 30
0.0
  0
VERTEX
  8
0
  6
CONTINUOUS
 62
       7
  5
1EA
 10
-46.4138455
 20
119.88087394
 30
0.0
  0
VERTEX
  8
0
  6
CONTINUOUS
 62
       7
  5
1EB
 10
-46.15865515
 20
118.27721328
 30
0.0
  0
VERTEX
  8
0
  6
CONTINUOUS
 62
       7
  5
1EC
 10
-45.73819221
 20
116.72890844
 30
0.0
  0
VERTEX
  8
0
  6
CONTINUOUS
 62
       7
  5
1ED
 10
-45.15965093
 20
115.26245134
 30
0.0
  0
VERTEX
  8
0
  6
CONTINUOUS
 62
       7
  5
1EE
 10
-44.43293029
 20
113.90293348
 30
0.0
  0
VERTEX
  8
0
  6
CONTINUOUS
 62
       7
  5
1EF
 10
-43.5704647
 20
112.67361658
 30
0.0
  0
VERTEX
  8
0
  6
CONTINUOUS
 62
       7
  5
1F0
 10
-42.58701118
 20
111.59553459
 30
0.0
  0
VERTEX
  8
0
  6
CONTINUOUS
 62
       7
  5
1F1
 10
-41.49939689
 20
110.68713379
 30
0.0
  0
VERTEX
  8
0
  6
CONTINUOUS
 62
       7
  5
1F2
 10
-40.32623121
 20
109.96395718
 30
0.0
  0
VERTEX
  8
0
  6
CONTINUOUS
 62
       7
  5
1F3
 10
-39.08758734
 20
109.43837851
 30
0.0
  0
VERTEX
  8
0
  6
CONTINUOUS
 62
       7
  5
1F4
 10
-37.80465881
 20
109.11939057
 30
0.0
  0
VERTEX
  8
0
  6
CONTINUOUS
 62
       7
  5
1F5
 10
-36.49939689
 20
109.01245134
 30
0.0
  0
VERTEX
  8
0
  6
CONTINUOUS
 62
       7
  5
1F6
 10
-35.19413497
 20
109.11939057
 30
0.0
  0
VERTEX
  8
0
  6
CONTINUOUS
 62
       7
  5
1F7
 10
-33.91120644
 20
109.43837851
 30
0.0
  0
VERTEX
  8
0
  6
CONTINUOUS
 62
       7
  5
1F8
 10
-32.67256257
 20
109.96395718
 30
0.0
  0
VERTEX
  8
0
  6
CONTINUOUS
 62
       7
  5
1F9
 10
-31.49939689
 20
110.68713379
 30
0.0
  0
VERTEX
  8
0
  6
CONTINUOUS
 62
       7
  5
1FA
 10
-30.4117826
 20
111.59553459
 30
0.0
  0
VERTEX
  8
0
  6
CONTINUOUS
 62
       7
  5
1FB
 10
-29.42832908
 20
112.67361658
 30
0.0
  0
VERTEX
  8
0
  6
CONTINUOUS
 62
       7
  5
1FC
 10
-28.56586349
 20
113.90293348
 30
0.0
  0
VERTEX
  8
0
  6
CONTINUOUS
 62
       7
  5
1FD
 10
-27.83914285
 20
115.26245134
 30
0.0
  0
VERTEX
  8
0
  6
CONTINUOUS
 62
       7
  5
1FE
 10
-27.26060156
 20
116.72890844
 30
0.0
  0
VERTEX
  8
0
  6
CONTINUOUS
 62
       7
  5
1FF
 10
-26.84013863
 20
118.27721328
 30
0.0
  0
VERTEX
  8
0
  6
CONTINUOUS
 62
       7
  5
200
 10
-26.58494828
 20
119.88087394
 30
0.0
  0
VERTEX
  8
0
  6
CONTINUOUS
 62
       7
  5
201
 10
-26.49939689
 20
121.51245134
 30
0.0
  0
SEQEND
  8
0
  6
CONTINUOUS
 62
       7
  5
202
  0
POLYLINE
  8
0
  6
CONTINUOUS
 62
       7
  5
60
 66
       1
 10
0.0
 20
0.0
 30
0.0
  0
VERTEX
  8
0
  6
CONTINUOUS
 62
       7
  5
203
 10
-90.49939689
 20
121.51245134
 30
0.0
  0
VERTEX
  8
0
  6
CONTINUOUS
 62
       7
  5
204
 10
-90.4138455
 20
119.88087394
 30
0.0
  0
VERTEX
  8
0
  6
CONTINUOUS
 62
       7
  5
205
 10
-90.15865515
 20
118.27721328
 30
0.0
  0
VERTEX
  8
0
  6
CONTINUOUS
 62
       7
  5
206
 10
-89.73819221
 20
116.72890844
 30
0.0
  0
VERTEX
  8
0
  6
CONTINUOUS
 62
       7
  5
207
 10
-89.15965093
 20
115.26245134
 30
0.0
  0
VERTEX
  8
0
  6
CONTINUOUS
 62
       7
  5
208
 10
-88.43293029
 20
113.90293348
 30
0.0
  0
VERTEX
  8
0
  6
CONTINUOUS
 62
       7
  5
209
 10
-87.5704647
 20
112.67361658
 30
0.0
  0
VERTEX
  8
0
  6
CONTINUOUS
 62
       7
  5
20A
 10
-86.58701118
 20
111.59553459
 30
0.0
  0
VERTEX
  8
0
  6
CONTINUOUS
 62
       7
  5
20B
 10
-85.49939689
 20
110.68713379
 30
0.0
  0
VERTEX
  8
0
  6
CONTINUOUS
 62
       7
  5
20C
 10
-84.32623121
 20
109.96395718
 30
0.0
  0
VERTEX
  8
0
  6
CONTINUOUS
 62
       7
  5
20D
 10
-83.08758734
 20
109.43837851
 30
0.0
  0
VERTEX
  8
0
  6
CONTINUOUS
 62
       7
  5
20E
 10
-81.80465881
 20
109.11939057
 30
0.0
  0
VERTEX
  8
0
  6
CONTINUOUS
 62
       7
  5
20F
 10
-80.49939689
 20
109.01245134
 30
0.0
  0
VERTEX
  8
0
  6
CONTINUOUS
 62
       7
  5
210
 10
-79.19413497
 20
109.11939057
 30
0.0
  0
VERTEX
  8
0
  6
CONTINUOUS
 62
       7
  5
211
 10
-77.91120644
 20
109.43837851
 30
0.0
  0
VERTEX
  8
0
  6
CONTINUOUS
 62
       7
  5
212
 10
-76.67256257
 20
109.96395718
 30
0.0
  0
VERTEX
  8
0
  6
CONTINUOUS
 62
       7
  5
213
 10
-75.49939689
 20
110.68713379
 30
0.0
  0
VERTEX
  8
0
  6
CONTINUOUS
 62
       7
  5
214
 10
-74.4117826
 20
111.59553459
 30
0.0
  0
VERTEX
  8
0
  6
CONTINUOUS
 62
       7
  5
215
 10
-73.42832908
 20
112.67361658
 30
0.0
  0
VERTEX
  8
0
  6
CONTINUOUS
 62
       7
  5
216
 10
-72.56586349
 20
113.90293348
 30
0.0
  0
VERTEX
  8
0
  6
CONTINUOUS
 62
       7
  5
217
 10
-71.83914285
 20
115.26245134
 30
0.0
  0
VERTEX
  8
0
  6
CONTINUOUS
 62
       7
  5
218
 10
-71.26060156
 20
116.72890844
 30
0.0
  0
VERTEX
  8
0
  6
CONTINUOUS
 62
       7
  5
219
 10
-70.84013863
 20
118.27721328
 30
0.0
  0
VERTEX
  8
0
  6
CONTINUOUS
 62
       7
  5
21A
 10
-70.58494828
 20
119.88087394
 30
0.0
  0
VERTEX
  8
0
  6
CONTINUOUS
 62
       7
  5
21B
 10
-70.49939689
 20
121.51245134
 30
0.0
  0
SEQEND
  8
0
  6
CONTINUOUS
 62
       7
  5
21C
  0
POLYLINE
  8
0
  6
CONTINUOUS
 62
       7
  5
61
 66
       1
 10
0.0
 20
0.0
 30
0.0
  0
VERTEX
  8
0
  6
CONTINUOUS
 62
       7
  5
21D
 10
-134.49939689
 20
121.51245134
 30
0.0
  0
VERTEX
  8
0
  6
CONTINUOUS
 62
       7
  5
21E
 10
-134.4138455
 20
119.88087394
 30
0.0
  0
VERTEX
  8
0
  6
CONTINUOUS
 62
       7
  5
21F
 10
-134.15865515
 20
118.27721328
 30
0.0
  0
VERTEX
  8
0
  6
CONTINUOUS
 62
       7
  5
220
 10
-133.73819221
 20
116.72890844
 30
0.0
  0
VERTEX
  8
0
  6
CONTINUOUS
 62
       7
  5
221
 10
-133.15965093
 20
115.26245134
 30
0.0
  0
VERTEX
  8
0
  6
CONTINUOUS
 62
       7
  5
222
 10
-132.43293029
 20
113.90293348
 30
0.0
  0
VERTEX
  8
0
  6
CONTINUOUS
 62
       7
  5
223
 10
-131.5704647
 20
112.67361658
 30
0.0
  0
VERTEX
  8
0
  6
CONTINUOUS
 62
       7
  5
224
 10
-130.58701118
 20
111.59553459
 30
0.0
  0
VERTEX
  8
0
  6
CONTINUOUS
 62
       7
  5
225
 10
-129.49939689
 20
110.68713379
 30
0.0
  0
VERTEX
  8
0
  6
CONTINUOUS
 62
       7
  5
226
 10
-128.32623121
 20
109.96395718
 30
0.0
  0
VERTEX
  8
0
  6
CONTINUOUS
 62
       7
  5
227
 10
-127.08758734
 20
109.43837851
 30
0.0
  0
VERTEX
  8
0
  6
CONTINUOUS
 62
       7
  5
228
 10
-125.80465881
 20
109.11939057
 30
0.0
  0
VERTEX
  8
0
  6
CONTINUOUS
 62
       7
  5
229
 10
-124.49939689
 20
109.01245134
 30
0.0
  0
VERTEX
  8
0
  6
CONTINUOUS
 62
       7
  5
22A
 10
-123.19413497
 20
109.11939057
 30
0.0
  0
VERTEX
  8
0
  6
CONTINUOUS
 62
       7
  5
22B
 10
-121.91120644
 20
109.43837851
 30
0.0
  0
VERTEX
  8
0
  6
CONTINUOUS
 62
       7
  5
22C
 10
-120.67256257
 20
109.96395718
 30
0.0
  0
VERTEX
  8
0
  6
CONTINUOUS
 62
       7
  5
22D
 10
-119.49939689
 20
110.68713379
 30
0.0
  0
VERTEX
  8
0
  6
CONTINUOUS
 62
       7
  5
22E
 10
-118.4117826
 20
111.59553459
 30
0.0
  0
VERTEX
  8
0
  6
CONTINUOUS
 62
       7
  5
22F
 10
-117.42832908
 20
112.67361658
 30
0.0
  0
VERTEX
  8
0
  6
CONTINUOUS
 62
       7
  5
230
 10
-116.56586349
 20
113.90293348
 30
0.0
  0
VERTEX
  8
0
  6
CONTINUOUS
 62
       7
  5
231
 10
-115.83914285
 20
115.26245134
 30
0.0
  0
VERTEX
  8
0
  6
CONTINUOUS
 62
       7
  5
232
 10
-115.26060156
 20
116.72890844
 30
0.0
  0
VERTEX
  8
0
  6
CONTINUOUS
 62
       7
  5
233
 10
-114.84013863
 20
118.27721328
 30
0.0
  0
VERTEX
  8
0
  6
CONTINUOUS
 62
       7
  5
234
 10
-114.58494828
 20
119.88087394
 30
0.0
  0
VERTEX
  8
0
  6
CONTINUOUS
 62
       7
  5
235
 10
-114.49939689
 20
121.51245134
 30
0.0
  0
SEQEND
  8
0
  6
CONTINUOUS
 62
       7
  5
236
  0
LINE
  8
0
  6
CONTINUOUS
 62
       7
  5
62
 10
-137.99939689
 20
69.51245134
 30
0.0
 11
-137.99939689
 21
108.51245134
 31
0.0
  0
LINE
  8
0
  6
CONTINUOUS
 62
       7
  5
63
 10
-22.99939689
 20
69.51245134
 30
0.0
 11
-22.99939689
 21
108.51245134
 31
0.0
  0
LINE
  8
0
  6
CONTINUOUS
 62
       7
  5
64
 10
-20.49939689
 20
108.01245134
 30
0.0
 11
-20.49939689
 21
121.51245134
 31
0.0
  0
LINE
  8
0
  6
CONTINUOUS
 62
       7
  5
65
 10
-140.49939689
 20
108.01245134
 30
0.0
 11
-140.49939689
 21
121.51245134
 31
0.0
  0
LINE
  8
0
  6
CONTINUOUS
 62
       7
  5
66
 10
-7.99939689
 20
108.01245134
 30
0.0
 11
-7.99939689
 21
119.51245134
 31
0.0
  0
LINE
  8
0
  6
CONTINUOUS
 62
       7
  5
67
 10
-137.99939689
 20
108.51245134
 30
0.0
 11
-22.99939689
 21
108.51245134
 31
0.0
  0
LINE
  8
0
  6
CONTINUOUS
 62
       7
  5
68
 10
-137.99939689
 20
69.51245134
 30
0.0
 11
-22.99939689
 21
69.51245134
 31
0.0
  0
LINE
  8
0
  6
CONTINUOUS
 62
       7
  5
69
 10
-137.99939689
 20
-42.98754866
 30
0.0
 11
-22.99939689
 21
-42.98754866
 31
0.0
  0
LINE
  8
0
  6
CONTINUOUS
 62
       7
  5
6A
 10
-137.99939689
 20
-98.98754866
 30
0.0
 11
-22.99939689
 21
-98.98754866
 31
0.0
  0
LINE
  8
0
  6
CONTINUOUS
 62
       7
  5
6B
 10
-137.99939689
 20
-99.98754866
 30
0.0
 11
-137.99939689
 21
-42.9875487
 31
0.0
  0
LINE
  8
0
  6
CONTINUOUS
 62
       7
  5
6C
 10
-22.99939689
 20
-99.98754866
 30
0.0
 11
-22.99939689
 21
-42.9875487
 31
0.0
  0
LINE
  8
0
  6
CONTINUOUS
 62
       7
  5
6D
 10
2.00060311
 20
-98.48754866
 30
0.0
 11
2.00060311
 21
-43.48754866
 31
0.0
  0
LINE
  8
0
  6
CONTINUOUS
 62
       7
  5
6E
 10
38.00060311
 20
-95.63125262
 30
0.0
 11
38.00060311
 21
-46.3438447
 31
0.0
  0
LINE
  8
0
  6
CONTINUOUS
 62
       7
  5
6F
 10
-22.99939689
 20
-43.48754866
 30
0.0
 11
33.47162209
 21
-43.48754866
 31
0.0
  0
LINE
  8
0
  6
CONTINUOUS
 62
       7
  5
70
 10
-22.99939689
 20
-98.48754866
 30
0.0
 11
33.47162209
 21
-98.48754866
 31
0.0
  0
LINE
  8
0
  6
CONTINUOUS
 62
       7
  5
71
 10
34.00060311
 20
-98.44054359
 30
0.0
 11
34.00060311
 21
-43.48754866
 31
0.0
  0
LINE
  8
0
  6
CONTINUOUS
 62
       7
  5
72
 10
34.49768252
 20
-43.6684708
 30
0.0
 11
36.6846434
 21
-44.46445946
 31
0.0
  0
ARC
  8
0
  6
CONTINUOUS
 62
       7
  5
73
 10
33.47162209
 20
-46.48754866
 30
0.0
 40
3.0
 50
70.0
 51
90.0
  0
ARC
  8
0
  6
CONTINUOUS
 62
       7
  5
74
 10
36.00060311
 20
-46.3438447
 30
0.0
 40
2.0
 50
0.0
 51
70.0
  0
ARC
  8
0
  6
CONTINUOUS
 62
       7
  5
75
 10
33.47162209
 20
-95.48754866
 30
0.0
 40
3.0
 50
270.0
 51
290.0
  0
ARC
  8
0
  6
CONTINUOUS
 62
       7
  5
76
 10
36.00060311
 20
-95.63125262
 30
0.0
 40
2.0
 50
290.0
 51
0.0
  0
LINE
  8
0
  6
CONTINUOUS
 62
       7
  5
77
 10
34.49768252
 20
-98.30662652
 30
0.0
 11
36.6846434
 21
-97.51063786
 31
0.0
  0
LINE
  8
0
  6
CONTINUOUS
 62
       7
  5
78
 10
2.00060311
 20
70.0124513
 30
0.0
 11
2.00060311
 21
108.0124513
 31
0.0
  0
LINE
  8
0
  6
CONTINUOUS
 62
       7
  5
79
 10
38.00060311
 20
72.86874738
 30
0.0
 11
38.00060311
 21
78.01245134
 31
0.0
  0
LINE
  8
0
  6
CONTINUOUS
 62
       7
  5
7A
 10
34.00060311
 20
70.05945641
 30
0.0
 11
34.00060311
 21
78.01245134
 31
0.0
  0
LINE
  8
0
  6
CONTINUOUS
 62
       7
  5
7B
 10
-22.99939689
 20
108.01245134
 30
0.0
 11
33.47162209
 21
108.01245134
 31
0.0
  0
LINE
  8
0
  6
CONTINUOUS
 62
       7
  5
7C
 10
-22.99939689
 20
70.01245134
 30
0.0
 11
33.47162209
 21
70.01245134
 31
0.0
  0
ARC
  8
0
  6
CONTINUOUS
 62
       7
  5
7D
 10
33.47162209
 20
105.01245134
 30
0.0
 40
3.0
 50
70.0
 51
90.0
  0
LINE
  8
0
  6
CONTINUOUS
 62
       7
  5
7E
 10
34.49768252
 20
107.8315292
 30
0.0
 11
36.6846434
 21
107.03554054
 31
0.0
  0
ARC
  8
0
  6
CONTINUOUS
 62
       7
  5
7F
 10
36.00060311
 20
105.1561553
 30
0.0
 40
2.0
 50
0.0
 51
70.0
  0
ARC
  8
0
  6
CONTINUOUS
 62
       7
  5
80
 10
33.47162209
 20
73.01245134
 30
0.0
 40
3.0
 50
270.0
 51
290.0
  0
LINE
  8
0
  6
CONTINUOUS
 62
       7
  5
81
 10
34.49768252
 20
70.19337348
 30
0.0
 11
36.6846434
 21
70.98936214
 31
0.0
  0
ARC
  8
0
  6
CONTINUOUS
 62
       7
  5
82
 10
36.00060311
 20
72.86874738
 30
0.0
 40
2.0
 50
290.0
 51
0.0
  0
LINE
  8
0
  6
CONTINUOUS
 62
       7
  5
83
 10
38.00060311
 20
100.01245134
 30
0.0
 11
38.00060311
 21
105.1561553
 31
0.0
  0
LINE
  8
0
  6
CONTINUOUS
 62
       7
  5
84
 10
34.00060311
 20
100.01245134
 30
0.0
 11
34.00060311
 21
107.96544627
 31
0.0
  0
LINE
  8
0
  6
CONTINUOUS
 62
       7
  5
85
 10
34.50060311
 20
-98.30556352
 30
0.0
 11
34.50060311
 21
-91.48754866
 31
0.0
  0
LINE
  8
0
  6
CONTINUOUS
 62
       7
  5
86
 10
34.50060311
 20
-50.48754866
 30
0.0
 11
38.00060311
 21
-50.48754866
 31
0.0
  0
LINE
  8
0
  6
CONTINUOUS
 62
       7
  5
87
 10
34.50060311
 20
-91.48754866
 30
0.0
 11
38.00060311
 21
-91.48754866
 31
0.0
  0
LINE
  8
0
  6
CONTINUOUS
 62
       7
  5
88
 10
34.50060311
 20
-50.48754866
 30
0.0
 11
34.50060311
 21
-43.6695338
 31
0.0
  0
LINE
  8
0
  6
CONTINUOUS
 62
       7
  5
89
 10
34.50060311
 20
101.01245134
 30
0.0
 11
34.50060311
 21
107.8304662
 31
0.0
  0
LINE
  8
0
  6
CONTINUOUS
 62
       7
  5
8A
 10
34.50060311
 20
70.19443648
 30
0.0
 11
34.50060311
 21
77.01245134
 31
0.0
  0
LINE
  8
0
  6
CONTINUOUS
 62
       7
  5
8B
 10
163.50060311
 20
-43.48754866
 30
0.0
 11
195.50060311
 21
-43.48754866
 31
0.0
  0
LINE
  8
0
  6
CONTINUOUS
 62
       7
  5
8C
 10
163.50060311
 20
-98.48754866
 30
0.0
 11
195.50060311
 21
-98.48754866
 31
0.0
  0
LINE
  8
0
  6
CONTINUOUS
 62
       7
  5
8D
 10
163.00060311
 20
-42.98754866
 30
0.0
 11
166.00060311
 21
-42.98754866
 31
0.0
  0
LINE
  8
0
  6
CONTINUOUS
 62
       7
  5
8E
 10
163.00060311
 20
-98.98754866
 30
0.0
 11
196.00060311
 21
-98.98754866
 31
0.0
  0
LINE
  8
0
  6
CONTINUOUS
 62
       7
  5
8F
 10
160.50060311
 20
-95.48754866
 30
0.0
 11
160.50060311
 21
-46.48754866
 31
0.0
  0
LINE
  8
0
  6
CONTINUOUS
 62
       7
  5
90
 10
198.50060311
 20
-95.48754866
 30
0.0
 11
198.50060311
 21
-46.48754866
 31
0.0
  0
LINE
  8
0
  6
CONTINUOUS
 62
       7
  5
91
 10
160.00060311
 20
-95.98754866
 30
0.0
 11
160.00060311
 21
-45.98754866
 31
0.0
  0
LINE
  8
0
  6
CONTINUOUS
 62
       7
  5
92
 10
199.00060311
 20
-95.98754866
 30
0.0
 11
199.00060311
 21
-45.98754866
 31
0.0
  0
LINE
  8
0
  6
CONTINUOUS
 62
       7
  5
93
 10
193.00060311
 20
-42.98754866
 30
0.0
 11
196.00060311
 21
-42.98754866
 31
0.0
  0
LINE
  8
0
  6
CONTINUOUS
 62
       2
  5
94
 10
158.41879847
 20
-46.98754866
 30
0.0
 11
169.17188748
 21
-46.98754866
 31
0.0
  0
LINE
  8
0
  6
CONTINUOUS
 62
       2
  5
95
 10
158.41879847
 20
-94.98754866
 30
0.0
 11
169.17188748
 21
-94.98754866
 31
0.0
  0
LINE
  8
0
  6
CONTINUOUS
 62
       7
  5
96
 10
38.00060311
 20
101.01245134
 30
0.0
 11
34.50060311
 21
101.01245134
 31
0.0
  0
LINE
  8
0
  6
CONTINUOUS
 62
       7
  5
97
 10
34.50060311
 20
77.01245134
 30
0.0
 11
38.00060311
 21
77.01245134
 31
0.0
  0
LINE
  8
0
  6
CONTINUOUS
 62
       2
  5
98
 10
40.59089928
 20
73.51245134
 30
0.0
 11
31.9488934
 21
73.51245134
 31
0.0
  0
LINE
  8
0
  6
CONTINUOUS
 62
       2
  5
99
 10
40.59089928
 20
104.51245134
 30
0.0
 11
31.9488934
 21
104.51245134
 31
0.0
  0
LINE
  8
0
  6
CONTINUOUS
 62
       2
  5
9A
 10
164.00060311
 20
-99.98754866
 30
0.0
 11
164.00060311
 21
-89.423888
 31
0.0
  0
LINE
  8
0
  6
CONTINUOUS
 62
       2
  5
9B
 10
195.00060311
 20
-99.19344883
 30
0.0
 11
195.00060311
 21
-90.14076059
 31
0.0
  0
LINE
  8
0
  6
CONTINUOUS
 62
       7
  5
9C
 10
193.93994274
 20
-48.04820869
 30
0.0
 11
196.06126323
 21
-45.92688838
 31
0.0
  0
LINE
  8
0
  6
CONTINUOUS
 62
       7
  5
9D
 10
193.93994266
 20
-45.92688871
 30
0.0
 11
196.06126297
 21
-48.0482092
 31
0.0
  0
CIRCLE
  8
0
  6
CONTINUOUS
 62
       7
  5
9E
 10
195.00060311
 20
-46.98754866
 30
0.0
 40
2.79999924
  0
LINE
  8
0
  6
CONTINUOUS
 62
       7
  5
9F
 10
162.93994274
 20
-48.04820869
 30
0.0
 11
165.06126323
 21
-45.92688838
 31
0.0
  0
LINE
  8
0
  6
CONTINUOUS
 62
       7
  5
A0
 10
162.93994266
 20
-45.92688871
 30
0.0
 11
165.06126297
 21
-48.0482092
 31
0.0
  0
CIRCLE
  8
0
  6
CONTINUOUS
 62
       7
  5
A1
 10
164.00060311
 20
-46.98754866
 30
0.0
 40
2.79999924
  0
LINE
  8
0
  6
CONTINUOUS
 62
       7
  5
A2
 10
162.93994274
 20
-96.04820869
 30
0.0
 11
165.06126323
 21
-93.92688838
 31
0.0
  0
LINE
  8
0
  6
CONTINUOUS
 62
       7
  5
A3
 10
162.93994266
 20
-93.92688871
 30
0.0
 11
165.06126297
 21
-96.0482092
 31
0.0
  0
CIRCLE
  8
0
  6
CONTINUOUS
 62
       7
  5
A4
 10
164.00060311
 20
-94.98754866
 30
0.0
 40
2.79999924
  0
LINE
  8
0
  6
CONTINUOUS
 62
       7
  5
A5
 10
193.93994274
 20
-96.04820869
 30
0.0
 11
196.06126323
 21
-93.92688838
 31
0.0
  0
LINE
  8
0
  6
CONTINUOUS
 62
       7
  5
A6
 10
193.93994266
 20
-93.92688871
 30
0.0
 11
196.06126297
 21
-96.0482092
 31
0.0
  0
CIRCLE
  8
0
  6
CONTINUOUS
 62
       7
  5
A7
 10
195.00060311
 20
-94.98754866
 30
0.0
 40
2.79999924
  0
LINE
  8
0
  6
CONTINUOUS
 62
       2
  5
A8
 10
195.00060311
 20
-51.78807658
 30
0.0
 11
195.00060311
 21
-39.6012424
 31
0.0
  0
LINE
  8
0
  6
CONTINUOUS
 62
       2
  5
A9
 10
164.00060311
 20
-52.14651288
 30
0.0
 11
164.00060311
 21
-39.6012424
 31
0.0
  0
LINE
  8
0
  6
CONTINUOUS
 62
       2
  5
AA
 10
190.49884729
 20
-46.98754866
 30
0.0
 11
201.78959074
 21
-46.98754866
 31
0.0
  0
LINE
  8
0
  6
CONTINUOUS
 62
       2
  5
AB
 10
190.67806544
 20
-94.98754866
 30
0.0
 11
201.78959074
 21
-94.98754866
 31
0.0
  0
LINE
  8
0
  6
CONTINUOUS
 62
       7
  5
AC
 10
160.50060311
 20
-50.48754866
 30
0.0
 11
164.00060311
 21
-50.48754866
 31
0.0
  0
LINE
  8
0
  6
CONTINUOUS
 62
       7
  5
AD
 10
160.50060311
 20
-91.48754866
 30
0.0
 11
164.00060311
 21
-91.48754866
 31
0.0
  0
LINE
  8
0
  6
CONTINUOUS
 62
       7
  5
AE
 10
191.50060311
 20
-98.48754866
 30
0.0
 11
191.50060311
 21
-94.98754866
 31
0.0
  0
LINE
  8
0
  6
CONTINUOUS
 62
       7
  5
AF
 10
167.50060311
 20
-98.48754866
 30
0.0
 11
167.50060311
 21
-94.98754866
 31
0.0
  0
LINE
  8
0
  6
CONTINUOUS
 62
       7
  5
B0
 10
191.50060311
 20
-46.98754866
 30
0.0
 11
191.50060311
 21
-43.48754866
 31
0.0
  0
LINE
  8
0
  6
CONTINUOUS
 62
       7
  5
B1
 10
195.00060311
 20
-50.48754866
 30
0.0
 11
198.50060311
 21
-50.48754866
 31
0.0
  0
LINE
  8
0
  6
CONTINUOUS
 62
       7
  5
B2
 10
167.50060311
 20
-46.98754866
 30
0.0
 11
167.50060311
 21
-43.48754866
 31
0.0
  0
LINE
  8
0
  6
CONTINUOUS
 62
       7
  5
B3
 10
195.00060311
 20
-91.48754866
 30
0.0
 11
198.50060311
 21
-91.48754866
 31
0.0
  0
ARC
  8
0
  6
CONTINUOUS
 62
       7
  5
B4
 10
195.00060311
 20
-46.98754866
 30
0.0
 40
3.5
 50
180.0
 51
270.0
  0
ARC
  8
0
  6
CONTINUOUS
 62
       7
  5
B5
 10
164.00060311
 20
-46.98754866
 30
0.0
 40
3.5
 50
270.0
 51
0.0
  0
ARC
  8
0
  6
CONTINUOUS
 62
       7
  5
B6
 10
164.00060311
 20
-94.98754866
 30
0.0
 40
3.5
 50
0.0
 51
90.0
  0
ARC
  8
0
  6
CONTINUOUS
 62
       7
  5
B7
 10
195.00060311
 20
-94.98754866
 30
0.0
 40
3.5
 50
90.0
 51
180.0
  0
LINE
  8
0
  6
CONTINUOUS
 62
       2
  5
B8
 10
156.39738449
 20
-70.98754866
 30
0.0
 11
202.09801265
 21
-70.98754866
 31
0.0
  0
CIRCLE
  8
0
  6
CONTINUOUS
 62
       7
  5
B9
 10
179.50060311
 20
-70.98754866
 30
0.0
 40
8.25
  0
CIRCLE
  8
0
  6
CONTINUOUS
 62
       7
  5
BA
 10
179.50060311
 20
-70.98754866
 30
0.0
 40
7.5
  0
LINE
  8
0
  6
CONTINUOUS
 62
       7
  5
BB
 10
35.67242852
 20
101.7124521
 30
0.0
 11
34.50060311
 21
101.7124521
 31
0.0
  0
LINE
  8
0
  6
CONTINUOUS
 62
       7
  5
BC
 10
35.67242852
 20
107.31245058
 30
0.0
 11
34.50060311
 21
107.31245058
 31
0.0
  0
ARC
  8
0
  6
CONTINUOUS
 62
       7
  5
BD
 10
31.90060273
 20
104.51245134
 30
0.0
 40
5.0
 50
330.50764432
 51
29.49233837
  0
ARC
  8
0
  6
CONTINUOUS
 62
       7
  5
BE
 10
35.67242852
 20
102.37911813
 30
0.0
 40
0.66666669
 50
269.99998201
 51
330.50764432
  0
ARC
  8
0
  6
CONTINUOUS
 62
       7
  5
BF
 10
35.67242852
 20
106.64578455
 30
0.0
 40
0.66666669
 50
29.49235568
 51
90.00001799
  0
LINE
  8
0
  6
CONTINUOUS
 62
       7
  5
C0
 10
35.56695834
 20
105.84609569
 30
0.0
 11
36.90060273
 21
104.5124513
 31
0.0
  0
LINE
  8
0
  6
CONTINUOUS
 62
       7
  5
C1
 10
35.56695834
 20
103.17880691
 30
0.0
 11
36.90060273
 21
104.5124513
 31
0.0
  0
LINE
  8
0
  6
CONTINUOUS
 62
       7
  5
C2
 10
35.67242852
 20
70.7124521
 30
0.0
 11
34.50060311
 21
70.7124521
 31
0.0
  0
ARC
  8
0
  6
CONTINUOUS
 62
       7
  5
C3
 10
31.90060273
 20
73.51245134
 30
0.0
 40
5.0
 50
330.50766163
 51
29.49235568
  0
ARC
  8
0
  6
CONTINUOUS
 62
       7
  5
C4
 10
35.67242852
 20
71.37911813
 30
0.0
 40
0.66666669
 50
269.99998201
 51
330.50764432
  0
LINE
  8
0
  6
CONTINUOUS
 62
       7
  5
C5
 10
35.67242852
 20
76.31245058
 30
0.0
 11
34.50060311
 21
76.31245058
 31
0.0
  0
ARC
  8
0
  6
CONTINUOUS
 62
       7
  5
C6
 10
35.67242852
 20
75.64578455
 30
0.0
 40
0.66666669
 50
29.49235568
 51
90.00001799
  0
LINE
  8
0
  6
CONTINUOUS
 62
       7
  5
C7
 10
35.56695834
 20
74.84609577
 30
0.0
 11
36.90060273
 21
73.51245138
 31
0.0
  0
LINE
  8
0
  6
CONTINUOUS
 62
       7
  5
C8
 10
35.56695834
 20
72.17880699
 30
0.0
 11
36.90060273
 21
73.51245138
 31
0.0
  0
LINE
  8
0
  6
CONTINUOUS
 62
       2
  5
C9
 10
31.40807546
 20
-46.98754866
 30
0.0
 11
40.51069032
 21
-46.98754866
 31
0.0
  0
LINE
  8
0
  6
CONTINUOUS
 62
       2
  5
CA
 10
31.40807546
 20
-94.98754866
 30
0.0
 11
40.51069032
 21
-94.98754866
 31
0.0
  0
LINE
  8
0
  6
CONTINUOUS
 62
       7
  5
CB
 10
35.67242852
 20
-44.18754942
 30
0.0
 11
34.50060311
 21
-44.18754942
 31
0.0
  0
ARC
  8
0
  6
CONTINUOUS
 62
       7
  5
CC
 10
31.90060273
 20
-46.98754866
 30
0.0
 40
5.0
 50
330.50766163
 51
29.49235568
  0
LINE
  8
0
  6
CONTINUOUS
 62
       7
  5
CD
 10
35.56695834
 20
-45.65390423
 30
0.0
 11
36.90060273
 21
-46.98754862
 31
0.0
  0
ARC
  8
0
  6
CONTINUOUS
 62
       7
  5
CE
 10
35.67242852
 20
-44.85421545
 30
0.0
 40
0.66666669
 50
29.49235568
 51
90.00001799
  0
LINE
  8
0
  6
CONTINUOUS
 62
       7
  5
CF
 10
35.56695834
 20
-48.32119301
 30
0.0
 11
36.90060273
 21
-46.98754862
 31
0.0
  0
LINE
  8
0
  6
CONTINUOUS
 62
       7
  5
D0
 10
35.67242852
 20
-49.7875479
 30
0.0
 11
34.50060311
 21
-49.7875479
 31
0.0
  0
ARC
  8
0
  6
CONTINUOUS
 62
       7
  5
D1
 10
35.67242852
 20
-49.12088187
 30
0.0
 40
0.66666669
 50
269.99998201
 51
330.50764432
  0
LINE
  8
0
  6
CONTINUOUS
 62
       7
  5
D2
 10
35.67242852
 20
-92.18754942
 30
0.0
 11
34.50060311
 21
-92.18754942
 31
0.0
  0
ARC
  8
0
  6
CONTINUOUS
 62
       7
  5
D3
 10
31.90060273
 20
-94.98754866
 30
0.0
 40
5.0
 50
330.50766163
 51
29.49235568
  0
LINE
  8
0
  6
CONTINUOUS
 62
       7
  5
D4
 10
35.56695834
 20
-93.65390423
 30
0.0
 11
36.90060273
 21
-94.98754862
 31
0.0
  0
ARC
  8
0
  6
CONTINUOUS
 62
       7
  5
D5
 10
35.67242852
 20
-92.85421545
 30
0.0
 40
0.66666669
 50
29.49235568
 51
90.00001799
  0
LINE
  8
0
  6
CONTINUOUS
 62
       7
  5
D6
 10
35.56695834
 20
-96.32119301
 30
0.0
 11
36.90060273
 21
-94.98754862
 31
0.0
  0
LINE
  8
0
  6
CONTINUOUS
 62
       7
  5
D7
 10
35.67242852
 20
-97.7875479
 30
0.0
 11
34.50060311
 21
-97.7875479
 31
0.0
  0
ARC
  8
0
  6
CONTINUOUS
 62
       7
  5
D8
 10
35.67242852
 20
-97.12088187
 30
0.0
 40
0.66666669
 50
269.99998201
 51
330.50764432
  0
LINE
  8
0
  6
CONTINUOUS
 62
       2
  5
D9
 10
-146.49939689
 20
53.70318011
 30
0.0
 11
-146.49939689
 21
70.83440311
 31
0.0
  0
LINE
  8
0
  6
CONTINUOUS
 62
       2
  5
DA
 10
-14.49939689
 20
53.70318011
 30
0.0
 11
-14.49939689
 21
70.67496748
 31
0.0
  0
LINE
  8
0
  6
CONTINUOUS
 62
       2
  5
DB
 10
-156.18871663
 20
115.01245134
 30
0.0
 11
-138.60012956
 21
115.01245134
 31
0.0
  0
LINE
  8
0
  6
CONTINUOUS
 62
       2
  5
DC
 10
-156.18871663
 20
63.01245134
 30
0.0
 11
-138.91900082
 21
63.01245134
 31
0.0
  0
CIRCLE
  8
0
  6
CONTINUOUS
 62
       7
  5
DD
 10
-146.49939689
 20
115.01245134
 30
0.0
 40
3.25
  0
CIRCLE
  8
0
  6
CONTINUOUS
 62
       7
  5
DE
 10
-14.49939689
 20
115.01245134
 30
0.0
 40
3.25
  0
CIRCLE
  8
0
  6
CONTINUOUS
 62
       7
  5
DF
 10
-14.49939689
 20
63.01245134
 30
0.0
 40
3.25
  0
CIRCLE
  8
0
  6
CONTINUOUS
 62
       7
  5
E0
 10
-146.49939689
 20
63.01245134
 30
0.0
 40
3.25
  0
LINE
  8
0
  6
CONTINUOUS
 62
       2
  5
E1
 10
-21.89325066
 20
115.01245134
 30
0.0
 11
-5.65446183
 21
115.01245134
 31
0.0
  0
LINE
  8
0
  6
CONTINUOUS
 62
       2
  5
E2
 10
-14.49939689
 20
105.91024103
 30
0.0
 11
-14.49939689
 21
123.12658644
 31
0.0
  0
LINE
  8
0
  6
CONTINUOUS
 62
       2
  5
E3
 10
-21.89325066
 20
63.01245134
 30
0.0
 11
-5.65446183
 21
63.01245134
 31
0.0
  0
LINE
  8
0
  6
CONTINUOUS
 62
       2
  5
E4
 10
-146.49939689
 20
106.70741917
 30
0.0
 11
-146.49939689
 21
123.12658644
 31
0.0
  0
ARC
  8
0
  6
CONTINUOUS
 62
       7
  5
E5
 10
-150.99939689
 20
119.51245134
 30
0.0
 40
2.0
 50
90.0
 51
180.0
  0
ARC
  8
0
  6
CONTINUOUS
 62
       7
  5
E6
 10
-150.99939689
 20
58.51245134
 30
0.0
 40
2.0
 50
180.0
 51
270.0
  0
ARC
  8
0
  6
CONTINUOUS
 62
       7
  5
E7
 10
-9.99939689
 20
58.51245134
 30
0.0
 40
2.0
 50
270.0
 51
0.0
  0
ARC
  8
0
  6
CONTINUOUS
 62
       7
  5
E8
 10
-9.99939689
 20
119.51245134
 30
0.0
 40
2.0
 50
0.0
 51
90.0
  0
LINE
  8
0
  6
CONTINUOUS
 62
       2
  5
E9
 10
-105.49939689
 20
-135.64079046
 30
0.0
 11
-105.49939689
 21
-107.51668059
 31
0.0
  0
LINE
  8
0
  6
CONTINUOUS
 62
       2
  5
EA
 10
-55.49939689
 20
-135.64079046
 30
0.0
 11
-55.49939689
 21
-107.51668059
 31
0.0
  0
CIRCLE
  8
0
  6
CONTINUOUS
 62
       2
  5
EB
 10
-105.49939689
 20
-120.98754866
 30
0.0
 40
10.5
  0
CIRCLE
  8
0
  6
CONTINUOUS
 62
       2
  5
EC
 10
-55.49939689
 20
-120.98754866
 30
0.0
 40
10.5
  0
CIRCLE
  8
0
  6
CONTINUOUS
 62
       7
  5
ED
 10
-55.49939689
 20
-120.98754866
 30
0.0
 40
9.5
  0
CIRCLE
  8
0
  6
CONTINUOUS
 62
       7
  5
EE
 10
-105.49939689
 20
-120.98754866
 30
0.0
 40
9.5
  0
LINE
  8
0
  6
CONTINUOUS
 62
       2
  5
EF
 10
-93.99939689
 20
67.46859292
 30
0.0
 11
-93.99939689
 21
82.47081711
 31
0.0
  0
LINE
  8
0
  6
CONTINUOUS
 62
       2
  5
F0
 10
-66.99939689
 20
94.99844763
 30
0.0
 11
-66.99939689
 21
109.84600973
 31
0.0
  0
LINE
  8
0
  6
CONTINUOUS
 62
       2
  5
F1
 10
-73.68405239
 20
102.51245134
 30
0.0
 11
-60.07378714
 21
102.51245134
 31
0.0
  0
LINE
  8
0
  6
CONTINUOUS
 62
       2
  5
F2
 10
-100.28593448
 20
75.51245134
 30
0.0
 11
-86.98499344
 21
75.51245134
 31
0.0
  0
LINE
  8
0
  6
CONTINUOUS
 62
       7
  5
F3
 10
-68.80252032
 20
100.70932848
 30
0.0
 11
-65.19627455
 21
104.31557394
 31
0.0
  0
LINE
  8
0
  6
CONTINUOUS
 62
       7
  5
F4
 10
-68.80251955
 20
104.31557362
 30
0.0
 11
-65.19627544
 21
100.7093292
 31
0.0
  0
CIRCLE
  8
0
  6
CONTINUOUS
 62
       7
  5
F5
 10
-66.99939689
 20
102.51245134
 30
0.0
 40
4.75
  0
LINE
  8
0
  6
CONTINUOUS
 62
       7
  5
F6
 10
-95.80252032
 20
73.70932848
 30
0.0
 11
-92.19627455
 21
77.31557394
 31
0.0
  0
LINE
  8
0
  6
CONTINUOUS
 62
       7
  5
F7
 10
-95.80251955
 20
77.31557362
 30
0.0
 11
-92.19627544
 21
73.7093292
 31
0.0
  0
CIRCLE
  8
0
  6
CONTINUOUS
 62
       7
  5
F8
 10
-93.99939689
 20
75.51245134
 30
0.0
 40
4.75
  0
LINE
  8
0
  6
CONTINUOUS
 62
       7
  5
F9
 10
-137.99939689
 20
108.01245134
 30
0.0
 11
-194.47041587
 21
108.01245134
 31
0.0
  0
LINE
  8
0
  6
CONTINUOUS
 62
       7
  5
FA
 10
-137.99939689
 20
70.01245134
 30
0.0
 11
-194.47041587
 21
70.01245134
 31
0.0
  0
LINE
  8
0
  6
CONTINUOUS
 62
       7
  5
FB
 10
-196.56575212
 20
72.17880699
 30
0.0
 11
-197.89939651
 21
73.51245138
 31
0.0
  0
LINE
  8
0
  6
CONTINUOUS
 62
       7
  5
FC
 10
-196.56575212
 20
74.84609577
 30
0.0
 11
-197.89939651
 21
73.51245138
 31
0.0
  0
ARC
  8
0
  6
CONTINUOUS
 62
       7
  5
FD
 10
-196.6712223
 20
75.64578455
 30
0.0
 40
0.66666669
 50
89.99998201
 51
150.50764432
  0
LINE
  8
0
  6
CONTINUOUS
 62
       7
  5
FE
 10
-196.6712223
 20
76.31245058
 30
0.0
 11
-195.49939689
 21
76.31245058
 31
0.0
  0
ARC
  8
0
  6
CONTINUOUS
 62
       7
  5
FF
 10
-196.6712223
 20
71.37911813
 30
0.0
 40
0.66666669
 50
209.49235568
 51
270.00001799
  0
ARC
  8
0
  6
CONTINUOUS
 62
       7
  5
100
 10
-192.89939651
 20
73.51245134
 30
0.0
 40
5.0
 50
150.50764432
 51
209.49233837
  0
LINE
  8
0
  6
CONTINUOUS
 62
       7
  5
101
 10
-196.6712223
 20
70.7124521
 30
0.0
 11
-195.49939689
 21
70.7124521
 31
0.0
  0
LINE
  8
0
  6
CONTINUOUS
 62
       7
  5
102
 10
-196.56575212
 20
103.17880691
 30
0.0
 11
-197.89939651
 21
104.5124513
 31
0.0
  0
LINE
  8
0
  6
CONTINUOUS
 62
       7
  5
103
 10
-196.56575212
 20
105.84609569
 30
0.0
 11
-197.89939651
 21
104.5124513
 31
0.0
  0
ARC
  8
0
  6
CONTINUOUS
 62
       7
  5
104
 10
-196.6712223
 20
106.64578455
 30
0.0
 40
0.66666669
 50
89.99998201
 51
150.50764432
  0
ARC
  8
0
  6
CONTINUOUS
 62
       7
  5
105
 10
-196.6712223
 20
102.37911813
 30
0.0
 40
0.66666669
 50
209.49235568
 51
270.00001799
  0
ARC
  8
0
  6
CONTINUOUS
 62
       7
  5
106
 10
-192.89939651
 20
104.51245134
 30
0.0
 40
5.0
 50
150.50766163
 51
209.49235568
  0
LINE
  8
0
  6
CONTINUOUS
 62
       7
  5
107
 10
-196.6712223
 20
107.31245058
 30
0.0
 11
-195.49939689
 21
107.31245058
 31
0.0
  0
LINE
  8
0
  6
CONTINUOUS
 62
       7
  5
108
 10
-196.6712223
 20
101.7124521
 30
0.0
 11
-195.49939689
 21
101.7124521
 31
0.0
  0
LINE
  8
0
  6
CONTINUOUS
 62
       2
  5
109
 10
-201.58969306
 20
104.51245134
 30
0.0
 11
-192.94768718
 21
104.51245134
 31
0.0
  0
LINE
  8
0
  6
CONTINUOUS
 62
       2
  5
10A
 10
-201.58969306
 20
73.51245134
 30
0.0
 11
-192.94768718
 21
73.51245134
 31
0.0
  0
LINE
  8
0
  6
CONTINUOUS
 62
       7
  5
10B
 10
-195.49939689
 20
77.01245134
 30
0.0
 11
-198.99939689
 21
77.01245134
 31
0.0
  0
LINE
  8
0
  6
CONTINUOUS
 62
       7
  5
10C
 10
-198.99939689
 20
101.01245134
 30
0.0
 11
-195.49939689
 21
101.01245134
 31
0.0
  0
LINE
  8
0
  6
CONTINUOUS
 62
       7
  5
10D
 10
-195.49939689
 20
70.19443648
 30
0.0
 11
-195.49939689
 21
77.01245134
 31
0.0
  0
LINE
  8
0
  6
CONTINUOUS
 62
       7
  5
10E
 10
-195.49939689
 20
101.01245134
 30
0.0
 11
-195.49939689
 21
107.8304662
 31
0.0
  0
LINE
  8
0
  6
CONTINUOUS
 62
       7
  5
10F
 10
-194.99939689
 20
100.01245134
 30
0.0
 11
-194.99939689
 21
107.96544627
 31
0.0
  0
LINE
  8
0
  6
CONTINUOUS
 62
       7
  5
110
 10
-198.99939689
 20
100.01245134
 30
0.0
 11
-198.99939689
 21
105.1561553
 31
0.0
  0
ARC
  8
0
  6
CONTINUOUS
 62
       7
  5
111
 10
-196.99939689
 20
72.86874738
 30
0.0
 40
2.0
 50
180.0
 51
250.0
  0
LINE
  8
0
  6
CONTINUOUS
 62
       7
  5
112
 10
-195.4964763
 20
70.19337348
 30
0.0
 11
-197.68343718
 21
70.98936214
 31
0.0
  0
ARC
  8
0
  6
CONTINUOUS
 62
       7
  5
113
 10
-194.47041587
 20
73.01245134
 30
0.0
 40
3.0
 50
250.0
 51
270.0
  0
ARC
  8
0
  6
CONTINUOUS
 62
       7
  5
114
 10
-196.99939689
 20
105.1561553
 30
0.0
 40
2.0
 50
110.0
 51
180.0
  0
LINE
  8
0
  6
CONTINUOUS
 62
       7
  5
115
 10
-195.4964763
 20
107.8315292
 30
0.0
 11
-197.68343718
 21
107.03554054
 31
0.0
  0
ARC
  8
0
  6
CONTINUOUS
 62
       7
  5
116
 10
-194.47041587
 20
105.01245134
 30
0.0
 40
3.0
 50
90.0
 51
110.0
  0
LINE
  8
0
  6
CONTINUOUS
 62
       7
  5
117
 10
-194.99939689
 20
70.05945641
 30
0.0
 11
-194.99939689
 21
78.01245134
 31
0.0
  0
LINE
  8
0
  6
CONTINUOUS
 62
       7
  5
118
 10
-198.99939689
 20
72.86874738
 30
0.0
 11
-198.99939689
 21
78.01245134
 31
0.0
  0
LINE
  8
0
  6
CONTINUOUS
 62
       7
  5
119
 10
-162.99939689
 20
70.0124513
 30
0.0
 11
-162.99939689
 21
108.0124513
 31
0.0
  0
LINE
  8
0
  6
CONTINUOUS
 62
       7
  5
11A
 10
-152.99939689
 20
108.01245134
 30
0.0
 11
-152.99939689
 21
119.51245134
 31
0.0
  0
LINE
  8
0
  6
CONTINUOUS
 62
       2
  5
11B
 10
57.19786031
 20
89.01245134
 30
0.0
 11
-218.71914359
 21
89.01245134
 31
0.0
  0
LINE
  8
0
  6
CONTINUOUS
 62
       7
  5
11C
 10
-198.99939689
 20
-95.63125262
 30
0.0
 11
-198.99939689
 21
-46.3438447
 31
0.0
  0
LINE
  8
0
  6
CONTINUOUS
 62
       7
  5
11D
 10
-137.99939689
 20
-43.48754866
 30
0.0
 11
-194.47041587
 21
-43.48754866
 31
0.0
  0
LINE
  8
0
  6
CONTINUOUS
 62
       7
  5
11E
 10
-194.99939689
 20
-98.44054359
 30
0.0
 11
-194.99939689
 21
-43.48754866
 31
0.0
  0
ARC
  8
0
  6
CONTINUOUS
 62
       7
  5
11F
 10
-196.6712223
 20
-49.12088187
 30
0.0
 40
0.66666669
 50
209.49235568
 51
270.00001799
  0
LINE
  8
0
  6
CONTINUOUS
 62
       7
  5
120
 10
-196.6712223
 20
-49.7875479
 30
0.0
 11
-195.49939689
 21
-49.7875479
 31
0.0
  0
LINE
  8
0
  6
CONTINUOUS
 62
       7
  5
121
 10
-196.56575212
 20
-48.32119301
 30
0.0
 11
-197.89939651
 21
-46.98754862
 31
0.0
  0
ARC
  8
0
  6
CONTINUOUS
 62
       7
  5
122
 10
-196.6712223
 20
-44.85421545
 30
0.0
 40
0.66666669
 50
89.99998201
 51
150.50764432
  0
LINE
  8
0
  6
CONTINUOUS
 62
       7
  5
123
 10
-196.56575212
 20
-45.65390423
 30
0.0
 11
-197.89939651
 21
-46.98754862
 31
0.0
  0
ARC
  8
0
  6
CONTINUOUS
 62
       7
  5
124
 10
-192.89939651
 20
-46.98754866
 30
0.0
 40
5.0
 50
150.50764432
 51
209.49233837
  0
LINE
  8
0
  6
CONTINUOUS
 62
       7
  5
125
 10
-196.6712223
 20
-44.18754942
 30
0.0
 11
-195.49939689
 21
-44.18754942
 31
0.0
  0
LINE
  8
0
  6
CONTINUOUS
 62
       2
  5
126
 10
-192.40686924
 20
-46.98754866
 30
0.0
 11
-201.5094841
 21
-46.98754866
 31
0.0
  0
LINE
  8
0
  6
CONTINUOUS
 62
       7
  5
127
 10
-195.49939689
 20
-50.48754866
 30
0.0
 11
-195.49939689
 21
-43.6695338
 31
0.0
  0
LINE
  8
0
  6
CONTINUOUS
 62
       7
  5
128
 10
-195.49939689
 20
-50.48754866
 30
0.0
 11
-198.99939689
 21
-50.48754866
 31
0.0
  0
ARC
  8
0
  6
CONTINUOUS
 62
       7
  5
129
 10
-196.99939689
 20
-46.3438447
 30
0.0
 40
2.0
 50
110.0
 51
180.0
  0
ARC
  8
0
  6
CONTINUOUS
 62
       7
  5
12A
 10
-194.47041587
 20
-46.48754866
 30
0.0
 40
3.0
 50
90.0
 51
110.0
  0
LINE
  8
0
  6
CONTINUOUS
 62
       7
  5
12B
 10
-195.4964763
 20
-43.6684708
 30
0.0
 11
-197.68343718
 21
-44.46445946
 31
0.0
  0
LINE
  8
0
  6
CONTINUOUS
 62
       7
  5
12C
 10
-137.99939689
 20
-98.48754866
 30
0.0
 11
-194.47041587
 21
-98.48754866
 31
0.0
  0
ARC
  8
0
  6
CONTINUOUS
 62
       7
  5
12D
 10
-196.6712223
 20
-97.12088187
 30
0.0
 40
0.66666669
 50
209.49235568
 51
270.00001799
  0
LINE
  8
0
  6
CONTINUOUS
 62
       7
  5
12E
 10
-196.6712223
 20
-97.7875479
 30
0.0
 11
-195.49939689
 21
-97.7875479
 31
0.0
  0
LINE
  8
0
  6
CONTINUOUS
 62
       7
  5
12F
 10
-196.56575212
 20
-96.32119301
 30
0.0
 11
-197.89939651
 21
-94.98754862
 31
0.0
  0
ARC
  8
0
  6
CONTINUOUS
 62
       7
  5
130
 10
-196.6712223
 20
-92.85421545
 30
0.0
 40
0.66666669
 50
89.99998201
 51
150.50764432
  0
LINE
  8
0
  6
CONTINUOUS
 62
       7
  5
131
 10
-196.56575212
 20
-93.65390423
 30
0.0
 11
-197.89939651
 21
-94.98754862
 31
0.0
  0
ARC
  8
0
  6
CONTINUOUS
 62
       7
  5
132
 10
-192.89939651
 20
-94.98754866
 30
0.0
 40
5.0
 50
150.50764432
 51
209.49233837
  0
LINE
  8
0
  6
CONTINUOUS
 62
       7
  5
133
 10
-196.6712223
 20
-92.18754942
 30
0.0
 11
-195.49939689
 21
-92.18754942
 31
0.0
  0
LINE
  8
0
  6
CONTINUOUS
 62
       2
  5
134
 10
-192.40686924
 20
-94.98754866
 30
0.0
 11
-201.5094841
 21
-94.98754866
 31
0.0
  0
LINE
  8
0
  6
CONTINUOUS
 62
       7
  5
135
 10
-195.49939689
 20
-91.48754866
 30
0.0
 11
-198.99939689
 21
-91.48754866
 31
0.0
  0
LINE
  8
0
  6
CONTINUOUS
 62
       7
  5
136
 10
-195.49939689
 20
-98.30556352
 30
0.0
 11
-195.49939689
 21
-91.48754866
 31
0.0
  0
LINE
  8
0
  6
CONTINUOUS
 62
       7
  5
137
 10
-195.4964763
 20
-98.30662652
 30
0.0
 11
-197.68343718
 21
-97.51063786
 31
0.0
  0
ARC
  8
0
  6
CONTINUOUS
 62
       7
  5
138
 10
-196.99939689
 20
-95.63125262
 30
0.0
 40
2.0
 50
180.0
 51
250.0
  0
ARC
  8
0
  6
CONTINUOUS
 62
       7
  5
139
 10
-194.47041587
 20
-95.48754866
 30
0.0
 40
3.0
 50
250.0
 51
270.0
  0
LINE
  8
0
  6
CONTINUOUS
 62
       2
  5
13A
 10
42.44580083
 20
-70.98754866
 30
0.0
 11
-203.26544948
 21
-70.98754866
 31
0.0
  0
ARC
  8
0
  6
CONTINUOUS
 62
       7
  5
13B
 10
195.50060311
 20
-46.48754866
 30
0.0
 40
3.0
 50
0.0
 51
90.0
  0
ARC
  8
0
  6
CONTINUOUS
 62
       7
  5
13C
 10
196.00060311
 20
-45.98754866
 30
0.0
 40
3.0
 50
0.0
 51
90.0
  0
ARC
  8
0
  6
CONTINUOUS
 62
       7
  5
13D
 10
163.50060311
 20
-46.48754866
 30
0.0
 40
3.0
 50
90.0
 51
180.0
  0
ARC
  8
0
  6
CONTINUOUS
 62
       7
  5
13E
 10
163.00060311
 20
-45.98754866
 30
0.0
 40
3.0
 50
90.0
 51
180.0
  0
ARC
  8
0
  6
CONTINUOUS
 62
       7
  5
13F
 10
163.50060311
 20
-95.48754866
 30
0.0
 40
3.0
 50
180.0
 51
270.0
  0
ARC
  8
0
  6
CONTINUOUS
 62
       7
  5
140
 10
163.00060311
 20
-95.98754866
 30
0.0
 40
3.0
 50
180.0
 51
270.0
  0
ARC
  8
0
  6
CONTINUOUS
 62
       7
  5
141
 10
195.50060311
 20
-95.48754866
 30
0.0
 40
3.0
 50
270.0
 51
0.0
  0
ARC
  8
0
  6
CONTINUOUS
 62
       7
  5
142
 10
196.00060311
 20
-95.98754866
 30
0.0
 40
3.0
 50
270.0
 51
0.0
  0
LINE
  8
0
  6
CONTINUOUS
 62
       7
  5
143
 10
-162.99939689
 20
-43.48754866
 30
0.0
 11
-162.99939689
 21
-98.48754866
 31
0.0
  0
LINE
  8
0
  6
CONTINUOUS
 62
       2
  5
144
 10
16.00060311
 20
73.62593906
 30
0.0
 11
16.00060311
 21
104.50250943
 31
0.0
  0
LINE
  8
0
  6
CONTINUOUS
 62
       7
  5
145
 10
29.50060311
 20
77.51245134
 30
0.0
 11
29.50060311
 21
100.51245134
 31
0.0
  0
ARC
  8
0
  6
CONTINUOUS
 62
       7
  5
146
 10
4.50060311
 20
100.51245134
 30
0.0
 40
2.0
 50
90.0
 51
180.0
  0
LINE
  8
0
  6
CONTINUOUS
 62
       7
  5
147
 10
29.50060311
 20
100.01245134
 30
0.0
 11
42.50060311
 21
100.01245134
 31
0.0
  0
ARC
  8
0
  6
CONTINUOUS
 62
       7
  5
148
 10
27.50060311
 20
100.51245134
 30
0.0
 40
2.0
 50
0.0
 51
90.0
  0
LINE
  8
0
  6
CONTINUOUS
 62
       7
  5
149
 10
4.50060311
 20
102.51245134
 30
0.0
 11
27.50060311
 21
102.51245134
 31
0.0
  0
LINE
  8
0
  6
CONTINUOUS
 62
       7
  5
14A
 10
4.50060311
 20
75.51245134
 30
0.0
 11
27.50060311
 21
75.51245134
 31
0.0
  0
LINE
  8
0
  6
CONTINUOUS
 62
       7
  5
14B
 10
29.50060311
 20
78.01245134
 30
0.0
 11
42.50060311
 21
78.01245134
 31
0.0
  0
ARC
  8
0
  6
CONTINUOUS
 62
       7
  5
14C
 10
27.50060311
 20
77.51245134
 30
0.0
 40
2.0
 50
270.0
 51
0.0
  0
LINE
  8
0
  6
CONTINUOUS
 62
       7
  5
14D
 10
44.50060311
 20
80.01245134
 30
0.0
 11
44.50060311
 21
98.01245134
 31
0.0
  0
LINE
  8
0
  6
CONTINUOUS
 62
       7
  5
14E
 10
47.00060311
 20
79.51245134
 30
0.0
 11
47.00060311
 21
98.51245134
 31
0.0
  0
LINE
  8
0
  6
CONTINUOUS
 62
       7
  5
14F
 10
47.00060311
 20
98.51245134
 30
0.0
 11
52.00060311
 21
98.51245134
 31
0.0
  0
ARC
  8
0
  6
CONTINUOUS
 62
       7
  5
150
 10
42.50060311
 20
98.01245134
 30
0.0
 40
2.0
 50
0.0
 51
90.0
  0
LINE
  8
0
  6
CONTINUOUS
 62
       7
  5
151
 10
47.00060311
 20
97.26245134
 30
0.0
 11
44.50060311
 21
97.26245134
 31
0.0
  0
LINE
  8
0
  6
CONTINUOUS
 62
       7
  5
152
 10
52.00060311
 20
79.51245134
 30
0.0
 11
52.00060311
 21
98.51245134
 31
0.0
  0
LINE
  8
0
  6
CONTINUOUS
 62
       7
  5
153
 10
47.00060311
 20
89.01245134
 30
0.0
 11
52.00060311
 21
89.01245134
 31
0.0
  0
LINE
  8
0
  6
CONTINUOUS
 62
       7
  5
154
 10
47.00060311
 20
80.76245134
 30
0.0
 11
44.50060311
 21
80.76245134
 31
0.0
  0
LINE
  8
0
  6
CONTINUOUS
 62
       7
  5
155
 10
47.00060311
 20
79.51245134
 30
0.0
 11
52.00060311
 21
79.51245134
 31
0.0
  0
ARC
  8
0
  6
CONTINUOUS
 62
       7
  5
156
 10
42.50060311
 20
80.01245134
 30
0.0
 40
2.0
 50
270.0
 51
0.0
  0
LINE
  8
0
  6
CONTINUOUS
 62
       7
  5
157
 10
2.50060311
 20
77.51245134
 30
0.0
 11
2.50060311
 21
100.51245134
 31
0.0
  0
ARC
  8
0
  6
CONTINUOUS
 62
       7
  5
158
 10
4.50060311
 20
77.51245134
 30
0.0
 40
2.0
 50
180.0
 51
270.0
  0
CIRCLE
  8
0
  6
CONTINUOUS
 62
       7
  5
159
 10
16.00060311
 20
89.01245134
 30
0.0
 40
4.0
  0
LINE
  8
0
  6
CONTINUOUS
 62
       7
  5
15A
 10
14.58638958
 20
87.59823776
 30
0.0
 11
17.41481665
 21
90.42666484
 31
0.0
  0
LINE
  8
0
  6
CONTINUOUS
 62
       7
  5
15B
 10
14.58638958
 20
90.42666484
 30
0.0
 11
17.41481665
 21
87.59823776
 31
0.0
  0
LINE
  8
0
  6
CONTINUOUS
 62
       2
  5
15C
 10
-176.99939689
 20
73.62593906
 30
0.0
 11
-176.99939689
 21
104.50250943
 31
0.0
  0
LINE
  8
0
  6
CONTINUOUS
 62
       7
  5
15D
 10
-165.49939689
 20
102.51245134
 30
0.0
 11
-188.49939689
 21
102.51245134
 31
0.0
  0
ARC
  8
0
  6
CONTINUOUS
 62
       7
  5
15E
 10
-165.49939689
 20
100.51245134
 30
0.0
 40
2.0
 50
0.0
 51
90.0
  0
LINE
  8
0
  6
CONTINUOUS
 62
       7
  5
15F
 10
-163.49939689
 20
77.51245134
 30
0.0
 11
-163.49939689
 21
100.51245134
 31
0.0
  0
LINE
  8
0
  6
CONTINUOUS
 62
       7
  5
160
 10
-165.49939689
 20
75.51245134
 30
0.0
 11
-188.49939689
 21
75.51245134
 31
0.0
  0
ARC
  8
0
  6
CONTINUOUS
 62
       7
  5
161
 10
-165.49939689
 20
77.51245134
 30
0.0
 40
2.0
 50
270.0
 51
0.0
  0
CIRCLE
  8
0
  6
CONTINUOUS
 62
       7
  5
162
 10
-176.99939689
 20
89.01245134
 30
0.0
 40
4.0
  0
LINE
  8
0
  6
CONTINUOUS
 62
       7
  5
163
 10
-175.58518336
 20
87.59823776
 30
0.0
 11
-178.41361043
 21
90.42666484
 31
0.0
  0
LINE
  8
0
  6
CONTINUOUS
 62
       7
  5
164
 10
-175.58518336
 20
90.42666484
 30
0.0
 11
-178.41361043
 21
87.59823776
 31
0.0
  0
LINE
  8
0
  6
CONTINUOUS
 62
       7
  5
165
 10
-190.49939689
 20
77.51245134
 30
0.0
 11
-190.49939689
 21
100.51245134
 31
0.0
  0
LINE
  8
0
  6
CONTINUOUS
 62
       7
  5
166
 10
-190.49939689
 20
78.01245134
 30
0.0
 11
-203.49939689
 21
78.01245134
 31
0.0
  0
ARC
  8
0
  6
CONTINUOUS
 62
       7
  5
167
 10
-188.49939689
 20
77.51245134
 30
0.0
 40
2.0
 50
180.0
 51
270.0
  0
LINE
  8
0
  6
CONTINUOUS
 62
       7
  5
168
 10
-190.49939689
 20
100.01245134
 30
0.0
 11
-203.49939689
 21
100.01245134
 31
0.0
  0
ARC
  8
0
  6
CONTINUOUS
 62
       7
  5
169
 10
-188.49939689
 20
100.51245134
 30
0.0
 40
2.0
 50
90.0
 51
180.0
  0
LINE
  8
0
  6
CONTINUOUS
 62
       7
  5
16A
 10
-205.49939689
 20
80.01245134
 30
0.0
 11
-205.49939689
 21
98.01245134
 31
0.0
  0
LINE
  8
0
  6
CONTINUOUS
 62
       7
  5
16B
 10
-207.99939689
 20
79.51245134
 30
0.0
 11
-207.99939689
 21
98.51245134
 31
0.0
  0
LINE
  8
0
  6
CONTINUOUS
 62
       7
  5
16C
 10
-207.99939689
 20
98.51245134
 30
0.0
 11
-212.99939689
 21
98.51245134
 31
0.0
  0
LINE
  8
0
  6
CONTINUOUS
 62
       7
  5
16D
 10
-207.99939689
 20
97.26245134
 30
0.0
 11
-205.49939689
 21
97.26245134
 31
0.0
  0
ARC
  8
0
  6
CONTINUOUS
 62
       7
  5
16E
 10
-203.49939689
 20
98.01245134
 30
0.0
 40
2.0
 50
90.0
 51
180.0
  0
LINE
  8
0
  6
CONTINUOUS
 62
       7
  5
16F
 10
-212.99939689
 20
79.51245134
 30
0.0
 11
-212.99939689
 21
98.51245134
 31
0.0
  0
LINE
  8
0
  6
CONTINUOUS
 62
       7
  5
170
 10
-207.99939689
 20
89.01245134
 30
0.0
 11
-212.99939689
 21
89.01245134
 31
0.0
  0
LINE
  8
0
  6
CONTINUOUS
 62
       7
  5
171
 10
-207.99939689
 20
80.76245134
 30
0.0
 11
-205.49939689
 21
80.76245134
 31
0.0
  0
LINE
  8
0
  6
CONTINUOUS
 62
       7
  5
172
 10
-207.99939689
 20
79.51245134
 30
0.0
 11
-212.99939689
 21
79.51245134
 31
0.0
  0
ARC
  8
0
  6
CONTINUOUS
 62
       7
  5
173
 10
-203.49939689
 20
80.01245134
 30
0.0
 40
2.0
 50
180.0
 51
270.0
  0
LINE
  8
0
  6
CONTINUOUS
 62
       2
  5
174
 10
16.00060311
 20
-48.5575827
 30
0.0
 11
16.00060311
 21
-11.29191098
 31
0.0
  0
LINE
  8
0
  6
CONTINUOUS
 62
       7
  5
175
 10
2.50060311
 20
-16.98754866
 30
0.0
 11
2.50060311
 21
-43.48754866
 31
0.0
  0
LINE
  8
0
  6
CONTINUOUS
 62
       7
  5
176
 10
29.50060311
 20
-16.98754866
 30
0.0
 11
29.50060311
 21
-43.48754866
 31
0.0
  0
ARC
  8
0
  6
CONTINUOUS
 62
       7
  5
177
 10
4.50060311
 20
-16.98754866
 30
0.0
 40
2.0
 50
90.0
 51
180.0
  0
ARC
  8
0
  6
CONTINUOUS
 62
       7
  5
178
 10
27.50060311
 20
-16.98754866
 30
0.0
 40
2.0
 50
0.0
 51
90.0
  0
LINE
  8
0
  6
CONTINUOUS
 62
       7
  5
179
 10
4.50060311
 20
-14.98754866
 30
0.0
 11
27.50060311
 21
-14.98754866
 31
0.0
  0
LINE
  8
0
  6
CONTINUOUS
 62
       7
  5
17A
 10
52.00060311
 20
-32.47237622
 30
0.0
 11
47.00060311
 21
-32.47237622
 31
0.0
  0
LINE
  8
0
  6
CONTINUOUS
 62
       7
  5
17B
 10
52.00060311
 20
-21.5027211
 30
0.0
 11
47.00060311
 21
-21.5027211
 31
0.0
  0
LINE
  8
0
  6
CONTINUOUS
 62
       7
  5
17C
 10
47.00060311
 20
-37.95720377
 30
0.0
 11
52.00060311
 21
-37.95720377
 31
0.0
  0
LINE
  8
0
  6
CONTINUOUS
 62
       7
  5
17D
 10
47.00060311
 20
-16.01789355
 30
0.0
 11
52.00060311
 21
-16.01789355
 31
0.0
  0
ARC
  8
0
  6
CONTINUOUS
 62
       7
  5
17E
 10
42.50060311
 20
-35.98754866
 30
0.0
 40
2.0
 50
270.0
 51
0.0
  0
ARC
  8
0
  6
CONTINUOUS
 62
       7
  5
17F
 10
42.50060311
 20
-17.98754866
 30
0.0
 40
2.0
 50
0.0
 51
90.0
  0
LINE
  8
0
  6
CONTINUOUS
 62
       7
  5
180
 10
52.00060311
 20
-16.01789355
 30
0.0
 11
52.00060311
 21
-37.95720377
 31
0.0
  0
LINE
  8
0
  6
CONTINUOUS
 62
       7
  5
181
 10
47.00060311
 20
-16.01789355
 30
0.0
 11
47.00060311
 21
-37.95720377
 31
0.0
  0
LINE
  8
0
  6
CONTINUOUS
 62
       7
  5
182
 10
44.50060311
 20
-17.98754866
 30
0.0
 11
44.50060311
 21
-35.98754866
 31
0.0
  0
LINE
  8
0
  6
CONTINUOUS
 62
       7
  5
183
 10
42.50060311
 20
-37.98754866
 30
0.0
 11
29.50060311
 21
-37.98754866
 31
0.0
  0
LINE
  8
0
  6
CONTINUOUS
 62
       7
  5
184
 10
42.50060311
 20
-15.98754866
 30
0.0
 11
29.23265392
 21
-15.98754866
 31
0.0
  0
LINE
  8
0
  6
CONTINUOUS
 62
       7
  5
185
 10
29.50060311
 20
-41.98754866
 30
0.0
 11
2.50060311
 21
-41.98754866
 31
0.0
  0
LINE
  8
0
  6
CONTINUOUS
 62
       7
  5
186
 10
47.00060311
 20
-35.23754866
 30
0.0
 11
44.50060311
 21
-35.23754866
 31
0.0
  0
LINE
  8
0
  6
CONTINUOUS
 62
       7
  5
187
 10
47.00060311
 20
-18.73754866
 30
0.0
 11
44.50060311
 21
-18.73754866
 31
0.0
  0
LINE
  8
0
  6
CONTINUOUS
 62
       2
  5
188
 10
57.19786031
 20
-26.98754866
 30
0.0
 11
26.74034853
 21
-26.98754866
 31
0.0
  0
LINE
  8
0
  6
CONTINUOUS
 62
       2
  5
189
 10
-176.99939689
 20
-48.5575827
 30
0.0
 11
-176.99939689
 21
-11.29191098
 31
0.0
  0
LINE
  8
0
  6
CONTINUOUS
 62
       7
  5
18A
 10
-163.49939689
 20
-16.98754866
 30
0.0
 11
-163.49939689
 21
-43.48754866
 31
0.0
  0
LINE
  8
0
  6
CONTINUOUS
 62
       7
  5
18B
 10
-190.49939689
 20
-16.98754866
 30
0.0
 11
-190.49939689
 21
-43.48754866
 31
0.0
  0
LINE
  8
0
  6
CONTINUOUS
 62
       2
  5
18C
 10
-218.19665409
 20
-26.98754866
 30
0.0
 11
-187.73914231
 21
-26.98754866
 31
0.0
  0
LINE
  8
0
  6
CONTINUOUS
 62
       7
  5
18D
 10
-207.99939689
 20
-18.73754866
 30
0.0
 11
-205.49939689
 21
-18.73754866
 31
0.0
  0
LINE
  8
0
  6
CONTINUOUS
 62
       7
  5
18E
 10
-207.99939689
 20
-35.23754866
 30
0.0
 11
-205.49939689
 21
-35.23754866
 31
0.0
  0
LINE
  8
0
  6
CONTINUOUS
 62
       7
  5
18F
 10
-190.49939689
 20
-41.98754866
 30
0.0
 11
-163.49939689
 21
-41.98754866
 31
0.0
  0
LINE
  8
0
  6
CONTINUOUS
 62
       7
  5
190
 10
-203.49939689
 20
-15.98754866
 30
0.0
 11
-190.2314477
 21
-15.98754866
 31
0.0
  0
LINE
  8
0
  6
CONTINUOUS
 62
       7
  5
191
 10
-203.49939689
 20
-37.98754866
 30
0.0
 11
-190.49939689
 21
-37.98754866
 31
0.0
  0
LINE
  8
0
  6
CONTINUOUS
 62
       7
  5
192
 10
-205.49939689
 20
-17.98754866
 30
0.0
 11
-205.49939689
 21
-35.98754866
 31
0.0
  0
LINE
  8
0
  6
CONTINUOUS
 62
       7
  5
193
 10
-207.99939689
 20
-16.01789355
 30
0.0
 11
-207.99939689
 21
-37.95720377
 31
0.0
  0
LINE
  8
0
  6
CONTINUOUS
 62
       7
  5
194
 10
-212.99939689
 20
-16.01789355
 30
0.0
 11
-212.99939689
 21
-37.95720377
 31
0.0
  0
ARC
  8
0
  6
CONTINUOUS
 62
       7
  5
195
 10
-203.49939689
 20
-17.98754866
 30
0.0
 40
2.0
 50
90.0
 51
180.0
  0
ARC
  8
0
  6
CONTINUOUS
 62
       7
  5
196
 10
-203.49939689
 20
-35.98754866
 30
0.0
 40
2.0
 50
180.0
 51
270.0
  0
LINE
  8
0
  6
CONTINUOUS
 62
       7
  5
197
 10
-207.99939689
 20
-16.01789355
 30
0.0
 11
-212.99939689
 21
-16.01789355
 31
0.0
  0
LINE
  8
0
  6
CONTINUOUS
 62
       7
  5
198
 10
-207.99939689
 20
-37.95720377
 30
0.0
 11
-212.99939689
 21
-37.95720377
 31
0.0
  0
LINE
  8
0
  6
CONTINUOUS
 62
       7
  5
199
 10
-212.99939689
 20
-21.5027211
 30
0.0
 11
-207.99939689
 21
-21.5027211
 31
0.0
  0
LINE
  8
0
  6
CONTINUOUS
 62
       7
  5
19A
 10
-212.99939689
 20
-32.47237622
 30
0.0
 11
-207.99939689
 21
-32.47237622
 31
0.0
  0
LINE
  8
0
  6
CONTINUOUS
 62
       7
  5
19B
 10
-165.49939689
 20
-14.98754866
 30
0.0
 11
-188.49939689
 21
-14.98754866
 31
0.0
  0
ARC
  8
0
  6
CONTINUOUS
 62
       7
  5
19C
 10
-188.49939689
 20
-16.98754866
 30
0.0
 40
2.0
 50
90.0
 51
180.0
  0
ARC
  8
0
  6
CONTINUOUS
 62
       7
  5
19D
 10
-165.49939689
 20
-16.98754866
 30
0.0
 40
2.0
 50
0.0
 51
90.0
  0
LINE
  8
0
  6
CONTINUOUS
 62
       7
  5
19E
 10
193.00060311
 20
-43.48754866
 30
0.0
 11
193.00060311
 21
-16.98754866
 31
0.0
  0
LINE
  8
0
  6
CONTINUOUS
 62
       7
  5
19F
 10
166.00060311
 20
-43.48754866
 30
0.0
 11
166.00060311
 21
-16.98754866
 31
0.0
  0
CIRCLE
  8
0
  6
CONTINUOUS
 62
       7
  5
1A0
 10
179.50060311
 20
-26.98754866
 30
0.0
 40
11.0
  0
LINE
  8
0
  6
CONTINUOUS
 62
       7
  5
1A1
 10
170.00060311
 20
-32.47237622
 30
0.0
 11
179.50060311
 21
-37.95720377
 31
0.0
  0
LINE
  8
0
  6
CONTINUOUS
 62
       7
  5
1A2
 10
179.50060311
 20
-37.95720377
 30
0.0
 11
189.00060311
 21
-32.47237622
 31
0.0
  0
ARC
  8
0
  6
CONTINUOUS
 62
       7
  5
1A3
 10
168.00060311
 20
-16.98754866
 30
0.0
 40
2.0
 50
90.0
 51
180.0
  0
ARC
  8
0
  6
CONTINUOUS
 62
       7
  5
1A4
 10
191.00060311
 20
-16.98754866
 30
0.0
 40
2.0
 50
0.0
 51
90.0
  0
LINE
  8
0
  6
CONTINUOUS
 62
       7
  5
1A5
 10
189.00060311
 20
-21.5027211
 30
0.0
 11
179.50060311
 21
-16.01789355
 31
0.0
  0
LINE
  8
0
  6
CONTINUOUS
 62
       7
  5
1A6
 10
189.00060311
 20
-32.47237622
 30
0.0
 11
189.00060311
 21
-21.5027211
 31
0.0
  0
LINE
  8
0
  6
CONTINUOUS
 62
       7
  5
1A7
 10
170.00060311
 20
-21.5027211
 30
0.0
 11
170.00060311
 21
-32.47237622
 31
0.0
  0
LINE
  8
0
  6
CONTINUOUS
 62
       7
  5
1A8
 10
179.50060311
 20
-16.01789355
 30
0.0
 11
170.00060311
 21
-21.5027211
 31
0.0
  0
CIRCLE
  8
0
  6
CONTINUOUS
 62
       7
  5
1A9
 10
179.50060311
 20
-26.98754866
 30
0.0
 40
6.0
  0
LINE
  8
0
  6
CONTINUOUS
 62
       2
  5
1AA
 10
163.80645731
 20
-26.98754866
 30
0.0
 11
197.24661901
 21
-26.98754866
 31
0.0
  0
LINE
  8
0
  6
CONTINUOUS
 62
       7
  5
1AB
 10
168.00060311
 20
-14.98754866
 30
0.0
 11
191.00060311
 21
-14.98754866
 31
0.0
  0
LINE
  8
0
  6
CONTINUOUS
 62
       7
  5
1AC
 10
166.00060311
 20
-41.98754866
 30
0.0
 11
193.00060311
 21
-41.98754866
 31
0.0
  0
LINE
  8
0
  6
CONTINUOUS
 62
       7
  5
1AD
 10
282.09985352
 20
195.5
 30
0.0
 11
282.09985352
 21
-195.0
 31
0.0
  0
LINE
  8
0
  6
CONTINUOUS
 62
       7
  5
1AE
 10
-281.25
 20
195.5
 30
0.0
 11
282.09985352
 21
195.5
 31
0.0
  0
LINE
  8
0
  6
CONTINUOUS
 62
       7
  5
1AF
 10
-281.25
 20
195.5
 30
0.0
 11
-281.25
 21
-195.0
 31
0.0
  0
LINE
  8
0
  6
CONTINUOUS
 62
       7
  5
1B0
 10
-281.25
 20
-195.0
 30
0.0
 11
282.09985352
 21
-195.0
 31
0.0
  0
TEXT
  8
0
  6
CONTINUOUS
 62
       7
  5
1B1
 10
-268.28437506
 20
177.3499999
 30
0.0
 40
6.30000019
  1
MODEL:A600-4E2-25
 41
1.0625
  7
MX_NOTE_STANDARD
 11
-268.28437506
 21
180.5
 31
0.0
 73
       2
  0
ENDSEC
  0
EOF
