  0
SECTION
  2
HEADER
  0
ENDSEC
  0
SECTION
  2
TABLES
  0
TABLE
  2
LTYPE
 70
     4
  0
LTYPE
  2
CONTINUOUS
 70
    64
  3
Solid line
 72
    65
 73
     0
 40
0.000000
  0
LTYPE
  2
DASHED
 70
    64
  3
__ __ __ __ __ __ __ __ __ __ __ __ __ __ __
 72
    65
 73
     2
 40
3.500000
 49
2.000000
 49
-1.500000
  0
LTYPE
  2
CENTER
 70
    64
  3
____ _ ____ _ ____ _ ____ _ ____ _ ____ _ ____
 72
    65
 73
     4
 40
17.500000
 49
13.000000
 49
-1.500000
 49
1.500000
 49
-1.500000
  0
LTYPE
  2
PHANTOM
 70
    64
  3
_____ _ _ _____ _ _ _____ _ _ _____ _ _ ____  
 72
    65
 73
     6
 40
15.500000
 49
8.000000
 49
-1.500000
 49
1.500000
 49
-1.500000
 49
1.500000
 49
-1.500000
  0
LTYPE
  2
DASHED1
 70
    64
  3
__ __ __ __ __ __ __ __ __ __ __ __ __ __ __
 72
    65
 73
     2
 40
1.500000
 49
1.000000
 49
-0.500000
  0
LTYPE
  2
DASHED2
 70
    64
  3
__ __ __ __ __ __ __ __ __ __ __ __ __ __ __
 72
    65
 73
     2
 40
3.500000
 49
2.500000
 49
-1.000000
  0
LTYPE
  2
DASHED3
 70
    64
  3
__ __ __ __ __ __ __ __ __ __ __ __ __ __ __
 72
    65
 73
     2
 40
6.000000
 49
4.000000
 49
-2.000000
  0
LTYPE
  2
DASHED4
 70
    64
  3
__ __ __ __ __ __ __ __ __ __ __ __ __ __ __
 72
    65
 73
     2
 40
12.000000
 49
10.000000
 49
-2.000000
  0
LTYPE
  2
DASHED5
 70
    64
  3
__ __ __ __ __ __ __ __ __ __ __ __ __ __ __
 72
    65
 73
     2
 40
17.000000
 49
15.000000
 49
-2.000000
  0
LTYPE
  2
DASHED6
 70
    64
  3
__ __ __ __ __ __ __ __ __ __ __ __ __ __ __
 72
    65
 73
     2
 40
29.000000
 49
27.000000
 49
-2.000000
  0
LTYPE
  2
PHANTOM1
 70
    64
  3
_____ _ _ _____ _ _ _____ _ _ _____ _ _ ____  
 72
    65
 73
     6
 40
31.000000
 49
25.000000
 49
-1.500000
 49
1.000000
 49
-1.000000
 49
1.000000
 49
-1.500000
  0
LTYPE
  2
PHANTOM2
 70
    64
  3
_____ _ _ _____ _ _ _____ _ _ _____ _ _ ____  
 72
    65
 73
     6
 40
36.000000
 49
27.000000
 49
-1.500000
 49
2.500000
 49
-1.000000
 49
2.500000
 49
-1.500000
  0
LTYPE
  2
PHANTOM3
 70
    64
  3
_____ _ _ _____ _ _ _____ _ _ _____ _ _ ____  
 72
    65
 73
     6
 40
78.000000
 49
64.000000
 49
-2.000000
 49
4.000000
 49
-2.000000
 49
4.000000
 49
-2.000000
  0
LTYPE
  2
CENTER1
 70
    64
  3
____ _ ____ _ ____ _ ____ _ ____ _ ____ _ ____
 72
    65
 73
     4
 40
19.000000
 49
14.000000
 49
-1.000000
 49
3.000000
 49
-1.000000
  0
LTYPE
  2
CENTER2
 70
    64
  3
____ _ ____ _ ____ _ ____ _ ____ _ ____ _ ____
 72
    65
 73
     4
 40
28.500000
 49
25.000000
 49
-1.000000
 49
1.500000
 49
-1.000000
  0
LTYPE
  2
CENTER3
 70
    64
  3
____ _ ____ _ ____ _ ____ _ ____ _ ____ _ ____
 72
    65
 73
     4
 40
31.500000
 49
27.000000
 49
-1.000000
 49
2.500000
 49
-1.000000
  0
LTYPE
  2
CENTER4
 70
    64
  3
____ _ ____ _ ____ _ ____ _ ____ _ ____ _ ____
 72
    65
 73
     4
 40
50.000000
 49
45.000000
 49
-1.000000
 49
3.000000
 49
-1.000000
  0
LTYPE
  2
CENTER5
 70
    64
  3
____ _ ____ _ ____ _ ____ _ ____ _ ____ _ ____
 72
    65
 73
     4
 40
100.000000
 49
92.000000
 49
-2.000000
 49
4.000000
 49
-2.000000
  0
LTYPE
  2
SBK1
 70
    64
  3
______ _ _ _ ______ _ _ _ ______ _ _ _ _____  
 72
    65
 73
     8
 40
60.500000
 49
45.000000
 49
-2.000000
 49
2.500000
 49
-2.000000
 49
2.500000
 49
-2.000000
 49
2.500000
 49
-2.000000
  0
LTYPE
  2
SBK2
 70
    64
  3
______ _ _ _ ______ _ _ _ ______ _ _ _ _____  
 72
    65
 73
     8
 40
84.000000
 49
64.000000
 49
-2.000000
 49
4.000000
 49
-2.000000
 49
4.000000
 49
-2.000000
 49
4.000000
 49
-2.000000
  0
LTYPE
  2
STCH
 70
    64
  3
__ __ __ __ __ __ __ __ __ __ __ __ __ __ __
 72
    65
 73
     2
 40
3.000000
 49
1.000000
 49
-2.000000
  0
LTYPE
  2
MTCH
 70
    64
  3
_____ _ _ _____ _ _ _____ _ _ _____ _ _ ____  
 72
    65
 73
     6
 40
80.000000
 49
66.000000
 49
-2.000000
 49
4.000000
 49
-2.000000
 49
4.000000
 49
-2.000000
  0
ENDTAB
  0
TABLE
  2
LAYER
 70
     1
  0
LAYER
  2
0
 70
     0
 62
     7
  6
CONTINUOUS
  0
ENDTAB
  0
TABLE
  2
STYLE
 70
     1
  0
STYLE
  2
STANDARD
 70
     0
 40
0.000000
 41
1.000000
 50
0.000000
 71
     0
 42
0.200000
  3
txt
  4
BIGFONT
  0
ENDTAB
  0
TABLE
  2
VIEW
 70
     0
  0
ENDTAB
  0
ENDSEC
  0
SECTION
  2
BLOCKS
  0
ENDSEC
  0
SECTION
  2
ENTITIES
  0
LINE
  8
0
 10
574.500000
 20
400.500000
 11
574.500000
 21
-400.500000
  0
LINE
  8
0
 10
-564.500000
 20
400.500000
 11
574.500000
 21
400.500000
  0
LINE
  8
0
 10
-564.500000
 20
-400.500000
 11
574.500000
 21
-400.500000
  0
LINE
  8
0
 10
-564.500000
 20
400.500000
 11
-564.500000
 21
-400.500000
  0
LINE
  8
0
 10
-564.500000
 20
370.500000
 11
-334.500000
 21
370.500000
  0
LINE
  8
0
 10
344.500000
 20
370.500000
 11
574.500000
 21
370.500000
  0
LINE
  8
0
 10
344.500000
 20
-370.500000
 11
574.500000
 21
-370.500000
  0
LINE
  8
0
 10
344.500000
 20
-370.500000
 11
344.500000
 21
-400.500000
  0
LINE
  8
0
 10
344.500000
 20
400.500000
 11
344.500000
 21
370.500000
  0
LINE
  8
0
 10
-334.500000
 20
400.500000
 11
-334.500000
 21
370.500000
  0
LINE
  8
0
  6
DASHED
 10
91.383896
 20
-78.509674
 11
91.383896
 21
-90.509644
  0
LINE
  8
0
  6
DASHED
 10
99.383896
 20
-101.159363
 11
99.383896
 21
-102.009644
  0
LINE
  8
0
  6
DASHED
 10
99.383987
 20
-102.009483
 11
94.383957
 21
-107.009514
  0
LINE
  8
0
  6
DASHED
 10
104.383911
 20
-182.009644
 11
167.651566
 21
-182.009644
  0
LINE
  8
0
  6
DASHED
 10
99.383972
 20
-92.859772
 11
98.383919
 21
-92.947273
  0
LINE
  8
0
  6
DASHED
 10
99.383926
 20
-101.159386
 11
98.383957
 21
-101.071899
  0
LINE
  8
0
  6
DASHED
 10
94.383896
 20
-107.009766
 11
94.383896
 21
-137.009521
  0
LINE
  8
0
  6
DASHED
 10
91.383896
 20
-165.509644
 11
91.383896
 21
-153.509644
  0
LINE
  8
0
  6
DASHED
 10
99.383896
 20
-153.509644
 11
99.383896
 21
-151.159912
  0
LINE
  8
0
  6
DASHED
 10
99.384201
 20
-142.009506
 11
94.384109
 21
-137.009415
  0
LINE
  8
0
  6
DASHED
 10
99.383896
 20
-176.159821
 11
98.383957
 21
-176.072327
  0
LINE
  8
0
  6
DASHED
 10
99.384018
 20
-167.859711
 11
98.383904
 21
-167.947220
  0
LINE
  8
0
  6
DASHED
 10
91.383911
 20
-153.509644
 11
99.383911
 21
-153.509644
  0
LINE
  8
0
  6
DASHED
 10
99.383896
 20
-176.159836
 11
99.383896
 21
-177.009644
  0
LINE
  8
0
  6
DASHED
 10
99.383896
 20
-78.509674
 11
99.383896
 21
-76.159813
  0
LINE
  8
0
  6
DASHED
 10
91.383911
 20
-165.509644
 11
99.384033
 21
-165.509644
  0
LINE
  8
0
  6
DASHED
 10
91.383911
 20
-78.509674
 11
99.383911
 21
-78.509674
  0
LINE
  8
0
  6
CENTER
 62
     2
 10
88.967224
 20
-122.009644
 11
177.550735
 21
-122.009644
  0
LINE
  8
0
  6
DASHED
 10
171.384018
 20
-63.009735
 11
171.384018
 21
-78.809662
  0
LINE
  8
0
  6
DASHED
 10
170.883987
 20
-158.809692
 11
171.383987
 21
-158.809692
  0
LINE
  8
0
  6
DASHED
 10
170.883987
 20
-165.209717
 11
171.383987
 21
-165.209717
  0
LINE
  8
0
  6
DASHED
 10
171.384018
 20
-165.209717
 11
171.384018
 21
-181.009644
  0
LINE
  8
0
  6
DASHED
 10
170.883987
 20
-85.209717
 11
171.383987
 21
-85.209717
  0
LINE
  8
0
  6
DASHED
 10
170.883987
 20
-78.809662
 11
171.383987
 21
-78.809662
  0
LINE
  8
0
  6
DASHED
 10
171.384018
 20
-85.209717
 11
171.384018
 21
-92.009644
  0
LINE
  8
0
  6
DASHED
 10
170.883759
 20
-151.509933
 11
171.383911
 21
-152.010010
  0
LINE
  8
0
  6
DASHED
 10
171.384171
 20
-132.009674
 11
170.884109
 21
-132.509766
  0
LINE
  8
0
  6
DASHED
 10
171.384018
 20
-152.009644
 11
171.384018
 21
-158.809692
  0
LINE
  8
0
  6
DASHED
 10
171.383896
 20
-112.009727
 11
170.884018
 21
-111.509888
  0
LINE
  8
0
  6
DASHED
 10
170.883987
 20
-85.209717
 11
171.383987
 21
-85.209717
  0
LINE
  8
0
  6
DASHED
 10
170.883987
 20
-78.809662
 11
171.383987
 21
-78.809662
  0
LINE
  8
0
  6
DASHED
 10
170.883957
 20
-92.509804
 11
171.384003
 21
-92.009727
  0
LINE
  8
0
  6
DASHED
 10
171.384018
 20
-112.009644
 11
171.384018
 21
-132.009644
  0
LINE
  8
0
  6
DASHED
 10
171.383896
 20
-181.009445
 11
167.651794
 21
-182.009460
  0
LINE
  8
0
  6
DASHED
 10
171.383621
 20
-63.009850
 11
167.650955
 21
-62.009674
  0
LINE
  8
0
  6
DASHED
 10
-20.695755
 20
-77.009674
 11
-20.695755
 21
-92.009644
  0
LINE
  8
0
  6
DASHED
 10
-250.036423
 20
-62.009674
 11
4.963402
 21
-62.009674
  0
LINE
  8
0
  6
DASHED
 10
-271.195679
 20
-182.009644
 11
-16.195850
 21
-182.009644
  0
LINE
  8
0
  6
CENTER
 62
     2
 10
-147.455414
 20
-84.509644
 11
-137.869476
 21
-84.509644
  0
LINE
  8
0
  6
CENTER
 62
     2
 10
-142.695663
 20
-79.616547
 11
-142.695663
 21
-89.312256
  0
LINE
  8
0
  6
CENTER
 62
     2
 10
-147.455414
 20
-159.509644
 11
-137.869476
 21
-159.509644
  0
LINE
  8
0
  6
CENTER
 62
     2
 10
-142.695663
 20
-154.616577
 11
-142.695663
 21
-164.312256
  0
LINE
  8
0
  6
CENTER
 62
     2
 10
-31.455784
 20
-159.509644
 11
-21.869602
 21
-159.509644
  0
LINE
  8
0
  6
CENTER
 62
     2
 10
-26.695755
 20
-154.616577
 11
-26.695755
 21
-164.312256
  0
LINE
  8
0
  6
CENTER
 62
     2
 10
-31.455784
 20
-84.509644
 11
-21.869602
 21
-84.509644
  0
LINE
  8
0
  6
CENTER
 62
     2
 10
-26.695755
 20
-79.616547
 11
-26.695755
 21
-89.312256
  0
LINE
  8
0
  6
CENTER
 62
     2
 10
-84.695770
 20
-58.317719
 11
-84.695770
 21
-189.698730
  0
LINE
  8
0
  6
DASHED
 10
-148.695648
 20
-90.509644
 11
-20.695744
 21
-90.509644
  0
LINE
  8
0
  6
DASHED
 10
-148.695648
 20
-153.509644
 11
-20.695744
 21
-153.509644
  0
LINE
  8
0
  6
DASHED
 10
170.884018
 20
-78.809662
 11
170.884018
 21
-85.209717
  0
LINE
  8
0
  6
DASHED
 10
-271.111176
 20
-362.009399
 11
-16.195801
 21
-362.009399
  0
LINE
  8
0
  6
DASHED
 10
-148.695648
 20
-282.009644
 11
-20.695774
 21
-282.009644
  0
LINE
  8
0
  6
DASHED
 10
-257.618530
 20
-285.009644
 11
-148.695648
 21
-285.009644
  0
LINE
  8
0
  6
DASHED
 10
-148.695663
 20
-282.009644
 11
-148.695663
 21
-290.009644
  0
LINE
  8
0
  6
DASHED
 10
-20.695755
 20
-290.009644
 11
-20.695755
 21
-282.009644
  0
LINE
  8
0
  6
DASHED
 10
-148.695663
 20
-322.609619
 11
-20.695755
 21
-322.609619
  0
LINE
  8
0
  6
DASHED
 10
-148.695663
 20
-305.409668
 11
-20.695755
 21
-305.409668
  0
LINE
  8
0
  6
DASHED
 10
-20.695755
 20
-305.409668
 11
-20.695755
 21
-322.609619
  0
LINE
  8
0
  6
CENTER
 62
     2
 10
-265.632172
 20
-122.009644
 11
-5.616226
 21
-122.009644
  0
LINE
  8
0
  6
DASHED
 10
-148.695663
 20
-290.009644
 11
-20.695755
 21
-290.009644
  0
LINE
  8
0
  6
DASHED
 10
-20.695774
 20
-285.009644
 11
-2.618668
 21
-285.009644
  0
LINE
  8
0
  6
DASHED
 10
99.383919
 20
-151.159943
 11
98.384018
 21
-151.072464
  0
LINE
  8
0
  6
DASHED
 10
99.383942
 20
-142.859985
 11
98.384010
 21
-142.947464
  0
LINE
  8
0
  6
DASHED
 10
-148.695648
 20
-165.509644
 11
-20.695744
 21
-165.509644
  0
LINE
  8
0
  6
DASHED
 10
-148.695648
 20
-78.509674
 11
-20.695744
 21
-78.509674
  0
LINE
  8
0
  6
DASHED
 10
99.383881
 20
-67.860062
 11
98.383797
 21
-67.947563
  0
LINE
  8
0
  6
DASHED
 10
99.383980
 20
-76.159805
 11
98.383957
 21
-76.072311
  0
LINE
  8
0
  6
DASHED
 10
99.384018
 20
-165.509644
 11
99.384018
 21
-167.859726
  0
LINE
  8
0
  6
DASHED
 10
99.383957
 20
-92.859779
 11
99.383957
 21
-90.509644
  0
LINE
  8
0
  6
DASHED
 10
104.383911
 20
-62.009674
 11
167.650955
 21
-62.009674
  0
LINE
  8
0
  6
DASHED
 10
-148.695648
 20
-152.009644
 11
-20.695755
 21
-152.009644
  0
LINE
  8
0
  6
DASHED
 10
-148.695648
 20
-92.009644
 11
-20.695755
 21
-92.009644
  0
LINE
  8
0
  6
DASHED
 10
-148.695648
 20
-77.009674
 11
-20.695755
 21
-77.009674
  0
LINE
  8
0
  6
DASHED
 10
-148.695648
 20
-167.009644
 11
-20.695755
 21
-167.009644
  0
LINE
  8
0
  6
DASHED
 10
-20.695755
 20
-152.009644
 11
-20.695755
 21
-167.009644
  0
LINE
  8
0
  6
CENTER
 62
     2
 10
-84.695770
 20
-270.679321
 11
-84.695770
 21
-370.814087
  0
LINE
  8
0
  6
DASHED
 10
91.383911
 20
-90.509644
 11
99.383972
 21
-90.509644
  0
LINE
  8
0
  6
DASHED
 10
-359.833252
 20
-78.509735
 11
-359.833252
 21
-90.509766
  0
LINE
  8
0
  6
DASHED
 10
-367.833252
 20
-101.159424
 11
-367.833252
 21
-102.009644
  0
LINE
  8
0
  6
DASHED
 10
-367.833252
 20
-102.009872
 11
-362.833069
 21
-107.010048
  0
LINE
  8
0
  6
DASHED
 10
-367.833191
 20
-92.859283
 11
-366.833038
 21
-92.946785
  0
LINE
  8
0
  6
DASHED
 10
-367.833252
 20
-101.159454
 11
-366.833282
 21
-101.071968
  0
LINE
  8
0
  6
DASHED
 10
-362.833252
 20
-107.009644
 11
-362.833252
 21
-137.009399
  0
LINE
  8
0
  6
DASHED
 10
-359.833252
 20
-165.509644
 11
-359.833252
 21
-153.509644
  0
LINE
  8
0
  6
DASHED
 10
-367.833252
 20
-142.859299
 11
-367.833252
 21
-142.009644
  0
LINE
  8
0
  6
DASHED
 10
-367.833099
 20
-142.009735
 11
-362.832947
 21
-137.009567
  0
LINE
  8
0
  6
DASHED
 10
-367.833191
 20
-176.159256
 11
-366.832764
 21
-176.071732
  0
LINE
  8
0
  6
DASHED
 10
-367.833221
 20
-167.859283
 11
-366.832886
 21
-167.946793
  0
LINE
  8
0
  6
DASHED
 10
-359.833252
 20
-153.509644
 11
-367.833252
 21
-153.509644
  0
LINE
  8
0
  6
DASHED
 10
-367.833252
 20
-67.859962
 11
-367.833252
 21
-66.643768
  0
LINE
  8
0
  6
DASHED
 10
-359.833252
 20
-165.509644
 11
-367.833252
 21
-165.509644
  0
LINE
  8
0
  6
DASHED
 10
-359.833252
 20
-78.509735
 11
-367.833252
 21
-78.509735
  0
LINE
  8
0
  6
DASHED
 10
-439.833252
 20
-63.009735
 11
-439.833252
 21
-78.809784
  0
LINE
  8
0
  6
DASHED
 10
-439.333252
 20
-158.809692
 11
-439.833252
 21
-158.809692
  0
LINE
  8
0
  6
DASHED
 10
-439.333252
 20
-165.209595
 11
-439.833252
 21
-165.209595
  0
LINE
  8
0
  6
DASHED
 10
-439.833252
 20
-165.209595
 11
-439.833252
 21
-181.009644
  0
LINE
  8
0
  6
DASHED
 10
-439.333252
 20
-85.209717
 11
-439.833252
 21
-85.209717
  0
LINE
  8
0
  6
DASHED
 10
-439.333252
 20
-78.809784
 11
-439.833252
 21
-78.809784
  0
LINE
  8
0
  6
DASHED
 10
-439.833252
 20
-85.209717
 11
-439.833252
 21
-92.009766
  0
LINE
  8
0
  6
DASHED
 10
-439.333313
 20
-151.509445
 11
-439.833435
 21
-152.009567
  0
LINE
  8
0
  6
DASHED
 10
-439.833618
 20
-132.009827
 11
-439.333344
 21
-132.510117
  0
LINE
  8
0
  6
DASHED
 10
-439.833252
 20
-152.009644
 11
-439.833252
 21
-158.809692
  0
LINE
  8
0
  6
DASHED
 10
-439.832672
 20
-112.009888
 11
-439.332916
 21
-111.510117
  0
LINE
  8
0
  6
DASHED
 10
-439.333252
 20
-85.209717
 11
-439.833252
 21
-85.209717
  0
LINE
  8
0
  6
DASHED
 10
-439.333252
 20
-78.809784
 11
-439.833252
 21
-78.809784
  0
LINE
  8
0
  6
DASHED
 10
-439.333679
 20
-92.509750
 11
-439.833618
 21
-92.009804
  0
LINE
  8
0
  6
DASHED
 10
-439.833252
 20
-112.009644
 11
-439.833252
 21
-132.009644
  0
LINE
  8
0
  6
DASHED
 10
-359.833252
 20
-90.509766
 11
-367.833252
 21
-90.509766
  0
LINE
  8
0
  6
DASHED
 10
-439.832306
 20
-181.009552
 11
-436.100220
 21
-182.009567
  0
LINE
  8
0
  6
DASHED
 10
-439.833099
 20
-63.010124
 11
-436.100983
 21
-62.010105
  0
LINE
  8
0
  6
DASHED
 10
-439.333252
 20
-78.809784
 11
-439.333252
 21
-85.209717
  0
LINE
  8
0
  6
DASHED
 10
-367.833221
 20
-151.159515
 11
-366.832886
 21
-151.071991
  0
LINE
  8
0
  6
DASHED
 10
-367.833221
 20
-142.859268
 11
-366.833160
 21
-142.946762
  0
LINE
  8
0
  6
DASHED
 10
-367.833252
 20
-67.859962
 11
-366.832794
 21
-67.947495
  0
LINE
  8
0
  6
DASHED
 10
-367.833221
 20
-76.159714
 11
-366.833099
 21
-76.072227
  0
LINE
  8
0
  6
DASHED
 10
-372.833252
 20
-182.009644
 11
-436.100922
 21
-182.009644
  0
LINE
  8
0
  6
DASHED
 10
-367.833252
 20
-151.159515
 11
-367.833252
 21
-153.509644
  0
LINE
  8
0
  6
DASHED
 10
-367.833252
 20
-92.859314
 11
-367.833252
 21
-90.509766
  0
LINE
  8
0
  6
DASHED
 10
-372.833252
 20
-62.009735
 11
-383.032959
 21
-62.009735
  0
LINE
  8
0
  6
DASHED
 10
-383.032959
 20
-62.009735
 11
-436.099792
 21
-62.009735
  0
LINE
  8
0
  6
DASHED
 10
-16.195694
 20
-182.009613
 11
4.963541
 21
-62.009701
  0
LINE
  8
0
  6
DASHED
 10
-16.195618
 20
-362.009460
 11
-2.618472
 21
-285.009674
  0
LINE
  8
0
  6
DASHED
 10
-271.195984
 20
-182.009613
 11
-250.036743
 21
-62.009613
  0
LINE
  8
0
  6
DASHED
 10
-271.195892
 20
-362.009338
 11
-257.618744
 21
-285.009613
  0
LINE
  8
0
  6
CENTER
 62
     2
 10
-357.015137
 20
-122.009689
 11
-448.489136
 21
-122.009689
  0
LINE
  8
0
  6
DASHED
 10
-367.833252
 20
-176.159271
 11
-367.833252
 21
-177.009644
  0
LINE
  8
0
  6
DASHED
 10
-367.833252
 20
-165.509644
 11
-367.833252
 21
-167.859329
  0
LINE
  8
0
  6
DASHED
 10
-367.833252
 20
-78.509735
 11
-367.833252
 21
-76.159729
  0
LINE
  8
0
  6
DASHED
 10
-439.333252
 20
-92.509979
 11
-439.333252
 21
-111.510368
  0
LINE
  8
0
  6
DASHED
 10
-439.333252
 20
-132.509995
 11
-439.333252
 21
-151.509491
  0
LINE
  8
0
  6
DASHED
 10
-439.333252
 20
-158.809692
 11
-439.333252
 21
-165.209595
  0
LINE
  8
0
  6
DASHED
 10
99.383896
 20
-142.860001
 11
99.383896
 21
-142.009644
  0
LINE
  8
0
  6
DASHED
 10
99.383896
 20
-67.860039
 11
99.383896
 21
-66.643646
  0
LINE
  8
0
  6
DASHED
 10
170.884018
 20
-92.509834
 11
170.884018
 21
-111.509811
  0
LINE
  8
0
  6
DASHED
 10
170.884018
 20
-132.509949
 11
170.884018
 21
-151.510147
  0
LINE
  8
0
  6
DASHED
 10
170.884018
 20
-158.809692
 11
170.884018
 21
-165.209717
  0
LINE
  8
0
  6
DASHED
 10
-148.695663
 20
-305.409668
 11
-148.695663
 21
-322.609619
  0
LINE
  8
0
 10
249.675781
 20
6.144409
 11
554.675781
 21
6.144409
  0
LINE
  8
0
 10
249.675781
 20
66.144409
 11
554.675781
 21
66.144409
  0
LINE
  8
0
 10
249.675781
 20
111.144409
 11
554.675781
 21
111.144409
  0
LINE
  8
0
 10
554.675781
 20
111.144409
 11
554.675781
 21
6.144409
  0
LINE
  8
0
 10
379.675781
 20
111.144409
 11
379.675781
 21
6.144409
  0
LINE
  8
0
 10
414.675781
 20
111.144409
 11
414.675781
 21
6.144409
  0
LINE
  8
0
 10
449.675781
 20
111.144409
 11
449.675781
 21
6.144409
  0
LINE
  8
0
 10
484.675781
 20
111.144409
 11
484.675781
 21
6.144409
  0
LINE
  8
0
 10
519.675781
 20
111.144409
 11
519.675781
 21
6.144409
  0
LINE
  8
0
 10
344.675781
 20
51.144409
 11
554.675781
 21
51.144409
  0
LINE
  8
0
 10
249.675781
 20
36.144409
 11
554.675781
 21
36.144409
  0
LINE
  8
0
 10
344.675781
 20
21.144409
 11
554.675781
 21
21.144409
  0
LINE
  8
0
 10
249.675781
 20
111.144409
 11
249.675781
 21
6.144409
  0
LINE
  8
0
 10
344.675781
 20
66.144409
 11
344.675781
 21
6.144409
  0
LINE
  8
0
 10
303.009094
 20
96.144409
 11
368.756653
 21
96.144409
  0
LINE
  8
0
 10
303.009064
 20
96.144363
 11
249.675735
 21
111.144371
  0
LINE
  8
0
 10
344.675751
 20
66.144394
 11
249.675751
 21
111.144402
  0
LINE
  8
0
 10
379.675842
 20
66.144432
 11
368.756744
 21
96.144432
  0
LINE
  8
0
 10
-215.195847
 20
271.833344
 11
-87.195847
 21
271.833344
  0
LINE
  8
0
 10
-215.195847
 20
208.833328
 11
-87.195847
 21
208.833328
  0
LINE
  8
0
  6
CENTER
 62
     2
 10
-277.750000
 20
240.333344
 11
174.950027
 21
240.333344
  0
LINE
  8
0
  6
CENTER
 62
     2
 10
-213.955872
 20
277.833344
 11
-204.369720
 21
277.833344
  0
LINE
  8
0
  6
CENTER
 62
     2
 10
-209.195847
 20
282.726471
 11
-209.195847
 21
273.030762
  0
LINE
  8
0
  6
CENTER
 62
     2
 10
-213.955872
 20
202.833344
 11
-204.369720
 21
202.833344
  0
LINE
  8
0
  6
CENTER
 62
     2
 10
-97.955872
 20
202.833344
 11
-88.369720
 21
202.833344
  0
LINE
  8
0
  6
CENTER
 62
     2
 10
-97.955872
 20
277.833344
 11
-88.369720
 21
277.833344
  0
LINE
  8
0
  6
CENTER
 62
     2
 10
-93.195847
 20
282.726471
 11
-93.195847
 21
273.030762
  0
LINE
  8
0
 10
-215.195847
 20
196.833328
 11
-87.195847
 21
196.833328
  0
LINE
  8
0
 10
-215.195847
 20
283.833344
 11
-87.195847
 21
283.833344
  0
LINE
  8
0
 10
-271.195862
 20
300.333344
 11
-271.195862
 21
180.333344
  0
LINE
  8
0
 10
168.804153
 20
300.333344
 11
168.804153
 21
180.333344
  0
LINE
  8
0
 10
158.804153
 20
285.333374
 11
158.804153
 21
270.333344
  0
LINE
  8
0
 10
-261.195862
 20
285.333374
 11
-261.195862
 21
270.333344
  0
LINE
  8
0
 10
-215.195847
 20
285.333374
 11
-215.195847
 21
270.333344
  0
LINE
  8
0
 10
-87.195847
 20
285.333374
 11
-87.195847
 21
270.333344
  0
LINE
  8
0
  6
CENTER
 62
     2
 10
-295.932098
 20
230.333344
 11
-266.117737
 21
230.333344
  0
LINE
  8
0
 10
-277.195801
 20
224.833374
 11
-276.695801
 21
224.333359
  0
LINE
  8
0
 10
-286.695862
 20
224.983353
 11
-286.695862
 21
235.683365
  0
LINE
  8
0
 10
-294.195862
 20
224.983353
 11
-294.195862
 21
235.683365
  0
LINE
  8
0
 10
-277.195862
 20
224.983353
 11
-286.695862
 21
224.983353
  0
LINE
  8
0
 10
-277.195862
 20
235.683365
 11
-286.695862
 21
235.683365
  0
LINE
  8
0
 10
-287.195862
 20
224.983353
 11
-287.195862
 21
235.683365
  0
LINE
  8
0
 10
-287.195862
 20
224.983353
 11
-294.195862
 21
224.983353
  0
LINE
  8
0
 10
-287.195862
 20
235.683365
 11
-294.195862
 21
235.683365
  0
LINE
  8
0
 10
-286.695862
 20
229.083359
 11
-287.195862
 21
229.083359
  0
LINE
  8
0
 10
-286.695862
 20
231.583359
 11
-287.195862
 21
231.583359
  0
LINE
  8
0
 62
     2
 10
-271.195862
 20
224.874863
 11
-277.195862
 21
224.874863
  0
LINE
  8
0
 10
-271.195862
 20
224.333359
 11
-276.695862
 21
224.333359
  0
LINE
  8
0
 10
-271.195862
 20
236.333359
 11
-276.695862
 21
236.333359
  0
LINE
  8
0
 62
     2
 10
-271.195862
 20
235.791855
 11
-277.195862
 21
235.791855
  0
LINE
  8
0
 10
-277.195862
 20
235.833359
 11
-277.195862
 21
224.833359
  0
LINE
  8
0
 10
-276.695862
 20
236.333359
 11
-276.695862
 21
224.333359
  0
LINE
  8
0
 10
-276.695801
 20
236.333313
 11
-277.195801
 21
235.833313
  0
LINE
  8
0
 62
     2
 10
-275.195862
 20
246.833344
 11
-271.195862
 21
246.833344
  0
LINE
  8
0
  6
CENTER
 62
     2
 10
-278.459961
 20
250.333344
 11
-265.643555
 21
250.333344
  0
LINE
  8
0
 10
-274.695862
 20
246.333344
 11
-271.195862
 21
246.333344
  0
LINE
  8
0
 10
-274.695862
 20
254.333344
 11
-271.195862
 21
254.333344
  0
LINE
  8
0
 10
-275.195862
 20
253.833344
 11
-275.195862
 21
246.833344
  0
LINE
  8
0
 10
-274.695862
 20
254.333344
 11
-274.695862
 21
246.333344
  0
LINE
  8
0
 10
-274.695679
 20
254.333176
 11
-275.195679
 21
253.833176
  0
LINE
  8
0
 10
-275.195801
 20
246.833405
 11
-274.695801
 21
246.333389
  0
LINE
  8
0
 62
     2
 10
-275.195862
 20
253.833344
 11
-271.195862
 21
253.833344
  0
LINE
  8
0
 62
     2
 10
172.804153
 20
253.833344
 11
168.804153
 21
253.833344
  0
LINE
  8
0
  6
CENTER
 62
     2
 10
193.540298
 20
230.333344
 11
162.553238
 21
230.333344
  0
LINE
  8
0
 10
174.804016
 20
224.833282
 11
174.304047
 21
224.333359
  0
LINE
  8
0
 10
184.303970
 20
224.983353
 11
184.303970
 21
235.683365
  0
LINE
  8
0
 10
191.803970
 20
224.983353
 11
191.803970
 21
235.683365
  0
LINE
  8
0
 10
174.804153
 20
224.983353
 11
184.303970
 21
224.983353
  0
LINE
  8
0
 10
174.804153
 20
235.683365
 11
184.303970
 21
235.683365
  0
LINE
  8
0
 10
184.803970
 20
224.983353
 11
184.803970
 21
235.683365
  0
LINE
  8
0
 10
184.803970
 20
224.983353
 11
191.803970
 21
224.983353
  0
LINE
  8
0
 10
184.803970
 20
235.683365
 11
191.803970
 21
235.683365
  0
LINE
  8
0
 10
184.303970
 20
229.083359
 11
184.803970
 21
229.083359
  0
LINE
  8
0
 10
184.303970
 20
231.583359
 11
184.803970
 21
231.583359
  0
LINE
  8
0
 62
     2
 10
168.804153
 20
224.874863
 11
174.804153
 21
224.874863
  0
LINE
  8
0
 10
168.804153
 20
224.333359
 11
174.304153
 21
224.333359
  0
LINE
  8
0
 10
168.804153
 20
236.333359
 11
174.304153
 21
236.333359
  0
LINE
  8
0
 62
     2
 10
168.804153
 20
235.791855
 11
174.804153
 21
235.791855
  0
LINE
  8
0
 10
174.804153
 20
235.833359
 11
174.804153
 21
224.833359
  0
LINE
  8
0
 10
174.304153
 20
236.333359
 11
174.304153
 21
224.333359
  0
LINE
  8
0
 10
174.304077
 20
236.333313
 11
174.804077
 21
235.833313
  0
LINE
  8
0
 62
     2
 10
172.804153
 20
246.833344
 11
168.804153
 21
246.833344
  0
LINE
  8
0
  6
CENTER
 62
     2
 10
176.068253
 20
250.333344
 11
163.027420
 21
250.333344
  0
LINE
  8
0
 10
172.304153
 20
246.333344
 11
168.804153
 21
246.333344
  0
LINE
  8
0
 10
172.304153
 20
254.333344
 11
168.804153
 21
254.333344
  0
LINE
  8
0
 10
172.804153
 20
253.833344
 11
172.804153
 21
246.833344
  0
LINE
  8
0
 10
172.304153
 20
254.333344
 11
172.304153
 21
246.333344
  0
LINE
  8
0
 10
172.303925
 20
254.333160
 11
172.803925
 21
253.833160
  0
LINE
  8
0
 10
172.804016
 20
246.833298
 11
172.304062
 21
246.333344
  0
LINE
  8
0
 10
-271.195862
 20
270.833344
 11
-261.195862
 21
270.833344
  0
LINE
  8
0
 10
-271.195862
 20
209.833328
 11
-261.195862
 21
209.833328
  0
LINE
  8
0
 10
-271.195862
 20
195.833328
 11
-261.195862
 21
195.833328
  0
LINE
  8
0
 10
-271.195862
 20
284.833344
 11
-261.195862
 21
284.833344
  0
LINE
  8
0
 10
158.804153
 20
270.833344
 11
168.804153
 21
270.833344
  0
LINE
  8
0
 10
158.804153
 20
209.833328
 11
168.804153
 21
209.833328
  0
LINE
  8
0
 10
158.804153
 20
195.833328
 11
168.804153
 21
195.833328
  0
LINE
  8
0
 10
158.804153
 20
284.833344
 11
168.804153
 21
284.833344
  0
LINE
  8
0
 10
-237.195847
 20
275.333344
 11
-237.195847
 21
270.333344
  0
LINE
  8
0
 10
134.804153
 20
275.333344
 11
134.804153
 21
270.333344
  0
LINE
  8
0
 10
134.804153
 20
275.333344
 11
158.804153
 21
275.333344
  0
LINE
  8
0
 10
134.804153
 20
205.333344
 11
158.804153
 21
205.333344
  0
LINE
  8
0
 10
-237.195862
 20
205.333344
 11
-261.195862
 21
205.333344
  0
LINE
  8
0
 10
-237.195862
 20
275.333344
 11
-261.195862
 21
275.333344
  0
LINE
  8
0
 10
-87.195847
 20
208.333328
 11
134.804153
 21
208.333328
  0
LINE
  8
0
 10
-87.195847
 20
196.333328
 11
158.804153
 21
196.333328
  0
LINE
  8
0
 10
-87.195847
 20
272.333344
 11
134.804153
 21
272.333344
  0
LINE
  8
0
 10
-87.195847
 20
284.333374
 11
158.804153
 21
284.333374
  0
LINE
  8
0
 10
-215.195862
 20
284.333374
 11
-261.195862
 21
284.333374
  0
LINE
  8
0
 10
-215.195862
 20
272.333344
 11
-237.195847
 21
272.333344
  0
LINE
  8
0
 10
-215.195862
 20
208.333328
 11
-237.195847
 21
208.333328
  0
LINE
  8
0
 10
-215.195862
 20
196.333328
 11
-261.195862
 21
196.333328
  0
LINE
  8
0
 10
156.304153
 20
284.333374
 11
156.304153
 21
275.333344
  0
LINE
  8
0
 10
156.304153
 20
205.333344
 11
156.304153
 21
196.333328
  0
LINE
  8
0
 10
-258.695862
 20
284.333374
 11
-258.695862
 21
275.333344
  0
LINE
  8
0
 10
-258.695862
 20
205.333344
 11
-258.695862
 21
196.333328
  0
LINE
  8
0
 10
-271.195862
 20
270.333344
 11
168.804153
 21
270.333344
  0
LINE
  8
0
 10
-271.195862
 20
210.333344
 11
168.804153
 21
210.333344
  0
LINE
  8
0
 10
-237.195847
 20
210.333344
 11
-237.195847
 21
205.333344
  0
LINE
  8
0
 10
-215.195847
 20
210.333344
 11
-215.195847
 21
195.333328
  0
LINE
  8
0
 10
-87.195847
 20
210.333344
 11
-87.195847
 21
195.333328
  0
LINE
  8
0
 10
134.804153
 20
210.333344
 11
134.804153
 21
205.333344
  0
LINE
  8
0
 10
-261.195862
 20
210.333344
 11
-261.195862
 21
195.333328
  0
LINE
  8
0
 10
158.804153
 20
210.333344
 11
158.804153
 21
195.333328
  0
LINE
  8
0
 10
-271.195862
 20
260.333374
 11
168.804153
 21
260.333374
  0
LINE
  8
0
 10
-271.195862
 20
255.333313
 11
168.804153
 21
255.333313
  0
LINE
  8
0
 10
-271.195862
 20
225.333511
 11
168.804153
 21
225.333511
  0
LINE
  8
0
 10
-271.195862
 20
220.333481
 11
168.804153
 21
220.333481
  0
LINE
  8
0
 10
-271.195862
 20
285.333374
 11
168.804153
 21
285.333374
  0
LINE
  8
0
 10
-271.195862
 20
195.333328
 11
168.804153
 21
195.333328
  0
LINE
  8
0
 10
-268.105011
 20
263.424103
 11
-264.286621
 21
267.242493
  0
LINE
  8
0
 10
-268.104919
 20
267.242371
 11
-264.286743
 21
263.424164
  0
LINE
  8
0
 10
-268.105042
 20
288.424225
 11
-264.286652
 21
292.242615
  0
LINE
  8
0
 10
-268.104919
 20
292.242432
 11
-264.286621
 21
288.424103
  0
LINE
  8
0
 10
161.894958
 20
263.424072
 11
165.713272
 21
267.242401
  0
LINE
  8
0
 10
161.895035
 20
267.242584
 11
165.713409
 21
263.424194
  0
LINE
  8
0
 10
161.894958
 20
288.424164
 11
165.713272
 21
292.242493
  0
LINE
  8
0
 10
161.894958
 20
292.242523
 11
165.713333
 21
288.424164
  0
LINE
  8
0
 10
161.895004
 20
188.424103
 11
165.713379
 21
192.242477
  0
LINE
  8
0
 10
161.895020
 20
192.242661
 11
165.713379
 21
188.424301
  0
LINE
  8
0
 10
161.895050
 20
213.424118
 11
165.713409
 21
217.242493
  0
LINE
  8
0
 10
161.895096
 20
217.242676
 11
165.713470
 21
213.424301
  0
LINE
  8
0
 10
-268.105164
 20
188.424240
 11
-264.286804
 21
192.242615
  0
LINE
  8
0
 10
-268.105072
 20
192.242508
 11
-264.286682
 21
188.424118
  0
LINE
  8
0
 10
-268.105194
 20
213.424271
 11
-264.286804
 21
217.242645
  0
LINE
  8
0
 10
-268.105103
 20
217.242508
 11
-264.286713
 21
213.424103
  0
LINE
  8
0
 10
-271.195862
 20
300.333344
 11
168.804153
 21
300.333344
  0
LINE
  8
0
 10
-271.195862
 20
180.333344
 11
168.804153
 21
180.333344
  0
LINE
  8
0
  6
CENTER
 62
     2
 10
-151.195847
 20
305.643677
 11
-151.195847
 21
177.250168
  0
LINE
  8
0
  6
CENTER
 62
     2
 10
48.804138
 20
305.643677
 11
48.804138
 21
177.250168
  0
LINE
  8
0
  6
CENTER
 62
     2
 10
-209.195847
 20
207.833344
 11
-209.195847
 21
197.833344
  0
LINE
  8
0
  6
CENTER
 62
     2
 10
-93.195847
 20
207.833344
 11
-93.195847
 21
197.833344
  0
LINE
  8
0
  6
PHANTOM
 62
     3
 10
-225.232208
 20
309.192871
 11
-225.232208
 21
152.237381
  0
LINE
  8
0
  6
PHANTOM
 62
     3
 10
13.750748
 20
309.192871
 11
13.750748
 21
152.237381
  0
LINE
  8
0
 10
-359.833252
 20
283.833344
 11
-359.833252
 21
271.833344
  0
LINE
  8
0
 10
-370.833252
 20
270.833344
 11
-370.833252
 21
258.333344
  0
LINE
  8
0
 10
-367.833252
 20
269.333344
 11
-367.833252
 21
260.333344
  0
LINE
  8
0
 10
-367.833252
 20
260.333221
 11
-362.833252
 21
255.333221
  0
LINE
  8
0
 10
-372.833252
 20
180.333344
 11
-410.233154
 21
180.333344
  0
LINE
  8
0
  6
CENTER
 62
     2
 10
-364.193115
 20
265.333344
 11
-378.641602
 21
265.333344
  0
LINE
  8
0
 10
-366.833252
 20
261.270813
 11
-366.833252
 21
269.395844
  0
LINE
  8
0
 10
-367.833252
 20
269.483582
 11
-366.833160
 21
269.396088
  0
LINE
  8
0
 10
-367.833374
 20
261.183807
 11
-366.833282
 21
261.271301
  0
LINE
  8
0
 10
-362.833252
 20
255.333313
 11
-362.833252
 21
225.333496
  0
LINE
  8
0
 10
-364.833252
 20
247.940979
 11
-364.833252
 21
232.725693
  0
LINE
  8
0
 10
-372.833252
 20
297.333344
 11
-383.833252
 21
297.333344
  0
LINE
  8
0
 10
-359.833252
 20
196.833328
 11
-359.833252
 21
208.833328
  0
LINE
  8
0
 10
-370.833252
 20
209.833328
 11
-370.833252
 21
222.333344
  0
LINE
  8
0
 10
-367.833252
 20
211.333344
 11
-367.833252
 21
220.333328
  0
LINE
  8
0
 10
-367.833527
 20
220.333496
 11
-362.833527
 21
225.333496
  0
LINE
  8
0
  6
CENTER
 62
     2
 10
-364.193115
 20
190.333328
 11
-378.772217
 21
190.333328
  0
LINE
  8
0
 10
-366.833252
 20
194.395844
 11
-366.833252
 21
186.270813
  0
LINE
  8
0
 10
-367.833221
 20
186.183624
 11
-366.833130
 21
186.271118
  0
LINE
  8
0
 10
-367.833099
 20
194.483444
 11
-366.833252
 21
194.395966
  0
LINE
  8
0
 10
-372.833252
 20
183.333328
 11
-383.833252
 21
183.333328
  0
LINE
  8
0
 10
-359.833252
 20
208.833328
 11
-367.833252
 21
208.833328
  0
LINE
  8
0
 10
-367.833252
 20
194.333328
 11
-367.833252
 21
185.333344
  0
LINE
  8
0
 10
-370.833252
 20
195.833328
 11
-370.833252
 21
185.333328
  0
LINE
  8
0
 10
-367.833252
 20
286.333374
 11
-367.833252
 21
295.699341
  0
LINE
  8
0
 10
-370.833252
 20
284.833344
 11
-370.833252
 21
295.333374
  0
LINE
  8
0
 10
-359.833252
 20
196.833328
 11
-367.833252
 21
196.833328
  0
LINE
  8
0
 10
-359.833252
 20
283.833344
 11
-367.833252
 21
283.833344
  0
LINE
  8
0
  6
CENTER
 62
     2
 10
-357.416504
 20
240.333344
 11
-446.000000
 21
240.333344
  0
LINE
  8
0
 10
-439.833252
 20
299.333313
 11
-439.833252
 21
283.533325
  0
LINE
  8
0
 10
-419.433350
 20
299.833344
 11
-419.433350
 21
300.333344
  0
LINE
  8
0
 10
-416.233154
 20
299.833344
 11
-416.233154
 21
300.333344
  0
LINE
  8
0
 10
-419.933350
 20
297.733337
 11
-419.933350
 21
299.333344
  0
LINE
  8
0
 10
-415.733154
 20
297.733337
 11
-415.733154
 21
299.333344
  0
LINE
  8
0
 10
-415.733276
 20
299.333130
 11
-416.233398
 21
299.833252
  0
LINE
  8
0
 10
-419.433105
 20
299.833130
 11
-419.933136
 21
299.333130
  0
LINE
  8
0
 10
-413.433350
 20
299.833344
 11
-413.433350
 21
300.333344
  0
LINE
  8
0
 10
-410.233154
 20
299.833344
 11
-410.233154
 21
300.333344
  0
LINE
  8
0
 10
-413.933350
 20
297.733337
 11
-413.933350
 21
299.333344
  0
LINE
  8
0
 10
-409.733154
 20
297.733337
 11
-409.733154
 21
299.333344
  0
LINE
  8
0
 10
-409.733185
 20
299.333252
 11
-410.233124
 21
299.833191
  0
LINE
  8
0
 10
-413.433014
 20
299.833130
 11
-413.933044
 21
299.333130
  0
LINE
  8
0
 10
-413.433350
 20
300.333344
 11
-416.233154
 21
300.333344
  0
LINE
  8
0
 10
-419.433350
 20
300.333344
 11
-436.100830
 21
300.333344
  0
LINE
  8
0
 10
-439.333252
 20
203.533340
 11
-439.833252
 21
203.533340
  0
LINE
  8
0
 10
-439.333252
 20
197.133331
 11
-439.833252
 21
197.133331
  0
LINE
  8
0
 10
-439.833252
 20
197.133331
 11
-439.833252
 21
181.333328
  0
LINE
  8
0
 10
-439.333252
 20
277.133331
 11
-439.833252
 21
277.133331
  0
LINE
  8
0
 10
-439.333252
 20
283.533325
 11
-439.833252
 21
283.533325
  0
LINE
  8
0
 10
-439.833252
 20
277.133331
 11
-439.833252
 21
270.333313
  0
LINE
  8
0
 10
-439.333557
 20
210.833633
 11
-439.833649
 21
210.333527
  0
LINE
  8
0
 10
-439.833557
 20
230.333252
 11
-439.333435
 21
229.833130
  0
LINE
  8
0
 10
-439.833252
 20
210.333328
 11
-439.833252
 21
203.533325
  0
LINE
  8
0
 10
-439.833099
 20
250.333038
 11
-439.333160
 21
250.832962
  0
LINE
  8
0
 10
-439.333405
 20
269.833160
 11
-439.833344
 21
270.333099
  0
LINE
  8
0
 10
-439.833252
 20
250.333344
 11
-439.833252
 21
230.333328
  0
LINE
  8
0
 10
-359.833252
 20
271.833344
 11
-367.833252
 21
271.833344
  0
LINE
  8
0
 10
-419.433350
 20
180.833328
 11
-419.433350
 21
180.333328
  0
LINE
  8
0
 10
-416.233154
 20
180.833328
 11
-416.233154
 21
180.333328
  0
LINE
  8
0
 10
-419.933350
 20
182.933334
 11
-419.933350
 21
181.333328
  0
LINE
  8
0
 10
-415.733154
 20
182.933334
 11
-415.733154
 21
181.333328
  0
LINE
  8
0
 10
-415.733124
 20
181.333160
 11
-416.233124
 21
180.833160
  0
LINE
  8
0
 10
-419.433014
 20
180.833542
 11
-419.932983
 21
181.333496
  0
LINE
  8
0
 10
-413.433350
 20
180.833328
 11
-413.433350
 21
180.333328
  0
LINE
  8
0
 10
-410.233154
 20
180.833328
 11
-410.233154
 21
180.333328
  0
LINE
  8
0
 10
-413.933350
 20
182.933334
 11
-413.933350
 21
181.333328
  0
LINE
  8
0
 10
-409.733154
 20
182.933334
 11
-409.733154
 21
181.333328
  0
LINE
  8
0
 10
-409.733185
 20
181.333176
 11
-410.233154
 21
180.833191
  0
LINE
  8
0
 10
-413.432983
 20
180.833405
 11
-413.932953
 21
181.333344
  0
LINE
  8
0
 10
-439.833130
 20
181.333344
 11
-436.101013
 21
180.333328
  0
LINE
  8
0
 10
-439.833191
 20
299.333130
 11
-436.100861
 21
300.333221
  0
LINE
  8
0
 10
-419.433350
 20
180.333344
 11
-436.100830
 21
180.333344
  0
LINE
  8
0
 10
-413.433350
 20
180.333344
 11
-416.233154
 21
180.333344
  0
LINE
  8
0
 10
-439.333252
 20
299.467194
 11
-439.333252
 21
181.199432
  0
LINE
  8
0
 10
-408.833252
 20
184.333344
 11
-408.833252
 21
180.333344
  0
LINE
  8
0
 10
-420.833252
 20
184.333344
 11
-420.833252
 21
180.333344
  0
LINE
  8
0
 10
-410.833252
 20
186.333344
 11
-418.833252
 21
186.333344
  0
LINE
  8
0
 10
-410.833252
 20
294.333313
 11
-418.833252
 21
294.333313
  0
LINE
  8
0
 10
-408.833252
 20
296.333313
 11
-408.833252
 21
300.333313
  0
LINE
  8
0
 10
-420.833252
 20
296.333313
 11
-420.833252
 21
300.333313
  0
LINE
  8
0
  6
CENTER
 62
     2
 10
-422.804443
 20
232.333344
 11
-410.099365
 21
232.333344
  0
LINE
  8
0
  6
CENTER
 62
     2
 10
-422.804443
 20
248.333344
 11
-410.099365
 21
248.333344
  0
LINE
  8
0
  6
CENTER
 62
     2
 10
-416.333252
 20
241.862274
 11
-416.333252
 21
254.567200
  0
LINE
  8
0
 10
-389.833252
 20
251.567230
 11
-389.833252
 21
249.099426
  0
LINE
  8
0
 10
-385.833252
 20
251.567230
 11
-385.833252
 21
249.099426
  0
LINE
  8
0
 10
-389.833282
 20
251.567108
 11
-387.833282
 21
252.683212
  0
LINE
  8
0
 10
-387.833191
 20
252.683304
 11
-385.833252
 21
251.567230
  0
LINE
  8
0
 10
-385.833191
 20
249.099121
 11
-387.833221
 21
247.983002
  0
LINE
  8
0
 10
-387.833221
 20
247.983215
 11
-389.833160
 21
249.099289
  0
LINE
  8
0
  6
CENTER
 62
     2
 10
-416.333252
 20
238.804413
 11
-416.333252
 21
226.099487
  0
LINE
  8
0
  6
CENTER
 62
     2
 10
-395.347412
 20
250.333344
 11
-380.320557
 21
250.333344
  0
LINE
  8
0
  6
CENTER
 62
     2
 10
-387.833252
 20
257.747681
 11
-387.833252
 21
242.848022
  0
LINE
  8
0
  6
CENTER
 62
     2
 10
-397.609863
 20
230.333344
 11
-378.189453
 21
230.333344
  0
LINE
  8
0
  6
CENTER
 62
     2
 10
-387.833252
 20
240.110046
 11
-387.833252
 21
220.689545
  0
LINE
  8
0
 10
-372.833252
 20
186.633331
 11
-372.833252
 21
192.533325
  0
LINE
  8
0
 10
-376.333252
 20
186.633331
 11
-376.333252
 21
188.133331
  0
LINE
  8
0
 10
-372.833252
 20
194.033325
 11
-376.333252
 21
194.033325
  0
LINE
  8
0
 10
-372.833252
 20
186.633331
 11
-376.333252
 21
186.633331
  0
LINE
  8
0
 10
-370.833252
 20
192.533325
 11
-372.833252
 21
192.533325
  0
LINE
  8
0
 10
-370.833252
 20
188.133331
 11
-372.833252
 21
188.133331
  0
LINE
  8
0
 10
-377.333252
 20
188.133331
 11
-377.333252
 21
192.533325
  0
LINE
  8
0
 10
-376.333252
 20
188.133331
 11
-377.333252
 21
188.133331
  0
LINE
  8
0
 10
-376.333252
 20
192.533325
 11
-377.333252
 21
192.533325
  0
LINE
  8
0
 10
-376.333252
 20
192.533325
 11
-376.333252
 21
194.033325
  0
LINE
  8
0
 10
-372.833252
 20
192.533325
 11
-372.833252
 21
194.033325
  0
LINE
  8
0
  6
CENTER
 62
     2
 10
-357.056152
 20
202.833328
 11
-371.071533
 21
202.833328
  0
LINE
  8
0
  6
CENTER
 62
     2
 10
-356.848145
 20
277.833344
 11
-369.123535
 21
277.833344
  0
LINE
  8
0
  6
CENTER
 62
     2
 10
-364.193115
 20
215.333328
 11
-378.626953
 21
215.333328
  0
LINE
  8
0
 10
-366.833252
 20
219.395844
 11
-366.833252
 21
211.270813
  0
LINE
  8
0
 10
-367.833405
 20
211.183563
 11
-366.833313
 21
211.271057
  0
LINE
  8
0
 10
-367.833099
 20
219.483414
 11
-366.833252
 21
219.395935
  0
LINE
  8
0
  6
CENTER
 62
     2
 10
-364.193115
 20
290.333374
 11
-378.787842
 21
290.333374
  0
LINE
  8
0
 10
-366.833252
 20
286.270844
 11
-366.833252
 21
294.395874
  0
LINE
  8
0
 10
-367.833374
 20
294.483063
 11
-366.833282
 21
294.395569
  0
LINE
  8
0
 10
-367.833038
 20
286.183167
 11
-366.833191
 21
286.270630
  0
LINE
  8
0
 10
-370.833374
 20
258.333282
 11
-364.833374
 21
247.940964
  0
LINE
  8
0
 10
-370.833618
 20
222.333542
 11
-364.833588
 21
232.725891
  0
LINE
  8
0
 10
-383.833252
 20
182.333328
 11
-382.433350
 21
182.333328
  0
LINE
  8
0
 10
-383.783417
 20
180.333328
 11
-382.226440
 21
181.816086
  0
LINE
  8
0
 10
-383.833252
 20
298.333374
 11
-382.433380
 21
298.333374
  0
LINE
  8
0
 10
-383.783386
 20
300.333252
 11
-382.226440
 21
298.850586
  0
LINE
  8
0
 10
-372.833252
 20
217.533325
 11
-372.833252
 21
219.033325
  0
LINE
  8
0
 10
-372.833252
 20
211.633331
 11
-372.833252
 21
217.533325
  0
LINE
  8
0
 10
-376.333252
 20
211.633331
 11
-376.333252
 21
213.133331
  0
LINE
  8
0
 10
-372.833252
 20
219.033325
 11
-376.333252
 21
219.033325
  0
LINE
  8
0
 10
-372.833252
 20
211.633331
 11
-376.333252
 21
211.633331
  0
LINE
  8
0
 10
-370.833252
 20
217.533325
 11
-372.833252
 21
217.533325
  0
LINE
  8
0
 10
-370.833252
 20
213.133331
 11
-372.833252
 21
213.133331
  0
LINE
  8
0
 10
-377.333252
 20
213.133331
 11
-377.333252
 21
217.533325
  0
LINE
  8
0
 10
-376.333252
 20
213.133331
 11
-377.333252
 21
213.133331
  0
LINE
  8
0
 10
-376.333252
 20
217.533325
 11
-377.333252
 21
217.533325
  0
LINE
  8
0
 10
-376.333252
 20
217.533325
 11
-376.333252
 21
219.033325
  0
LINE
  8
0
 10
-367.833252
 20
209.833328
 11
-370.833252
 21
209.833328
  0
LINE
  8
0
 10
-367.833252
 20
195.833328
 11
-370.833252
 21
195.833328
  0
LINE
  8
0
 10
-367.833252
 20
209.833328
 11
-367.833252
 21
195.833328
  0
LINE
  8
0
 10
-376.333252
 20
263.133362
 11
-377.333252
 21
263.133362
  0
LINE
  8
0
 10
-372.833252
 20
294.033325
 11
-372.833252
 21
292.533325
  0
LINE
  8
0
 10
-376.333252
 20
294.033325
 11
-376.333252
 21
292.533325
  0
LINE
  8
0
 10
-372.833252
 20
286.633362
 11
-376.333252
 21
286.633362
  0
LINE
  8
0
 10
-372.833252
 20
294.033325
 11
-376.333252
 21
294.033325
  0
LINE
  8
0
 10
-370.833252
 20
288.133362
 11
-372.833252
 21
288.133362
  0
LINE
  8
0
 10
-370.833252
 20
292.533325
 11
-372.833252
 21
292.533325
  0
LINE
  8
0
 10
-377.333252
 20
292.533325
 11
-377.333252
 21
288.133362
  0
LINE
  8
0
 10
-376.333252
 20
292.533325
 11
-377.333252
 21
292.533325
  0
LINE
  8
0
 10
-376.333252
 20
288.133362
 11
-377.333252
 21
288.133362
  0
LINE
  8
0
 10
-376.333252
 20
288.133362
 11
-376.333252
 21
286.633362
  0
LINE
  8
0
 10
-372.833252
 20
292.533325
 11
-372.833252
 21
286.633362
  0
LINE
  8
0
 10
-367.833252
 20
270.833344
 11
-367.833252
 21
284.833344
  0
LINE
  8
0
 10
-376.333252
 20
263.133362
 11
-376.333252
 21
261.633362
  0
LINE
  8
0
 10
-372.833252
 20
263.133362
 11
-372.833252
 21
261.633362
  0
LINE
  8
0
 10
-372.833252
 20
269.033325
 11
-372.833252
 21
263.133362
  0
LINE
  8
0
 10
-376.333252
 20
269.033325
 11
-376.333252
 21
267.533325
  0
LINE
  8
0
 10
-372.833252
 20
261.633362
 11
-376.333252
 21
261.633362
  0
LINE
  8
0
 10
-372.833252
 20
269.033325
 11
-376.333252
 21
269.033325
  0
LINE
  8
0
 10
-370.833252
 20
263.133362
 11
-372.833252
 21
263.133362
  0
LINE
  8
0
 10
-370.833252
 20
267.533325
 11
-372.833252
 21
267.533325
  0
LINE
  8
0
 10
-377.333252
 20
267.533325
 11
-377.333252
 21
263.133362
  0
LINE
  8
0
 10
-376.333252
 20
267.533325
 11
-377.333252
 21
267.533325
  0
LINE
  8
0
 10
-372.833252
 20
300.333313
 11
-410.233154
 21
300.333313
  0
LINE
  8
0
 10
-367.833252
 20
284.833344
 11
-370.833252
 21
284.833344
  0
LINE
  8
0
 10
-367.833252
 20
270.833344
 11
-370.833252
 21
270.833344
  0
LINE
  8
0
 10
-369.833252
 20
195.333328
 11
-368.833252
 21
195.333328
  0
LINE
  8
0
 10
-369.833252
 20
210.333344
 11
-368.833252
 21
210.333344
  0
LINE
  8
0
 10
-369.833252
 20
270.333344
 11
-368.833252
 21
270.333344
  0
LINE
  8
0
 10
-369.833252
 20
285.333374
 11
-368.833252
 21
285.333374
  0
LINE
  8
0
 10
-372.833252
 20
186.833328
 11
-376.033203
 21
186.833328
  0
LINE
  8
0
 10
-372.833252
 20
193.833328
 11
-376.033203
 21
193.833328
  0
LINE
  8
0
 10
-376.033203
 20
186.833328
 11
-376.033203
 21
193.833328
  0
LINE
  8
0
 10
-376.033203
 20
211.833328
 11
-376.033203
 21
218.833328
  0
LINE
  8
0
 10
-372.833252
 20
211.833328
 11
-376.033203
 21
211.833328
  0
LINE
  8
0
 10
-372.833252
 20
218.833328
 11
-376.033203
 21
218.833328
  0
LINE
  8
0
 10
-376.033203
 20
268.833344
 11
-376.033203
 21
261.833344
  0
LINE
  8
0
 10
-376.033203
 20
293.833374
 11
-376.033203
 21
286.833374
  0
LINE
  8
0
 10
-372.833252
 20
261.833344
 11
-376.033203
 21
261.833344
  0
LINE
  8
0
 10
-372.833252
 20
268.833344
 11
-376.033203
 21
268.833344
  0
LINE
  8
0
 10
-372.833252
 20
293.833374
 11
-376.033203
 21
293.833374
  0
LINE
  8
0
 10
-372.833252
 20
286.833374
 11
-376.033203
 21
286.833374
  0
LINE
  8
0
 62
     2
 10
-370.833252
 20
288.833374
 11
-372.833252
 21
288.833374
  0
LINE
  8
0
 62
     2
 10
-370.833252
 20
291.833374
 11
-372.833252
 21
291.833374
  0
LINE
  8
0
 62
     2
 10
-370.833252
 20
263.833344
 11
-372.833252
 21
263.833344
  0
LINE
  8
0
 62
     2
 10
-370.833252
 20
266.833344
 11
-372.833252
 21
266.833344
  0
LINE
  8
0
 62
     2
 10
-370.833252
 20
188.833328
 11
-372.833252
 21
188.833328
  0
LINE
  8
0
 62
     2
 10
-370.833252
 20
191.833328
 11
-372.833252
 21
191.833328
  0
LINE
  8
0
 62
     2
 10
-370.833252
 20
216.833328
 11
-372.833252
 21
216.833328
  0
LINE
  8
0
 62
     2
 10
-370.833252
 20
213.833328
 11
-372.833252
 21
213.833328
  0
LINE
  8
0
  6
DASHED
 10
342.804138
 20
275.133331
 11
342.804138
 21
277.133331
  0
LINE
  8
0
  6
DASHED
 10
337.304138
 20
275.133331
 11
337.304138
 21
277.133331
  0
LINE
  8
0
  6
DASHED
 10
337.304138
 20
275.133331
 11
342.804138
 21
275.133331
  0
LINE
  8
0
  6
DASHED
 10
337.304138
 20
285.533325
 11
342.804138
 21
285.533325
  0
LINE
  8
0
  6
DASHED
 10
335.804138
 20
283.533325
 11
337.304138
 21
283.533325
  0
LINE
  8
0
  6
DASHED
 10
335.804138
 20
277.133331
 11
337.304138
 21
277.133331
  0
LINE
  8
0
  6
DASHED
 10
335.804138
 20
277.133331
 11
335.804138
 21
283.533325
  0
LINE
  8
0
  6
DASHED
 10
337.304138
 20
283.533325
 11
337.304138
 21
285.533325
  0
LINE
  8
0
  6
DASHED
 10
342.804138
 20
283.533325
 11
342.804138
 21
285.533325
  0
LINE
  8
0
  6
DASHED
 10
342.804138
 20
277.133331
 11
345.804138
 21
277.133331
  0
LINE
  8
0
  6
DASHED
 10
342.804138
 20
283.533325
 11
345.804138
 21
283.533325
  0
LINE
  8
0
  6
CENTER
 62
     2
 10
333.466003
 20
280.333313
 11
347.704041
 21
280.333313
  0
LINE
  8
0
  6
DASHED
 10
342.804138
 20
205.533325
 11
342.804138
 21
203.533325
  0
LINE
  8
0
  6
DASHED
 10
337.304138
 20
205.533325
 11
337.304138
 21
203.533325
  0
LINE
  8
0
  6
DASHED
 10
337.304138
 20
205.533340
 11
342.804138
 21
205.533340
  0
LINE
  8
0
  6
DASHED
 10
337.304138
 20
195.133331
 11
342.804138
 21
195.133331
  0
LINE
  8
0
  6
DASHED
 10
335.804138
 20
197.133331
 11
337.304138
 21
197.133331
  0
LINE
  8
0
  6
DASHED
 10
335.804138
 20
203.533340
 11
337.304138
 21
203.533340
  0
LINE
  8
0
  6
DASHED
 10
335.804138
 20
203.533325
 11
335.804138
 21
197.133331
  0
LINE
  8
0
  6
DASHED
 10
337.304138
 20
197.133331
 11
337.304138
 21
195.133331
  0
LINE
  8
0
  6
DASHED
 10
342.804138
 20
197.133331
 11
342.804138
 21
195.133331
  0
LINE
  8
0
  6
DASHED
 10
342.804138
 20
203.533340
 11
345.804138
 21
203.533340
  0
LINE
  8
0
  6
DASHED
 10
342.804138
 20
197.133331
 11
345.804138
 21
197.133331
  0
LINE
  8
0
  6
CENTER
 62
     2
 10
333.466003
 20
200.333344
 11
347.704041
 21
200.333344
  0
LINE
  8
0
  6
DASHED
 10
339.004333
 20
183.333344
 11
339.004333
 21
180.333344
  0
LINE
  8
0
  6
DASHED
 10
330.604187
 20
297.333282
 11
332.604187
 21
297.333282
  0
LINE
  8
0
  6
DASHED
 10
330.604187
 20
291.833282
 11
332.604187
 21
291.833282
  0
LINE
  8
0
  6
DASHED
 10
330.604187
 20
291.833344
 11
330.604187
 21
297.333344
  0
LINE
  8
0
  6
DASHED
 10
341.004333
 20
291.833344
 11
341.004333
 21
297.333344
  0
LINE
  8
0
  6
DASHED
 10
339.004333
 20
290.333344
 11
339.004333
 21
291.833344
  0
LINE
  8
0
  6
DASHED
 10
332.604187
 20
290.333344
 11
332.604187
 21
291.833344
  0
LINE
  8
0
  6
DASHED
 10
332.604187
 20
290.333282
 11
339.004333
 21
290.333282
  0
LINE
  8
0
  6
DASHED
 10
339.004333
 20
291.833282
 11
341.004333
 21
291.833282
  0
LINE
  8
0
  6
DASHED
 10
339.004333
 20
297.333282
 11
341.004333
 21
297.333282
  0
LINE
  8
0
  6
DASHED
 10
332.604187
 20
297.333344
 11
332.604187
 21
300.333344
  0
LINE
  8
0
  6
DASHED
 10
339.004333
 20
297.333344
 11
339.004333
 21
300.333344
  0
LINE
  8
0
  6
DASHED
 10
332.604187
 20
183.333344
 11
330.604187
 21
183.333344
  0
LINE
  8
0
  6
DASHED
 10
332.604187
 20
183.333344
 11
332.604187
 21
180.333344
  0
LINE
  8
0
  6
CENTER
 62
     2
 10
335.804138
 20
192.671631
 11
335.804138
 21
178.433594
  0
LINE
  8
0
  6
CENTER
 62
     2
 10
335.804382
 20
287.995056
 11
335.804382
 21
302.233093
  0
LINE
  8
0
  6
DASHED
 10
341.004333
 20
183.333344
 11
339.004333
 21
183.333344
  0
LINE
  8
0
  6
DASHED
 10
341.004333
 20
188.833344
 11
339.004333
 21
188.833344
  0
LINE
  8
0
  6
DASHED
 10
341.004333
 20
188.833344
 11
341.004333
 21
183.333344
  0
LINE
  8
0
  6
DASHED
 10
330.604187
 20
188.833344
 11
330.604187
 21
183.333344
  0
LINE
  8
0
  6
DASHED
 10
332.604187
 20
190.333344
 11
332.604187
 21
188.833344
  0
LINE
  8
0
  6
DASHED
 10
339.004333
 20
190.333344
 11
339.004333
 21
188.833344
  0
LINE
  8
0
  6
DASHED
 10
339.004333
 20
190.333344
 11
332.604187
 21
190.333344
  0
LINE
  8
0
  6
DASHED
 10
332.604187
 20
188.833344
 11
330.604187
 21
188.833344
  0
LINE
  8
0
 10
265.804138
 20
283.833344
 11
265.804138
 21
271.833344
  0
LINE
  8
0
 10
276.804138
 20
270.833344
 11
276.804138
 21
258.333344
  0
LINE
  8
0
 10
273.804138
 20
269.333344
 11
273.804138
 21
260.333344
  0
LINE
  8
0
 10
273.804199
 20
260.333282
 11
268.804199
 21
255.333313
  0
LINE
  8
0
 10
278.804138
 20
180.333344
 11
316.204285
 21
180.333344
  0
LINE
  8
0
  6
CENTER
 62
     2
 10
270.164001
 20
265.333344
 11
284.612732
 21
265.333344
  0
LINE
  8
0
 10
272.804138
 20
261.270813
 11
272.804138
 21
269.395844
  0
LINE
  8
0
 10
273.804291
 20
269.483673
 11
272.804199
 21
269.396179
  0
LINE
  8
0
 10
273.804169
 20
261.183594
 11
272.804352
 21
261.271057
  0
LINE
  8
0
 10
268.804138
 20
255.333313
 11
268.804138
 21
225.333496
  0
LINE
  8
0
 10
270.804138
 20
247.940979
 11
270.804138
 21
232.725693
  0
LINE
  8
0
 10
278.804138
 20
297.333344
 11
289.804138
 21
297.333344
  0
LINE
  8
0
 10
265.804138
 20
196.833328
 11
265.804138
 21
208.833328
  0
LINE
  8
0
 10
276.804138
 20
209.833328
 11
276.804138
 21
222.333344
  0
LINE
  8
0
 10
273.804138
 20
211.333344
 11
273.804138
 21
220.333328
  0
LINE
  8
0
 10
273.804382
 20
220.333389
 11
268.804382
 21
225.333405
  0
LINE
  8
0
  6
CENTER
 62
     2
 10
270.164001
 20
190.333328
 11
284.743103
 21
190.333328
  0
LINE
  8
0
 10
272.804138
 20
194.395844
 11
272.804138
 21
186.270813
  0
LINE
  8
0
 10
273.804291
 20
186.183594
 11
272.804199
 21
186.271088
  0
LINE
  8
0
 10
273.804108
 20
194.483490
 11
272.804260
 21
194.396011
  0
LINE
  8
0
 10
278.804138
 20
183.333328
 11
289.804138
 21
183.333328
  0
LINE
  8
0
 10
265.804138
 20
208.833328
 11
273.804138
 21
208.833328
  0
LINE
  8
0
 10
273.804138
 20
194.333328
 11
273.804138
 21
185.333344
  0
LINE
  8
0
 10
276.804138
 20
195.833328
 11
276.804138
 21
185.333328
  0
LINE
  8
0
 10
273.804138
 20
286.333374
 11
273.804138
 21
295.699341
  0
LINE
  8
0
 10
276.804138
 20
284.833344
 11
276.804138
 21
295.333374
  0
LINE
  8
0
 10
265.804138
 20
196.833328
 11
273.804138
 21
196.833328
  0
LINE
  8
0
 10
265.804138
 20
283.833344
 11
273.804138
 21
283.833344
  0
LINE
  8
0
  6
CENTER
 62
     2
 10
263.387634
 20
240.333344
 11
351.970886
 21
240.333344
  0
LINE
  8
0
 10
345.804138
 20
299.333313
 11
345.804138
 21
270.333191
  0
LINE
  8
0
 10
325.404236
 20
299.833344
 11
325.404236
 21
300.333344
  0
LINE
  8
0
 10
322.204285
 20
299.833344
 11
322.204285
 21
300.333344
  0
LINE
  8
0
 10
325.904236
 20
297.733337
 11
325.904236
 21
299.333344
  0
LINE
  8
0
 10
321.704285
 20
297.733337
 11
321.704285
 21
299.333344
  0
LINE
  8
0
 10
321.704376
 20
299.333130
 11
322.204498
 21
299.833221
  0
LINE
  8
0
 10
325.403809
 20
299.832855
 11
325.903839
 21
299.332825
  0
LINE
  8
0
 10
319.404236
 20
299.833344
 11
319.404236
 21
300.333344
  0
LINE
  8
0
 10
316.204285
 20
299.833344
 11
316.204285
 21
300.333344
  0
LINE
  8
0
 10
319.904236
 20
297.733337
 11
319.904236
 21
299.333344
  0
LINE
  8
0
 10
315.704285
 20
297.733337
 11
315.704285
 21
299.333344
  0
LINE
  8
0
 10
315.704102
 20
299.333191
 11
316.204224
 21
299.833313
  0
LINE
  8
0
 10
319.404053
 20
299.833069
 11
319.904053
 21
299.333069
  0
LINE
  8
0
 10
319.404236
 20
300.333344
 11
322.204285
 21
300.333344
  0
LINE
  8
0
 10
325.404236
 20
300.333344
 11
342.071716
 21
300.333344
  0
LINE
  8
0
 10
345.804138
 20
210.333466
 11
345.804138
 21
181.333328
  0
LINE
  8
0
 10
345.304413
 20
210.833481
 11
345.804535
 21
210.333389
  0
LINE
  8
0
 10
345.804474
 20
230.333084
 11
345.304352
 21
229.832962
  0
LINE
  8
0
 10
345.804047
 20
250.333084
 11
345.304108
 21
250.832993
  0
LINE
  8
0
 10
345.304291
 20
269.833008
 11
345.804413
 21
270.333130
  0
LINE
  8
0
 10
345.804138
 20
250.333344
 11
345.804138
 21
230.333328
  0
LINE
  8
0
 10
265.804138
 20
271.833344
 11
273.804138
 21
271.833344
  0
LINE
  8
0
 10
325.404236
 20
180.833328
 11
325.404236
 21
180.333328
  0
LINE
  8
0
 10
322.204285
 20
180.833328
 11
322.204285
 21
180.333328
  0
LINE
  8
0
 10
325.904236
 20
182.933334
 11
325.904236
 21
181.333328
  0
LINE
  8
0
 10
321.704285
 20
182.933334
 11
321.704285
 21
181.333328
  0
LINE
  8
0
 10
321.704254
 20
181.333252
 11
322.204224
 21
180.833252
  0
LINE
  8
0
 10
325.403900
 20
180.833725
 11
325.903839
 21
181.333664
  0
LINE
  8
0
 10
319.404236
 20
180.833328
 11
319.404236
 21
180.333328
  0
LINE
  8
0
 10
316.204285
 20
180.833328
 11
316.204285
 21
180.333328
  0
LINE
  8
0
 10
319.904236
 20
182.933334
 11
319.904236
 21
181.333328
  0
LINE
  8
0
 10
315.704285
 20
182.933334
 11
315.704285
 21
181.333328
  0
LINE
  8
0
 10
315.704437
 20
181.333420
 11
316.204376
 21
180.833435
  0
LINE
  8
0
 10
319.404144
 20
180.833435
 11
319.904114
 21
181.333374
  0
LINE
  8
0
 10
345.804199
 20
181.333405
 11
342.072083
 21
180.333389
  0
LINE
  8
0
 10
345.804260
 20
299.333221
 11
342.071899
 21
300.333313
  0
LINE
  8
0
 10
325.404236
 20
180.333344
 11
342.071960
 21
180.333344
  0
LINE
  8
0
 10
319.404236
 20
180.333344
 11
322.204285
 21
180.333344
  0
LINE
  8
0
 10
345.304138
 20
269.833191
 11
345.304138
 21
210.833466
  0
LINE
  8
0
 10
314.804138
 20
184.333344
 11
314.804138
 21
180.333344
  0
LINE
  8
0
 10
326.804138
 20
184.333344
 11
326.804138
 21
180.333344
  0
LINE
  8
0
 10
316.804138
 20
186.333344
 11
324.804138
 21
186.333344
  0
LINE
  8
0
 10
316.804138
 20
294.333313
 11
324.804138
 21
294.333313
  0
LINE
  8
0
 10
314.804138
 20
296.333313
 11
314.804138
 21
300.333313
  0
LINE
  8
0
 10
326.804138
 20
296.333313
 11
326.804138
 21
300.333313
  0
LINE
  8
0
 10
295.804382
 20
251.567230
 11
295.804382
 21
249.099426
  0
LINE
  8
0
 10
291.804382
 20
251.567230
 11
291.804382
 21
249.099426
  0
LINE
  8
0
 10
295.804230
 20
251.566925
 11
293.804230
 21
252.683029
  0
LINE
  8
0
 10
293.804230
 20
252.683411
 11
291.804077
 21
251.567215
  0
LINE
  8
0
 10
291.804321
 20
249.099243
 11
293.804291
 21
247.983124
  0
LINE
  8
0
 10
293.804321
 20
247.983307
 11
295.804291
 21
249.099380
  0
LINE
  8
0
  6
CENTER
 62
     2
 10
301.318542
 20
250.333344
 11
286.291443
 21
250.333344
  0
LINE
  8
0
  6
CENTER
 62
     2
 10
293.804382
 20
257.747681
 11
293.804382
 21
242.848022
  0
LINE
  8
0
  6
CENTER
 62
     2
 10
303.580994
 20
230.333344
 11
284.160583
 21
230.333344
  0
LINE
  8
0
  6
CENTER
 62
     2
 10
293.804382
 20
240.110046
 11
293.804382
 21
220.689545
  0
LINE
  8
0
 10
282.004333
 20
186.833328
 11
282.004333
 21
193.833328
  0
LINE
  8
0
 10
282.304138
 20
186.633331
 11
282.304138
 21
188.133331
  0
LINE
  8
0
 10
278.804138
 20
194.033325
 11
282.304138
 21
194.033325
  0
LINE
  8
0
 10
278.804138
 20
186.633331
 11
282.304138
 21
186.633331
  0
LINE
  8
0
 10
276.804138
 20
192.533325
 11
278.804138
 21
192.533325
  0
LINE
  8
0
 10
276.804138
 20
188.133331
 11
278.804138
 21
188.133331
  0
LINE
  8
0
 10
283.304138
 20
188.133331
 11
283.304138
 21
192.533325
  0
LINE
  8
0
 10
282.304138
 20
188.133331
 11
283.304138
 21
188.133331
  0
LINE
  8
0
 10
282.304138
 20
192.533325
 11
283.304138
 21
192.533325
  0
LINE
  8
0
 10
282.304138
 20
192.533325
 11
282.304138
 21
194.033325
  0
LINE
  8
0
 10
278.804138
 20
188.133331
 11
278.804138
 21
194.033325
  0
LINE
  8
0
  6
CENTER
 62
     2
 10
263.027283
 20
202.833328
 11
277.042664
 21
202.833328
  0
LINE
  8
0
  6
CENTER
 62
     2
 10
262.819275
 20
277.833344
 11
275.094421
 21
277.833344
  0
LINE
  8
0
  6
CENTER
 62
     2
 10
270.164001
 20
215.333328
 11
284.597839
 21
215.333328
  0
LINE
  8
0
 10
272.804138
 20
219.395844
 11
272.804138
 21
211.270813
  0
LINE
  8
0
 10
273.804230
 20
211.183441
 11
272.804413
 21
211.270920
  0
LINE
  8
0
 10
273.804382
 20
219.483521
 11
272.804321
 21
219.396027
  0
LINE
  8
0
  6
CENTER
 62
     2
 10
270.164001
 20
290.333374
 11
284.758728
 21
290.333374
  0
LINE
  8
0
 10
272.804138
 20
286.270844
 11
272.804138
 21
294.395874
  0
LINE
  8
0
 10
273.804230
 20
294.483246
 11
272.804382
 21
294.395782
  0
LINE
  8
0
 10
273.804321
 20
286.183167
 11
272.804199
 21
286.270630
  0
LINE
  8
0
 10
276.804443
 20
258.333313
 11
270.804321
 21
247.940781
  0
LINE
  8
0
 10
276.804138
 20
222.333206
 11
270.804108
 21
232.725555
  0
LINE
  8
0
 10
289.804138
 20
182.333328
 11
288.404236
 21
182.333328
  0
LINE
  8
0
 10
289.754425
 20
180.333374
 11
288.197449
 21
181.816132
  0
LINE
  8
0
 10
289.804138
 20
298.333374
 11
288.404236
 21
298.333374
  0
LINE
  8
0
 10
289.754211
 20
300.333160
 11
288.197327
 21
298.850555
  0
LINE
  8
0
 10
278.804138
 20
213.133331
 11
278.804138
 21
219.033325
  0
LINE
  8
0
 10
282.004333
 20
211.833328
 11
282.004333
 21
218.833328
  0
LINE
  8
0
 10
282.304138
 20
211.633331
 11
282.304138
 21
213.133331
  0
LINE
  8
0
 10
278.804138
 20
219.033325
 11
282.304138
 21
219.033325
  0
LINE
  8
0
 10
278.804138
 20
211.633331
 11
282.304138
 21
211.633331
  0
LINE
  8
0
 10
276.804138
 20
217.533325
 11
278.804138
 21
217.533325
  0
LINE
  8
0
 10
276.804138
 20
213.133331
 11
278.804138
 21
213.133331
  0
LINE
  8
0
 10
283.304138
 20
213.133331
 11
283.304138
 21
217.533325
  0
LINE
  8
0
 10
282.304138
 20
213.133331
 11
283.304138
 21
213.133331
  0
LINE
  8
0
 10
282.304138
 20
217.533325
 11
283.304138
 21
217.533325
  0
LINE
  8
0
 10
282.304138
 20
217.533325
 11
282.304138
 21
219.033325
  0
LINE
  8
0
 10
273.804138
 20
209.833328
 11
276.804138
 21
209.833328
  0
LINE
  8
0
 10
273.804138
 20
195.833328
 11
276.804138
 21
195.833328
  0
LINE
  8
0
 10
273.804382
 20
209.833328
 11
273.804382
 21
195.833328
  0
LINE
  8
0
 10
282.304138
 20
263.133362
 11
283.304138
 21
263.133362
  0
LINE
  8
0
 10
278.804138
 20
294.033325
 11
278.804138
 21
288.133362
  0
LINE
  8
0
 10
282.304138
 20
294.033325
 11
282.304138
 21
292.533325
  0
LINE
  8
0
 10
278.804138
 20
286.633362
 11
282.304138
 21
286.633362
  0
LINE
  8
0
 10
278.804138
 20
294.033325
 11
282.304138
 21
294.033325
  0
LINE
  8
0
 10
276.804138
 20
288.133362
 11
278.804138
 21
288.133362
  0
LINE
  8
0
 10
276.804138
 20
292.533325
 11
278.804138
 21
292.533325
  0
LINE
  8
0
 10
283.304138
 20
292.533325
 11
283.304138
 21
288.133362
  0
LINE
  8
0
 10
282.304138
 20
292.533325
 11
283.304138
 21
292.533325
  0
LINE
  8
0
 10
282.304138
 20
288.133362
 11
283.304138
 21
288.133362
  0
LINE
  8
0
 10
282.304138
 20
288.133362
 11
282.304138
 21
286.633362
  0
LINE
  8
0
 10
282.004333
 20
293.833374
 11
282.004333
 21
286.833374
  0
LINE
  8
0
 10
273.804382
 20
270.833344
 11
273.804382
 21
284.833344
  0
LINE
  8
0
 10
282.304138
 20
263.133362
 11
282.304138
 21
261.633362
  0
LINE
  8
0
 10
282.004333
 20
268.833344
 11
282.004333
 21
261.833344
  0
LINE
  8
0
 10
278.804138
 20
269.033325
 11
278.804138
 21
263.133362
  0
LINE
  8
0
 10
282.304138
 20
269.033325
 11
282.304138
 21
267.533325
  0
LINE
  8
0
 10
278.804138
 20
261.633362
 11
282.304138
 21
261.633362
  0
LINE
  8
0
 10
278.804138
 20
269.033325
 11
282.304138
 21
269.033325
  0
LINE
  8
0
 10
276.804138
 20
263.133362
 11
278.804138
 21
263.133362
  0
LINE
  8
0
 10
276.804138
 20
267.533325
 11
278.804138
 21
267.533325
  0
LINE
  8
0
 10
283.304138
 20
267.533325
 11
283.304138
 21
263.133362
  0
LINE
  8
0
 10
282.304138
 20
267.533325
 11
283.304138
 21
267.533325
  0
LINE
  8
0
 10
278.804138
 20
300.333313
 11
316.204285
 21
300.333313
  0
LINE
  8
0
 10
273.804138
 20
284.833344
 11
276.804138
 21
284.833344
  0
LINE
  8
0
 10
273.804138
 20
270.833344
 11
276.804138
 21
270.833344
  0
LINE
  8
0
 10
275.804138
 20
195.333328
 11
274.804138
 21
195.333328
  0
LINE
  8
0
 10
275.804138
 20
210.333344
 11
274.804138
 21
210.333344
  0
LINE
  8
0
 10
275.804138
 20
270.333344
 11
274.804138
 21
270.333344
  0
LINE
  8
0
 10
275.804138
 20
285.333374
 11
274.804138
 21
285.333374
  0
LINE
  8
0
 10
278.804138
 20
186.633331
 11
278.804138
 21
188.133331
  0
LINE
  8
0
 10
278.804138
 20
211.633331
 11
278.804138
 21
213.133331
  0
LINE
  8
0
 10
278.804138
 20
263.133362
 11
278.804138
 21
261.633362
  0
LINE
  8
0
 10
278.804138
 20
288.133362
 11
278.804138
 21
286.633362
  0
LINE
  8
0
 10
278.804138
 20
186.833328
 11
282.004333
 21
186.833328
  0
LINE
  8
0
 10
278.804138
 20
193.833328
 11
282.004333
 21
193.833328
  0
LINE
  8
0
 10
278.804138
 20
211.833328
 11
282.004333
 21
211.833328
  0
LINE
  8
0
 10
278.804138
 20
218.833328
 11
282.004333
 21
218.833328
  0
LINE
  8
0
 10
278.804138
 20
268.833344
 11
282.004333
 21
268.833344
  0
LINE
  8
0
 10
278.804138
 20
261.833344
 11
282.004333
 21
261.833344
  0
LINE
  8
0
 10
278.804138
 20
293.833374
 11
282.004333
 21
293.833374
  0
LINE
  8
0
 10
278.804138
 20
286.833374
 11
282.004333
 21
286.833374
  0
LINE
  8
0
 62
     2
 10
276.804138
 20
188.833328
 11
278.804138
 21
188.833328
  0
LINE
  8
0
 62
     2
 10
276.804138
 20
191.833328
 11
278.804138
 21
191.833328
  0
LINE
  8
0
 62
     2
 10
276.804138
 20
216.833328
 11
278.804138
 21
216.833328
  0
LINE
  8
0
 62
     2
 10
276.804138
 20
213.833328
 11
278.804138
 21
213.833328
  0
LINE
  8
0
 62
     2
 10
276.804138
 20
263.833344
 11
278.804138
 21
263.833344
  0
LINE
  8
0
 62
     2
 10
276.804138
 20
266.833344
 11
278.804138
 21
266.833344
  0
LINE
  8
0
 62
     2
 10
276.804138
 20
291.833374
 11
278.804138
 21
291.833374
  0
LINE
  8
0
 62
     2
 10
276.804138
 20
288.833374
 11
278.804138
 21
288.833374
  0
LINE
  8
0
 10
167.866653
 20
104.118706
 11
159.741623
 21
104.118706
  0
LINE
  8
0
 10
159.653809
 20
103.118820
 11
159.741287
 21
104.118843
  0
LINE
  8
0
 10
167.953979
 20
103.118645
 11
167.866486
 21
104.118637
  0
LINE
  8
0
 10
-261.195862
 20
31.118713
 11
158.804153
 21
31.118713
  0
LINE
  8
0
 10
-214.195847
 20
111.118698
 11
-88.195862
 21
111.118698
  0
LINE
  8
0
 10
-271.195862
 20
103.118698
 11
168.804153
 21
103.118698
  0
LINE
  8
0
 10
-214.195847
 20
111.118698
 11
-214.195847
 21
103.118698
  0
LINE
  8
0
 10
-88.195862
 20
103.118698
 11
-88.195862
 21
111.118698
  0
LINE
  8
0
 10
-261.195862
 20
43.818695
 11
158.804153
 21
43.818695
  0
LINE
  8
0
 10
-261.195862
 20
38.418701
 11
158.804153
 21
38.418701
  0
LINE
  8
0
 10
-261.195862
 20
60.718689
 11
158.804153
 21
60.718689
  0
LINE
  8
0
 10
-261.195862
 20
57.518707
 11
158.804153
 21
57.518707
  0
LINE
  8
0
 10
-261.195862
 20
54.718689
 11
158.804153
 21
54.718689
  0
LINE
  8
0
 10
-261.195862
 20
51.518707
 11
158.804153
 21
51.518707
  0
LINE
  8
0
 10
-271.195862
 20
34.818695
 11
168.804153
 21
34.818695
  0
LINE
  8
0
 10
-271.195862
 20
108.118698
 11
-271.195862
 21
31.618713
  0
LINE
  8
0
 10
-261.195862
 20
87.618713
 11
-261.195862
 21
31.118713
  0
LINE
  8
0
 10
-271.195862
 20
31.618713
 11
-261.195862
 21
31.618713
  0
LINE
  8
0
 10
-271.195862
 20
62.118683
 11
-261.195862
 21
62.118683
  0
LINE
  8
0
 10
-271.195862
 20
50.118713
 11
-261.195862
 21
50.118713
  0
LINE
  8
0
 10
168.804153
 20
108.118698
 11
168.804153
 21
31.618713
  0
LINE
  8
0
 10
158.804153
 20
87.618713
 11
158.804153
 21
31.118713
  0
LINE
  8
0
 10
168.804153
 20
62.118683
 11
158.804153
 21
62.118683
  0
LINE
  8
0
 10
168.804153
 20
50.118713
 11
158.804153
 21
50.118713
  0
LINE
  8
0
 10
168.804153
 20
31.618713
 11
158.804153
 21
31.618713
  0
LINE
  8
0
  6
CENTER
 62
     2
 10
-296.683929
 20
83.118713
 11
-266.150024
 21
83.118713
  0
LINE
  8
0
 10
-276.695862
 20
89.118729
 11
-276.695862
 21
77.118729
  0
LINE
  8
0
 10
-276.695831
 20
89.118729
 11
-277.195862
 21
88.618721
  0
LINE
  8
0
 10
-277.195709
 20
77.618835
 11
-276.695709
 21
77.118843
  0
LINE
  8
0
 10
-286.695862
 20
77.768723
 11
-286.695862
 21
88.468735
  0
LINE
  8
0
 10
-294.195862
 20
77.768723
 11
-294.195862
 21
88.468735
  0
LINE
  8
0
 10
-277.195862
 20
77.768723
 11
-286.695862
 21
77.768723
  0
LINE
  8
0
 10
-277.195862
 20
88.468735
 11
-286.695862
 21
88.468735
  0
LINE
  8
0
 10
-287.195862
 20
77.768723
 11
-287.195862
 21
88.468735
  0
LINE
  8
0
 10
-287.195862
 20
77.768723
 11
-294.195862
 21
77.768723
  0
LINE
  8
0
 10
-287.195862
 20
88.468735
 11
-294.195862
 21
88.468735
  0
LINE
  8
0
 10
-286.695862
 20
81.868729
 11
-287.195862
 21
81.868729
  0
LINE
  8
0
 10
-286.695862
 20
84.368729
 11
-287.195862
 21
84.368729
  0
LINE
  8
0
 62
     2
 10
-271.195862
 20
77.660233
 11
-277.195862
 21
77.660233
  0
LINE
  8
0
 10
-271.195862
 20
77.118729
 11
-276.695862
 21
77.118729
  0
LINE
  8
0
 10
-271.195862
 20
89.118729
 11
-276.695862
 21
89.118729
  0
LINE
  8
0
 62
     2
 10
-271.195862
 20
88.577225
 11
-277.195862
 21
88.577225
  0
LINE
  8
0
 10
-277.195862
 20
88.618729
 11
-277.195862
 21
77.618729
  0
LINE
  8
0
 10
174.804153
 20
88.618729
 11
174.804153
 21
77.618729
  0
LINE
  8
0
  6
CENTER
 62
     2
 10
194.292007
 20
83.118713
 11
163.758286
 21
83.118713
  0
LINE
  8
0
 10
174.304153
 20
89.118729
 11
174.304153
 21
77.118729
  0
LINE
  8
0
 10
174.304077
 20
89.118729
 11
174.804092
 21
88.618729
  0
LINE
  8
0
 10
174.803986
 20
77.618797
 11
174.304001
 21
77.118813
  0
LINE
  8
0
 10
184.303970
 20
77.768723
 11
184.303970
 21
88.468735
  0
LINE
  8
0
 10
191.803970
 20
77.768723
 11
191.803970
 21
88.468735
  0
LINE
  8
0
 10
174.804153
 20
77.768723
 11
184.303970
 21
77.768723
  0
LINE
  8
0
 10
174.804153
 20
88.468735
 11
184.303970
 21
88.468735
  0
LINE
  8
0
 10
184.803970
 20
77.768723
 11
184.803970
 21
88.468735
  0
LINE
  8
0
 10
184.803970
 20
77.768723
 11
191.803970
 21
77.768723
  0
LINE
  8
0
 10
184.803970
 20
88.468735
 11
191.803970
 21
88.468735
  0
LINE
  8
0
 10
184.303970
 20
81.868729
 11
184.803970
 21
81.868729
  0
LINE
  8
0
 10
184.303970
 20
84.368729
 11
184.803970
 21
84.368729
  0
LINE
  8
0
 62
     2
 10
168.804153
 20
77.660233
 11
174.804153
 21
77.660233
  0
LINE
  8
0
 10
168.804153
 20
77.118729
 11
174.304153
 21
77.118729
  0
LINE
  8
0
 10
168.804153
 20
89.118729
 11
174.304153
 21
89.118729
  0
LINE
  8
0
 62
     2
 10
168.804153
 20
88.577225
 11
174.804153
 21
88.577225
  0
LINE
  8
0
 10
-271.195862
 20
108.118698
 11
-214.195847
 21
108.118698
  0
LINE
  8
0
 10
-88.195862
 20
108.118698
 11
168.804153
 21
108.118698
  0
LINE
  8
0
 10
-270.258362
 20
104.118706
 11
-262.133331
 21
104.118706
  0
LINE
  8
0
 10
-262.045532
 20
103.118813
 11
-262.132996
 21
104.118843
  0
LINE
  8
0
 10
-270.345612
 20
103.118660
 11
-270.258118
 21
104.118652
  0
LINE
  8
0
 10
-271.195862
 20
87.118713
 11
-261.195862
 21
87.118713
  0
LINE
  8
0
 10
-271.195862
 20
87.618713
 11
168.804153
 21
87.618713
  0
LINE
  8
0
 10
158.804153
 20
87.118713
 11
168.804153
 21
87.118713
  0
LINE
  8
0
 10
-261.195862
 20
68.618713
 11
158.804153
 21
68.618713
  0
LINE
  8
0
  6
CENTER
 62
     2
 10
-151.195847
 20
118.521545
 11
-151.195847
 21
23.333572
  0
LINE
  8
0
  6
CENTER
 62
     2
 10
48.804138
 20
118.521545
 11
48.804138
 21
23.333572
  0
LINE
  8
0
  6
CENTER
 62
     2
 10
-209.195847
 20
118.121078
 11
-209.195847
 21
101.677841
  0
LINE
  8
0
  6
CENTER
 62
     2
 10
-93.195847
 20
118.121078
 11
-93.195847
 21
101.348976
  0
LINE
  8
0
  6
PHANTOM
 62
     3
 10
-225.232208
 20
152.237381
 11
-225.232208
 21
13.734421
  0
LINE
  8
0
  6
PHANTOM
 62
     3
 10
13.750748
 20
152.237381
 11
13.750748
 21
13.734421
  0
LINE
  8
0
 62
     4
 10
-158.695663
 20
-79.009674
 11
-158.695663
 21
-92.009644
  0
LINE
  8
0
  6
CENTER
 62
     1
 10
-168.695663
 20
-76.917938
 11
-168.695663
 21
-202.049316
  0
LINE
  8
0
 62
     4
 10
-178.695648
 20
-152.009644
 11
-178.695648
 21
-167.009644
  0
LINE
  8
0
 62
     4
 10
-178.195648
 20
-197.509644
 11
-159.195663
 21
-197.509644
  0
LINE
  8
0
 62
     4
 10
-159.195663
 20
-182.009644
 11
-159.195663
 21
-197.509644
  0
LINE
  8
0
 62
     4
 10
-203.195648
 20
-183.509644
 11
-203.195648
 21
-197.509644
  0
LINE
  8
0
 62
     4
 10
-207.195648
 20
-183.509644
 11
-207.195648
 21
-197.509644
  0
LINE
  8
0
  6
CENTER
 62
     1
 10
-260.991547
 20
-190.509644
 11
-155.223007
 21
-190.509644
  0
LINE
  8
0
 62
     4
 10
-207.195648
 20
-197.509644
 11
-178.195648
 21
-197.509644
  0
LINE
  8
0
 62
     4
 10
-207.195648
 20
-183.509644
 11
-178.195648
 21
-183.509644
  0
LINE
  8
0
 62
     4
 10
-256.195648
 20
-185.009644
 11
-256.195648
 21
-196.009644
  0
LINE
  8
0
 62
     4
 10
-239.195648
 20
-185.009644
 11
-239.195648
 21
-196.009644
  0
LINE
  8
0
 62
     4
 10
-256.195648
 20
-185.009644
 11
-239.195648
 21
-185.009644
  0
LINE
  8
0
 62
     4
 10
-256.195648
 20
-196.009644
 11
-239.195648
 21
-196.009644
  0
LINE
  8
0
 62
     4
 10
-249.195648
 20
-185.009644
 11
-249.195648
 21
-196.009644
  0
LINE
  8
0
 62
     4
 10
-238.695648
 20
-196.509644
 11
-237.695648
 21
-196.509644
  0
LINE
  8
0
 62
     4
 10
-238.695648
 20
-184.509644
 11
-237.695648
 21
-184.509644
  0
LINE
  8
0
 62
     4
 10
-208.695648
 20
-182.009644
 11
-208.695648
 21
-199.009644
  0
LINE
  8
0
 62
     4
 10
-233.695648
 20
-182.009644
 11
-233.695648
 21
-199.009644
  0
LINE
  8
0
 62
     4
 10
-237.695648
 20
-183.509644
 11
-237.695648
 21
-197.509644
  0
LINE
  8
0
 62
     4
 10
-246.195648
 20
-199.009644
 11
-196.195648
 21
-199.009644
  0
LINE
  8
0
 62
     4
 10
-208.695648
 20
-184.509644
 11
-207.195648
 21
-184.509644
  0
LINE
  8
0
 62
     4
 10
-208.695648
 20
-196.509644
 11
-207.195648
 21
-196.509644
  0
LINE
  8
0
 62
     4
 10
-237.695648
 20
-183.509644
 11
-233.695648
 21
-183.509644
  0
LINE
  8
0
 62
     4
 10
-237.695648
 20
-197.509644
 11
-233.695648
 21
-197.509644
  0
LINE
  8
0
 62
     4
 10
-246.195648
 20
-182.009644
 11
-246.195648
 21
-185.009644
  0
LINE
  8
0
 62
     4
 10
-196.195648
 20
-182.009644
 11
-196.195648
 21
-183.509644
  0
LINE
  8
0
 62
     4
 10
-196.195648
 20
-197.509644
 11
-196.195648
 21
-199.009644
  0
LINE
  8
0
 62
     4
 10
-178.195648
 20
-182.009644
 11
-178.195648
 21
-197.509644
  0
LINE
  8
0
 62
     4
 10
-178.695648
 20
-77.009674
 11
-178.695648
 21
-92.009644
  0
LINE
  8
0
 62
     4
 10
-178.695648
 20
-80.009674
 11
-158.695663
 21
-80.009674
  0
LINE
  8
0
 62
     4
 10
-188.695648
 20
-77.009674
 11
-188.695648
 21
-92.009644
  0
LINE
  8
0
 62
     4
 10
-178.695648
 20
-79.009674
 11
-158.695663
 21
-79.009674
  0
LINE
  8
0
 62
     4
 10
-246.195648
 20
-196.009644
 11
-246.195648
 21
-199.009644
  0
LINE
  8
0
 62
     4
 10
-164.695663
 20
-80.009674
 11
-164.695663
 21
-92.009644
  0
LINE
  8
0
 62
     4
 10
-172.695648
 20
-80.009674
 11
-172.695648
 21
-92.009644
  0
LINE
  8
0
 62
     4
 10
-148.695663
 20
-77.009674
 11
-148.695663
 21
-92.009644
  0
LINE
  8
0
  6
CENTER
 62
     1
 10
-153.695663
 20
-163.130859
 11
-153.695663
 21
-155.775146
  0
LINE
  8
0
  6
CENTER
 62
     1
 10
-157.316757
 20
-159.509644
 11
-149.960785
 21
-159.509644
  0
LINE
  8
0
  6
CENTER
 62
     1
 10
-187.316742
 20
-159.509644
 11
-179.960785
 21
-159.509644
  0
LINE
  8
0
  6
CENTER
 62
     1
 10
-183.695648
 20
-163.130859
 11
-183.695648
 21
-155.775146
  0
LINE
  8
0
 62
     4
 10
-148.695663
 20
-152.009644
 11
-148.695663
 21
-167.009644
  0
LINE
  8
0
 62
     4
 10
-188.695648
 20
-152.009644
 11
-188.695648
 21
-167.009644
  0
LINE
  8
0
 62
     1
 10
-208.695648
 20
-195.509644
 11
-207.195648
 21
-195.509644
  0
LINE
  8
0
 62
     1
 10
-208.695648
 20
-185.509644
 11
-207.195648
 21
-185.509644
  0
LINE
  8
0
 62
     4
 10
-202.562836
 20
-190.509644
 11
-178.827972
 21
-190.509644
  0
LINE
  8
0
 62
     4
 10
-206.562836
 20
-190.509644
 11
-203.827972
 21
-190.509644
  0
LINE
  8
0
 62
     4
 10
-237.062836
 20
-190.509644
 11
-234.327972
 21
-190.509644
  0
LINE
  8
0
 62
     4
 10
-238.695602
 20
-184.509537
 11
-239.195541
 21
-185.009476
  0
LINE
  8
0
 62
     4
 10
-239.195236
 20
-196.009171
 11
-238.695297
 21
-196.509109
  0
LINE
  8
0
 62
     1
 10
-239.195648
 20
-185.509644
 11
-237.695648
 21
-185.509644
  0
LINE
  8
0
 62
     1
 10
-239.195648
 20
-195.509644
 11
-237.695648
 21
-195.509644
  0
LINE
  8
0
 62
     4
 10
-238.195648
 20
-184.509644
 11
-238.195648
 21
-196.509644
  0
LINE
  8
0
 62
     4
 10
-172.695648
 20
-152.009644
 11
-172.695648
 21
-163.509644
  0
LINE
  8
0
 62
     4
 10
-164.695663
 20
-152.009644
 11
-164.695663
 21
-163.509644
  0
LINE
  8
0
 62
     4
 10
-188.695648
 20
-152.009644
 11
-148.695663
 21
-152.009644
  0
LINE
  8
0
 62
     4
 10
-188.695648
 20
-167.009644
 11
-148.695663
 21
-167.009644
  0
LINE
  8
0
 62
     4
 10
-188.695648
 20
-77.009674
 11
-148.695663
 21
-77.009674
  0
LINE
  8
0
 62
     4
 10
-188.695648
 20
-92.009644
 11
-148.695663
 21
-92.009644
  0
LINE
  8
0
 62
     4
 10
-246.195648
 20
-182.009644
 11
-159.195663
 21
-182.009644
  0
LINE
  8
0
 62
     4
 10
-387.756592
 20
-183.509445
 11
-383.732361
 21
-190.509064
  0
LINE
  8
0
 62
     4
 10
-383.733551
 20
-190.509460
 11
-387.757904
 21
-197.509277
  0
LINE
  8
0
 62
     4
 10
-395.908020
 20
-197.509903
 11
-399.932739
 21
-190.509445
  0
LINE
  8
0
 62
     4
 10
-399.933655
 20
-190.509476
 11
-395.909180
 21
-183.509445
  0
LINE
  8
0
  6
CENTER
 62
     1
 10
-401.842529
 20
-190.509644
 11
-382.085693
 21
-190.509644
  0
LINE
  8
0
 62
     4
 10
-381.833252
 20
-199.009644
 11
-438.833252
 21
-199.009644
  0
LINE
  8
0
 62
     4
 10
-438.833252
 20
-182.009644
 11
-438.833252
 21
-199.009644
  0
LINE
  8
0
 62
     4
 10
-420.833252
 20
-199.009644
 11
-420.833252
 21
-182.009644
  0
LINE
  8
0
  6
CENTER
 62
     1
 10
-391.833252
 20
-179.196167
 11
-391.833252
 21
-200.192505
  0
LINE
  8
0
 62
     4
 10
-381.833252
 20
-182.009644
 11
-381.833252
 21
-199.009644
  0
LINE
  8
0
 62
     4
 10
-395.907959
 20
-197.509644
 11
-387.757568
 21
-197.509644
  0
LINE
  8
0
 62
     4
 10
-395.908447
 20
-183.509644
 11
-387.756592
 21
-183.509644
  0
LINE
  8
0
 62
     4
 10
-436.100922
 20
-182.009644
 11
-438.833252
 21
-182.009644
  0
LINE
  8
0
 62
     4
 10
116.383987
 20
-197.509644
 11
130.383987
 21
-197.509644
  0
LINE
  8
0
 62
     4
 10
116.383850
 20
-188.594391
 11
115.283005
 21
-190.509171
  0
LINE
  8
0
 62
     4
 10
115.283836
 20
-190.509583
 11
116.383987
 21
-192.423141
  0
LINE
  8
0
 62
     4
 10
130.383881
 20
-192.421066
 11
131.483002
 21
-190.509293
  0
LINE
  8
0
 62
     4
 10
131.484055
 20
-190.509689
 11
130.384048
 21
-188.596390
  0
LINE
  8
0
  6
CENTER
 62
     1
 10
133.393265
 20
-190.509644
 11
113.636185
 21
-190.509644
  0
LINE
  8
0
 62
     4
 10
113.383957
 20
-182.009644
 11
113.383957
 21
-199.009644
  0
LINE
  8
0
 62
     4
 10
167.651566
 20
-182.009644
 11
170.383987
 21
-182.009644
  0
LINE
  8
0
 62
     4
 10
152.384018
 20
-199.009766
 11
152.384018
 21
-182.009644
  0
LINE
  8
0
 62
     4
 10
130.384018
 20
-182.009644
 11
130.384018
 21
-197.509644
  0
LINE
  8
0
 62
     4
 10
116.383957
 20
-182.009644
 11
116.383957
 21
-197.509644
  0
LINE
  8
0
 62
     4
 10
113.383987
 20
-199.009644
 11
170.383987
 21
-199.009644
  0
LINE
  8
0
 62
     4
 10
170.384018
 20
-182.009644
 11
170.384018
 21
-199.009766
  0
LINE
  8
0
  6
CENTER
 62
     1
 10
123.383957
 20
-179.196167
 11
123.383957
 21
-200.192627
  0
LINE
  8
0
 62
     4
 10
-251.195648
 20
-361.009399
 11
-191.195648
 21
-361.009399
  0
LINE
  8
0
 62
     4
 10
-251.195648
 20
-343.009644
 11
-233.695648
 21
-343.009644
  0
LINE
  8
0
 62
     4
 10
-233.695648
 20
-304.009644
 11
-208.695648
 21
-304.009644
  0
LINE
  8
0
 62
     4
 10
-208.695648
 20
-304.009644
 11
-208.695648
 21
-343.009644
  0
LINE
  8
0
 62
     4
 10
-233.695648
 20
-304.009644
 11
-233.695648
 21
-343.009644
  0
LINE
  8
0
 62
     4
 10
-208.695648
 20
-343.009644
 11
-191.195648
 21
-343.009644
  0
LINE
  8
0
  6
CENTER
 62
     1
 10
-259.724945
 20
-314.009644
 11
-155.910507
 21
-314.009644
  0
LINE
  8
0
  6
CENTER
 62
     1
 10
-198.195648
 20
-359.218872
 11
-198.195648
 21
-344.869751
  0
LINE
  8
0
  6
CENTER
 62
     1
 10
-205.553070
 20
-352.009644
 11
-190.711273
 21
-352.009644
  0
LINE
  8
0
 62
     4
 10
-178.195648
 20
-305.409668
 11
-178.195648
 21
-322.609619
  0
LINE
  8
0
 62
     4
 10
-203.195648
 20
-306.959595
 11
-203.195648
 21
-321.059692
  0
LINE
  8
0
 62
     4
 10
-207.195648
 20
-321.059692
 11
-207.195648
 21
-306.959595
  0
LINE
  8
0
 62
     4
 10
-256.195648
 20
-319.509644
 11
-239.195648
 21
-319.509644
  0
LINE
  8
0
 62
     4
 10
-256.195648
 20
-308.509644
 11
-239.195648
 21
-308.509644
  0
LINE
  8
0
 62
     4
 10
-238.695648
 20
-320.009644
 11
-237.695648
 21
-320.009644
  0
LINE
  8
0
 62
     4
 10
-238.695648
 20
-308.009644
 11
-237.695648
 21
-308.009644
  0
LINE
  8
0
 62
     4
 10
-237.695648
 20
-306.959595
 11
-237.695648
 21
-321.059692
  0
LINE
  8
0
 62
     4
 10
-256.195648
 20
-308.509644
 11
-256.195648
 21
-319.509644
  0
LINE
  8
0
 62
     4
 10
-249.195648
 20
-308.509644
 11
-249.195648
 21
-319.509644
  0
LINE
  8
0
 62
     4
 10
-239.195648
 20
-308.509644
 11
-239.195648
 21
-319.509644
  0
LINE
  8
0
 62
     4
 10
-208.695648
 20
-308.009644
 11
-207.195648
 21
-308.009644
  0
LINE
  8
0
 62
     4
 10
-208.695648
 20
-320.009644
 11
-207.195648
 21
-320.009644
  0
LINE
  8
0
 62
     4
 10
-236.650726
 20
-319.509644
 11
-234.740082
 21
-319.509644
  0
LINE
  8
0
 62
     4
 10
-236.650726
 20
-308.509644
 11
-234.740082
 21
-308.509644
  0
LINE
  8
0
 62
     4
 10
-206.150726
 20
-308.509644
 11
-204.240082
 21
-308.509644
  0
LINE
  8
0
 62
     4
 10
-206.150726
 20
-319.509644
 11
-204.240082
 21
-319.509644
  0
LINE
  8
0
 62
     4
 10
-158.695663
 20
-305.409668
 11
-158.695663
 21
-322.609619
  0
LINE
  8
0
 62
     4
 10
-178.195648
 20
-307.009644
 11
-158.695663
 21
-307.009644
  0
LINE
  8
0
 62
     4
 10
-178.195648
 20
-321.009644
 11
-158.695663
 21
-321.009644
  0
LINE
  8
0
  6
CENTER
 62
     1
 10
-168.695663
 20
-301.763306
 11
-168.695663
 21
-326.080811
  0
LINE
  8
0
 62
     4
 10
-148.695663
 20
-305.409668
 11
-148.695663
 21
-322.609619
  0
LINE
  8
0
 62
     4
 10
-195.695648
 20
-353.575684
 11
-195.695648
 21
-350.443604
  0
LINE
  8
0
 62
     4
 10
-200.695648
 20
-353.575684
 11
-200.695648
 21
-350.443604
  0
LINE
  8
0
 62
     4
 10
-200.695602
 20
-350.443268
 11
-198.195679
 21
-349.059326
  0
LINE
  8
0
 62
     4
 10
-198.195602
 20
-349.059418
 11
-195.695557
 21
-350.443390
  0
LINE
  8
0
 62
     4
 10
-195.695190
 20
-353.575226
 11
-198.195557
 21
-354.959381
  0
LINE
  8
0
 62
     4
 10
-198.195496
 20
-354.959320
 11
-200.695480
 21
-353.575378
  0
LINE
  8
0
  6
CENTER
 62
     1
 10
-221.195648
 20
-359.218872
 11
-221.195648
 21
-344.869751
  0
LINE
  8
0
  6
CENTER
 62
     1
 10
-228.553070
 20
-352.009644
 11
-213.711273
 21
-352.009644
  0
LINE
  8
0
 62
     4
 10
-218.695648
 20
-353.575684
 11
-218.695648
 21
-350.443604
  0
LINE
  8
0
 62
     4
 10
-223.695648
 20
-353.575684
 11
-223.695648
 21
-350.443604
  0
LINE
  8
0
 62
     4
 10
-223.695663
 20
-350.443512
 11
-221.195740
 21
-349.059570
  0
LINE
  8
0
 62
     4
 10
-221.195831
 20
-349.059662
 11
-218.695801
 21
-350.443634
  0
LINE
  8
0
 62
     4
 10
-218.695282
 20
-353.575195
 11
-221.195694
 21
-354.959381
  0
LINE
  8
0
 62
     4
 10
-221.195618
 20
-354.959381
 11
-223.695572
 21
-353.575470
  0
LINE
  8
0
  6
CENTER
 62
     1
 10
-244.195648
 20
-359.218872
 11
-244.195648
 21
-344.869751
  0
LINE
  8
0
  6
CENTER
 62
     1
 10
-251.553070
 20
-352.009644
 11
-236.711273
 21
-352.009644
  0
LINE
  8
0
 62
     4
 10
-241.695648
 20
-353.575684
 11
-241.695648
 21
-350.443604
  0
LINE
  8
0
 62
     4
 10
-246.695648
 20
-353.575684
 11
-246.695648
 21
-350.443604
  0
LINE
  8
0
 62
     4
 10
-246.695862
 20
-350.443512
 11
-244.195938
 21
-349.059601
  0
LINE
  8
0
 62
     4
 10
-244.195618
 20
-349.059387
 11
-241.695572
 21
-350.443359
  0
LINE
  8
0
 62
     4
 10
-241.695496
 20
-353.575165
 11
-244.195419
 21
-354.959076
  0
LINE
  8
0
 62
     4
 10
-244.195648
 20
-354.959686
 11
-246.695679
 21
-353.575714
  0
LINE
  8
0
 62
     4
 10
-191.195648
 20
-343.009644
 11
-191.195648
 21
-361.009399
  0
LINE
  8
0
 62
     4
 10
-251.195648
 20
-343.009644
 11
-251.195648
 21
-361.009399
  0
LINE
  8
0
 62
     4
 10
-159.195663
 20
-307.009644
 11
-159.195663
 21
-321.009644
  0
LINE
  8
0
 62
     4
 10
-202.150726
 20
-319.509644
 11
-179.240082
 21
-319.509644
  0
LINE
  8
0
 62
     4
 10
-202.150726
 20
-308.509644
 11
-179.240082
 21
-308.509644
  0
LINE
  8
0
 62
     1
 10
-208.695648
 20
-309.009644
 11
-207.195648
 21
-309.009644
  0
LINE
  8
0
 62
     1
 10
-208.695648
 20
-319.009644
 11
-207.195648
 21
-319.009644
  0
LINE
  8
0
 62
     1
 10
-239.195648
 20
-309.009644
 11
-237.695648
 21
-309.009644
  0
LINE
  8
0
 62
     1
 10
-239.195648
 20
-319.009644
 11
-237.695648
 21
-319.009644
  0
LINE
  8
0
 62
     4
 10
-238.195648
 20
-308.009644
 11
-238.195648
 21
-320.009644
  0
LINE
  8
0
 62
     4
 10
-238.695496
 20
-308.009460
 11
-239.195435
 21
-308.509430
  0
LINE
  8
0
 62
     4
 10
-239.195602
 20
-319.509399
 11
-238.695602
 21
-320.009399
  0
LINE
  8
0
 62
     4
 10
-236.650909
 20
-322.609650
 11
-234.739899
 21
-322.609650
  0
LINE
  8
0
 62
     4
 10
-236.650909
 20
-305.409637
 11
-234.739899
 21
-305.409637
  0
LINE
  8
0
 62
     4
 10
-206.150909
 20
-305.409637
 11
-204.239899
 21
-305.409637
  0
LINE
  8
0
 62
     4
 10
-206.150909
 20
-322.609650
 11
-204.239899
 21
-322.609650
  0
LINE
  8
0
 62
     4
 10
-202.150909
 20
-322.609650
 11
-178.195648
 21
-322.609650
  0
LINE
  8
0
 62
     4
 10
-202.150909
 20
-305.409637
 11
-178.195648
 21
-305.409637
  0
LINE
  8
0
 62
     4
 10
-158.695663
 20
-305.409637
 11
-148.695663
 21
-305.409637
  0
LINE
  8
0
 62
     4
 10
-158.695663
 20
-322.609650
 11
-148.695663
 21
-322.609650
  0
ARC
  8
0
  6
DASHED
 10
103.135239
 20
-97.009644
 40
6.251337
 50
139.468689
 51
220.531204
  0
ARC
  8
0
  6
DASHED
 10
103.135178
 20
-172.009644
 40
6.251337
 50
139.468689
 51
220.531265
  0
CIRCLE
  8
0
  6
DASHED
 62
     2
 10
-142.695663
 20
-84.509644
 40
3.000000
  0
CIRCLE
  8
0
  6
DASHED
 10
-142.695663
 20
-84.509644
 40
2.500000
  0
CIRCLE
  8
0
  6
DASHED
 62
     2
 10
-142.695663
 20
-159.509644
 40
3.000000
  0
CIRCLE
  8
0
  6
DASHED
 10
-142.695663
 20
-159.509644
 40
2.500000
  0
CIRCLE
  8
0
  6
DASHED
 62
     2
 10
-26.695755
 20
-159.509644
 40
3.000000
  0
CIRCLE
  8
0
  6
DASHED
 10
-26.695755
 20
-159.509644
 40
2.500000
  0
CIRCLE
  8
0
  6
DASHED
 62
     2
 10
-26.695755
 20
-84.509644
 40
3.000000
  0
CIRCLE
  8
0
  6
DASHED
 10
-26.695755
 20
-84.509644
 40
2.500000
  0
ARC
  8
0
  6
DASHED
 10
103.135239
 20
-147.009644
 40
6.251337
 50
139.468689
 51
220.531265
  0
ARC
  8
0
  6
DASHED
 10
104.383896
 20
-177.009644
 40
5.000000
 50
180.000000
 51
269.999908
  0
ARC
  8
0
  6
DASHED
 10
103.135178
 20
-72.009674
 40
6.251336
 50
139.468597
 51
220.531204
  0
ARC
  8
0
  6
DASHED
 10
104.383896
 20
-67.009674
 40
5.000000
 50
90.000000
 51
180.000000
  0
ARC
  8
0
  6
DASHED
 10
114.583908
 20
-62.309662
 40
0.299999
 50
313.604279
 51
0.000000
  0
ARC
  8
0
  6
DASHED
 10
-371.584229
 20
-97.009766
 40
6.251343
 50
319.468750
 51
40.531258
  0
ARC
  8
0
  6
DASHED
 10
-371.584229
 20
-172.009644
 40
6.251343
 50
319.468750
 51
40.531258
  0
ARC
  8
0
  6
DASHED
 10
-371.584229
 20
-147.009644
 40
6.251343
 50
319.468750
 51
40.531258
  0
ARC
  8
0
  6
DASHED
 10
-372.833252
 20
-177.009644
 40
5.000000
 50
270.000000
 51
0.000000
  0
ARC
  8
0
  6
DASHED
 10
-371.584229
 20
-72.009735
 40
6.251343
 50
319.468750
 51
40.531258
  0
ARC
  8
0
  6
DASHED
 10
-372.833252
 20
-67.009735
 40
5.000000
 50
0.000000
 51
90.000000
  0
ARC
  8
0
  6
DASHED
 10
-383.032959
 20
-62.309784
 40
0.299988
 50
180.000000
 51
226.394669
  0
CIRCLE
  8
0
 10
-266.195862
 20
215.333328
 40
4.200000
  0
CIRCLE
  8
0
 62
     2
 10
-209.195847
 20
277.833344
 40
3.000000
  0
CIRCLE
  8
0
 10
-209.195847
 20
277.833344
 40
2.500000
  0
CIRCLE
  8
0
 62
     2
 10
-209.195847
 20
202.833344
 40
3.000000
  0
CIRCLE
  8
0
 10
-209.195847
 20
202.833344
 40
2.500000
  0
CIRCLE
  8
0
 62
     2
 10
-93.195847
 20
202.833344
 40
3.000000
  0
CIRCLE
  8
0
 10
-93.195847
 20
202.833344
 40
2.500000
  0
CIRCLE
  8
0
 62
     2
 10
-93.195847
 20
277.833344
 40
3.000000
  0
CIRCLE
  8
0
 10
-93.195847
 20
277.833344
 40
2.500000
  0
CIRCLE
  8
0
 10
-266.195862
 20
265.333344
 40
4.200000
  0
CIRCLE
  8
0
 10
-266.195862
 20
290.333374
 40
4.200000
  0
CIRCLE
  8
0
 10
163.804153
 20
265.333344
 40
4.200000
  0
CIRCLE
  8
0
 10
163.804153
 20
290.333374
 40
4.200000
  0
CIRCLE
  8
0
 10
163.804153
 20
190.333328
 40
4.200000
  0
CIRCLE
  8
0
 10
163.804153
 20
215.333328
 40
4.200000
  0
CIRCLE
  8
0
 10
-266.195862
 20
190.333328
 40
4.200000
  0
ARC
  8
0
 10
-368.833252
 20
269.333344
 40
1.000000
 50
0.000000
 51
90.000000
  0
ARC
  8
0
 10
-369.833252
 20
269.333344
 40
1.000000
 50
90.000000
 51
180.000000
  0
ARC
  8
0
 10
-368.833252
 20
211.333344
 40
1.000000
 50
270.000000
 51
0.000000
  0
ARC
  8
0
 10
-369.833252
 20
194.333328
 40
1.000000
 50
90.000000
 51
180.000000
  0
ARC
  8
0
 10
-368.833252
 20
194.333328
 40
1.000000
 50
0.000000
 51
90.000000
  0
ARC
  8
0
 10
-369.833252
 20
286.333374
 40
1.000000
 50
180.000000
 51
270.000000
  0
ARC
  8
0
 10
-368.833252
 20
286.333374
 40
1.000000
 50
270.000000
 51
0.000000
  0
ARC
  8
0
 10
-369.833252
 20
211.333344
 40
1.000000
 50
180.000000
 51
270.000000
  0
ARC
  8
0
 10
-371.584473
 20
265.333344
 40
6.251333
 50
319.468842
 51
40.531151
  0
ARC
  8
0
 10
-371.584473
 20
190.333344
 40
6.251343
 50
319.468750
 51
40.531258
  0
ARC
  8
0
 10
-411.833252
 20
297.733337
 40
2.100006
 50
180.000000
 51
0.000000
  0
ARC
  8
0
 10
-417.833252
 20
297.733337
 40
2.100006
 50
180.000000
 51
0.000000
  0
ARC
  8
0
 10
-411.833252
 20
182.933319
 40
2.100006
 50
0.000000
 51
180.000000
  0
ARC
  8
0
 10
-417.833252
 20
182.933319
 40
2.100006
 50
0.000000
 51
180.000000
  0
ARC
  8
0
 10
-418.833252
 20
184.333344
 40
2.000000
 50
90.000000
 51
180.000000
  0
ARC
  8
0
 10
-410.833252
 20
184.333344
 40
2.000000
 50
0.000000
 51
90.000000
  0
ARC
  8
0
 10
-418.833252
 20
296.333313
 40
2.000000
 50
180.000000
 51
270.000000
  0
ARC
  8
0
 10
-410.833252
 20
296.333313
 40
2.000000
 50
270.000000
 51
0.000000
  0
CIRCLE
  8
0
 10
-387.833252
 20
230.333344
 40
5.349999
  0
CIRCLE
  8
0
 62
     2
 10
-387.833252
 20
230.333344
 40
5.458488
  0
CIRCLE
  8
0
 10
-387.833252
 20
230.333344
 40
5.999992
  0
CIRCLE
  8
0
 62
     2
 10
-416.333252
 20
232.333344
 40
5.000000
  0
CIRCLE
  8
0
 10
-416.333252
 20
232.333344
 40
4.000000
  0
CIRCLE
  8
0
 10
-416.333252
 20
248.333344
 40
4.000000
  0
CIRCLE
  8
0
 62
     2
 10
-416.333252
 20
248.333344
 40
5.000000
  0
CIRCLE
  8
0
 10
-387.833252
 20
250.333344
 40
4.000000
  0
CIRCLE
  8
0
 62
     2
 10
-387.833252
 20
250.333344
 40
3.500000
  0
CIRCLE
  8
0
 10
-387.833252
 20
250.333344
 40
6.000000
  0
CIRCLE
  8
0
 10
-387.833252
 20
230.333344
 40
8.000000
  0
ARC
  8
0
 10
-371.584473
 20
215.333344
 40
6.251343
 50
319.468750
 51
40.531258
  0
ARC
  8
0
 10
-372.833252
 20
185.333344
 40
5.000000
 50
270.000000
 51
0.000000
  0
ARC
  8
0
 10
-372.833252
 20
185.333328
 40
2.000000
 50
270.000000
 51
0.000000
  0
ARC
  8
0
 10
-371.584473
 20
290.333344
 40
6.251333
 50
319.468842
 51
40.531364
  0
ARC
  8
0
 10
-372.833252
 20
295.333344
 40
5.000000
 50
0.000000
 51
90.000000
  0
ARC
  8
0
 10
-372.833252
 20
295.333374
 40
2.000000
 50
0.000000
 51
90.000000
  0
ARC
  8
0
 10
-383.833252
 20
182.833328
 40
0.500000
 50
90.000000
 51
180.000000
  0
ARC
  8
0
 10
-383.833252
 20
182.833328
 40
0.500000
 50
180.000000
 51
270.000000
  0
ARC
  8
0
 10
-382.433350
 20
182.033325
 40
0.299997
 50
323.127777
 51
90.000000
  0
ARC
  8
0
 10
-383.833252
 20
297.833374
 40
0.500000
 50
90.000000
 51
180.000000
  0
ARC
  8
0
 10
-383.833252
 20
297.833374
 40
0.500000
 50
180.000000
 51
270.000000
  0
ARC
  8
0
 10
-382.433380
 20
298.633362
 40
0.299988
 50
270.000000
 51
46.401402
  0
ARC
  8
0
 10
277.555603
 20
265.333344
 40
6.251353
 50
139.468628
 51
220.531158
  0
ARC
  8
0
 10
277.555603
 20
190.333344
 40
6.251343
 50
139.468735
 51
220.531265
  0
ARC
  8
0
 10
317.804138
 20
297.733337
 40
2.100006
 50
180.000000
 51
0.000000
  0
ARC
  8
0
 10
323.804138
 20
297.733337
 40
2.100006
 50
180.000000
 51
0.000000
  0
ARC
  8
0
 10
317.804138
 20
182.933319
 40
2.100006
 50
0.000000
 51
180.000000
  0
ARC
  8
0
 10
323.804138
 20
182.933319
 40
2.100006
 50
0.000000
 51
180.000000
  0
ARC
  8
0
 10
324.804138
 20
184.333344
 40
2.000000
 50
0.000000
 51
90.000000
  0
ARC
  8
0
 10
316.804138
 20
184.333344
 40
2.000000
 50
90.000000
 51
180.000000
  0
ARC
  8
0
 10
324.804138
 20
296.333313
 40
2.000000
 50
270.000000
 51
0.000000
  0
ARC
  8
0
 10
316.804138
 20
296.333313
 40
2.000000
 50
180.000000
 51
270.000000
  0
CIRCLE
  8
0
 10
293.804382
 20
230.333344
 40
5.349999
  0
CIRCLE
  8
0
 62
     2
 10
293.804382
 20
230.333344
 40
5.458488
  0
CIRCLE
  8
0
 10
293.804382
 20
230.333344
 40
5.999992
  0
CIRCLE
  8
0
 10
293.804382
 20
250.333344
 40
4.000000
  0
CIRCLE
  8
0
 62
     2
 10
293.804382
 20
250.333344
 40
3.500000
  0
CIRCLE
  8
0
 10
293.804382
 20
250.333344
 40
6.000000
  0
CIRCLE
  8
0
 10
293.804382
 20
230.333344
 40
8.000000
  0
ARC
  8
0
 10
277.555603
 20
215.333344
 40
6.251343
 50
139.468735
 51
220.531265
  0
ARC
  8
0
 10
278.804138
 20
185.333344
 40
5.000000
 50
180.000000
 51
270.000000
  0
ARC
  8
0
 10
278.804138
 20
185.333328
 40
2.000000
 50
180.000000
 51
270.000000
  0
ARC
  8
0
 10
277.555603
 20
290.333344
 40
6.251353
 50
139.468628
 51
220.531158
  0
ARC
  8
0
 10
278.804138
 20
295.333344
 40
5.000000
 50
90.000000
 51
180.000000
  0
ARC
  8
0
 10
278.804138
 20
295.333374
 40
2.000000
 50
90.000000
 51
180.000000
  0
ARC
  8
0
 10
289.804138
 20
182.833328
 40
0.500000
 50
0.000000
 51
90.000000
  0
ARC
  8
0
 10
289.804138
 20
182.833328
 40
0.500000
 50
270.000000
 51
0.000000
  0
ARC
  8
0
 10
288.404236
 20
182.033325
 40
0.300003
 50
90.000000
 51
216.872223
  0
ARC
  8
0
 10
289.804138
 20
297.833374
 40
0.500000
 50
0.000000
 51
90.000000
  0
ARC
  8
0
 10
288.404236
 20
298.633362
 40
0.300006
 50
143.125443
 51
270.000000
  0
ARC
  8
0
 10
289.804138
 20
297.833374
 40
0.500000
 50
270.000000
 51
0.000000
  0
ARC
  8
0
 10
274.804138
 20
194.333328
 40
1.000000
 50
90.000000
 51
180.000000
  0
ARC
  8
0
 10
275.804138
 20
194.333328
 40
1.000000
 50
0.000000
 51
90.000000
  0
ARC
  8
0
 10
274.804138
 20
211.333344
 40
1.000000
 50
180.000000
 51
270.000000
  0
ARC
  8
0
 10
275.804138
 20
211.333344
 40
1.000000
 50
270.000000
 51
0.000000
  0
ARC
  8
0
 10
274.804138
 20
286.333374
 40
1.000000
 50
180.000000
 51
270.000000
  0
ARC
  8
0
 10
275.804138
 20
286.333374
 40
1.000000
 50
270.000000
 51
0.000000
  0
ARC
  8
0
 10
274.804138
 20
269.333344
 40
1.000000
 50
90.000000
 51
180.000000
  0
ARC
  8
0
 10
275.804138
 20
269.333344
 40
1.000000
 50
0.000000
 51
90.000000
  0
ARC
  8
0
 10
163.804153
 20
99.367386
 40
6.251337
 50
49.468697
 51
130.531265
  0
ARC
  8
0
 10
-266.195892
 20
99.367386
 40
6.251347
 50
49.468590
 51
130.531158
  0
ARC
  8
0
 62
     4
 10
-168.695663
 20
-163.509644
 40
4.000000
 50
298.955048
 51
0.000000
  0
ARC
  8
0
 62
     4
 10
-168.695663
 20
-163.509644
 40
4.000000
 50
180.000000
 51
241.044952
  0
ARC
  8
0
 62
     4
 10
-227.695648
 20
-194.009644
 40
10.000000
 50
180.000000
 51
200.487320
  0
ARC
  8
0
 62
     4
 10
-243.695648
 20
-194.009644
 40
10.000001
 50
339.512604
 51
0.000000
  0
ARC
  8
0
 62
     4
 10
-227.695648
 20
-194.009644
 40
10.000001
 50
159.512589
 51
180.000000
  0
CIRCLE
  8
0
 62
     4
 10
-153.695663
 20
-159.509644
 40
2.000000
  0
CIRCLE
  8
0
 62
     4
 10
-153.695663
 20
-159.509644
 40
2.500000
  0
CIRCLE
  8
0
 62
     4
 10
-183.695648
 20
-159.509644
 40
2.000000
  0
CIRCLE
  8
0
 62
     1
 10
-183.695648
 20
-159.509644
 40
2.500000
  0
ARC
  8
0
 62
     4
 10
-188.195648
 20
-187.009644
 40
9.999996
 50
339.512665
 51
359.999908
  0
ARC
  8
0
 62
     4
 10
-188.195648
 20
-194.009644
 40
10.000001
 50
339.512604
 51
0.000000
  0
ARC
  8
0
 62
     4
 10
-188.195648
 20
-187.009644
 40
10.000000
 50
359.999908
 51
20.487324
  0
ARC
  8
0
 62
     4
 10
-188.195648
 20
-194.009644
 40
10.000000
 50
0.000000
 51
20.487324
  0
ARC
  8
0
 62
     4
 10
-193.195648
 20
-187.009644
 40
10.000001
 50
159.512589
 51
180.000000
  0
ARC
  8
0
 62
     4
 10
-243.695648
 20
-194.009644
 40
10.000000
 50
0.000000
 51
20.487324
  0
ARC
  8
0
 62
     4
 10
-243.695648
 20
-187.009644
 40
9.999996
 50
339.512665
 51
359.999908
  0
ARC
  8
0
 62
     4
 10
-193.195648
 20
-187.009644
 40
10.000000
 50
180.000000
 51
200.487411
  0
ARC
  8
0
 62
     4
 10
-227.695648
 20
-187.009644
 40
10.000000
 50
180.000000
 51
200.487411
  0
ARC
  8
0
 62
     4
 10
-227.695648
 20
-187.009644
 40
10.000001
 50
159.512589
 51
180.000000
  0
ARC
  8
0
 62
     4
 10
-243.695648
 20
-187.009644
 40
10.000000
 50
359.999908
 51
20.487324
  0
ARC
  8
0
 62
     4
 10
-197.195648
 20
-194.009644
 40
10.000000
 50
180.000000
 51
200.487320
  0
ARC
  8
0
 62
     4
 10
-197.195648
 20
-194.009644
 40
10.000001
 50
159.512589
 51
180.000000
  0
ARC
  8
0
 62
     4
 10
-197.195648
 20
-187.009644
 40
10.000000
 50
180.000000
 51
200.487411
  0
ARC
  8
0
 62
     4
 10
-197.195648
 20
-187.009644
 40
10.000001
 50
159.512589
 51
180.000000
  0
ARC
  8
0
 62
     4
 10
-213.195648
 20
-194.009644
 40
10.000001
 50
339.512604
 51
0.000000
  0
ARC
  8
0
 62
     4
 10
-213.195648
 20
-194.009644
 40
10.000000
 50
0.000000
 51
20.487324
  0
ARC
  8
0
 62
     4
 10
-213.195648
 20
-187.009644
 40
9.999996
 50
339.512665
 51
359.999908
  0
ARC
  8
0
 62
     4
 10
-213.195648
 20
-187.009644
 40
10.000000
 50
359.999908
 51
20.487324
  0
ARC
  8
0
 62
     4
 10
-193.195648
 20
-194.009644
 40
10.000000
 50
180.000000
 51
200.487320
  0
ARC
  8
0
 62
     4
 10
-193.195648
 20
-194.009644
 40
10.000001
 50
159.512589
 51
180.000000
  0
ARC
  8
0
 10
-383.032959
 20
-181.709595
 40
0.300007
 50
133.604828
 51
180.000000
  0
CIRCLE
  8
0
 62
     4
 10
-391.833252
 20
-190.509644
 40
7.000000
  0
CIRCLE
  8
0
 62
     4
 10
-391.833252
 20
-190.509644
 40
5.500000
  0
CIRCLE
  8
0
 62
     4
 10
-391.833252
 20
-190.509644
 40
6.250000
  0
ARC
  8
0
 10
133.184067
 20
-181.709717
 40
0.300007
 50
133.604828
 51
180.000000
  0
ARC
  8
0
 62
     4
 10
-236.023285
 20
-306.959595
 40
1.672202
 50
112.041214
 51
247.960632
  0
ARC
  8
0
 62
     4
 10
-222.695648
 20
-314.009644
 40
15.000006
 50
158.489822
 51
201.510178
  0
ARC
  8
0
 62
     4
 10
-236.023285
 20
-321.059692
 40
1.672213
 50
112.039368
 51
247.958786
  0
ARC
  8
0
 62
     4
 10
-235.367523
 20
-321.059692
 40
1.672202
 50
292.041199
 51
67.960632
  0
ARC
  8
0
 62
     4
 10
-248.695648
 20
-314.009644
 40
15.000006
 50
338.489807
 51
21.510071
  0
ARC
  8
0
 62
     4
 10
-235.367523
 20
-306.959595
 40
1.672213
 50
292.039368
 51
67.958786
  0
ARC
  8
0
 62
     4
 10
-205.523285
 20
-321.059692
 40
1.672213
 50
112.039368
 51
247.958786
  0
ARC
  8
0
 62
     4
 10
-192.195648
 20
-314.009644
 40
15.000006
 50
158.489822
 51
201.510178
  0
ARC
  8
0
 62
     4
 10
-205.523285
 20
-306.959595
 40
1.672202
 50
112.041214
 51
247.960632
  0
ARC
  8
0
 62
     4
 10
-179.867523
 20
-321.059692
 40
1.672202
 50
292.041199
 51
67.960632
  0
ARC
  8
0
 62
     4
 10
-193.195648
 20
-314.009644
 40
15.000006
 50
338.489807
 51
21.510071
  0
ARC
  8
0
 62
     4
 10
-179.867523
 20
-306.959595
 40
1.672213
 50
292.039368
 51
67.958786
  0
ARC
  8
0
 62
     4
 10
-204.867523
 20
-321.059692
 40
1.672202
 50
292.041199
 51
67.960632
  0
ARC
  8
0
 62
     4
 10
-218.195648
 20
-314.009644
 40
15.000006
 50
338.489807
 51
21.510071
  0
ARC
  8
0
 62
     4
 10
-204.867523
 20
-306.959595
 40
1.672213
 50
292.039368
 51
67.958786
  0
ARC
  8
0
 62
     4
 10
-201.523285
 20
-321.059692
 40
1.672213
 50
112.039368
 51
247.958786
  0
ARC
  8
0
 62
     4
 10
-201.523285
 20
-306.959595
 40
1.672202
 50
112.041214
 51
247.960632
  0
ARC
  8
0
 62
     4
 10
-188.195648
 20
-314.009644
 40
15.000006
 50
158.489822
 51
201.510178
  0
CIRCLE
  8
0
 62
     4
 10
-244.195648
 20
-352.009644
 40
5.500000
  0
CIRCLE
  8
0
 62
     4
 10
-221.195648
 20
-352.009644
 40
5.500000
  0
CIRCLE
  8
0
 62
     4
 10
-198.195648
 20
-352.009644
 40
5.500000
  0
TEXT
  8
0
 10
-542.285156
 20
330.250000
 40
12.500000
  1
MODEL:ACY16*ST(200)
 50
0.000000
 41
1.052632
 51
0.000000
  7
STANDARD
  0
TEXT
  8
0
 10
364.214844
 20
375.250000
 40
12.500000
  1
DATE: NOV ,1994
 50
0.000000
 41
1.052632
 51
0.000000
  7
STANDARD
  0
TEXT
  8
0
 10
345.179352
 20
-400.700012
 40
18.000000
  1
KOGANEI CORP.
 50
0.000000
 41
1.052632
 51
0.000000
  7
STANDARD
  0
TEXT
  8
0
 10
-507.285156
 20
375.250000
 40
12.500000
  1
YZ MODULE
 50
0.000000
 41
1.052632
 51
0.000000
  7
STANDARD
  0
TEXT
  8
0
 62
     3
 10
-339.267517
 20
312.092865
 40
9.000000
  1
STRETCH LINE B
 50
0.000000
 41
1.052632
 51
0.000000
  7
STANDARD
  0
TEXT
  8
0
 10
-432.285156
 20
-39.750000
 40
12.500000
  1
MODEL:-ST_
 50
0.000000
 41
1.052632
 51
0.000000
  7
STANDARD
  0
TEXT
  8
0
 10
307.847565
 20
96.544411
 40
9.000000
  1
STROKE
 50
0.000000
 41
1.052632
 51
0.000000
  7
STANDARD
  0
TEXT
  8
0
 10
347.140472
 20
111.544411
 40
9.000000
  1
STRETCH LIST
 50
0.000000
 41
1.052632
 51
0.000000
  7
STANDARD
  0
TEXT
  8
0
 10
382.640472
 20
81.544411
 40
9.000000
  1
200
 50
0.000000
 41
1.052632
 51
0.000000
  7
STANDARD
  0
TEXT
  8
0
 10
417.640472
 20
81.544411
 40
9.000000
  1
300
 50
0.000000
 41
1.052632
 51
0.000000
  7
STANDARD
  0
TEXT
  8
0
 10
452.640472
 20
81.544411
 40
9.000000
  1
400
 50
0.000000
 41
1.052632
 51
0.000000
  7
STANDARD
  0
TEXT
  8
0
 10
487.640472
 20
81.544411
 40
9.000000
  1
500
 50
0.000000
 41
1.052632
 51
0.000000
  7
STANDARD
  0
TEXT
  8
0
 10
522.640442
 20
81.544411
 40
9.000000
  1
600
 50
0.000000
 41
1.052632
 51
0.000000
  7
STANDARD
  0
TEXT
  8
0
 10
522.640442
 20
21.544409
 40
9.000000
  1
400
 50
0.000000
 41
1.052632
 51
0.000000
  7
STANDARD
  0
TEXT
  8
0
 10
487.640472
 20
21.544409
 40
9.000000
  1
300
 50
0.000000
 41
1.052632
 51
0.000000
  7
STANDARD
  0
TEXT
  8
0
 10
452.640472
 20
21.544409
 40
9.000000
  1
200
 50
0.000000
 41
1.052632
 51
0.000000
  7
STANDARD
  0
TEXT
  8
0
 10
417.640472
 20
21.544409
 40
9.000000
  1
100
 50
0.000000
 41
1.052632
 51
0.000000
  7
STANDARD
  0
TEXT
  8
0
 10
391.640472
 20
21.544409
 40
9.000000
  1
0
 50
0.000000
 41
1.052632
 51
0.000000
  7
STANDARD
  0
TEXT
  8
0
 10
255.640472
 20
14.044409
 40
9.000000
  1
ACY16-ST1
 50
0.000000
 41
1.052632
 51
0.000000
  7
STANDARD
  0
TEXT
  8
0
 10
255.640472
 20
44.044411
 40
9.000000
  1
ACY16
 50
0.000000
 41
1.052632
 51
0.000000
  7
STANDARD
  0
TEXT
  8
0
 10
302.440460
 20
85.494400
 40
9.000000
  1
STRETCH
 50
0.000000
 41
1.052632
 51
0.000000
  7
STANDARD
  0
TEXT
  8
0
 10
302.440460
 20
71.994400
 40
9.000000
  1
   PLACE
 50
0.000000
 41
1.052632
 51
0.000000
  7
STANDARD
  0
TEXT
  8
0
 10
260.801178
 20
71.139961
 40
9.000000
  1
TYPE
 50
0.000000
 41
1.052632
 51
0.000000
  7
STANDARD
  0
TEXT
  8
0
 10
356.640472
 20
51.544407
 40
9.000000
  1
A
 50
0.000000
 41
1.052632
 51
0.000000
  7
STANDARD
  0
TEXT
  8
0
 10
356.640472
 20
36.544407
 40
9.000000
  1
B
 50
0.000000
 41
1.052632
 51
0.000000
  7
STANDARD
  0
TEXT
  8
0
 10
356.640472
 20
21.544409
 40
9.000000
  1
A
 50
0.000000
 41
1.052632
 51
0.000000
  7
STANDARD
  0
TEXT
  8
0
 10
356.640472
 20
6.544409
 40
9.000000
  1
B
 50
0.000000
 41
1.052632
 51
0.000000
  7
STANDARD
  0
TEXT
  8
0
 10
391.640472
 20
51.544407
 40
9.000000
  1
0
 50
0.000000
 41
1.052632
 51
0.000000
  7
STANDARD
  0
TEXT
  8
0
 10
417.640472
 20
51.544407
 40
9.000000
  1
100
 50
0.000000
 41
1.052632
 51
0.000000
  7
STANDARD
  0
TEXT
  8
0
 10
452.640472
 20
51.544407
 40
9.000000
  1
200
 50
0.000000
 41
1.052632
 51
0.000000
  7
STANDARD
  0
TEXT
  8
0
 10
487.640472
 20
51.544407
 40
9.000000
  1
300
 50
0.000000
 41
1.052632
 51
0.000000
  7
STANDARD
  0
TEXT
  8
0
 10
522.640442
 20
51.544407
 40
9.000000
  1
400
 50
0.000000
 41
1.052632
 51
0.000000
  7
STANDARD
  0
TEXT
  8
0
 10
531.640442
 20
36.544407
 40
9.000000
  1
-
 50
0.000000
 41
1.052632
 51
0.000000
  7
STANDARD
  0
TEXT
  8
0
 10
527.140442
 20
6.544408
 40
9.000000
  1
40
 50
0.000000
 41
1.052632
 51
0.000000
  7
STANDARD
  0
TEXT
  8
0
 10
391.640472
 20
36.544407
 40
9.000000
  1
-
 50
0.000000
 41
1.052632
 51
0.000000
  7
STANDARD
  0
TEXT
  8
0
 10
387.140472
 20
6.544408
 40
9.000000
  1
40
 50
0.000000
 41
1.052632
 51
0.000000
  7
STANDARD
  0
TEXT
  8
0
 10
426.640472
 20
36.544407
 40
9.000000
  1
-
 50
0.000000
 41
1.052632
 51
0.000000
  7
STANDARD
  0
TEXT
  8
0
 10
422.140472
 20
6.544408
 40
9.000000
  1
40
 50
0.000000
 41
1.052632
 51
0.000000
  7
STANDARD
  0
TEXT
  8
0
 10
461.640472
 20
36.544407
 40
9.000000
  1
-
 50
0.000000
 41
1.052632
 51
0.000000
  7
STANDARD
  0
TEXT
  8
0
 10
457.140472
 20
6.544408
 40
9.000000
  1
40
 50
0.000000
 41
1.052632
 51
0.000000
  7
STANDARD
  0
TEXT
  8
0
 10
496.640472
 20
36.544407
 40
9.000000
  1
-
 50
0.000000
 41
1.052632
 51
0.000000
  7
STANDARD
  0
TEXT
  8
0
 10
492.140472
 20
6.544408
 40
9.000000
  1
40
 50
0.000000
 41
1.052632
 51
0.000000
  7
STANDARD
  0
TEXT
  8
0
 62
     3
 10
-50.284569
 20
332.092865
 40
9.000000
  1
STRETCH LINE A
 50
0.000000
 41
1.052632
 51
0.000000
  7
STANDARD
  0
TEXT
  8
0
 10
518.140442
 20
111.544411
 40
9.000000
  1
(mm)
 50
0.000000
 41
1.052632
 51
0.000000
  7
STANDARD
  0
ENDSEC
  0
EOF
