  0
SECTION
  2
HEADER
  0
ENDSEC
  0
SECTION
  2
TABLES
  0
TABLE
  2
LTYPE
 70
     4
  0
LTYPE
  2
CONTINUOUS
 70
    64
  3
Solid line
 72
    65
 73
     0
 40
0.000000
  0
LTYPE
  2
DASHED
 70
    64
  3
__ __ __ __ __ __ __ __ __ __ __ __ __ __ __
 72
    65
 73
     2
 40
3.500000
 49
2.000000
 49
-1.500000
  0
LTYPE
  2
CENTER
 70
    64
  3
____ _ ____ _ ____ _ ____ _ ____ _ ____ _ ____
 72
    65
 73
     4
 40
17.500000
 49
13.000000
 49
-1.500000
 49
1.500000
 49
-1.500000
  0
LTYPE
  2
PHANTOM
 70
    64
  3
_____ _ _ _____ _ _ _____ _ _ _____ _ _ ____  
 72
    65
 73
     6
 40
15.500000
 49
8.000000
 49
-1.500000
 49
1.500000
 49
-1.500000
 49
1.500000
 49
-1.500000
  0
ENDTAB
  0
TABLE
  2
LAYER
 70
     1
  0
LAYER
  2
0
 70
     0
 62
     7
  6
CONTINUOUS
  0
ENDTAB
  0
TABLE
  2
STYLE
 70
     1
  0
STYLE
  2
STANDARD
 70
     0
 40
0.000000
 41
1.000000
 50
0.000000
 71
     0
 42
0.200000
  3
txt
  4
BIGFONT
  0
ENDTAB
  0
TABLE
  2
VIEW
 70
     0
  0
ENDTAB
  0
ENDSEC
  0
SECTION
  2
BLOCKS
  0
ENDSEC
  0
SECTION
  2
ENTITIES
  0
LINE
  8
0
  6
CONTINUOUS
 62
7
 10
574.500000
 20
400.500000
 11
574.500000
 21
-400.500000
  0
LINE
  8
0
  6
CONTINUOUS
 62
7
 10
-564.500000
 20
400.500000
 11
574.500000
 21
400.500000
  0
LINE
  8
0
  6
CONTINUOUS
 62
7
 10
-564.500000
 20
-400.500000
 11
574.500000
 21
-400.500000
  0
LINE
  8
0
  6
CONTINUOUS
 62
7
 10
-564.500000
 20
400.500000
 11
-564.500000
 21
-400.500000
  0
LINE
  8
0
  6
CONTINUOUS
 62
7
 10
-564.500000
 20
370.500000
 11
-334.500000
 21
370.500000
  0
LINE
  8
0
  6
CONTINUOUS
 62
7
 10
344.500000
 20
370.500000
 11
574.500000
 21
370.500000
  0
LINE
  8
0
  6
CONTINUOUS
 62
7
 10
344.500000
 20
-370.500000
 11
574.500000
 21
-370.500000
  0
LINE
  8
0
  6
CONTINUOUS
 62
7
 10
344.500000
 20
-370.500000
 11
344.500000
 21
-400.500000
  0
LINE
  8
0
  6
CONTINUOUS
 62
7
 10
344.500000
 20
400.500000
 11
344.500000
 21
370.500000
  0
LINE
  8
0
  6
CONTINUOUS
 62
7
 10
-334.500000
 20
400.500000
 11
-334.500000
 21
370.500000
  0
LINE
  8
0
  6
CENTER
 62
2
 10
135.014999
 20
-135.860992
 11
240.481003
 21
-135.860992
  0
LINE
  8
0
  6
DASHED
 62
7
 10
236.481003
 20
-135.860992
 11
236.481003
 21
-145.860992
  0
LINE
  8
0
  6
DASHED
 62
7
 10
235.981003
 20
-181.660995
 11
236.481003
 21
-181.660995
  0
LINE
  8
0
  6
DASHED
 62
7
 10
235.981003
 20
-190.061005
 11
236.481003
 21
-190.061005
  0
LINE
  8
0
  6
DASHED
 62
7
 10
236.481003
 20
-190.061005
 11
236.481003
 21
-209.860992
  0
LINE
  8
0
  6
DASHED
 62
7
 10
236.481003
 20
-135.860992
 11
236.481003
 21
-125.861000
  0
LINE
  8
0
  6
DASHED
 62
7
 10
150.481003
 20
-60.861099
 11
232.748993
 21
-60.861099
  0
LINE
  8
0
  6
DASHED
 62
7
 10
235.981003
 20
-90.061302
 11
236.481003
 21
-90.061302
  0
LINE
  8
0
  6
DASHED
 62
7
 10
235.981003
 20
-81.661400
 11
236.481003
 21
-81.661400
  0
LINE
  8
0
  6
DASHED
 62
7
 10
236.481003
 20
-81.661400
 11
236.481003
 21
-61.861099
  0
LINE
  8
0
  6
DASHED
 62
7
 10
235.981003
 20
-170.360992
 11
236.481003
 21
-170.860992
  0
LINE
  8
0
  6
DASHED
 62
7
 10
236.481003
 20
-145.860992
 11
235.981003
 21
-146.360992
  0
LINE
  8
0
  6
DASHED
 62
7
 10
236.481003
 20
-170.860992
 11
236.481003
 21
-181.660995
  0
LINE
  8
0
  6
DASHED
 62
7
 10
236.479996
 20
-125.861000
 11
235.981003
 21
-125.362000
  0
LINE
  8
0
  6
DASHED
 62
7
 10
235.979996
 20
-101.361000
 11
236.479996
 21
-100.861000
  0
LINE
  8
0
  6
DASHED
 62
7
 10
236.481003
 20
-100.861000
 11
236.481003
 21
-90.061302
  0
LINE
  8
0
  6
DASHED
 62
7
 10
236.481003
 20
-61.860802
 11
232.748993
 21
-60.860802
  0
LINE
  8
0
  6
DASHED
 62
7
 10
236.481003
 20
-209.860992
 11
232.748001
 21
-210.860992
  0
LINE
  8
0
  6
DASHED
 62
7
 10
-262.295013
 20
-60.861099
 11
52.705299
 21
-60.861099
  0
LINE
  8
0
  6
CENTER
 62
2
 10
-288.743988
 20
-135.860992
 11
52.470798
 21
-135.860992
  0
LINE
  8
0
  6
DASHED
 62
7
 10
-288.743988
 20
-210.860992
 11
26.256300
 21
-210.860992
  0
LINE
  8
0
  6
CENTER
 62
2
 10
-54.166100
 20
-58.088200
 11
-54.166100
 21
-215.882004
  0
LINE
  8
0
  6
DASHED
 62
7
 10
20.833900
 20
-75.861099
 11
20.833900
 21
-95.361099
  0
LINE
  8
0
  6
CENTER
 62
2
 10
-121.166000
 20
-78.937302
 11
-121.166000
 21
-92.882103
  0
LINE
  8
0
  6
CENTER
 62
2
 10
-127.972000
 20
-85.861099
 11
-114.788002
 21
-85.861099
  0
LINE
  8
0
  6
CENTER
 62
2
 10
-121.166000
 20
-178.936996
 11
-121.166000
 21
-192.882004
  0
LINE
  8
0
  6
CENTER
 62
2
 10
-127.972000
 20
-185.860992
 11
-114.788002
 21
-185.860992
  0
LINE
  8
0
  6
CENTER
 62
2
 10
12.833900
 20
-178.936996
 11
12.833900
 21
-192.882004
  0
LINE
  8
0
  6
CENTER
 62
2
 10
6.028200
 20
-185.860992
 11
19.212299
 21
-185.860992
  0
LINE
  8
0
  6
CENTER
 62
2
 10
12.833900
 20
-78.937302
 11
12.833900
 21
-92.882103
  0
LINE
  8
0
  6
CENTER
 62
2
 10
6.028200
 20
-85.861099
 11
19.212299
 21
-85.861099
  0
LINE
  8
0
  6
DASHED
 62
7
 10
-129.166000
 20
-177.862000
 11
20.833900
 21
-177.862000
  0
LINE
  8
0
  6
DASHED
 62
7
 10
235.981003
 20
-81.661400
 11
235.981003
 21
-90.061302
  0
LINE
  8
0
  6
DASHED
 62
7
 10
-288.743988
 20
-365.860992
 11
26.256300
 21
-365.860992
  0
LINE
  8
0
  6
DASHED
 62
7
 10
-129.166000
 20
-265.860992
 11
20.833900
 21
-265.860992
  0
LINE
  8
0
  6
DASHED
 62
7
 10
-129.166000
 20
-274.860992
 11
20.833900
 21
-274.860992
  0
LINE
  8
0
  6
DASHED
 62
7
 10
-129.166000
 20
-265.860992
 11
-129.166000
 21
-274.860992
  0
LINE
  8
0
  6
DASHED
 62
7
 10
-129.166000
 20
-313.360992
 11
20.833900
 21
-313.360992
  0
LINE
  8
0
  6
DASHED
 62
7
 10
-129.166000
 20
-290.360992
 11
20.833900
 21
-290.360992
  0
LINE
  8
0
  6
DASHED
 62
7
 10
136.481003
 20
-77.861099
 11
136.481003
 21
-93.861099
  0
LINE
  8
0
  6
DASHED
 62
7
 10
136.481003
 20
-77.861099
 11
145.481003
 21
-77.861099
  0
LINE
  8
0
  6
DASHED
 62
7
 10
139.481003
 20
-113.361000
 11
139.481003
 21
-158.360992
  0
LINE
  8
0
  6
DASHED
 62
7
 10
136.481003
 20
-93.861099
 11
145.481003
 21
-93.861099
  0
LINE
  8
0
  6
DASHED
 62
7
 10
136.481003
 20
-193.860992
 11
136.481003
 21
-177.860992
  0
LINE
  8
0
  6
DASHED
 62
7
 10
145.481003
 20
-177.860992
 11
145.481003
 21
-174.511002
  0
LINE
  8
0
  6
DASHED
 62
7
 10
145.481003
 20
-164.360992
 11
139.481003
 21
-158.360992
  0
LINE
  8
0
  6
DASHED
 62
7
 10
145.481003
 20
-205.011002
 11
144.481003
 21
-204.923996
  0
LINE
  8
0
  6
DASHED
 62
7
 10
145.481003
 20
-196.710999
 11
144.481003
 21
-196.798996
  0
LINE
  8
0
  6
DASHED
 62
7
 10
136.481003
 20
-177.860992
 11
145.481003
 21
-177.860992
  0
LINE
  8
0
  6
DASHED
 62
7
 10
136.481003
 20
-193.860992
 11
145.481003
 21
-193.860992
  0
LINE
  8
0
  6
DASHED
 62
7
 10
145.481003
 20
-205.860992
 11
145.481003
 21
-205.011002
  0
LINE
  8
0
  6
DASHED
 62
7
 10
-271.640015
 20
-268.860992
 11
-129.166000
 21
-268.860992
  0
LINE
  8
0
  6
DASHED
 62
7
 10
-129.166000
 20
-193.860992
 11
20.833900
 21
-193.860992
  0
LINE
  8
0
  6
DASHED
 62
7
 10
-129.166000
 20
-93.861099
 11
20.833900
 21
-93.861099
  0
LINE
  8
0
  6
DASHED
 62
7
 10
-129.166000
 20
-77.861099
 11
20.833900
 21
-77.861099
  0
LINE
  8
0
  6
DASHED
 62
7
 10
145.481003
 20
-174.511002
 11
144.481003
 21
-174.423004
  0
LINE
  8
0
  6
DASHED
 62
7
 10
145.481003
 20
-166.212006
 11
144.481003
 21
-166.298996
  0
LINE
  8
0
  6
DASHED
 62
7
 10
145.481003
 20
-66.711700
 11
144.481003
 21
-66.799202
  0
LINE
  8
0
  6
DASHED
 62
7
 10
145.481003
 20
-75.011200
 11
144.481003
 21
-74.923698
  0
LINE
  8
0
  6
DASHED
 62
7
 10
145.481003
 20
-65.861099
 11
145.481003
 21
-66.711700
  0
LINE
  8
0
  6
DASHED
 62
7
 10
145.481003
 20
-93.861099
 11
145.481003
 21
-97.211899
  0
LINE
  8
0
  6
DASHED
 62
7
 10
145.481003
 20
-107.361000
 11
139.481003
 21
-113.361000
  0
LINE
  8
0
  6
DASHED
 62
7
 10
145.481003
 20
-97.211800
 11
144.481003
 21
-97.299301
  0
LINE
  8
0
  6
DASHED
 62
7
 10
145.481003
 20
-105.511002
 11
144.481003
 21
-105.424004
  0
LINE
  8
0
  6
DASHED
 62
7
 10
145.481003
 20
-77.861099
 11
145.481003
 21
-75.011200
  0
LINE
  8
0
  6
DASHED
 62
7
 10
150.481003
 20
-210.860992
 11
232.748001
 21
-210.860992
  0
LINE
  8
0
  6
DASHED
 62
7
 10
-129.166000
 20
-176.360992
 11
20.833900
 21
-176.360992
  0
LINE
  8
0
  6
DASHED
 62
7
 10
-129.166000
 20
-95.361099
 11
20.833900
 21
-95.361099
  0
LINE
  8
0
  6
DASHED
 62
7
 10
-129.166000
 20
-75.861099
 11
20.833900
 21
-75.861099
  0
LINE
  8
0
  6
DASHED
 62
7
 10
-129.166000
 20
-195.860992
 11
20.833900
 21
-195.860992
  0
LINE
  8
0
  6
DASHED
 62
7
 10
20.833900
 20
-176.360992
 11
20.833900
 21
-195.860992
  0
LINE
  8
0
  6
DASHED
 62
7
 10
20.833900
 20
-265.860992
 11
20.833900
 21
-274.860992
  0
LINE
  8
0
  6
DASHED
 62
7
 10
20.833900
 20
-290.360992
 11
20.833900
 21
-313.360992
  0
LINE
  8
0
  6
DASHED
 62
7
 10
43.360001
 20
-268.860992
 11
20.833599
 21
-268.860992
  0
LINE
  8
0
  6
CENTER
 62
2
 10
-54.166100
 20
-259.889008
 11
-54.166100
 21
-372.667999
  0
LINE
  8
0
  6
DASHED
 62
7
 10
26.256300
 20
-365.860992
 11
43.360100
 21
-268.860992
  0
LINE
  8
0
  6
DASHED
 62
7
 10
26.256300
 20
-210.860992
 11
52.705299
 21
-60.861198
  0
LINE
  8
0
  6
DASHED
 62
7
 10
-288.743988
 20
-210.860992
 11
-262.295013
 21
-60.861099
  0
LINE
  8
0
  6
DASHED
 62
7
 10
-288.743988
 20
-365.860992
 11
-271.640015
 21
-268.860992
  0
LINE
  8
0
  6
DASHED
 62
7
 10
145.481003
 20
-105.511002
 11
145.481003
 21
-107.361000
  0
LINE
  8
0
  6
DASHED
 62
7
 10
145.481003
 20
-166.210999
 11
145.481003
 21
-164.360992
  0
LINE
  8
0
  6
DASHED
 62
7
 10
145.481003
 20
-196.710999
 11
145.481003
 21
-193.860992
  0
LINE
  8
0
  6
DASHED
 62
7
 10
235.981003
 20
-146.360992
 11
235.981003
 21
-170.360992
  0
LINE
  8
0
  6
DASHED
 62
7
 10
235.981003
 20
-101.360001
 11
235.981003
 21
-125.362000
  0
LINE
  8
0
  6
DASHED
 62
7
 10
235.981003
 20
-181.660995
 11
235.981003
 21
-190.061005
  0
LINE
  8
0
  6
DASHED
 62
7
 10
232.748001
 20
-210.860992
 11
235.481003
 21
-210.860992
  0
LINE
  8
0
  6
CENTER
 62
2
 10
-371.053009
 20
-135.860992
 11
-476.519012
 21
-135.860992
  0
LINE
  8
0
  6
DASHED
 62
7
 10
-472.519012
 20
-135.860992
 11
-472.519012
 21
-145.860992
  0
LINE
  8
0
  6
DASHED
 62
7
 10
-472.019012
 20
-181.660995
 11
-472.519012
 21
-181.660995
  0
LINE
  8
0
  6
DASHED
 62
7
 10
-472.019012
 20
-190.061005
 11
-472.519012
 21
-190.061005
  0
LINE
  8
0
  6
DASHED
 62
7
 10
-472.519012
 20
-190.061005
 11
-472.519012
 21
-209.860992
  0
LINE
  8
0
  6
DASHED
 62
7
 10
-472.519012
 20
-135.860992
 11
-472.519012
 21
-125.861000
  0
LINE
  8
0
  6
DASHED
 62
7
 10
-386.519012
 20
-60.861099
 11
-468.787994
 21
-60.861099
  0
LINE
  8
0
  6
DASHED
 62
7
 10
-472.019012
 20
-90.061302
 11
-472.519012
 21
-90.061302
  0
LINE
  8
0
  6
DASHED
 62
7
 10
-472.019012
 20
-81.661400
 11
-472.519012
 21
-81.661400
  0
LINE
  8
0
  6
DASHED
 62
7
 10
-472.519012
 20
-81.661400
 11
-472.519012
 21
-61.861099
  0
LINE
  8
0
  6
DASHED
 62
7
 10
-472.019012
 20
-170.360992
 11
-472.519989
 21
-170.860992
  0
LINE
  8
0
  6
DASHED
 62
7
 10
-472.519012
 20
-145.860992
 11
-472.019012
 21
-146.360992
  0
LINE
  8
0
  6
DASHED
 62
7
 10
-472.519012
 20
-170.860992
 11
-472.519012
 21
-181.660995
  0
LINE
  8
0
  6
DASHED
 62
7
 10
-472.519012
 20
-125.861000
 11
-472.019012
 21
-125.362000
  0
LINE
  8
0
  6
DASHED
 62
7
 10
-472.018005
 20
-101.361000
 11
-472.518005
 21
-100.861000
  0
LINE
  8
0
  6
DASHED
 62
7
 10
-472.519012
 20
-100.861000
 11
-472.519012
 21
-90.061302
  0
LINE
  8
0
  6
DASHED
 62
7
 10
-472.519012
 20
-61.860802
 11
-468.786987
 21
-60.860802
  0
LINE
  8
0
  6
DASHED
 62
7
 10
-472.519012
 20
-209.860992
 11
-468.786987
 21
-210.860992
  0
LINE
  8
0
  6
DASHED
 62
7
 10
-472.019012
 20
-81.661400
 11
-472.019012
 21
-90.061302
  0
LINE
  8
0
  6
DASHED
 62
7
 10
-372.519012
 20
-77.861099
 11
-372.519012
 21
-93.861099
  0
LINE
  8
0
  6
DASHED
 62
7
 10
-372.519012
 20
-77.861099
 11
-381.519012
 21
-77.861099
  0
LINE
  8
0
  6
DASHED
 62
7
 10
-375.519012
 20
-113.361000
 11
-375.519012
 21
-158.360992
  0
LINE
  8
0
  6
DASHED
 62
7
 10
-372.519012
 20
-93.861099
 11
-381.519012
 21
-93.861099
  0
LINE
  8
0
  6
DASHED
 62
7
 10
-372.519012
 20
-193.860992
 11
-372.519012
 21
-177.860992
  0
LINE
  8
0
  6
DASHED
 62
7
 10
-381.519012
 20
-177.860992
 11
-381.519012
 21
-174.511002
  0
LINE
  8
0
  6
DASHED
 62
7
 10
-381.519012
 20
-164.360992
 11
-375.519012
 21
-158.360992
  0
LINE
  8
0
  6
DASHED
 62
7
 10
-381.519012
 20
-205.011002
 11
-380.519012
 21
-204.923996
  0
LINE
  8
0
  6
DASHED
 62
7
 10
-381.519012
 20
-196.710999
 11
-380.519012
 21
-196.798996
  0
LINE
  8
0
  6
DASHED
 62
7
 10
-372.519012
 20
-177.860992
 11
-381.519012
 21
-177.860992
  0
LINE
  8
0
  6
DASHED
 62
7
 10
-372.519012
 20
-193.860992
 11
-381.519012
 21
-193.860992
  0
LINE
  8
0
  6
DASHED
 62
7
 10
-381.519012
 20
-205.860992
 11
-381.519012
 21
-205.011002
  0
LINE
  8
0
  6
DASHED
 62
7
 10
-381.519012
 20
-174.511002
 11
-380.519012
 21
-174.423004
  0
LINE
  8
0
  6
DASHED
 62
7
 10
-381.519012
 20
-166.210999
 11
-380.519012
 21
-166.298996
  0
LINE
  8
0
  6
DASHED
 62
7
 10
-381.519012
 20
-66.711700
 11
-380.519012
 21
-66.799202
  0
LINE
  8
0
  6
DASHED
 62
7
 10
-381.519012
 20
-75.011200
 11
-380.519012
 21
-74.923698
  0
LINE
  8
0
  6
DASHED
 62
7
 10
-381.519012
 20
-65.861099
 11
-381.519012
 21
-66.711700
  0
LINE
  8
0
  6
DASHED
 62
7
 10
-381.519012
 20
-93.861099
 11
-381.519012
 21
-97.211899
  0
LINE
  8
0
  6
DASHED
 62
7
 10
-381.519012
 20
-107.361000
 11
-375.519012
 21
-113.361000
  0
LINE
  8
0
  6
DASHED
 62
7
 10
-381.519012
 20
-97.211800
 11
-380.519012
 21
-97.299301
  0
LINE
  8
0
  6
DASHED
 62
7
 10
-381.519012
 20
-105.511002
 11
-380.519012
 21
-105.424004
  0
LINE
  8
0
  6
DASHED
 62
7
 10
-381.519012
 20
-77.861099
 11
-381.519012
 21
-75.011200
  0
LINE
  8
0
  6
DASHED
 62
7
 10
-386.519012
 20
-210.860992
 11
-468.786987
 21
-210.860992
  0
LINE
  8
0
  6
DASHED
 62
7
 10
-381.519012
 20
-105.511002
 11
-381.519012
 21
-107.361000
  0
LINE
  8
0
  6
DASHED
 62
7
 10
-381.519012
 20
-166.210999
 11
-381.519012
 21
-164.360992
  0
LINE
  8
0
  6
DASHED
 62
7
 10
-381.519012
 20
-196.710999
 11
-381.519012
 21
-193.860992
  0
LINE
  8
0
  6
DASHED
 62
7
 10
-472.019012
 20
-146.360992
 11
-472.019012
 21
-170.360992
  0
LINE
  8
0
  6
DASHED
 62
7
 10
-472.019012
 20
-101.360001
 11
-472.019012
 21
-125.362000
  0
LINE
  8
0
  6
DASHED
 62
7
 10
-472.019012
 20
-181.660995
 11
-472.019012
 21
-190.061005
  0
LINE
  8
0
  6
DASHED
 62
7
 10
-468.786987
 20
-210.860992
 11
-471.519012
 21
-210.860992
  0
LINE
  8
0
  6
CONTINUOUS
 62
7
 10
249.675995
 20
6.144410
 11
554.676025
 21
6.144410
  0
LINE
  8
0
  6
CONTINUOUS
 62
7
 10
249.675995
 20
66.144402
 11
554.676025
 21
66.144402
  0
LINE
  8
0
  6
CONTINUOUS
 62
7
 10
249.675995
 20
111.143997
 11
554.676025
 21
111.143997
  0
LINE
  8
0
  6
CONTINUOUS
 62
7
 10
554.676025
 20
111.143997
 11
554.676025
 21
6.144410
  0
LINE
  8
0
  6
CONTINUOUS
 62
7
 10
379.675995
 20
111.143997
 11
379.675995
 21
6.144410
  0
LINE
  8
0
  6
CONTINUOUS
 62
7
 10
414.675995
 20
111.143997
 11
414.675995
 21
6.144410
  0
LINE
  8
0
  6
CONTINUOUS
 62
7
 10
449.675995
 20
111.143997
 11
449.675995
 21
6.144410
  0
LINE
  8
0
  6
CONTINUOUS
 62
7
 10
484.675995
 20
111.143997
 11
484.675995
 21
6.144410
  0
LINE
  8
0
  6
CONTINUOUS
 62
7
 10
519.676025
 20
111.143997
 11
519.676025
 21
6.144410
  0
LINE
  8
0
  6
DASHED
 62
7
 10
-129.166000
 20
-290.360992
 11
-129.166000
 21
-313.360992
  0
LINE
  8
0
  6
CONTINUOUS
 62
7
 10
344.675995
 20
51.144402
 11
554.676025
 21
51.144402
  0
LINE
  8
0
  6
CONTINUOUS
 62
7
 10
249.675995
 20
36.144402
 11
554.676025
 21
36.144402
  0
LINE
  8
0
  6
CONTINUOUS
 62
7
 10
344.675995
 20
21.144400
 11
554.676025
 21
21.144400
  0
LINE
  8
0
  6
CONTINUOUS
 62
7
 10
249.675995
 20
111.143997
 11
249.675995
 21
6.144410
  0
LINE
  8
0
  6
CONTINUOUS
 62
7
 10
344.675995
 20
66.144402
 11
344.675995
 21
6.144410
  0
LINE
  8
0
  6
CONTINUOUS
 62
7
 10
303.009003
 20
96.144402
 11
368.756989
 21
96.144402
  0
LINE
  8
0
  6
CONTINUOUS
 62
7
 10
303.009003
 20
96.144402
 11
249.675995
 21
111.143997
  0
LINE
  8
0
  6
CONTINUOUS
 62
7
 10
344.675995
 20
66.144402
 11
249.675995
 21
111.143997
  0
LINE
  8
0
  6
CONTINUOUS
 62
7
 10
379.675995
 20
66.144402
 11
368.756989
 21
96.144402
  0
LINE
  8
0
  6
DASHED
 62
7
 10
397.127991
 20
271.700012
 11
397.127991
 21
274.200012
  0
LINE
  8
0
  6
DASHED
 62
7
 10
390.127991
 20
271.700012
 11
390.127991
 21
274.200012
  0
LINE
  8
0
  6
DASHED
 62
7
 10
388.627991
 20
274.200012
 11
388.627991
 21
282.600006
  0
LINE
  8
0
  6
DASHED
 62
7
 10
390.127991
 20
285.100006
 11
397.127991
 21
285.100006
  0
LINE
  8
0
  6
DASHED
 62
7
 10
390.127991
 20
271.700012
 11
397.127991
 21
271.700012
  0
LINE
  8
0
  6
DASHED
 62
7
 10
388.627991
 20
282.600006
 11
390.127991
 21
282.600006
  0
LINE
  8
0
  6
DASHED
 62
7
 10
388.627991
 20
274.200012
 11
390.127991
 21
274.200012
  0
LINE
  8
0
  6
DASHED
 62
7
 10
390.127991
 20
282.600006
 11
390.127991
 21
285.100006
  0
LINE
  8
0
  6
DASHED
 62
7
 10
397.127991
 20
282.600006
 11
397.127991
 21
285.100006
  0
LINE
  8
0
  6
DASHED
 62
7
 10
397.127991
 20
274.200012
 11
400.127991
 21
274.200012
  0
LINE
  8
0
  6
DASHED
 62
7
 10
397.127991
 20
282.600006
 11
400.127991
 21
282.600006
  0
LINE
  8
0
  6
DASHED
 62
7
 10
397.127991
 20
185.100006
 11
397.127991
 21
182.600006
  0
LINE
  8
0
  6
DASHED
 62
7
 10
390.127991
 20
185.100006
 11
390.127991
 21
182.600006
  0
LINE
  8
0
  6
DASHED
 62
7
 10
388.627991
 20
182.600006
 11
388.627991
 21
174.199997
  0
LINE
  8
0
  6
DASHED
 62
7
 10
390.127991
 20
171.699997
 11
397.127991
 21
171.699997
  0
LINE
  8
0
  6
DASHED
 62
7
 10
390.127991
 20
185.100006
 11
397.127991
 21
185.100006
  0
LINE
  8
0
  6
DASHED
 62
7
 10
388.627991
 20
174.199997
 11
390.127991
 21
174.199997
  0
LINE
  8
0
  6
DASHED
 62
7
 10
388.627991
 20
182.600006
 11
390.127991
 21
182.600006
  0
LINE
  8
0
  6
DASHED
 62
7
 10
390.127991
 20
174.199997
 11
390.127991
 21
171.699997
  0
LINE
  8
0
  6
DASHED
 62
7
 10
397.127991
 20
174.199997
 11
397.127991
 21
171.699997
  0
LINE
  8
0
  6
DASHED
 62
7
 10
397.127991
 20
182.600006
 11
400.127991
 21
182.600006
  0
LINE
  8
0
  6
DASHED
 62
7
 10
392.328003
 20
300.399994
 11
392.328003
 21
303.399994
  0
LINE
  8
0
  6
DASHED
 62
7
 10
394.828003
 20
156.399994
 11
392.328003
 21
156.399994
  0
LINE
  8
0
  6
DASHED
 62
7
 10
394.828003
 20
163.399994
 11
392.328003
 21
163.399994
  0
LINE
  8
0
  6
DASHED
 62
7
 10
392.328003
 20
164.899994
 11
383.928009
 21
164.899994
  0
LINE
  8
0
  6
DASHED
 62
7
 10
381.428009
 20
163.399994
 11
381.428009
 21
156.399994
  0
LINE
  8
0
  6
DASHED
 62
7
 10
394.828003
 20
163.399994
 11
394.828003
 21
156.399994
  0
LINE
  8
0
  6
DASHED
 62
7
 10
383.928009
 20
164.899994
 11
383.928009
 21
163.399994
  0
LINE
  8
0
  6
DASHED
 62
7
 10
392.328003
 20
164.899994
 11
392.328003
 21
163.399994
  0
LINE
  8
0
  6
DASHED
 62
7
 10
383.928009
 20
163.399994
 11
381.428009
 21
163.399994
  0
LINE
  8
0
  6
DASHED
 62
7
 10
383.928009
 20
156.399994
 11
381.428009
 21
156.399994
  0
LINE
  8
0
  6
DASHED
 62
7
 10
392.328003
 20
156.399994
 11
392.328003
 21
153.399994
  0
LINE
  8
0
  6
DASHED
 62
7
 10
383.928009
 20
156.399994
 11
383.928009
 21
153.399994
  0
LINE
  8
0
  6
DASHED
 62
7
 10
383.928009
 20
293.399994
 11
381.428009
 21
293.399994
  0
LINE
  8
0
  6
DASHED
 62
7
 10
383.928009
 20
300.399994
 11
381.428009
 21
300.399994
  0
LINE
  8
0
  6
DASHED
 62
7
 10
392.328003
 20
291.899994
 11
392.328003
 21
293.399994
  0
LINE
  8
0
  6
DASHED
 62
7
 10
383.928009
 20
300.399994
 11
383.928009
 21
303.399994
  0
LINE
  8
0
  6
CENTER
 62
2
 10
388.127991
 20
305.173004
 11
388.127991
 21
289.967987
  0
LINE
  8
0
  6
DASHED
 62
7
 10
383.928009
 20
291.899994
 11
383.928009
 21
293.399994
  0
LINE
  8
0
  6
CENTER
 62
2
 10
388.127991
 20
151.126007
 11
388.127991
 21
167.412003
  0
LINE
  8
0
  6
DASHED
 62
7
 10
394.828003
 20
300.399994
 11
392.328003
 21
300.399994
  0
LINE
  8
0
  6
DASHED
 62
7
 10
394.828003
 20
293.399994
 11
392.328003
 21
293.399994
  0
LINE
  8
0
  6
DASHED
 62
7
 10
392.328003
 20
291.899994
 11
383.928009
 21
291.899994
  0
LINE
  8
0
  6
DASHED
 62
7
 10
381.428009
 20
293.399994
 11
381.428009
 21
300.399994
  0
LINE
  8
0
  6
DASHED
 62
7
 10
394.828003
 20
293.399994
 11
394.828003
 21
300.399994
  0
LINE
  8
0
  6
CENTER
 62
2
 10
298.661987
 20
228.399994
 11
404.127991
 21
228.399994
  0
LINE
  8
0
  6
CONTINUOUS
 62
7
 10
400.127991
 20
228.399994
 11
400.127991
 21
218.399994
  0
LINE
  8
0
  6
DASHED
 62
7
 10
397.127991
 20
174.199997
 11
400.127991
 21
174.199997
  0
LINE
  8
0
  6
CONTINUOUS
 62
7
 10
373.727997
 20
302.899994
 11
373.727997
 21
303.399994
  0
LINE
  8
0
  6
CONTINUOUS
 62
7
 10
370.528015
 20
302.899994
 11
370.528015
 21
303.399994
  0
LINE
  8
0
  6
CONTINUOUS
 62
7
 10
374.227997
 20
300.799988
 11
374.227997
 21
302.399994
  0
LINE
  8
0
  6
CONTINUOUS
 62
7
 10
370.028015
 20
300.799988
 11
370.028015
 21
302.399994
  0
LINE
  8
0
  6
CONTINUOUS
 62
7
 10
370.028015
 20
302.399994
 11
370.528015
 21
302.899994
  0
LINE
  8
0
  6
CONTINUOUS
 62
7
 10
373.727997
 20
302.899994
 11
374.227997
 21
302.399994
  0
LINE
  8
0
  6
CONTINUOUS
 62
7
 10
367.727997
 20
303.399994
 11
370.528015
 21
303.399994
  0
LINE
  8
0
  6
CONTINUOUS
 62
7
 10
367.727997
 20
302.899994
 11
367.727997
 21
303.399994
  0
LINE
  8
0
  6
CONTINUOUS
 62
7
 10
364.528015
 20
302.899994
 11
364.528015
 21
303.399994
  0
LINE
  8
0
  6
CONTINUOUS
 62
7
 10
368.227997
 20
300.799988
 11
368.227997
 21
302.399994
  0
LINE
  8
0
  6
CONTINUOUS
 62
7
 10
364.028015
 20
300.799988
 11
364.028015
 21
302.399994
  0
LINE
  8
0
  6
CONTINUOUS
 62
7
 10
364.028015
 20
302.399994
 11
364.528015
 21
302.899994
  0
LINE
  8
0
  6
CONTINUOUS
 62
7
 10
367.726990
 20
302.899994
 11
368.227997
 21
302.399994
  0
LINE
  8
0
  6
CONTINUOUS
 62
7
 10
400.127991
 20
228.399994
 11
400.127991
 21
238.399994
  0
LINE
  8
0
  6
CONTINUOUS
 62
7
 10
373.727997
 20
303.399994
 11
396.395996
 21
303.399994
  0
LINE
  8
0
  6
CONTINUOUS
 62
7
 10
399.627991
 20
193.899994
 11
400.127991
 21
193.399994
  0
LINE
  8
0
  6
CONTINUOUS
 62
7
 10
400.127991
 20
218.399994
 11
399.627991
 21
217.899994
  0
LINE
  8
0
  6
CONTINUOUS
 62
7
 10
400.127991
 20
193.399994
 11
400.127991
 21
154.399994
  0
LINE
  8
0
  6
CONTINUOUS
 62
7
 10
400.127991
 20
238.399994
 11
399.627991
 21
238.899994
  0
LINE
  8
0
  6
CONTINUOUS
 62
7
 10
399.627991
 20
262.899994
 11
400.127014
 21
263.399994
  0
LINE
  8
0
  6
CONTINUOUS
 62
7
 10
400.127991
 20
263.399994
 11
400.127991
 21
302.399994
  0
LINE
  8
0
  6
CONTINUOUS
 62
7
 10
373.727997
 20
153.899994
 11
373.727997
 21
153.399994
  0
LINE
  8
0
  6
CONTINUOUS
 62
7
 10
370.528015
 20
153.899994
 11
370.528015
 21
153.399994
  0
LINE
  8
0
  6
CONTINUOUS
 62
7
 10
374.227997
 20
156.000000
 11
374.227997
 21
154.399994
  0
LINE
  8
0
  6
CONTINUOUS
 62
7
 10
370.028015
 20
156.000000
 11
370.028015
 21
154.399994
  0
LINE
  8
0
  6
CONTINUOUS
 62
7
 10
370.028015
 20
154.399994
 11
370.528015
 21
153.899994
  0
LINE
  8
0
  6
CONTINUOUS
 62
7
 10
373.727997
 20
153.899994
 11
374.227997
 21
154.399994
  0
LINE
  8
0
  6
CONTINUOUS
 62
7
 10
367.727997
 20
153.899994
 11
367.727997
 21
153.399994
  0
LINE
  8
0
  6
CONTINUOUS
 62
7
 10
364.528015
 20
153.899994
 11
364.528015
 21
153.399994
  0
LINE
  8
0
  6
CONTINUOUS
 62
7
 10
368.227997
 20
156.000000
 11
368.227997
 21
154.399994
  0
LINE
  8
0
  6
CONTINUOUS
 62
7
 10
364.028015
 20
156.000000
 11
364.028015
 21
154.399994
  0
LINE
  8
0
  6
CONTINUOUS
 62
7
 10
364.028015
 20
154.399994
 11
364.528015
 21
153.899994
  0
LINE
  8
0
  6
CONTINUOUS
 62
7
 10
367.727997
 20
153.899994
 11
368.227997
 21
154.399994
  0
LINE
  8
0
  6
CONTINUOUS
 62
7
 10
400.127991
 20
302.399994
 11
396.395996
 21
303.399994
  0
LINE
  8
0
  6
CONTINUOUS
 62
7
 10
400.127991
 20
154.399994
 11
396.394989
 21
153.399994
  0
LINE
  8
0
  6
CONTINUOUS
 62
7
 10
399.627991
 20
262.899994
 11
399.627991
 21
193.899994
  0
LINE
  8
0
  6
CONTINUOUS
 62
7
 10
365.127991
 20
159.399994
 11
373.127991
 21
159.399994
  0
LINE
  8
0
  6
CONTINUOUS
 62
7
 10
375.127991
 20
157.399994
 11
375.127991
 21
153.399994
  0
LINE
  8
0
  6
CONTINUOUS
 62
7
 10
363.127991
 20
157.399994
 11
363.127991
 21
153.399994
  0
LINE
  8
0
  6
CONTINUOUS
 62
7
 10
375.127991
 20
299.399994
 11
375.127991
 21
303.399994
  0
LINE
  8
0
  6
CONTINUOUS
 62
7
 10
363.127991
 20
299.399994
 11
363.127991
 21
303.399994
  0
LINE
  8
0
  6
CONTINUOUS
 62
7
 10
365.127991
 20
297.399994
 11
373.127991
 21
297.399994
  0
LINE
  8
0
  6
CONTINUOUS
 62
7
 10
300.127991
 20
286.399994
 11
300.127991
 21
270.399994
  0
LINE
  8
0
  6
CONTINUOUS
 62
7
 10
300.127991
 20
286.399994
 11
309.127991
 21
286.399994
  0
LINE
  8
0
  6
CONTINUOUS
 62
7
 10
303.127991
 20
250.899994
 11
303.127991
 21
205.899994
  0
LINE
  8
0
  6
CONTINUOUS
 62
7
 10
305.127991
 20
240.776001
 11
305.127991
 21
216.024002
  0
LINE
  8
0
  6
CONTINUOUS
 62
7
 10
314.127991
 20
303.399994
 11
364.528015
 21
303.399994
  0
LINE
  8
0
  6
CONTINUOUS
 62
7
 10
300.127991
 20
270.399994
 11
309.127991
 21
270.399994
  0
LINE
  8
0
  6
CONTINUOUS
 62
7
 10
314.127991
 20
300.399994
 11
324.627991
 21
300.399994
  0
LINE
  8
0
  6
CONTINUOUS
 62
7
 10
300.127991
 20
170.399994
 11
300.127991
 21
186.399994
  0
LINE
  8
0
  6
CONTINUOUS
 62
7
 10
312.127991
 20
187.399994
 11
312.127991
 21
203.899994
  0
LINE
  8
0
  6
CONTINUOUS
 62
7
 10
309.127991
 20
188.899994
 11
309.127991
 21
199.899994
  0
LINE
  8
0
  6
CONTINUOUS
 62
7
 10
309.127014
 20
199.899994
 11
303.127991
 21
205.899002
  0
LINE
  8
0
  6
CENTER
 62
2
 10
305.488007
 20
163.399994
 11
319.998993
 21
163.399994
  0
LINE
  8
0
  6
CONTINUOUS
 62
7
 10
308.127991
 20
167.462997
 11
308.127991
 21
159.337006
  0
LINE
  8
0
  6
CONTINUOUS
 62
7
 10
309.127991
 20
159.250000
 11
308.127991
 21
159.337997
  0
LINE
  8
0
  6
CONTINUOUS
 62
7
 10
309.127991
 20
167.550003
 11
308.127991
 21
167.462997
  0
LINE
  8
0
  6
CONTINUOUS
 62
7
 10
300.127991
 20
186.399994
 11
309.127991
 21
186.399994
  0
LINE
  8
0
  6
CONTINUOUS
 62
7
 10
300.127991
 20
170.399994
 11
309.127991
 21
170.399994
  0
LINE
  8
0
  6
CONTINUOUS
 62
7
 10
314.127991
 20
153.399994
 11
364.528015
 21
153.399994
  0
LINE
  8
0
  6
CONTINUOUS
 62
7
 10
314.127991
 20
156.399994
 11
324.627991
 21
156.399994
  0
LINE
  8
0
  6
CONTINUOUS
 62
7
 10
309.127991
 20
158.399994
 11
309.127991
 21
167.399994
  0
LINE
  8
0
  6
CONTINUOUS
 62
7
 10
312.127991
 20
158.399994
 11
312.127991
 21
168.899994
  0
LINE
  8
0
  6
CENTER
 62
2
 10
334.127991
 20
226.893997
 11
334.127991
 21
199.636993
  0
LINE
  8
0
  6
CENTER
 62
2
 10
345.881989
 20
243.399994
 11
323.065002
 21
243.399994
  0
LINE
  8
0
  6
CONTINUOUS
 62
7
 10
331.127991
 20
245.203003
 11
331.127991
 21
241.597000
  0
LINE
  8
0
  6
CONTINUOUS
 62
7
 10
337.127991
 20
245.203003
 11
337.127991
 21
241.597000
  0
LINE
  8
0
  6
CONTINUOUS
 62
7
 10
337.127991
 20
245.203003
 11
334.127991
 21
246.899994
  0
LINE
  8
0
  6
CONTINUOUS
 62
7
 10
334.127991
 20
246.899994
 11
331.127991
 21
245.203003
  0
LINE
  8
0
  6
CONTINUOUS
 62
7
 10
331.127991
 20
241.598007
 11
334.127991
 21
239.899994
  0
LINE
  8
0
  6
CONTINUOUS
 62
7
 10
334.127991
 20
239.899994
 11
337.127991
 21
241.597000
  0
LINE
  8
0
  6
CENTER
 62
2
 10
347.774994
 20
213.399994
 11
320.695007
 21
213.399994
  0
LINE
  8
0
  6
CENTER
 62
2
 10
334.127991
 20
232.220001
 11
334.127991
 21
254.615005
  0
LINE
  8
0
  6
CONTINUOUS
 62
7
 10
314.127991
 20
190.199997
 11
314.127991
 21
191.699997
  0
LINE
  8
0
  6
CONTINUOUS
 62
7
 10
317.627991
 20
190.199997
 11
317.627991
 21
191.699997
  0
LINE
  8
0
  6
CONTINUOUS
 62
7
 10
318.627991
 20
191.699997
 11
318.627991
 21
196.100006
  0
LINE
  8
0
  6
CONTINUOUS
 62
7
 10
314.127991
 20
197.600006
 11
317.627991
 21
197.600006
  0
LINE
  8
0
  6
CONTINUOUS
 62
7
 10
314.127991
 20
190.199997
 11
317.627991
 21
190.199997
  0
LINE
  8
0
  6
CONTINUOUS
 62
7
 10
312.127991
 20
196.100006
 11
314.127991
 21
196.100006
  0
LINE
  8
0
  6
CONTINUOUS
 62
7
 10
312.127991
 20
191.699997
 11
314.127991
 21
191.699997
  0
LINE
  8
0
  6
CONTINUOUS
 62
7
 10
317.627991
 20
196.100006
 11
318.627991
 21
196.100006
  0
LINE
  8
0
  6
CONTINUOUS
 62
7
 10
317.627991
 20
191.699997
 11
318.627991
 21
191.699997
  0
LINE
  8
0
  6
CONTINUOUS
 62
7
 10
317.627991
 20
196.100006
 11
317.627991
 21
197.600006
  0
LINE
  8
0
  6
CONTINUOUS
 62
7
 10
314.127991
 20
191.699997
 11
314.127991
 21
197.600006
  0
LINE
  8
0
  6
CONTINUOUS
 62
7
 10
314.127991
 20
260.700012
 11
314.127991
 21
259.200012
  0
LINE
  8
0
  6
CONTINUOUS
 62
7
 10
314.127991
 20
266.600006
 11
314.127991
 21
260.700012
  0
LINE
  8
0
  6
CONTINUOUS
 62
7
 10
317.627991
 20
266.600006
 11
317.627991
 21
265.100006
  0
LINE
  8
0
  6
CONTINUOUS
 62
7
 10
318.627991
 20
265.100006
 11
318.627991
 21
260.700012
  0
LINE
  8
0
  6
CONTINUOUS
 62
7
 10
314.127991
 20
259.200012
 11
317.627991
 21
259.200012
  0
LINE
  8
0
  6
CONTINUOUS
 62
7
 10
314.127991
 20
266.600006
 11
317.627991
 21
266.600006
  0
LINE
  8
0
  6
CONTINUOUS
 62
7
 10
312.127991
 20
260.700012
 11
314.127991
 21
260.700012
  0
LINE
  8
0
  6
CONTINUOUS
 62
7
 10
312.127991
 20
265.100006
 11
314.127991
 21
265.100006
  0
LINE
  8
0
  6
CONTINUOUS
 62
7
 10
317.627991
 20
260.700012
 11
318.627991
 21
260.700012
  0
LINE
  8
0
  6
CONTINUOUS
 62
7
 10
317.627991
 20
265.100006
 11
318.627991
 21
265.100006
  0
LINE
  8
0
  6
CONTINUOUS
 62
7
 10
317.627991
 20
260.700012
 11
317.627991
 21
259.200012
  0
LINE
  8
0
  6
CENTER
 62
2
 10
305.488007
 20
193.899994
 11
319.898987
 21
193.899994
  0
LINE
  8
0
  6
CONTINUOUS
 62
7
 10
308.127991
 20
197.962997
 11
308.127991
 21
189.837006
  0
LINE
  8
0
  6
CONTINUOUS
 62
7
 10
309.127991
 20
189.750000
 11
308.127991
 21
189.837997
  0
LINE
  8
0
  6
CONTINUOUS
 62
7
 10
309.127991
 20
198.050003
 11
308.127991
 21
197.962997
  0
LINE
  8
0
  6
CENTER
 62
2
 10
305.488007
 20
293.399994
 11
320.279999
 21
293.399994
  0
LINE
  8
0
  6
CONTINUOUS
 62
7
 10
308.127991
 20
289.337006
 11
308.127991
 21
297.463013
  0
LINE
  8
0
  6
CONTINUOUS
 62
7
 10
309.127991
 20
297.549988
 11
308.127991
 21
297.462006
  0
LINE
  8
0
  6
CONTINUOUS
 62
7
 10
309.127991
 20
289.250000
 11
308.127991
 21
289.338013
  0
LINE
  8
0
  6
CONTINUOUS
 62
7
 10
309.127991
 20
298.399994
 11
309.127991
 21
289.399994
  0
LINE
  8
0
  6
CONTINUOUS
 62
7
 10
312.127991
 20
298.399994
 11
312.127991
 21
287.899994
  0
LINE
  8
0
  6
CONTINUOUS
 62
7
 10
312.127991
 20
269.399994
 11
312.127991
 21
252.899994
  0
LINE
  8
0
  6
CONTINUOUS
 62
7
 10
309.127991
 20
267.899994
 11
309.127991
 21
256.899994
  0
LINE
  8
0
  6
CONTINUOUS
 62
7
 10
309.127014
 20
256.898987
 11
303.127014
 21
250.899994
  0
LINE
  8
0
  6
CENTER
 62
2
 10
305.488007
 20
262.899994
 11
320.184998
 21
262.899994
  0
LINE
  8
0
  6
CONTINUOUS
 62
7
 10
308.127991
 20
258.838013
 11
308.127991
 21
266.963013
  0
LINE
  8
0
  6
CONTINUOUS
 62
7
 10
309.127991
 20
267.049988
 11
308.127991
 21
266.962006
  0
LINE
  8
0
  6
CONTINUOUS
 62
7
 10
309.127991
 20
258.750000
 11
308.127991
 21
258.837006
  0
LINE
  8
0
  6
CONTINUOUS
 62
7
 10
312.127991
 20
203.899994
 11
305.127991
 21
216.024002
  0
LINE
  8
0
  6
CONTINUOUS
 62
7
 10
312.127991
 20
252.899994
 11
305.127991
 21
240.776001
  0
LINE
  8
0
  6
CONTINUOUS
 62
7
 10
324.627991
 20
155.399994
 11
322.727997
 21
155.399994
  0
LINE
  8
0
  6
CONTINUOUS
 62
7
 10
324.078003
 20
153.399994
 11
322.520996
 21
154.882004
  0
LINE
  8
0
  6
CONTINUOUS
 62
7
 10
324.078003
 20
303.399994
 11
322.520996
 21
301.916992
  0
LINE
  8
0
  6
CONTINUOUS
 62
7
 10
314.127991
 20
291.200012
 11
314.127991
 21
289.700012
  0
LINE
  8
0
  6
CONTINUOUS
 62
7
 10
314.127991
 20
297.100006
 11
314.127991
 21
291.200012
  0
LINE
  8
0
  6
CONTINUOUS
 62
7
 10
317.627991
 20
297.100006
 11
317.627991
 21
295.600006
  0
LINE
  8
0
  6
CONTINUOUS
 62
7
 10
318.627991
 20
295.600006
 11
318.627991
 21
291.200012
  0
LINE
  8
0
  6
CONTINUOUS
 62
7
 10
314.127991
 20
289.700012
 11
317.627991
 21
289.700012
  0
LINE
  8
0
  6
CONTINUOUS
 62
7
 10
314.127991
 20
297.100006
 11
317.627991
 21
297.100006
  0
LINE
  8
0
  6
CONTINUOUS
 62
7
 10
312.127991
 20
291.200012
 11
314.127991
 21
291.200012
  0
LINE
  8
0
  6
CONTINUOUS
 62
7
 10
312.127991
 20
295.600006
 11
314.127991
 21
295.600006
  0
LINE
  8
0
  6
CONTINUOUS
 62
7
 10
317.627991
 20
291.200012
 11
318.627991
 21
291.200012
  0
LINE
  8
0
  6
CONTINUOUS
 62
7
 10
317.627991
 20
295.600006
 11
318.627991
 21
295.600006
  0
LINE
  8
0
  6
CONTINUOUS
 62
7
 10
317.627991
 20
291.200012
 11
317.627991
 21
289.700012
  0
LINE
  8
0
  6
CONTINUOUS
 62
7
 10
324.627991
 20
301.399994
 11
322.727997
 21
301.399994
  0
LINE
  8
0
  6
CONTINUOUS
 62
7
 10
314.127991
 20
165.600006
 11
314.127991
 21
167.100006
  0
LINE
  8
0
  6
CONTINUOUS
 62
7
 10
314.127991
 20
159.699997
 11
314.127991
 21
165.600006
  0
LINE
  8
0
  6
CONTINUOUS
 62
7
 10
317.627991
 20
159.699997
 11
317.627991
 21
161.199997
  0
LINE
  8
0
  6
CONTINUOUS
 62
7
 10
318.627991
 20
161.199997
 11
318.627991
 21
165.600006
  0
LINE
  8
0
  6
CONTINUOUS
 62
7
 10
314.127991
 20
167.100006
 11
317.627991
 21
167.100006
  0
LINE
  8
0
  6
CONTINUOUS
 62
7
 10
314.127991
 20
159.699997
 11
317.627991
 21
159.699997
  0
LINE
  8
0
  6
CONTINUOUS
 62
7
 10
312.127991
 20
165.600006
 11
314.127991
 21
165.600006
  0
LINE
  8
0
  6
CONTINUOUS
 62
7
 10
312.127991
 20
161.199997
 11
314.127991
 21
161.199997
  0
LINE
  8
0
  6
CONTINUOUS
 62
7
 10
317.627991
 20
165.600006
 11
318.627991
 21
165.600006
  0
LINE
  8
0
  6
CONTINUOUS
 62
7
 10
317.627991
 20
161.199997
 11
318.627991
 21
161.199997
  0
LINE
  8
0
  6
CONTINUOUS
 62
7
 10
317.627991
 20
165.600006
 11
317.627991
 21
167.100006
  0
LINE
  8
0
  6
CONTINUOUS
 62
7
 10
309.127991
 20
187.399994
 11
312.127991
 21
187.399994
  0
LINE
  8
0
  6
CONTINUOUS
 62
7
 10
309.127991
 20
168.899994
 11
312.127991
 21
168.899994
  0
LINE
  8
0
  6
CONTINUOUS
 62
7
 10
309.127991
 20
187.399994
 11
309.127991
 21
168.899994
  0
LINE
  8
0
  6
CONTINUOUS
 62
7
 10
309.127991
 20
269.399994
 11
309.127991
 21
287.899994
  0
LINE
  8
0
  6
CONTINUOUS
 62
7
 10
309.127991
 20
269.399994
 11
312.127991
 21
269.399994
  0
LINE
  8
0
  6
CONTINUOUS
 62
7
 10
309.127991
 20
287.899994
 11
312.127991
 21
287.899994
  0
LINE
  8
0
  6
CONTINUOUS
 62
7
 10
373.727997
 20
153.399994
 11
396.394989
 21
153.399994
  0
LINE
  8
0
  6
CONTINUOUS
 62
7
 10
367.727997
 20
153.399994
 11
370.528015
 21
153.399994
  0
LINE
  8
0
  6
CONTINUOUS
 62
7
 10
324.627991
 20
156.399994
 11
324.627991
 21
155.399994
  0
LINE
  8
0
  6
CONTINUOUS
 62
7
 10
311.127991
 20
168.399994
 11
310.127991
 21
168.399994
  0
LINE
  8
0
  6
CONTINUOUS
 62
7
 10
311.127991
 20
268.899994
 11
310.127991
 21
268.899994
  0
LINE
  8
0
  6
CONTINUOUS
 62
7
 10
311.127991
 20
187.899994
 11
310.127991
 21
187.899994
  0
LINE
  8
0
  6
CONTINUOUS
 62
7
 10
311.127991
 20
288.399994
 11
310.127991
 21
288.399994
  0
LINE
  8
0
  6
CONTINUOUS
 62
7
 10
324.627991
 20
301.399994
 11
324.627991
 21
300.399994
  0
LINE
  8
0
  6
CONTINUOUS
 62
7
 10
317.328003
 20
159.899994
 11
317.328003
 21
166.899994
  0
LINE
  8
0
  6
CONTINUOUS
 62
7
 10
317.328003
 20
190.399994
 11
317.328003
 21
197.399994
  0
LINE
  8
0
  6
CONTINUOUS
 62
7
 10
314.127991
 20
159.899994
 11
317.328003
 21
159.899994
  0
LINE
  8
0
  6
CONTINUOUS
 62
7
 10
314.127991
 20
166.899994
 11
317.328003
 21
166.899994
  0
LINE
  8
0
  6
CONTINUOUS
 62
7
 10
314.127991
 20
190.399994
 11
317.328003
 21
190.399994
  0
LINE
  8
0
  6
CONTINUOUS
 62
7
 10
314.127991
 20
197.399994
 11
317.328003
 21
197.399994
  0
LINE
  8
0
  6
CONTINUOUS
 62
2
 10
312.127991
 20
161.899994
 11
314.127991
 21
161.899994
  0
LINE
  8
0
  6
CONTINUOUS
 62
2
 10
312.127991
 20
164.899994
 11
314.127991
 21
164.899994
  0
LINE
  8
0
  6
CONTINUOUS
 62
2
 10
312.127991
 20
195.399994
 11
314.127991
 21
195.399994
  0
LINE
  8
0
  6
CONTINUOUS
 62
2
 10
312.127991
 20
192.399994
 11
314.127991
 21
192.399994
  0
LINE
  8
0
  6
CONTINUOUS
 62
7
 10
317.328003
 20
266.399994
 11
317.328003
 21
259.399994
  0
LINE
  8
0
  6
CONTINUOUS
 62
7
 10
317.328003
 20
296.899994
 11
317.328003
 21
289.899994
  0
LINE
  8
0
  6
CONTINUOUS
 62
7
 10
314.127991
 20
259.399994
 11
317.328003
 21
259.399994
  0
LINE
  8
0
  6
CONTINUOUS
 62
7
 10
314.127991
 20
266.399994
 11
317.328003
 21
266.399994
  0
LINE
  8
0
  6
CONTINUOUS
 62
7
 10
314.127991
 20
289.899994
 11
317.328003
 21
289.899994
  0
LINE
  8
0
  6
CONTINUOUS
 62
7
 10
314.127991
 20
296.899994
 11
317.328003
 21
296.899994
  0
LINE
  8
0
  6
CONTINUOUS
 62
2
 10
312.127991
 20
294.899994
 11
314.127991
 21
294.899994
  0
LINE
  8
0
  6
CONTINUOUS
 62
2
 10
312.127991
 20
291.899994
 11
314.127991
 21
291.899994
  0
LINE
  8
0
  6
CONTINUOUS
 62
2
 10
312.127991
 20
261.399994
 11
314.127991
 21
261.399994
  0
LINE
  8
0
  6
CONTINUOUS
 62
2
 10
312.127991
 20
264.399994
 11
314.127991
 21
264.399994
  0
LINE
  8
0
  6
CENTER
 62
2
 10
385.432007
 20
278.399994
 11
403.427002
 21
278.399994
  0
LINE
  8
0
  6
CENTER
 62
2
 10
385.432007
 20
178.399994
 11
403.427002
 21
178.399994
  0
LINE
  8
0
  6
CONTINUOUS
 62
7
 10
-218.871994
 20
270.399994
 11
-68.872200
 21
270.399994
  0
LINE
  8
0
  6
CONTINUOUS
 62
7
 10
-218.871994
 20
186.399994
 11
-68.872200
 21
186.399994
  0
LINE
  8
0
  6
CONTINUOUS
 62
7
 10
-290.872009
 20
303.399994
 11
-290.872009
 21
153.399994
  0
LINE
  8
0
  6
CONTINUOUS
 62
7
 10
203.128006
 20
303.399994
 11
203.128006
 21
153.399994
  0
LINE
  8
0
  6
CONTINUOUS
 62
7
 10
-290.872009
 20
303.399994
 11
203.128006
 21
303.399994
  0
LINE
  8
0
  6
CONTINUOUS
 62
7
 10
-290.872009
 20
153.399994
 11
203.128006
 21
153.399994
  0
LINE
  8
0
  6
CENTER
 62
2
 10
-210.871994
 20
285.324005
 11
-210.871994
 21
271.378998
  0
LINE
  8
0
  6
CENTER
 62
2
 10
-217.677994
 20
278.399994
 11
-204.494003
 21
278.399994
  0
LINE
  8
0
  6
CENTER
 62
2
 10
-210.871994
 20
185.324005
 11
-210.871994
 21
171.378998
  0
LINE
  8
0
  6
CENTER
 62
2
 10
-217.677994
 20
178.399994
 11
-204.494003
 21
178.399994
  0
LINE
  8
0
  6
CENTER
 62
2
 10
-76.872200
 20
185.324005
 11
-76.872200
 21
171.378998
  0
LINE
  8
0
  6
CENTER
 62
2
 10
-83.677803
 20
178.399994
 11
-70.493698
 21
178.399994
  0
LINE
  8
0
  6
CENTER
 62
2
 10
-76.872200
 20
285.324005
 11
-76.872200
 21
271.378998
  0
LINE
  8
0
  6
CENTER
 62
2
 10
-83.677803
 20
278.399994
 11
-70.493698
 21
278.399994
  0
LINE
  8
0
  6
CONTINUOUS
 62
7
 10
-218.871994
 20
286.399994
 11
-68.872200
 21
286.399994
  0
LINE
  8
0
  6
CENTER
 62
2
 10
-303.834991
 20
228.399994
 11
213.397995
 21
228.399994
  0
LINE
  8
0
  6
CONTINUOUS
 62
7
 10
-278.872009
 20
288.399994
 11
-278.872009
 21
268.899994
  0
LINE
  8
0
  6
CONTINUOUS
 62
7
 10
191.128006
 20
288.399994
 11
191.128006
 21
268.899994
  0
LINE
  8
0
  6
CONTINUOUS
 62
7
 10
-218.871994
 20
288.399994
 11
-218.871994
 21
268.899994
  0
LINE
  8
0
  6
CONTINUOUS
 62
7
 10
-68.872200
 20
288.399994
 11
-68.872200
 21
268.899994
  0
LINE
  8
0
  6
CENTER
 62
2
 10
-302.222992
 20
243.399994
 11
-284.431000
 21
243.399994
  0
LINE
  8
0
  6
CONTINUOUS
 62
7
 10
-298.872009
 20
248.399994
 11
-298.872009
 21
238.399994
  0
LINE
  8
0
  6
CONTINUOUS
 62
7
 10
-297.872009
 20
237.399994
 11
-290.872009
 21
237.399994
  0
LINE
  8
0
  6
CONTINUOUS
 62
7
 10
-297.872009
 20
249.399994
 11
-290.872009
 21
249.399994
  0
LINE
  8
0
  6
CONTINUOUS
 62
7
 10
-297.872009
 20
249.399994
 11
-297.872009
 21
237.399994
  0
LINE
  8
0
  6
CONTINUOUS
 62
7
 10
-297.872009
 20
249.399994
 11
-298.872009
 21
248.399994
  0
LINE
  8
0
  6
CONTINUOUS
 62
7
 10
-298.872009
 20
238.399994
 11
-297.872009
 21
237.399994
  0
LINE
  8
0
  6
CONTINUOUS
 62
2
 10
-298.872009
 20
248.399994
 11
-290.872009
 21
248.399994
  0
LINE
  8
0
  6
CONTINUOUS
 62
2
 10
-298.872009
 20
238.399994
 11
-290.872009
 21
238.399994
  0
LINE
  8
0
  6
CONTINUOUS
 62
7
 10
211.128006
 20
221.399994
 11
203.128006
 21
221.399994
  0
LINE
  8
0
  6
CONTINUOUS
 62
7
 10
211.128006
 20
205.399994
 11
203.128006
 21
205.399994
  0
LINE
  8
0
  6
CENTER
 62
2
 10
230.619003
 20
213.399994
 11
195.871002
 21
213.399994
  0
LINE
  8
0
  6
CONTINUOUS
 62
7
 10
212.128006
 20
220.399994
 11
212.128006
 21
206.399994
  0
LINE
  8
0
  6
CONTINUOUS
 62
7
 10
211.128006
 20
221.399994
 11
211.128006
 21
205.399994
  0
LINE
  8
0
  6
CONTINUOUS
 62
7
 10
212.126999
 20
206.399994
 11
211.126999
 21
205.399994
  0
LINE
  8
0
  6
CENTER
 62
2
 10
214.477997
 20
243.399994
 11
194.518005
 21
243.399994
  0
LINE
  8
0
  6
CONTINUOUS
 62
7
 10
211.128006
 20
248.399994
 11
211.128006
 21
238.399994
  0
LINE
  8
0
  6
CONTINUOUS
 62
7
 10
210.128006
 20
237.399994
 11
203.128006
 21
237.399994
  0
LINE
  8
0
  6
CONTINUOUS
 62
7
 10
210.128006
 20
249.399994
 11
203.128006
 21
249.399994
  0
LINE
  8
0
  6
CONTINUOUS
 62
7
 10
210.128006
 20
249.399994
 11
210.128006
 21
237.399994
  0
LINE
  8
0
  6
CONTINUOUS
 62
7
 10
210.126999
 20
249.399994
 11
211.126999
 21
248.399994
  0
LINE
  8
0
  6
CONTINUOUS
 62
7
 10
211.128006
 20
238.399994
 11
210.126999
 21
237.399994
  0
LINE
  8
0
  6
CONTINUOUS
 62
2
 10
211.128006
 20
248.399994
 11
203.128006
 21
248.399994
  0
LINE
  8
0
  6
CONTINUOUS
 62
2
 10
211.128006
 20
238.399994
 11
203.128006
 21
238.399994
  0
LINE
  8
0
  6
CONTINUOUS
 62
7
 10
211.126999
 20
221.399994
 11
212.126999
 21
220.399994
  0
LINE
  8
0
  6
CONTINUOUS
 62
7
 10
222.628006
 20
214.899994
 11
222.128006
 21
214.899994
  0
LINE
  8
0
  6
CONTINUOUS
 62
7
 10
222.628006
 20
211.899994
 11
222.128006
 21
211.899994
  0
LINE
  8
0
  6
CONTINUOUS
 62
7
 10
229.128006
 20
219.899994
 11
229.128006
 21
206.899994
  0
LINE
  8
0
  6
CONTINUOUS
 62
7
 10
229.128006
 20
206.899994
 11
222.628006
 21
206.899994
  0
LINE
  8
0
  6
CONTINUOUS
 62
7
 10
229.128006
 20
219.899994
 11
222.628006
 21
219.899994
  0
LINE
  8
0
  6
CONTINUOUS
 62
7
 10
222.128006
 20
219.899994
 11
222.128006
 21
206.899994
  0
LINE
  8
0
  6
CONTINUOUS
 62
7
 10
222.628006
 20
219.899994
 11
222.628006
 21
206.899994
  0
LINE
  8
0
  6
CONTINUOUS
 62
7
 10
222.128006
 20
219.899994
 11
212.128006
 21
219.899994
  0
LINE
  8
0
  6
CONTINUOUS
 62
7
 10
222.128006
 20
206.899994
 11
212.128006
 21
206.899994
  0
LINE
  8
0
  6
CONTINUOUS
 62
2
 10
212.128006
 20
220.399994
 11
203.128006
 21
220.399994
  0
LINE
  8
0
  6
CONTINUOUS
 62
2
 10
212.128006
 20
206.399994
 11
203.128006
 21
206.399994
  0
LINE
  8
0
  6
CONTINUOUS
 62
7
 10
-298.872009
 20
221.399994
 11
-290.872009
 21
221.399994
  0
LINE
  8
0
  6
CENTER
 62
2
 10
-318.363007
 20
213.399994
 11
-283.192993
 21
213.399994
  0
LINE
  8
0
  6
CONTINUOUS
 62
7
 10
-299.872009
 20
220.399994
 11
-299.872009
 21
206.399994
  0
LINE
  8
0
  6
CONTINUOUS
 62
7
 10
-298.872009
 20
221.399994
 11
-298.872009
 21
205.399994
  0
LINE
  8
0
  6
CONTINUOUS
 62
7
 10
-299.872009
 20
206.399994
 11
-298.872009
 21
205.399994
  0
LINE
  8
0
  6
CONTINUOUS
 62
7
 10
-298.872009
 20
221.399994
 11
-299.872009
 21
220.399994
  0
LINE
  8
0
  6
CONTINUOUS
 62
7
 10
-310.372009
 20
214.899994
 11
-309.872009
 21
214.899994
  0
LINE
  8
0
  6
CONTINUOUS
 62
7
 10
-310.372009
 20
211.899994
 11
-309.872009
 21
211.899994
  0
LINE
  8
0
  6
CONTINUOUS
 62
7
 10
-316.872009
 20
219.899994
 11
-316.872009
 21
206.899994
  0
LINE
  8
0
  6
CONTINUOUS
 62
7
 10
-316.872009
 20
206.899994
 11
-310.372009
 21
206.899994
  0
LINE
  8
0
  6
CONTINUOUS
 62
7
 10
-316.872009
 20
219.899994
 11
-310.372009
 21
219.899994
  0
LINE
  8
0
  6
CONTINUOUS
 62
7
 10
-309.872009
 20
219.899994
 11
-309.872009
 21
206.899994
  0
LINE
  8
0
  6
CONTINUOUS
 62
7
 10
-310.372009
 20
219.899994
 11
-310.372009
 21
206.899994
  0
LINE
  8
0
  6
CONTINUOUS
 62
7
 10
-309.872009
 20
219.899994
 11
-299.872009
 21
219.899994
  0
LINE
  8
0
  6
CONTINUOUS
 62
7
 10
-309.872009
 20
206.899994
 11
-299.872009
 21
206.899994
  0
LINE
  8
0
  6
CONTINUOUS
 62
2
 10
-299.872009
 20
220.399994
 11
-290.872009
 21
220.399994
  0
LINE
  8
0
  6
CONTINUOUS
 62
2
 10
-299.872009
 20
206.399994
 11
-290.872009
 21
206.399994
  0
LINE
  8
0
  6
CONTINUOUS
 62
7
 10
-298.872009
 20
205.399994
 11
-290.872009
 21
205.399994
  0
LINE
  8
0
  6
CONTINUOUS
 62
7
 10
-290.872009
 20
187.399994
 11
-278.872009
 21
187.399994
  0
LINE
  8
0
  6
CONTINUOUS
 62
7
 10
-290.872009
 20
269.399994
 11
-278.872009
 21
269.399994
  0
LINE
  8
0
  6
CONTINUOUS
 62
7
 10
191.128006
 20
187.399994
 11
203.128006
 21
187.399994
  0
LINE
  8
0
  6
CONTINUOUS
 62
7
 10
191.128006
 20
269.399994
 11
203.128006
 21
269.399994
  0
LINE
  8
0
  6
CONTINUOUS
 62
7
 10
-290.872009
 20
287.899994
 11
-278.872009
 21
287.899994
  0
LINE
  8
0
  6
CONTINUOUS
 62
7
 10
191.128006
 20
287.899994
 11
203.128006
 21
287.899994
  0
LINE
  8
0
  6
CONTINUOUS
 62
7
 10
-218.871994
 20
170.399994
 11
-68.872200
 21
170.399994
  0
LINE
  8
0
  6
CONTINUOUS
 62
7
 10
-290.872009
 20
168.899994
 11
-278.872009
 21
168.899994
  0
LINE
  8
0
  6
CONTINUOUS
 62
7
 10
191.128006
 20
168.899994
 11
203.128006
 21
168.899994
  0
LINE
  8
0
  6
CONTINUOUS
 62
7
 10
-245.871994
 20
273.399994
 11
-245.871994
 21
268.899994
  0
LINE
  8
0
  6
CONTINUOUS
 62
7
 10
158.128006
 20
273.399994
 11
158.128006
 21
268.899994
  0
LINE
  8
0
  6
CONTINUOUS
 62
7
 10
158.128006
 20
183.399994
 11
191.128006
 21
183.399994
  0
LINE
  8
0
  6
CONTINUOUS
 62
7
 10
158.128006
 20
273.399994
 11
191.128006
 21
273.399994
  0
LINE
  8
0
  6
CONTINUOUS
 62
7
 10
-245.871994
 20
183.399994
 11
-278.872009
 21
183.399994
  0
LINE
  8
0
  6
CONTINUOUS
 62
7
 10
-245.871994
 20
273.399994
 11
-278.872009
 21
273.399994
  0
LINE
  8
0
  6
CONTINUOUS
 62
7
 10
-68.872200
 20
285.899994
 11
191.128006
 21
285.899994
  0
LINE
  8
0
  6
CONTINUOUS
 62
7
 10
-68.872200
 20
270.899994
 11
158.128006
 21
270.899994
  0
LINE
  8
0
  6
CONTINUOUS
 62
7
 10
-68.872200
 20
170.899994
 11
191.128006
 21
170.899994
  0
LINE
  8
0
  6
CONTINUOUS
 62
7
 10
-68.872200
 20
185.899994
 11
158.128006
 21
185.899994
  0
LINE
  8
0
  6
CONTINUOUS
 62
7
 10
-218.871994
 20
285.899994
 11
-278.872009
 21
285.899994
  0
LINE
  8
0
  6
CONTINUOUS
 62
7
 10
-218.871994
 20
270.899994
 11
-245.871994
 21
270.899994
  0
LINE
  8
0
  6
CONTINUOUS
 62
7
 10
-218.871994
 20
185.899994
 11
-245.871994
 21
185.899994
  0
LINE
  8
0
  6
CONTINUOUS
 62
7
 10
-218.871994
 20
170.899994
 11
-278.872009
 21
170.899994
  0
LINE
  8
0
  6
CONTINUOUS
 62
7
 10
176.128006
 20
285.899994
 11
176.128006
 21
273.399994
  0
LINE
  8
0
  6
CONTINUOUS
 62
7
 10
-263.872009
 20
285.899994
 11
-263.872009
 21
273.399994
  0
LINE
  8
0
  6
CONTINUOUS
 62
7
 10
176.128006
 20
170.899994
 11
176.128006
 21
183.399994
  0
LINE
  8
0
  6
CONTINUOUS
 62
7
 10
-263.872009
 20
170.899994
 11
-263.872009
 21
183.399994
  0
LINE
  8
0
  6
CONTINUOUS
 62
7
 10
-290.872009
 20
288.399994
 11
203.128006
 21
288.399994
  0
LINE
  8
0
  6
CONTINUOUS
 62
7
 10
-290.872009
 20
268.899994
 11
203.128006
 21
268.899994
  0
LINE
  8
0
  6
CONTINUOUS
 62
7
 10
-290.872009
 20
256.899994
 11
203.128006
 21
256.899994
  0
LINE
  8
0
  6
CONTINUOUS
 62
7
 10
-290.872009
 20
250.899994
 11
203.128006
 21
250.899994
  0
LINE
  8
0
  6
CONTINUOUS
 62
7
 10
-290.872009
 20
205.899994
 11
203.128006
 21
205.899994
  0
LINE
  8
0
  6
CONTINUOUS
 62
7
 10
-290.872009
 20
199.899994
 11
203.128006
 21
199.899994
  0
LINE
  8
0
  6
CONTINUOUS
 62
7
 10
-290.872009
 20
187.899994
 11
203.128006
 21
187.899994
  0
LINE
  8
0
  6
CONTINUOUS
 62
7
 10
-290.872009
 20
168.399994
 11
203.128006
 21
168.399994
  0
LINE
  8
0
  6
CONTINUOUS
 62
7
 10
158.128006
 20
187.899994
 11
158.128006
 21
183.399994
  0
LINE
  8
0
  6
CONTINUOUS
 62
7
 10
191.128006
 20
187.899994
 11
191.128006
 21
168.399994
  0
LINE
  8
0
  6
CONTINUOUS
 62
7
 10
-218.871994
 20
187.899994
 11
-218.871994
 21
168.399994
  0
LINE
  8
0
  6
CONTINUOUS
 62
7
 10
-68.872200
 20
187.899994
 11
-68.872200
 21
168.399994
  0
LINE
  8
0
  6
CONTINUOUS
 62
7
 10
-245.871994
 20
187.899994
 11
-245.871994
 21
183.399994
  0
LINE
  8
0
  6
CONTINUOUS
 62
7
 10
-278.872009
 20
187.899994
 11
-278.872009
 21
168.399994
  0
LINE
  8
0
  6
CONTINUOUS
 62
7
 10
195.007004
 20
161.279007
 11
199.248993
 21
165.520996
  0
LINE
  8
0
  6
CONTINUOUS
 62
7
 10
195.007004
 20
165.520996
 11
199.248993
 21
161.279007
  0
LINE
  8
0
  6
CONTINUOUS
 62
7
 10
-286.993988
 20
161.279007
 11
-282.751007
 21
165.520996
  0
LINE
  8
0
  6
CONTINUOUS
 62
7
 10
-286.993988
 20
165.520996
 11
-282.751007
 21
161.279007
  0
LINE
  8
0
  6
CONTINUOUS
 62
7
 10
-286.993988
 20
191.779007
 11
-282.751007
 21
196.020996
  0
LINE
  8
0
  6
CONTINUOUS
 62
7
 10
-286.993988
 20
196.020996
 11
-282.751007
 21
191.779007
  0
LINE
  8
0
  6
CONTINUOUS
 62
7
 10
-286.993988
 20
260.778992
 11
-282.751007
 21
265.020996
  0
LINE
  8
0
  6
CONTINUOUS
 62
7
 10
-286.993011
 20
265.020996
 11
-282.751007
 21
260.778992
  0
LINE
  8
0
  6
CONTINUOUS
 62
7
 10
-286.993988
 20
291.278992
 11
-282.751007
 21
295.520996
  0
LINE
  8
0
  6
CONTINUOUS
 62
7
 10
-286.993988
 20
295.520996
 11
-282.751007
 21
291.278992
  0
LINE
  8
0
  6
CONTINUOUS
 62
7
 10
195.005997
 20
291.278992
 11
199.248993
 21
295.520996
  0
LINE
  8
0
  6
CONTINUOUS
 62
7
 10
195.007004
 20
295.520996
 11
199.248993
 21
291.278992
  0
LINE
  8
0
  6
CONTINUOUS
 62
7
 10
195.005997
 20
260.778992
 11
199.248993
 21
265.020996
  0
LINE
  8
0
  6
CONTINUOUS
 62
7
 10
195.005997
 20
265.020996
 11
199.248993
 21
260.778992
  0
LINE
  8
0
  6
CONTINUOUS
 62
7
 10
195.005997
 20
191.778000
 11
199.248993
 21
196.020996
  0
LINE
  8
0
  6
CONTINUOUS
 62
7
 10
195.007004
 20
196.020996
 11
199.248993
 21
191.779007
  0
LINE
  8
0
  6
CENTER
 62
2
 10
-143.871994
 20
306.901001
 11
-143.871994
 21
147.182007
  0
LINE
  8
0
  6
CENTER
 62
2
 10
56.127800
 20
306.901001
 11
56.127800
 21
147.182007
  0
LINE
  8
0
  6
PHANTOM
 62
3
 10
-229.757004
 20
314.294006
 11
-229.757004
 21
139.759995
  0
LINE
  8
0
  6
PHANTOM
 62
3
 10
5.243320
 20
323.156006
 11
5.243320
 21
139.759995
  0
LINE
  8
0
  6
CONTINUOUS
 62
7
 10
-280.809998
 20
102.588997
 11
-288.934998
 21
102.588997
  0
LINE
  8
0
  6
CONTINUOUS
 62
7
 10
-289.022003
 20
101.588997
 11
-288.934998
 21
102.588997
  0
LINE
  8
0
  6
CONTINUOUS
 62
7
 10
-280.721985
 20
101.588997
 11
-280.809998
 21
102.588997
  0
LINE
  8
0
  6
CONTINUOUS
 62
7
 10
-290.872009
 20
107.588997
 11
-290.872009
 21
11.144400
  0
LINE
  8
0
  6
CONTINUOUS
 62
7
 10
203.128006
 20
107.588997
 11
203.128006
 21
11.144400
  0
LINE
  8
0
  6
CONTINUOUS
 62
7
 10
-278.872009
 20
87.088898
 11
-278.872009
 21
10.588900
  0
LINE
  8
0
  6
CONTINUOUS
 62
7
 10
191.128006
 20
87.088898
 11
191.128006
 21
10.588900
  0
LINE
  8
0
  6
CONTINUOUS
 62
7
 10
-278.872009
 20
10.588900
 11
191.128006
 21
10.588900
  0
LINE
  8
0
  6
CONTINUOUS
 62
7
 10
-218.871994
 20
110.588997
 11
-68.872200
 21
110.588997
  0
LINE
  8
0
  6
CONTINUOUS
 62
7
 10
-290.872009
 20
101.588997
 11
203.128006
 21
101.588997
  0
LINE
  8
0
  6
CONTINUOUS
 62
7
 10
-218.871994
 20
110.588997
 11
-218.871994
 21
101.588997
  0
LINE
  8
0
  6
CONTINUOUS
 62
7
 10
-68.872200
 20
110.588997
 11
-68.872200
 21
101.588997
  0
LINE
  8
0
  6
CONTINUOUS
 62
7
 10
-278.872009
 20
19.388901
 11
191.128006
 21
19.388901
  0
LINE
  8
0
  6
CONTINUOUS
 62
7
 10
-278.872009
 20
25.788900
 11
191.128006
 21
25.788900
  0
LINE
  8
0
  6
CONTINUOUS
 62
7
 10
-290.872009
 20
14.321000
 11
203.128006
 21
14.321000
  0
LINE
  8
0
  6
CONTINUOUS
 62
7
 10
-278.872009
 20
36.988899
 11
191.128006
 21
36.988899
  0
LINE
  8
0
  6
CONTINUOUS
 62
7
 10
-278.872009
 20
40.188801
 11
191.128006
 21
40.188801
  0
LINE
  8
0
  6
CONTINUOUS
 62
7
 10
-278.872009
 20
42.988899
 11
191.128006
 21
42.988899
  0
LINE
  8
0
  6
CONTINUOUS
 62
7
 10
-278.872009
 20
46.188801
 11
191.128006
 21
46.188801
  0
LINE
  8
0
  6
CENTER
 62
2
 10
-318.363007
 20
83.922203
 11
-286.221985
 21
83.922203
  0
LINE
  8
0
  6
CONTINUOUS
 62
7
 10
-299.872009
 20
90.922203
 11
-299.872009
 21
76.922203
  0
LINE
  8
0
  6
CONTINUOUS
 62
7
 10
-298.872009
 20
91.922203
 11
-298.872009
 21
75.922203
  0
LINE
  8
0
  6
CONTINUOUS
 62
7
 10
-299.872009
 20
76.922401
 11
-298.872009
 21
75.922401
  0
LINE
  8
0
  6
CONTINUOUS
 62
7
 10
-298.872009
 20
91.922401
 11
-299.872009
 21
90.922401
  0
LINE
  8
0
  6
CONTINUOUS
 62
7
 10
-310.372009
 20
85.422203
 11
-309.872009
 21
85.422203
  0
LINE
  8
0
  6
CONTINUOUS
 62
7
 10
-310.372009
 20
82.422203
 11
-309.872009
 21
82.422203
  0
LINE
  8
0
  6
CONTINUOUS
 62
7
 10
-316.872009
 20
90.422203
 11
-316.872009
 21
77.422203
  0
LINE
  8
0
  6
CONTINUOUS
 62
7
 10
-316.872009
 20
77.422203
 11
-310.372009
 21
77.422203
  0
LINE
  8
0
  6
CONTINUOUS
 62
7
 10
-316.872009
 20
90.422203
 11
-310.372009
 21
90.422203
  0
LINE
  8
0
  6
CONTINUOUS
 62
7
 10
-309.872009
 20
90.422203
 11
-309.872009
 21
77.422203
  0
LINE
  8
0
  6
CONTINUOUS
 62
7
 10
-310.372009
 20
90.422203
 11
-310.372009
 21
77.422203
  0
LINE
  8
0
  6
CONTINUOUS
 62
7
 10
-309.872009
 20
90.422203
 11
-299.872009
 21
90.422203
  0
LINE
  8
0
  6
CONTINUOUS
 62
7
 10
-309.872009
 20
77.422203
 11
-299.872009
 21
77.422203
  0
LINE
  8
0
  6
CONTINUOUS
 62
2
 10
-299.872009
 20
90.922203
 11
-290.872009
 21
90.922203
  0
LINE
  8
0
  6
CONTINUOUS
 62
2
 10
-299.872009
 20
76.922203
 11
-290.872009
 21
76.922203
  0
LINE
  8
0
  6
CONTINUOUS
 62
7
 10
-298.872009
 20
75.922203
 11
-290.872009
 21
75.922203
  0
LINE
  8
0
  6
CONTINUOUS
 62
7
 10
-298.872009
 20
91.922203
 11
-290.872009
 21
91.922203
  0
LINE
  8
0
  6
CONTINUOUS
 62
7
 10
-290.872009
 20
11.144400
 11
-278.872009
 21
11.144400
  0
LINE
  8
0
  6
CONTINUOUS
 62
7
 10
191.128006
 20
11.144400
 11
203.128006
 21
11.144400
  0
LINE
  8
0
  6
CONTINUOUS
 62
7
 10
211.128006
 20
91.922203
 11
203.128006
 21
91.922203
  0
LINE
  8
0
  6
CENTER
 62
2
 10
230.619003
 20
83.922203
 11
198.477997
 21
83.922203
  0
LINE
  8
0
  6
CONTINUOUS
 62
7
 10
212.128006
 20
90.922203
 11
212.128006
 21
76.922203
  0
LINE
  8
0
  6
CONTINUOUS
 62
7
 10
211.128006
 20
91.922203
 11
211.128006
 21
75.922203
  0
LINE
  8
0
  6
CONTINUOUS
 62
7
 10
212.128006
 20
76.921997
 11
211.128006
 21
75.922096
  0
LINE
  8
0
  6
CONTINUOUS
 62
7
 10
211.128006
 20
91.922203
 11
212.128006
 21
90.922302
  0
LINE
  8
0
  6
CONTINUOUS
 62
7
 10
222.628006
 20
85.422203
 11
222.128006
 21
85.422203
  0
LINE
  8
0
  6
CONTINUOUS
 62
7
 10
222.628006
 20
82.422203
 11
222.128006
 21
82.422203
  0
LINE
  8
0
  6
CONTINUOUS
 62
7
 10
229.128006
 20
90.422203
 11
229.128006
 21
77.422203
  0
LINE
  8
0
  6
CONTINUOUS
 62
7
 10
229.128006
 20
77.422203
 11
222.628006
 21
77.422203
  0
LINE
  8
0
  6
CONTINUOUS
 62
7
 10
229.128006
 20
90.422203
 11
222.628006
 21
90.422203
  0
LINE
  8
0
  6
CONTINUOUS
 62
7
 10
222.128006
 20
90.422203
 11
222.128006
 21
77.422203
  0
LINE
  8
0
  6
CONTINUOUS
 62
7
 10
222.628006
 20
90.422203
 11
222.628006
 21
77.422203
  0
LINE
  8
0
  6
CONTINUOUS
 62
7
 10
222.128006
 20
90.422203
 11
212.128006
 21
90.422203
  0
LINE
  8
0
  6
CONTINUOUS
 62
7
 10
222.128006
 20
77.422203
 11
212.128006
 21
77.422203
  0
LINE
  8
0
  6
CONTINUOUS
 62
2
 10
212.128006
 20
90.922203
 11
203.128006
 21
90.922203
  0
LINE
  8
0
  6
CONTINUOUS
 62
2
 10
212.128006
 20
76.922203
 11
203.128006
 21
76.922203
  0
LINE
  8
0
  6
CONTINUOUS
 62
7
 10
211.128006
 20
75.922203
 11
203.128006
 21
75.922203
  0
LINE
  8
0
  6
CONTINUOUS
 62
7
 10
-290.872009
 20
107.588997
 11
-218.871994
 21
107.588997
  0
LINE
  8
0
  6
CONTINUOUS
 62
7
 10
-68.872200
 20
107.588997
 11
203.128006
 21
107.588997
  0
LINE
  8
0
  6
CONTINUOUS
 62
7
 10
193.065002
 20
102.588997
 11
201.190002
 21
102.588997
  0
LINE
  8
0
  6
CONTINUOUS
 62
7
 10
201.278000
 20
101.588997
 11
201.190002
 21
102.588997
  0
LINE
  8
0
  6
CONTINUOUS
 62
7
 10
192.977997
 20
101.588997
 11
193.065002
 21
102.588997
  0
LINE
  8
0
  6
CONTINUOUS
 62
7
 10
-278.872009
 20
62.088902
 11
191.128006
 21
62.088902
  0
LINE
  8
0
  6
CONTINUOUS
 62
7
 10
-290.872009
 20
87.088898
 11
203.128006
 21
87.088898
  0
LINE
  8
0
  6
CONTINUOUS
 62
7
 10
-290.872009
 20
47.588799
 11
-278.872009
 21
47.588799
  0
LINE
  8
0
  6
CONTINUOUS
 62
7
 10
-290.872009
 20
35.588902
 11
-278.872009
 21
35.588902
  0
LINE
  8
0
  6
CONTINUOUS
 62
7
 10
191.128006
 20
47.588799
 11
203.128006
 21
47.588799
  0
LINE
  8
0
  6
CONTINUOUS
 62
7
 10
191.128006
 20
35.588902
 11
203.128006
 21
35.588902
  0
LINE
  8
0
  6
CONTINUOUS
 62
7
 10
-290.872009
 20
86.588898
 11
-278.872009
 21
86.588898
  0
LINE
  8
0
  6
CONTINUOUS
 62
7
 10
191.128006
 20
86.588898
 11
203.128006
 21
86.588898
  0
LINE
  8
0
  6
CENTER
 62
2
 10
-143.871994
 20
116.528000
 11
-143.871994
 21
5.000000
  0
LINE
  8
0
  6
CENTER
 62
2
 10
-76.872200
 20
116.528000
 11
-76.872200
 21
97.195999
  0
LINE
  8
0
  6
CENTER
 62
2
 10
-210.871994
 20
116.528000
 11
-210.871994
 21
97.195999
  0
LINE
  8
0
  6
CENTER
 62
2
 10
56.127800
 20
116.528000
 11
56.127800
 21
5.000000
  0
LINE
  8
0
  6
PHANTOM
 62
3
 10
-229.757004
 20
139.759995
 11
-229.757004
 21
-1.238870
  0
LINE
  8
0
  6
PHANTOM
 62
3
 10
5.243320
 20
145.998993
 11
5.243320
 21
-1.238870
  0
LINE
  8
0
  6
CENTER
 62
2
 10
-386.406006
 20
228.399994
 11
-491.872009
 21
228.399994
  0
LINE
  8
0
  6
CENTER
 62
2
 10
-455.872009
 20
242.233994
 11
-455.872009
 21
210.996002
  0
LINE
  8
0
  6
CONTINUOUS
 62
7
 10
-487.872009
 20
228.399994
 11
-487.872009
 21
218.399994
  0
LINE
  8
0
  6
CONTINUOUS
 62
7
 10
-487.372009
 20
182.600006
 11
-487.872009
 21
182.600006
  0
LINE
  8
0
  6
CONTINUOUS
 62
7
 10
-487.372009
 20
174.199997
 11
-487.872009
 21
174.199997
  0
LINE
  8
0
  6
CONTINUOUS
 62
7
 10
-487.872009
 20
174.199997
 11
-487.872009
 21
154.399994
  0
LINE
  8
0
  6
CONTINUOUS
 62
7
 10
-461.471985
 20
302.899994
 11
-461.471985
 21
303.399994
  0
LINE
  8
0
  6
CONTINUOUS
 62
7
 10
-458.272003
 20
302.899994
 11
-458.272003
 21
303.399994
  0
LINE
  8
0
  6
CONTINUOUS
 62
7
 10
-461.971985
 20
300.799988
 11
-461.971985
 21
302.399994
  0
LINE
  8
0
  6
CONTINUOUS
 62
7
 10
-457.772003
 20
300.799988
 11
-457.772003
 21
302.399994
  0
LINE
  8
0
  6
CONTINUOUS
 62
7
 10
-457.772003
 20
302.399994
 11
-458.272003
 21
302.899994
  0
LINE
  8
0
  6
CONTINUOUS
 62
7
 10
-461.471008
 20
302.898987
 11
-461.971008
 21
302.398987
  0
LINE
  8
0
  6
CONTINUOUS
 62
7
 10
-455.471985
 20
303.399994
 11
-458.272003
 21
303.399994
  0
LINE
  8
0
  6
CONTINUOUS
 62
7
 10
-455.471985
 20
302.899994
 11
-455.471985
 21
303.399994
  0
LINE
  8
0
  6
CONTINUOUS
 62
7
 10
-452.272003
 20
302.899994
 11
-452.272003
 21
303.399994
  0
LINE
  8
0
  6
CONTINUOUS
 62
7
 10
-455.971985
 20
300.799988
 11
-455.971985
 21
302.399994
  0
LINE
  8
0
  6
CONTINUOUS
 62
7
 10
-451.772003
 20
300.799988
 11
-451.772003
 21
302.399994
  0
LINE
  8
0
  6
CONTINUOUS
 62
7
 10
-451.772003
 20
302.399994
 11
-452.272003
 21
302.899994
  0
LINE
  8
0
  6
CONTINUOUS
 62
7
 10
-455.471985
 20
302.898987
 11
-455.971985
 21
302.398987
  0
LINE
  8
0
  6
CONTINUOUS
 62
7
 10
-487.872009
 20
228.399994
 11
-487.872009
 21
238.399994
  0
LINE
  8
0
  6
CONTINUOUS
 62
7
 10
-461.471985
 20
303.399994
 11
-484.140991
 21
303.399994
  0
LINE
  8
0
  6
CONTINUOUS
 62
7
 10
-487.372009
 20
274.200012
 11
-487.872009
 21
274.200012
  0
LINE
  8
0
  6
CONTINUOUS
 62
7
 10
-487.372009
 20
282.600006
 11
-487.872009
 21
282.600006
  0
LINE
  8
0
  6
CONTINUOUS
 62
7
 10
-487.872009
 20
282.600006
 11
-487.872009
 21
302.399994
  0
LINE
  8
0
  6
CONTINUOUS
 62
7
 10
-487.372009
 20
193.899994
 11
-487.872009
 21
193.399994
  0
LINE
  8
0
  6
CONTINUOUS
 62
7
 10
-487.872009
 20
218.399994
 11
-487.372009
 21
217.899002
  0
LINE
  8
0
  6
CONTINUOUS
 62
7
 10
-487.872009
 20
193.399994
 11
-487.872009
 21
182.600006
  0
LINE
  8
0
  6
CONTINUOUS
 62
7
 10
-487.871002
 20
238.399994
 11
-487.372009
 21
238.899002
  0
LINE
  8
0
  6
CONTINUOUS
 62
7
 10
-487.372009
 20
262.899994
 11
-487.872009
 21
263.399994
  0
LINE
  8
0
  6
CONTINUOUS
 62
7
 10
-487.872009
 20
263.399994
 11
-487.872009
 21
274.200012
  0
LINE
  8
0
  6
CONTINUOUS
 62
7
 10
-461.471985
 20
153.899994
 11
-461.471985
 21
153.399994
  0
LINE
  8
0
  6
CONTINUOUS
 62
7
 10
-458.272003
 20
153.899994
 11
-458.272003
 21
153.399994
  0
LINE
  8
0
  6
CONTINUOUS
 62
7
 10
-461.971985
 20
156.000000
 11
-461.971985
 21
154.399994
  0
LINE
  8
0
  6
CONTINUOUS
 62
7
 10
-457.772003
 20
156.000000
 11
-457.772003
 21
154.399994
  0
LINE
  8
0
  6
CONTINUOUS
 62
7
 10
-457.772003
 20
154.399994
 11
-458.272003
 21
153.899994
  0
LINE
  8
0
  6
CONTINUOUS
 62
7
 10
-461.471985
 20
153.899994
 11
-461.971985
 21
154.399994
  0
LINE
  8
0
  6
CONTINUOUS
 62
7
 10
-455.471985
 20
153.899994
 11
-455.471985
 21
153.399994
  0
LINE
  8
0
  6
CONTINUOUS
 62
7
 10
-452.272003
 20
153.899994
 11
-452.272003
 21
153.399994
  0
LINE
  8
0
  6
CONTINUOUS
 62
7
 10
-455.971985
 20
156.000000
 11
-455.971985
 21
154.399994
  0
LINE
  8
0
  6
CONTINUOUS
 62
7
 10
-451.772003
 20
156.000000
 11
-451.772003
 21
154.399994
  0
LINE
  8
0
  6
CONTINUOUS
 62
7
 10
-451.772003
 20
154.399994
 11
-452.272003
 21
153.899994
  0
LINE
  8
0
  6
CONTINUOUS
 62
7
 10
-455.471008
 20
153.899994
 11
-455.971985
 21
154.399994
  0
LINE
  8
0
  6
CONTINUOUS
 62
7
 10
-487.872009
 20
302.399994
 11
-484.140015
 21
303.399994
  0
LINE
  8
0
  6
CONTINUOUS
 62
7
 10
-487.872009
 20
154.399994
 11
-484.140015
 21
153.399994
  0
LINE
  8
0
  6
CONTINUOUS
 62
7
 10
-487.372009
 20
302.533997
 11
-487.372009
 21
154.266006
  0
LINE
  8
0
  6
CONTINUOUS
 62
7
 10
-452.872009
 20
159.399994
 11
-460.872009
 21
159.399994
  0
LINE
  8
0
  6
CONTINUOUS
 62
7
 10
-462.872009
 20
157.399994
 11
-462.872009
 21
153.399994
  0
LINE
  8
0
  6
CONTINUOUS
 62
7
 10
-450.872009
 20
157.399994
 11
-450.872009
 21
153.399994
  0
LINE
  8
0
  6
CONTINUOUS
 62
7
 10
-462.872009
 20
299.399994
 11
-462.872009
 21
303.399994
  0
LINE
  8
0
  6
CONTINUOUS
 62
7
 10
-450.872009
 20
299.399994
 11
-450.872009
 21
303.399994
  0
LINE
  8
0
  6
CONTINUOUS
 62
7
 10
-452.872009
 20
297.399994
 11
-460.872009
 21
297.399994
  0
LINE
  8
0
  6
CENTER
 62
2
 10
-463.566010
 20
218.399994
 11
-447.947998
 21
218.399994
  0
LINE
  8
0
  6
CONTINUOUS
 62
7
 10
-387.872009
 20
286.399994
 11
-387.872009
 21
270.399994
  0
LINE
  8
0
  6
CONTINUOUS
 62
7
 10
-387.872009
 20
286.399994
 11
-396.872009
 21
286.399994
  0
LINE
  8
0
  6
CONTINUOUS
 62
7
 10
-390.872009
 20
250.899994
 11
-390.872009
 21
205.899994
  0
LINE
  8
0
  6
CONTINUOUS
 62
7
 10
-392.872009
 20
240.776001
 11
-392.872009
 21
216.024002
  0
LINE
  8
0
  6
CONTINUOUS
 62
7
 10
-401.872009
 20
303.399994
 11
-452.272003
 21
303.399994
  0
LINE
  8
0
  6
CONTINUOUS
 62
7
 10
-387.872009
 20
270.399994
 11
-396.872009
 21
270.399994
  0
LINE
  8
0
  6
CONTINUOUS
 62
7
 10
-401.872009
 20
300.399994
 11
-412.372009
 21
300.399994
  0
LINE
  8
0
  6
CONTINUOUS
 62
7
 10
-387.872009
 20
170.399994
 11
-387.872009
 21
186.399994
  0
LINE
  8
0
  6
CONTINUOUS
 62
7
 10
-399.872009
 20
187.399994
 11
-399.872009
 21
203.899994
  0
LINE
  8
0
  6
CONTINUOUS
 62
7
 10
-396.872009
 20
188.899994
 11
-396.872009
 21
199.899994
  0
LINE
  8
0
  6
CONTINUOUS
 62
7
 10
-396.872009
 20
199.899002
 11
-390.872009
 21
205.899002
  0
LINE
  8
0
  6
CENTER
 62
2
 10
-393.231995
 20
163.399994
 11
-407.743011
 21
163.399994
  0
LINE
  8
0
  6
CONTINUOUS
 62
7
 10
-395.872009
 20
167.462997
 11
-395.872009
 21
159.337006
  0
LINE
  8
0
  6
CONTINUOUS
 62
7
 10
-396.872009
 20
159.250000
 11
-395.872009
 21
159.337997
  0
LINE
  8
0
  6
CONTINUOUS
 62
7
 10
-396.872009
 20
167.550003
 11
-395.872009
 21
167.462997
  0
LINE
  8
0
  6
CONTINUOUS
 62
7
 10
-387.872009
 20
186.399994
 11
-396.872009
 21
186.399994
  0
LINE
  8
0
  6
CONTINUOUS
 62
7
 10
-387.872009
 20
170.399994
 11
-396.872009
 21
170.399994
  0
LINE
  8
0
  6
CONTINUOUS
 62
7
 10
-401.872009
 20
153.399994
 11
-452.272003
 21
153.399994
  0
LINE
  8
0
  6
CONTINUOUS
 62
7
 10
-401.872009
 20
156.399994
 11
-412.372009
 21
156.399994
  0
LINE
  8
0
  6
CONTINUOUS
 62
7
 10
-396.872009
 20
158.399994
 11
-396.872009
 21
167.399994
  0
LINE
  8
0
  6
CONTINUOUS
 62
7
 10
-399.872009
 20
158.399994
 11
-399.872009
 21
168.899994
  0
LINE
  8
0
  6
CENTER
 62
2
 10
-421.872009
 20
226.893997
 11
-421.872009
 21
199.636993
  0
LINE
  8
0
  6
CENTER
 62
2
 10
-433.626007
 20
243.399994
 11
-410.808990
 21
243.399994
  0
LINE
  8
0
  6
CONTINUOUS
 62
7
 10
-418.872009
 20
245.203003
 11
-418.872009
 21
241.597000
  0
LINE
  8
0
  6
CONTINUOUS
 62
7
 10
-424.872009
 20
245.203003
 11
-424.872009
 21
241.597000
  0
LINE
  8
0
  6
CONTINUOUS
 62
7
 10
-424.872009
 20
245.203003
 11
-421.872009
 21
246.899994
  0
LINE
  8
0
  6
CONTINUOUS
 62
7
 10
-421.872009
 20
246.899994
 11
-418.872009
 21
245.203003
  0
LINE
  8
0
  6
CONTINUOUS
 62
7
 10
-418.872009
 20
241.598007
 11
-421.872986
 21
239.899994
  0
LINE
  8
0
  6
CONTINUOUS
 62
7
 10
-421.872009
 20
239.899994
 11
-424.872009
 21
241.597000
  0
LINE
  8
0
  6
CENTER
 62
2
 10
-435.519012
 20
213.399994
 11
-408.438995
 21
213.399994
  0
LINE
  8
0
  6
CENTER
 62
2
 10
-421.872009
 20
232.220001
 11
-421.872009
 21
254.615005
  0
LINE
  8
0
  6
CONTINUOUS
 62
7
 10
-401.872009
 20
190.199997
 11
-401.872009
 21
191.699997
  0
LINE
  8
0
  6
CONTINUOUS
 62
7
 10
-405.372009
 20
190.199997
 11
-405.372009
 21
191.699997
  0
LINE
  8
0
  6
CONTINUOUS
 62
7
 10
-406.372009
 20
191.699997
 11
-406.372009
 21
196.100006
  0
LINE
  8
0
  6
CONTINUOUS
 62
7
 10
-401.872009
 20
197.600006
 11
-405.372009
 21
197.600006
  0
LINE
  8
0
  6
CONTINUOUS
 62
7
 10
-401.872009
 20
190.199997
 11
-405.372009
 21
190.199997
  0
LINE
  8
0
  6
CONTINUOUS
 62
7
 10
-399.872009
 20
196.100006
 11
-401.872009
 21
196.100006
  0
LINE
  8
0
  6
CONTINUOUS
 62
7
 10
-399.872009
 20
191.699997
 11
-401.872009
 21
191.699997
  0
LINE
  8
0
  6
CONTINUOUS
 62
7
 10
-405.372009
 20
196.100006
 11
-406.372009
 21
196.100006
  0
LINE
  8
0
  6
CONTINUOUS
 62
7
 10
-405.372009
 20
191.699997
 11
-406.372009
 21
191.699997
  0
LINE
  8
0
  6
CONTINUOUS
 62
7
 10
-405.372009
 20
196.100006
 11
-405.372009
 21
197.600006
  0
LINE
  8
0
  6
CONTINUOUS
 62
7
 10
-401.872009
 20
191.699997
 11
-401.872009
 21
197.600006
  0
LINE
  8
0
  6
CONTINUOUS
 62
7
 10
-401.872009
 20
265.100006
 11
-401.872009
 21
259.200012
  0
LINE
  8
0
  6
CONTINUOUS
 62
7
 10
-401.872009
 20
266.600006
 11
-401.872009
 21
265.100006
  0
LINE
  8
0
  6
CONTINUOUS
 62
7
 10
-405.372009
 20
266.600006
 11
-405.372009
 21
265.100006
  0
LINE
  8
0
  6
CONTINUOUS
 62
7
 10
-406.372009
 20
265.100006
 11
-406.372009
 21
260.700012
  0
LINE
  8
0
  6
CONTINUOUS
 62
7
 10
-401.872009
 20
259.200012
 11
-405.372009
 21
259.200012
  0
LINE
  8
0
  6
CONTINUOUS
 62
7
 10
-401.872009
 20
266.600006
 11
-405.372009
 21
266.600006
  0
LINE
  8
0
  6
CONTINUOUS
 62
7
 10
-399.872009
 20
260.700012
 11
-401.872009
 21
260.700012
  0
LINE
  8
0
  6
CONTINUOUS
 62
7
 10
-399.872009
 20
265.100006
 11
-401.872009
 21
265.100006
  0
LINE
  8
0
  6
CONTINUOUS
 62
7
 10
-405.372009
 20
260.700012
 11
-406.372009
 21
260.700012
  0
LINE
  8
0
  6
CONTINUOUS
 62
7
 10
-405.372009
 20
265.100006
 11
-406.372009
 21
265.100006
  0
LINE
  8
0
  6
CONTINUOUS
 62
7
 10
-405.372009
 20
260.700012
 11
-405.372009
 21
259.200012
  0
LINE
  8
0
  6
CENTER
 62
2
 10
-393.231995
 20
193.899994
 11
-407.643005
 21
193.899994
  0
LINE
  8
0
  6
CONTINUOUS
 62
7
 10
-395.872009
 20
197.962997
 11
-395.872009
 21
189.837006
  0
LINE
  8
0
  6
CONTINUOUS
 62
7
 10
-396.872009
 20
189.750000
 11
-395.872009
 21
189.837997
  0
LINE
  8
0
  6
CONTINUOUS
 62
7
 10
-396.872009
 20
198.050003
 11
-395.872009
 21
197.962006
  0
LINE
  8
0
  6
CENTER
 62
2
 10
-393.231995
 20
293.399994
 11
-408.023987
 21
293.399994
  0
LINE
  8
0
  6
CONTINUOUS
 62
7
 10
-395.872009
 20
289.337006
 11
-395.872009
 21
297.463013
  0
LINE
  8
0
  6
CONTINUOUS
 62
7
 10
-396.872009
 20
297.549988
 11
-395.872009
 21
297.462006
  0
LINE
  8
0
  6
CONTINUOUS
 62
7
 10
-396.872009
 20
289.250000
 11
-395.872009
 21
289.337006
  0
LINE
  8
0
  6
CONTINUOUS
 62
7
 10
-396.872009
 20
298.399994
 11
-396.872009
 21
289.399994
  0
LINE
  8
0
  6
CONTINUOUS
 62
7
 10
-399.872009
 20
298.399994
 11
-399.872009
 21
287.899994
  0
LINE
  8
0
  6
CONTINUOUS
 62
7
 10
-399.872009
 20
269.399994
 11
-399.872009
 21
252.899994
  0
LINE
  8
0
  6
CONTINUOUS
 62
7
 10
-396.872009
 20
267.899994
 11
-396.872009
 21
256.899994
  0
LINE
  8
0
  6
CONTINUOUS
 62
7
 10
-396.872009
 20
256.899994
 11
-390.872009
 21
250.899994
  0
LINE
  8
0
  6
CENTER
 62
2
 10
-393.231995
 20
262.899994
 11
-407.928986
 21
262.899994
  0
LINE
  8
0
  6
CONTINUOUS
 62
7
 10
-395.872009
 20
258.838013
 11
-395.872009
 21
266.963013
  0
LINE
  8
0
  6
CONTINUOUS
 62
7
 10
-396.872986
 20
267.049988
 11
-395.872009
 21
266.962006
  0
LINE
  8
0
  6
CONTINUOUS
 62
7
 10
-396.872009
 20
258.750000
 11
-395.872009
 21
258.837006
  0
LINE
  8
0
  6
CONTINUOUS
 62
7
 10
-399.872009
 20
203.899994
 11
-392.872009
 21
216.024002
  0
LINE
  8
0
  6
CONTINUOUS
 62
7
 10
-399.872009
 20
252.899994
 11
-392.872009
 21
240.776001
  0
LINE
  8
0
  6
CONTINUOUS
 62
7
 10
-412.372009
 20
155.399994
 11
-410.471985
 21
155.399994
  0
LINE
  8
0
  6
CONTINUOUS
 62
7
 10
-411.821991
 20
303.399994
 11
-410.265991
 21
301.916992
  0
LINE
  8
0
  6
CONTINUOUS
 62
7
 10
-401.872009
 20
295.600006
 11
-401.872009
 21
289.700012
  0
LINE
  8
0
  6
CONTINUOUS
 62
7
 10
-401.872009
 20
297.100006
 11
-401.872009
 21
295.600006
  0
LINE
  8
0
  6
CONTINUOUS
 62
7
 10
-405.372009
 20
297.100006
 11
-405.372009
 21
295.600006
  0
LINE
  8
0
  6
CONTINUOUS
 62
7
 10
-406.372009
 20
295.600006
 11
-406.372009
 21
291.200012
  0
LINE
  8
0
  6
CONTINUOUS
 62
7
 10
-401.872009
 20
289.700012
 11
-405.372009
 21
289.700012
  0
LINE
  8
0
  6
CONTINUOUS
 62
7
 10
-401.872009
 20
297.100006
 11
-405.372009
 21
297.100006
  0
LINE
  8
0
  6
CONTINUOUS
 62
7
 10
-399.872009
 20
291.200012
 11
-401.872009
 21
291.200012
  0
LINE
  8
0
  6
CONTINUOUS
 62
7
 10
-399.872009
 20
295.600006
 11
-401.872009
 21
295.600006
  0
LINE
  8
0
  6
CONTINUOUS
 62
7
 10
-405.372009
 20
291.200012
 11
-406.372009
 21
291.200012
  0
LINE
  8
0
  6
CONTINUOUS
 62
7
 10
-405.372009
 20
295.600006
 11
-406.372009
 21
295.600006
  0
LINE
  8
0
  6
CONTINUOUS
 62
7
 10
-405.372009
 20
291.200012
 11
-405.372009
 21
289.700012
  0
LINE
  8
0
  6
CONTINUOUS
 62
7
 10
-412.372009
 20
301.399994
 11
-410.471985
 21
301.399994
  0
LINE
  8
0
  6
CONTINUOUS
 62
7
 10
-401.872009
 20
165.600006
 11
-401.872009
 21
167.100006
  0
LINE
  8
0
  6
CONTINUOUS
 62
7
 10
-401.872009
 20
159.699997
 11
-401.872009
 21
165.600006
  0
LINE
  8
0
  6
CONTINUOUS
 62
7
 10
-405.372009
 20
159.699997
 11
-405.372009
 21
161.199997
  0
LINE
  8
0
  6
CONTINUOUS
 62
7
 10
-406.372009
 20
161.199997
 11
-406.372009
 21
165.600006
  0
LINE
  8
0
  6
CONTINUOUS
 62
7
 10
-401.872009
 20
167.100006
 11
-405.372009
 21
167.100006
  0
LINE
  8
0
  6
CONTINUOUS
 62
7
 10
-401.872009
 20
159.699997
 11
-405.372009
 21
159.699997
  0
LINE
  8
0
  6
CONTINUOUS
 62
7
 10
-399.872009
 20
165.600006
 11
-401.872009
 21
165.600006
  0
LINE
  8
0
  6
CONTINUOUS
 62
7
 10
-399.872009
 20
161.199997
 11
-401.872009
 21
161.199997
  0
LINE
  8
0
  6
CONTINUOUS
 62
7
 10
-405.372009
 20
165.600006
 11
-406.372009
 21
165.600006
  0
LINE
  8
0
  6
CONTINUOUS
 62
7
 10
-405.372009
 20
161.199997
 11
-406.372009
 21
161.199997
  0
LINE
  8
0
  6
CONTINUOUS
 62
7
 10
-405.372009
 20
165.600006
 11
-405.372009
 21
167.100006
  0
LINE
  8
0
  6
CONTINUOUS
 62
7
 10
-396.872009
 20
187.399994
 11
-399.872009
 21
187.399994
  0
LINE
  8
0
  6
CONTINUOUS
 62
7
 10
-396.872009
 20
168.899994
 11
-399.872009
 21
168.899994
  0
LINE
  8
0
  6
CONTINUOUS
 62
7
 10
-396.872009
 20
187.399994
 11
-396.872009
 21
168.899994
  0
LINE
  8
0
  6
CONTINUOUS
 62
7
 10
-396.872009
 20
269.399994
 11
-396.872009
 21
287.899994
  0
LINE
  8
0
  6
CONTINUOUS
 62
7
 10
-396.872009
 20
269.399994
 11
-399.872009
 21
269.399994
  0
LINE
  8
0
  6
CONTINUOUS
 62
7
 10
-396.872009
 20
287.899994
 11
-399.872009
 21
287.899994
  0
LINE
  8
0
  6
CONTINUOUS
 62
7
 10
-461.471985
 20
153.399994
 11
-484.140015
 21
153.399994
  0
LINE
  8
0
  6
CONTINUOUS
 62
7
 10
-455.471985
 20
153.399994
 11
-458.272003
 21
153.399994
  0
LINE
  8
0
  6
CONTINUOUS
 62
7
 10
-412.372009
 20
156.399994
 11
-412.372009
 21
155.399994
  0
LINE
  8
0
  6
CONTINUOUS
 62
7
 10
-398.872009
 20
168.399994
 11
-397.872009
 21
168.399994
  0
LINE
  8
0
  6
CONTINUOUS
 62
7
 10
-398.872009
 20
268.899994
 11
-397.872009
 21
268.899994
  0
LINE
  8
0
  6
CONTINUOUS
 62
7
 10
-398.872009
 20
187.899994
 11
-397.872009
 21
187.899994
  0
LINE
  8
0
  6
CONTINUOUS
 62
7
 10
-398.872009
 20
288.399994
 11
-397.872009
 21
288.399994
  0
LINE
  8
0
  6
CONTINUOUS
 62
7
 10
-412.372009
 20
301.399994
 11
-412.372009
 21
300.399994
  0
LINE
  8
0
  6
CONTINUOUS
 62
7
 10
-405.071991
 20
159.899994
 11
-405.071991
 21
166.899994
  0
LINE
  8
0
  6
CONTINUOUS
 62
7
 10
-405.071991
 20
190.399994
 11
-405.071991
 21
197.399994
  0
LINE
  8
0
  6
CONTINUOUS
 62
7
 10
-401.872009
 20
159.899994
 11
-405.071991
 21
159.899994
  0
LINE
  8
0
  6
CONTINUOUS
 62
7
 10
-401.872009
 20
166.899994
 11
-405.071991
 21
166.899994
  0
LINE
  8
0
  6
CONTINUOUS
 62
7
 10
-401.872009
 20
197.399994
 11
-405.071991
 21
197.399994
  0
LINE
  8
0
  6
CONTINUOUS
 62
7
 10
-401.872009
 20
190.399994
 11
-405.071991
 21
190.399994
  0
LINE
  8
0
  6
CONTINUOUS
 62
2
 10
-399.872009
 20
192.399994
 11
-401.872009
 21
192.399994
  0
LINE
  8
0
  6
CONTINUOUS
 62
2
 10
-399.872009
 20
195.399994
 11
-401.872009
 21
195.399994
  0
LINE
  8
0
  6
CONTINUOUS
 62
2
 10
-399.872009
 20
161.899994
 11
-401.872009
 21
161.899994
  0
LINE
  8
0
  6
CONTINUOUS
 62
2
 10
-399.872009
 20
164.899994
 11
-401.872009
 21
164.899994
  0
LINE
  8
0
  6
CONTINUOUS
 62
7
 10
-405.071991
 20
296.899994
 11
-405.071991
 21
289.899994
  0
LINE
  8
0
  6
CONTINUOUS
 62
7
 10
-405.071991
 20
266.399994
 11
-405.071991
 21
259.399994
  0
LINE
  8
0
  6
CONTINUOUS
 62
7
 10
-401.872009
 20
259.399994
 11
-405.071991
 21
259.399994
  0
LINE
  8
0
  6
CONTINUOUS
 62
7
 10
-401.872009
 20
266.399994
 11
-405.071991
 21
266.399994
  0
LINE
  8
0
  6
CONTINUOUS
 62
7
 10
-401.872009
 20
289.899994
 11
-405.071991
 21
289.899994
  0
LINE
  8
0
  6
CONTINUOUS
 62
7
 10
-401.872009
 20
296.899994
 11
-405.071991
 21
296.899994
  0
LINE
  8
0
  6
CONTINUOUS
 62
2
 10
-399.872009
 20
291.899994
 11
-401.872009
 21
291.899994
  0
LINE
  8
0
  6
CONTINUOUS
 62
2
 10
-399.872009
 20
294.899994
 11
-401.872009
 21
294.899994
  0
LINE
  8
0
  6
CONTINUOUS
 62
2
 10
-399.872009
 20
261.399994
 11
-401.872009
 21
261.399994
  0
LINE
  8
0
  6
CONTINUOUS
 62
2
 10
-399.872009
 20
264.399994
 11
-401.872009
 21
264.399994
  0
LINE
  8
0
  6
CENTER
 62
2
 10
-463.566010
 20
234.399994
 11
-447.947998
 21
234.399994
  0
LINE
  8
0
  6
CONTINUOUS
 62
7
 10
-411.821991
 20
153.399994
 11
-410.265991
 21
154.882996
  0
LINE
  8
0
  6
CONTINUOUS
 62
4
 10
-179.166000
 20
-75.861099
 11
-179.166000
 21
-95.361099
  0
LINE
  8
0
  6
CONTINUOUS
 62
4
 10
-166.666000
 20
-75.861099
 11
-166.666000
 21
-95.361099
  0
LINE
  8
0
  6
CONTINUOUS
 62
4
 10
-141.666000
 20
-84.861099
 11
-141.666000
 21
-95.361099
  0
LINE
  8
0
  6
CONTINUOUS
 62
4
 10
-166.166000
 20
-231.860992
 11
-142.166000
 21
-231.860992
  0
LINE
  8
0
  6
CONTINUOUS
 62
4
 10
-129.166000
 20
-75.861099
 11
-129.166000
 21
-95.361099
  0
LINE
  8
0
  6
CONTINUOUS
 62
4
 10
-166.166000
 20
-210.860992
 11
-166.166000
 21
-232.360992
  0
LINE
  8
0
  6
CONTINUOUS
 62
4
 10
-142.166000
 20
-210.860992
 11
-142.166000
 21
-231.860992
  0
LINE
  8
0
  6
CENTER
 62
1
 10
-272.468994
 20
-222.860992
 11
-137.744995
 21
-222.860992
  0
LINE
  8
0
  6
CONTINUOUS
 62
4
 10
-198.166000
 20
-213.360992
 11
-198.166000
 21
-232.360992
  0
LINE
  8
0
  6
CONTINUOUS
 62
4
 10
-205.166000
 20
-213.360992
 11
-205.166000
 21
-232.360992
  0
LINE
  8
0
  6
CONTINUOUS
 62
4
 10
-205.166000
 20
-232.360992
 11
-166.166000
 21
-232.360992
  0
LINE
  8
0
  6
CONTINUOUS
 62
4
 10
-205.166000
 20
-213.360992
 11
-166.166000
 21
-213.360992
  0
LINE
  8
0
  6
CONTINUOUS
 62
4
 10
-268.165985
 20
-216.360992
 11
-268.165985
 21
-229.360992
  0
LINE
  8
0
  6
CONTINUOUS
 62
4
 10
-261.165985
 20
-216.360992
 11
-261.165985
 21
-229.360992
  0
LINE
  8
0
  6
CONTINUOUS
 62
4
 10
-251.166000
 20
-215.860992
 11
-251.166000
 21
-229.860992
  0
LINE
  8
0
  6
CONTINUOUS
 62
4
 10
-209.666000
 20
-210.860992
 11
-209.666000
 21
-233.860992
  0
LINE
  8
0
  6
CONTINUOUS
 62
4
 10
-239.666000
 20
-210.860992
 11
-239.666000
 21
-233.860992
  0
LINE
  8
0
  6
CONTINUOUS
 62
4
 10
-246.666000
 20
-213.360992
 11
-246.666000
 21
-232.360992
  0
LINE
  8
0
  6
CONTINUOUS
 62
4
 10
-268.165985
 20
-216.360992
 11
-251.166000
 21
-216.360992
  0
LINE
  8
0
  6
CONTINUOUS
 62
4
 10
-268.165985
 20
-229.360992
 11
-251.166000
 21
-229.360992
  0
LINE
  8
0
  6
CONTINUOUS
 62
4
 10
-250.166000
 20
-230.860992
 11
-246.666000
 21
-230.860992
  0
LINE
  8
0
  6
CONTINUOUS
 62
4
 10
-250.166000
 20
-214.860992
 11
-246.666000
 21
-214.860992
  0
LINE
  8
0
  6
CONTINUOUS
 62
4
 10
-209.666000
 20
-214.860992
 11
-205.166000
 21
-214.860992
  0
LINE
  8
0
  6
CONTINUOUS
 62
4
 10
-209.666000
 20
-230.860992
 11
-205.166000
 21
-230.860992
  0
LINE
  8
0
  6
CONTINUOUS
 62
4
 10
-246.666000
 20
-213.360992
 11
-239.666000
 21
-213.360992
  0
LINE
  8
0
  6
CONTINUOUS
 62
4
 10
-246.666000
 20
-232.360992
 11
-239.666000
 21
-232.360992
  0
LINE
  8
0
  6
CONTINUOUS
 62
4
 10
-269.665985
 20
-210.860992
 11
-269.665985
 21
-233.860992
  0
LINE
  8
0
  6
CONTINUOUS
 62
4
 10
-179.666000
 20
-210.860992
 11
-179.666000
 21
-213.360992
  0
LINE
  8
0
  6
CONTINUOUS
 62
4
 10
-179.666000
 20
-232.360992
 11
-179.666000
 21
-233.860992
  0
LINE
  8
0
  6
CONTINUOUS
 62
4
 10
-166.666000
 20
-84.861099
 11
-141.666000
 21
-84.861099
  0
LINE
  8
0
  6
CENTER
 62
1
 10
-154.166000
 20
-81.293297
 11
-154.166000
 21
-234.322998
  0
LINE
  8
0
  6
CONTINUOUS
 62
4
 10
-150.166000
 20
-85.361099
 11
-150.166000
 21
-95.361099
  0
LINE
  8
0
  6
CONTINUOUS
 62
4
 10
-158.166000
 20
-85.361099
 11
-158.166000
 21
-95.361099
  0
LINE
  8
0
  6
CENTER
 62
1
 10
-176.128998
 20
-185.860992
 11
-169.110992
 21
-185.860992
  0
LINE
  8
0
  6
CENTER
 62
1
 10
-172.666000
 20
-182.270996
 11
-172.666000
 21
-189.343994
  0
LINE
  8
0
  6
CENTER
 62
1
 10
-139.128998
 20
-185.860992
 11
-132.110992
 21
-185.860992
  0
LINE
  8
0
  6
CENTER
 62
1
 10
-135.666000
 20
-182.270996
 11
-135.666000
 21
-189.343994
  0
LINE
  8
0
  6
CONTINUOUS
 62
4
 10
-166.666000
 20
-85.361099
 11
-141.666000
 21
-85.361099
  0
LINE
  8
0
  6
CONTINUOUS
 62
4
 10
-129.166000
 20
-176.360992
 11
-129.166000
 21
-195.860992
  0
LINE
  8
0
  6
CONTINUOUS
 62
4
 10
-179.166000
 20
-176.360992
 11
-179.166000
 21
-195.860992
  0
LINE
  8
0
  6
CONTINUOUS
 62
4
 10
-166.666000
 20
-176.360992
 11
-166.666000
 21
-195.860992
  0
LINE
  8
0
  6
CONTINUOUS
 62
4
 10
-150.166000
 20
-176.360992
 11
-150.166000
 21
-184.860992
  0
LINE
  8
0
  6
CONTINUOUS
 62
4
 10
-158.166000
 20
-176.360992
 11
-158.166000
 21
-184.860992
  0
LINE
  8
0
  6
CONTINUOUS
 62
4
 10
-245.466003
 20
-222.860992
 11
-240.865997
 21
-222.860992
  0
LINE
  8
0
  6
CONTINUOUS
 62
4
 10
-203.966003
 20
-222.860992
 11
-199.365997
 21
-222.860992
  0
LINE
  8
0
  6
CONTINUOUS
 62
4
 10
-196.966003
 20
-222.860992
 11
-167.367004
 21
-222.860992
  0
LINE
  8
0
  6
CONTINUOUS
 62
1
 10
-209.666000
 20
-215.860992
 11
-205.166000
 21
-215.860992
  0
LINE
  8
0
  6
CONTINUOUS
 62
1
 10
-209.666000
 20
-229.860992
 11
-205.166000
 21
-229.860992
  0
LINE
  8
0
  6
CONTINUOUS
 62
1
 10
-251.166000
 20
-215.860992
 11
-246.666000
 21
-215.860992
  0
LINE
  8
0
  6
CONTINUOUS
 62
1
 10
-251.166000
 20
-229.860992
 11
-246.666000
 21
-229.860992
  0
LINE
  8
0
  6
CONTINUOUS
 62
4
 10
-250.166000
 20
-214.860992
 11
-250.166000
 21
-230.860992
  0
LINE
  8
0
  6
CONTINUOUS
 62
4
 10
-250.166000
 20
-214.860992
 11
-251.166000
 21
-215.860992
  0
LINE
  8
0
  6
CONTINUOUS
 62
4
 10
-251.166000
 20
-229.862000
 11
-250.166000
 21
-230.862000
  0
LINE
  8
0
  6
CONTINUOUS
 62
4
 10
-269.665985
 20
-233.860992
 11
-179.666000
 21
-233.860992
  0
LINE
  8
0
  6
CONTINUOUS
 62
4
 10
-179.166000
 20
-75.861099
 11
-129.166000
 21
-75.861099
  0
LINE
  8
0
  6
CONTINUOUS
 62
4
 10
-179.166000
 20
-95.361099
 11
-129.166000
 21
-95.361099
  0
LINE
  8
0
  6
CONTINUOUS
 62
4
 10
-179.166000
 20
-176.360992
 11
-129.166000
 21
-176.360992
  0
LINE
  8
0
  6
CONTINUOUS
 62
4
 10
-179.166000
 20
-195.860992
 11
-129.166000
 21
-195.860992
  0
LINE
  8
0
  6
CONTINUOUS
 62
4
 10
-142.166000
 20
-210.860992
 11
-269.665985
 21
-210.860992
  0
LINE
  8
0
  6
CENTER
 62
1
 10
159.542999
 20
-222.860992
 11
185.761002
 21
-222.860992
  0
LINE
  8
0
  6
CENTER
 62
1
 10
172.481003
 20
-209.651993
 11
172.481003
 21
-236.707993
  0
LINE
  8
0
  6
CONTINUOUS
 62
4
 10
235.481003
 20
-210.860992
 11
235.481003
 21
-233.860992
  0
LINE
  8
0
  6
CONTINUOUS
 62
4
 10
213.481003
 20
-233.860992
 11
213.481003
 21
-210.860992
  0
LINE
  8
0
  6
CONTINUOUS
 62
4
 10
162.481003
 20
-231.860992
 11
182.481003
 21
-231.860992
  0
LINE
  8
0
  6
CONTINUOUS
 62
4
 10
162.481003
 20
-210.860992
 11
162.481003
 21
-231.860992
  0
LINE
  8
0
  6
CONTINUOUS
 62
4
 10
182.481003
 20
-210.860992
 11
182.481003
 21
-231.860992
  0
LINE
  8
0
  6
CONTINUOUS
 62
4
 10
167.035995
 20
-232.360992
 11
177.925995
 21
-232.360992
  0
LINE
  8
0
  6
CONTINUOUS
 62
4
 10
162.481003
 20
-221.220993
 11
161.529999
 21
-222.860992
  0
LINE
  8
0
  6
CONTINUOUS
 62
4
 10
161.531006
 20
-222.860992
 11
162.481003
 21
-224.501007
  0
LINE
  8
0
  6
CONTINUOUS
 62
4
 10
182.481003
 20
-224.500000
 11
183.429993
 21
-222.860992
  0
LINE
  8
0
  6
CONTINUOUS
 62
4
 10
183.431000
 20
-222.860992
 11
182.481003
 21
-221.220993
  0
LINE
  8
0
  6
CONTINUOUS
 62
4
 10
166.746002
 20
-231.860992
 11
167.035004
 21
-232.360992
  0
LINE
  8
0
  6
CONTINUOUS
 62
4
 10
178.216003
 20
-231.860992
 11
177.925995
 21
-232.360992
  0
LINE
  8
0
  6
CONTINUOUS
 62
4
 10
161.481003
 20
-210.860992
 11
161.481003
 21
-233.860992
  0
LINE
  8
0
  6
CONTINUOUS
 62
4
 10
161.481003
 20
-233.860992
 11
235.481003
 21
-233.860992
  0
LINE
  8
0
  6
CENTER
 62
1
 10
-288.743988
 20
-301.860992
 11
-135.955002
 21
-301.860992
  0
LINE
  8
0
  6
CONTINUOUS
 62
4
 10
-142.166000
 20
-291.860992
 11
-142.166000
 21
-311.860992
  0
LINE
  8
0
  6
CONTINUOUS
 62
4
 10
-166.166000
 20
-290.360992
 11
-166.166000
 21
-313.360992
  0
LINE
  8
0
  6
CONTINUOUS
 62
4
 10
-198.166000
 20
-292.854004
 11
-198.166000
 21
-310.868988
  0
LINE
  8
0
  6
CONTINUOUS
 62
4
 10
-205.166000
 20
-292.854004
 11
-205.166000
 21
-310.868988
  0
LINE
  8
0
  6
CONTINUOUS
 62
4
 10
-268.165985
 20
-295.360992
 11
-268.165985
 21
-308.360992
  0
LINE
  8
0
  6
CONTINUOUS
 62
4
 10
-261.165985
 20
-295.360992
 11
-261.165985
 21
-308.360992
  0
LINE
  8
0
  6
CONTINUOUS
 62
4
 10
-251.166000
 20
-294.860992
 11
-251.166000
 21
-308.860992
  0
LINE
  8
0
  6
CONTINUOUS
 62
4
 10
-209.666000
 20
-290.860992
 11
-209.666000
 21
-342.860992
  0
LINE
  8
0
  6
CONTINUOUS
 62
4
 10
-239.666000
 20
-290.860992
 11
-239.666000
 21
-342.860992
  0
LINE
  8
0
  6
CONTINUOUS
 62
4
 10
-246.666000
 20
-292.854004
 11
-246.666000
 21
-310.868988
  0
LINE
  8
0
  6
CONTINUOUS
 62
4
 10
-269.665985
 20
-364.860992
 11
-179.666000
 21
-364.860992
  0
LINE
  8
0
  6
CONTINUOUS
 62
4
 10
-269.665985
 20
-342.860992
 11
-239.666000
 21
-342.860992
  0
LINE
  8
0
  6
CONTINUOUS
 62
4
 10
-269.665985
 20
-342.860992
 11
-269.665985
 21
-364.860992
  0
LINE
  8
0
  6
CONTINUOUS
 62
4
 10
-179.666000
 20
-342.860992
 11
-179.666000
 21
-364.860992
  0
LINE
  8
0
  6
CONTINUOUS
 62
4
 10
-209.666000
 20
-342.860992
 11
-179.666000
 21
-342.860992
  0
LINE
  8
0
  6
CONTINUOUS
 62
4
 10
-268.165985
 20
-308.360992
 11
-251.166000
 21
-308.360992
  0
LINE
  8
0
  6
CONTINUOUS
 62
4
 10
-268.165985
 20
-295.360992
 11
-251.166000
 21
-295.360992
  0
LINE
  8
0
  6
CONTINUOUS
 62
4
 10
-250.166000
 20
-293.860992
 11
-246.666000
 21
-293.860992
  0
LINE
  8
0
  6
CONTINUOUS
 62
4
 10
-250.166000
 20
-309.860992
 11
-246.666000
 21
-309.860992
  0
LINE
  8
0
  6
CONTINUOUS
 62
4
 10
-244.904999
 20
-312.860992
 11
-241.427002
 21
-312.860992
  0
LINE
  8
0
  6
CONTINUOUS
 62
4
 10
-244.904007
 20
-290.860992
 11
-241.427994
 21
-290.860992
  0
LINE
  8
0
  6
CONTINUOUS
 62
4
 10
-203.404999
 20
-312.860992
 11
-199.927002
 21
-312.860992
  0
LINE
  8
0
  6
CONTINUOUS
 62
4
 10
-209.666000
 20
-309.860992
 11
-205.166000
 21
-309.860992
  0
LINE
  8
0
  6
CONTINUOUS
 62
4
 10
-209.666000
 20
-293.860992
 11
-205.166000
 21
-293.860992
  0
LINE
  8
0
  6
CONTINUOUS
 62
4
 10
-203.404007
 20
-290.860992
 11
-199.927994
 21
-290.860992
  0
LINE
  8
0
  6
CONTINUOUS
 62
4
 10
-166.166000
 20
-311.860992
 11
-141.666000
 21
-311.860992
  0
LINE
  8
0
  6
CONTINUOUS
 62
4
 10
-166.166000
 20
-291.860992
 11
-141.666000
 21
-291.860992
  0
LINE
  8
0
  6
CONTINUOUS
 62
4
 10
-129.166000
 20
-290.360992
 11
-129.166000
 21
-313.360992
  0
LINE
  8
0
  6
CONTINUOUS
 62
4
 10
-244.412994
 20
-308.860992
 11
-241.919006
 21
-308.860992
  0
LINE
  8
0
  6
CONTINUOUS
 62
4
 10
-244.412994
 20
-294.860992
 11
-241.673996
 21
-294.860992
  0
LINE
  8
0
  6
CONTINUOUS
 62
4
 10
-202.912994
 20
-294.860992
 11
-200.419006
 21
-294.860992
  0
LINE
  8
0
  6
CONTINUOUS
 62
4
 10
-202.912994
 20
-308.860992
 11
-200.419006
 21
-308.860992
  0
LINE
  8
0
  6
CENTER
 62
1
 10
-272.084991
 20
-353.860992
 11
-251.328003
 21
-353.860992
  0
LINE
  8
0
  6
CENTER
 62
1
 10
-261.665985
 20
-343.471985
 11
-261.665985
 21
-363.828003
  0
LINE
  8
0
  6
CONTINUOUS
 62
4
 10
-258.665985
 20
-352.058014
 11
-258.665985
 21
-355.664001
  0
LINE
  8
0
  6
CONTINUOUS
 62
4
 10
-264.665985
 20
-352.058014
 11
-264.665985
 21
-355.664001
  0
LINE
  8
0
  6
CONTINUOUS
 62
4
 10
-264.665985
 20
-352.058014
 11
-261.665985
 21
-350.360992
  0
LINE
  8
0
  6
CONTINUOUS
 62
4
 10
-261.665009
 20
-350.359985
 11
-258.665009
 21
-352.057007
  0
LINE
  8
0
  6
CONTINUOUS
 62
4
 10
-258.665985
 20
-355.664001
 11
-261.665985
 21
-357.360992
  0
LINE
  8
0
  6
CONTINUOUS
 62
4
 10
-261.665985
 20
-357.360992
 11
-264.665985
 21
-355.664001
  0
LINE
  8
0
  6
CENTER
 62
1
 10
-235.085007
 20
-353.860992
 11
-214.328003
 21
-353.860992
  0
LINE
  8
0
  6
CENTER
 62
1
 10
-224.666000
 20
-343.471985
 11
-224.666000
 21
-363.828003
  0
LINE
  8
0
  6
CONTINUOUS
 62
4
 10
-221.666000
 20
-352.058014
 11
-221.666000
 21
-355.664001
  0
LINE
  8
0
  6
CONTINUOUS
 62
4
 10
-227.666000
 20
-352.058014
 11
-227.666000
 21
-355.664001
  0
LINE
  8
0
  6
CONTINUOUS
 62
4
 10
-227.666000
 20
-352.058014
 11
-224.666000
 21
-350.360992
  0
LINE
  8
0
  6
CONTINUOUS
 62
4
 10
-224.666000
 20
-350.359985
 11
-221.666000
 21
-352.057007
  0
LINE
  8
0
  6
CONTINUOUS
 62
4
 10
-221.666000
 20
-355.664001
 11
-224.666000
 21
-357.360992
  0
LINE
  8
0
  6
CONTINUOUS
 62
4
 10
-224.666000
 20
-357.360992
 11
-227.666000
 21
-355.664001
  0
LINE
  8
0
  6
CENTER
 62
1
 10
-198.085007
 20
-353.860992
 11
-177.328003
 21
-353.860992
  0
LINE
  8
0
  6
CENTER
 62
1
 10
-187.666000
 20
-343.471985
 11
-187.666000
 21
-363.828003
  0
LINE
  8
0
  6
CONTINUOUS
 62
4
 10
-184.666000
 20
-352.058014
 11
-184.666000
 21
-355.664001
  0
LINE
  8
0
  6
CONTINUOUS
 62
4
 10
-190.666000
 20
-352.058014
 11
-190.666000
 21
-355.664001
  0
LINE
  8
0
  6
CONTINUOUS
 62
4
 10
-190.666000
 20
-352.058990
 11
-187.666000
 21
-350.360992
  0
LINE
  8
0
  6
CONTINUOUS
 62
4
 10
-187.664993
 20
-350.359985
 11
-184.664993
 21
-352.057007
  0
LINE
  8
0
  6
CONTINUOUS
 62
4
 10
-184.666000
 20
-355.664001
 11
-187.666000
 21
-357.360992
  0
LINE
  8
0
  6
CONTINUOUS
 62
4
 10
-187.666000
 20
-357.360992
 11
-190.666000
 21
-355.664001
  0
LINE
  8
0
  6
CONTINUOUS
 62
4
 10
-141.666000
 20
-290.360992
 11
-141.666000
 21
-313.360992
  0
LINE
  8
0
  6
CONTINUOUS
 62
4
 10
-195.912994
 20
-294.860992
 11
-168.419006
 21
-294.860992
  0
LINE
  8
0
  6
CONTINUOUS
 62
4
 10
-195.912994
 20
-308.860992
 11
-168.419006
 21
-308.860992
  0
LINE
  8
0
  6
CONTINUOUS
 62
4
 10
-196.404007
 20
-290.860992
 11
-167.927994
 21
-290.860992
  0
LINE
  8
0
  6
CONTINUOUS
 62
4
 10
-196.406006
 20
-312.860992
 11
-167.927002
 21
-312.860992
  0
LINE
  8
0
  6
CONTINUOUS
 62
1
 10
-209.666000
 20
-308.860992
 11
-205.166000
 21
-308.860992
  0
LINE
  8
0
  6
CONTINUOUS
 62
1
 10
-209.666000
 20
-294.860992
 11
-205.166000
 21
-294.860992
  0
LINE
  8
0
  6
CONTINUOUS
 62
1
 10
-251.166000
 20
-308.860992
 11
-246.666000
 21
-308.860992
  0
LINE
  8
0
  6
CONTINUOUS
 62
1
 10
-251.166000
 20
-294.860992
 11
-246.666000
 21
-294.860992
  0
LINE
  8
0
  6
CONTINUOUS
 62
4
 10
-250.166000
 20
-293.860992
 11
-250.166000
 21
-309.860992
  0
LINE
  8
0
  6
CONTINUOUS
 62
4
 10
-250.167007
 20
-293.862000
 11
-251.167007
 21
-294.862000
  0
LINE
  8
0
  6
CONTINUOUS
 62
4
 10
-251.166000
 20
-308.862000
 11
-250.166000
 21
-309.862000
  0
LINE
  8
0
  6
CONTINUOUS
 62
4
 10
-239.666000
 20
-290.860992
 11
-209.666000
 21
-290.860992
  0
LINE
  8
0
  6
CONTINUOUS
 62
4
 10
-129.166000
 20
-290.360992
 11
-179.166000
 21
-290.360992
  0
LINE
  8
0
  6
CONTINUOUS
 62
4
 10
-129.166000
 20
-313.360992
 11
-179.166000
 21
-313.360992
  0
LINE
  8
0
  6
CONTINUOUS
 62
4
 10
-179.166000
 20
-290.360992
 11
-179.166000
 21
-290.860992
  0
LINE
  8
0
  6
CONTINUOUS
 62
4
 10
-179.166000
 20
-312.860992
 11
-179.166000
 21
-313.360992
  0
LINE
  8
0
  6
CENTER
 62
1
 10
-395.582001
 20
-222.860992
 11
-421.799011
 21
-222.860992
  0
LINE
  8
0
  6
CENTER
 62
1
 10
-408.519012
 20
-209.651993
 11
-408.519012
 21
-236.707993
  0
LINE
  8
0
  6
CONTINUOUS
 62
4
 10
-471.519012
 20
-210.860992
 11
-471.519012
 21
-233.860992
  0
LINE
  8
0
  6
CONTINUOUS
 62
4
 10
-449.519012
 20
-233.860992
 11
-449.519012
 21
-210.860992
  0
LINE
  8
0
  6
CONTINUOUS
 62
4
 10
-397.519012
 20
-210.860992
 11
-397.519012
 21
-233.860992
  0
LINE
  8
0
  6
CONTINUOUS
 62
4
 10
-397.519012
 20
-233.860992
 11
-471.519012
 21
-233.860992
  0
LINE
  8
0
  6
CONTINUOUS
 62
4
 10
-403.035004
 20
-213.360992
 11
-397.549988
 21
-222.860992
  0
LINE
  8
0
  6
CONTINUOUS
 62
4
 10
-414.003998
 20
-213.360992
 11
-403.033997
 21
-213.360992
  0
LINE
  8
0
  6
CONTINUOUS
 62
4
 10
-419.489014
 20
-222.860992
 11
-414.003998
 21
-213.360992
  0
LINE
  8
0
  6
CONTINUOUS
 62
4
 10
-414.003998
 20
-232.360992
 11
-419.489014
 21
-222.860992
  0
LINE
  8
0
  6
CONTINUOUS
 62
4
 10
-403.033997
 20
-232.360992
 11
-414.003998
 21
-232.360992
  0
LINE
  8
0
  6
CONTINUOUS
 62
4
 10
-397.549988
 20
-222.860992
 11
-403.033997
 21
-232.360992
  0
CIRCLE
  8
0
  6
DASHED
 62
2
 10
-121.166000
 20
-85.861099
 40
4.000000
  0
CIRCLE
  8
0
  6
DASHED
 62
7
 10
-121.166000
 20
-85.861099
 40
3.000000
  0
CIRCLE
  8
0
  6
DASHED
 62
2
 10
-121.166000
 20
-185.860992
 40
4.000000
  0
CIRCLE
  8
0
  6
DASHED
 62
7
 10
-121.166000
 20
-185.860992
 40
3.000000
  0
CIRCLE
  8
0
  6
DASHED
 62
2
 10
12.833900
 20
-185.860992
 40
4.000000
  0
CIRCLE
  8
0
  6
DASHED
 62
7
 10
12.833900
 20
-185.860992
 40
3.000000
  0
CIRCLE
  8
0
  6
DASHED
 62
2
 10
12.833900
 20
-85.861099
 40
4.000000
  0
CIRCLE
  8
0
  6
DASHED
 62
7
 10
12.833900
 20
-85.861099
 40
3.000000
  0
ARC
  8
0
  6
DASHED
 62
7
 10
149.231995
 20
-200.860992
 40
6.251330
 50
139.468994
 51
220.531006
  0
ARC
  8
0
  6
DASHED
 62
7
 10
149.231995
 20
-170.360992
 40
6.251330
 50
139.468994
 51
220.531006
  0
ARC
  8
0
  6
DASHED
 62
7
 10
149.231995
 20
-70.861099
 40
6.251340
 50
139.468994
 51
220.531006
  0
ARC
  8
0
  6
DASHED
 62
7
 10
149.231995
 20
-101.361000
 40
6.251340
 50
139.468994
 51
220.531006
  0
ARC
  8
0
  6
DASHED
 62
7
 10
159.681000
 20
-210.561005
 40
0.300003
 50
0.000000
 51
46.395199
  0
ARC
  8
0
  6
DASHED
 62
7
 10
159.681000
 20
-210.561005
 40
0.300003
 50
270.000000
 51
0.000000
  0
ARC
  8
0
  6
DASHED
 62
7
 10
185.281006
 20
-210.561005
 40
0.300007
 50
133.604996
 51
180.000000
  0
ARC
  8
0
  6
DASHED
 62
7
 10
150.481003
 20
-205.860992
 40
5.000000
 50
180.000000
 51
270.000000
  0
ARC
  8
0
  6
DASHED
 62
7
 10
150.481003
 20
-65.861099
 40
5.000000
 50
90.000000
 51
180.000000
  0
ARC
  8
0
  6
DASHED
 62
7
 10
-385.270996
 20
-200.860992
 40
6.251340
 50
319.468994
 51
40.531300
  0
ARC
  8
0
  6
DASHED
 62
7
 10
-385.270996
 20
-170.360992
 40
6.251340
 50
319.468994
 51
40.531300
  0
ARC
  8
0
  6
DASHED
 62
7
 10
-385.270996
 20
-70.861099
 40
6.251340
 50
319.468994
 51
40.531300
  0
ARC
  8
0
  6
DASHED
 62
7
 10
-385.270996
 20
-101.361000
 40
6.251340
 50
319.468994
 51
40.531300
  0
ARC
  8
0
  6
DASHED
 62
7
 10
-395.718994
 20
-210.561005
 40
0.300007
 50
133.604996
 51
180.000000
  0
ARC
  8
0
  6
DASHED
 62
7
 10
-395.718994
 20
-210.561005
 40
0.299988
 50
180.000000
 51
270.000000
  0
ARC
  8
0
  6
DASHED
 62
7
 10
-421.319000
 20
-210.561005
 40
0.299988
 50
0.000000
 51
46.395199
  0
ARC
  8
0
  6
DASHED
 62
7
 10
-386.519012
 20
-205.860992
 40
5.000000
 50
270.000000
 51
0.000000
  0
ARC
  8
0
  6
DASHED
 62
7
 10
-386.519012
 20
-65.861099
 40
5.000000
 50
0.000000
 51
90.000000
  0
ARC
  8
0
  6
CONTINUOUS
 62
7
 10
310.127991
 20
188.899994
 40
1.000000
 50
180.000000
 51
270.000000
  0
ARC
  8
0
  6
CONTINUOUS
 62
7
 10
311.127991
 20
188.899994
 40
1.000000
 50
270.000000
 51
0.000000
  0
ARC
  8
0
  6
CONTINUOUS
 62
7
 10
310.127991
 20
267.899994
 40
1.000000
 50
90.000000
 51
180.000000
  0
ARC
  8
0
  6
CONTINUOUS
 62
7
 10
310.127991
 20
167.399994
 40
1.000000
 50
90.000000
 51
180.000000
  0
ARC
  8
0
  6
CONTINUOUS
 62
7
 10
311.127991
 20
289.399994
 40
1.000000
 50
270.000000
 51
0.000000
  0
ARC
  8
0
  6
CONTINUOUS
 62
7
 10
310.127991
 20
289.399994
 40
1.000000
 50
180.000000
 51
270.000000
  0
ARC
  8
0
  6
CONTINUOUS
 62
7
 10
311.127991
 20
267.899994
 40
1.000000
 50
0.000000
 51
90.000000
  0
ARC
  8
0
  6
CONTINUOUS
 62
7
 10
314.127991
 20
298.399994
 40
5.000000
 50
90.000000
 51
180.000000
  0
ARC
  8
0
  6
CONTINUOUS
 62
7
 10
311.127991
 20
167.399994
 40
1.000000
 50
0.000000
 51
90.000000
  0
ARC
  8
0
  6
CONTINUOUS
 62
7
 10
372.127991
 20
300.799988
 40
2.100010
 50
180.000000
 51
0.000000
  0
ARC
  8
0
  6
CONTINUOUS
 62
7
 10
366.127991
 20
300.799988
 40
2.100010
 50
180.000000
 51
0.000000
  0
ARC
  8
0
  6
CONTINUOUS
 62
7
 10
372.127991
 20
156.000000
 40
2.100010
 50
0.000000
 51
180.000000
  0
ARC
  8
0
  6
CONTINUOUS
 62
7
 10
366.127991
 20
156.000000
 40
2.100010
 50
0.000000
 51
180.000000
  0
ARC
  8
0
  6
CONTINUOUS
 62
7
 10
373.127991
 20
157.399994
 40
2.000000
 50
0.000000
 51
90.000000
  0
ARC
  8
0
  6
CONTINUOUS
 62
7
 10
365.127991
 20
157.399994
 40
2.000000
 50
90.000000
 51
180.000000
  0
ARC
  8
0
  6
CONTINUOUS
 62
7
 10
373.127991
 20
299.399994
 40
2.000000
 50
270.000000
 51
0.000000
  0
ARC
  8
0
  6
CONTINUOUS
 62
7
 10
365.127991
 20
299.399994
 40
2.000000
 50
180.000000
 51
270.000000
  0
ARC
  8
0
  6
CONTINUOUS
 62
7
 10
312.878998
 20
163.399994
 40
6.251340
 50
139.468994
 51
220.531006
  0
CIRCLE
  8
0
  6
CONTINUOUS
 62
7
 10
334.127991
 20
213.399994
 40
8.000000
  0
CIRCLE
  8
0
  6
CONTINUOUS
 62
7
 10
334.127991
 20
213.399994
 40
6.500000
  0
CIRCLE
  8
0
  6
CONTINUOUS
 62
2
 10
334.127991
 20
213.399994
 40
7.250000
  0
CIRCLE
  8
0
  6
CONTINUOUS
 62
7
 10
334.127991
 20
243.399994
 40
6.000000
  0
CIRCLE
  8
0
  6
CONTINUOUS
 62
7
 10
334.127991
 20
243.399994
 40
5.000000
  0
CIRCLE
  8
0
  6
CONTINUOUS
 62
7
 10
334.127991
 20
213.399994
 40
11.111100
  0
CIRCLE
  8
0
  6
CONTINUOUS
 62
7
 10
334.127991
 20
243.399994
 40
8.888890
  0
ARC
  8
0
  6
CONTINUOUS
 62
7
 10
312.878998
 20
193.899994
 40
6.251340
 50
139.468994
 51
220.531006
  0
ARC
  8
0
  6
CONTINUOUS
 62
7
 10
312.878998
 20
293.399994
 40
6.251350
 50
139.468994
 51
220.531006
  0
ARC
  8
0
  6
CONTINUOUS
 62
7
 10
312.878998
 20
262.899994
 40
6.251350
 50
139.468994
 51
220.531006
  0
ARC
  8
0
  6
CONTINUOUS
 62
7
 10
322.727997
 20
155.100006
 40
0.300003
 50
90.000000
 51
216.871994
  0
ARC
  8
0
  6
CONTINUOUS
 62
7
 10
323.328003
 20
153.699997
 40
0.299988
 50
0.000000
 51
46.395199
  0
ARC
  8
0
  6
CONTINUOUS
 62
7
 10
323.328003
 20
153.699997
 40
0.300003
 50
270.000000
 51
0.000000
  0
ARC
  8
0
  6
CONTINUOUS
 62
7
 10
323.328003
 20
303.100006
 40
0.299996
 50
313.606995
 51
0.000000
  0
ARC
  8
0
  6
CONTINUOUS
 62
7
 10
322.727997
 20
301.700012
 40
0.300006
 50
143.125000
 51
270.000000
  0
ARC
  8
0
  6
CONTINUOUS
 62
7
 10
323.328003
 20
303.100006
 40
0.299988
 50
0.000000
 51
90.000000
  0
ARC
  8
0
  6
CONTINUOUS
 62
7
 10
314.127991
 20
158.399994
 40
5.000000
 50
180.000000
 51
270.000000
  0
ARC
  8
0
  6
CONTINUOUS
 62
7
 10
314.127991
 20
158.399994
 40
2.000000
 50
180.000000
 51
270.000000
  0
ARC
  8
0
  6
CONTINUOUS
 62
7
 10
314.127991
 20
298.399994
 40
2.000000
 50
90.000000
 51
180.000000
  0
CIRCLE
  8
0
  6
CONTINUOUS
 62
2
 10
-210.871994
 20
278.399994
 40
4.000000
  0
CIRCLE
  8
0
  6
CONTINUOUS
 62
7
 10
-210.871994
 20
278.399994
 40
3.000000
  0
CIRCLE
  8
0
  6
CONTINUOUS
 62
2
 10
-210.871994
 20
178.399994
 40
4.000000
  0
CIRCLE
  8
0
  6
CONTINUOUS
 62
7
 10
-210.871994
 20
178.399994
 40
3.000000
  0
CIRCLE
  8
0
  6
CONTINUOUS
 62
2
 10
-76.872200
 20
178.399994
 40
4.000000
  0
CIRCLE
  8
0
  6
CONTINUOUS
 62
7
 10
-76.872200
 20
178.399994
 40
3.000000
  0
CIRCLE
  8
0
  6
CONTINUOUS
 62
2
 10
-76.872200
 20
278.399994
 40
4.000000
  0
CIRCLE
  8
0
  6
CONTINUOUS
 62
7
 10
-76.872200
 20
278.399994
 40
3.000000
  0
CIRCLE
  8
0
  6
CONTINUOUS
 62
7
 10
197.128006
 20
163.399994
 40
4.666670
  0
CIRCLE
  8
0
  6
CONTINUOUS
 62
7
 10
-284.872009
 20
163.399994
 40
4.666670
  0
CIRCLE
  8
0
  6
CONTINUOUS
 62
7
 10
-284.872009
 20
193.899994
 40
4.666670
  0
CIRCLE
  8
0
  6
CONTINUOUS
 62
7
 10
-284.872009
 20
262.899994
 40
4.666670
  0
CIRCLE
  8
0
  6
CONTINUOUS
 62
7
 10
-284.872009
 20
293.399994
 40
4.666670
  0
CIRCLE
  8
0
  6
CONTINUOUS
 62
7
 10
197.128006
 20
293.399994
 40
4.666670
  0
CIRCLE
  8
0
  6
CONTINUOUS
 62
7
 10
197.128006
 20
262.899994
 40
4.666670
  0
CIRCLE
  8
0
  6
CONTINUOUS
 62
7
 10
197.128006
 20
193.899994
 40
4.666670
  0
ARC
  8
0
  6
CONTINUOUS
 62
7
 10
-284.872009
 20
97.837601
 40
6.251330
 50
49.468800
 51
130.531006
  0
ARC
  8
0
  6
CONTINUOUS
 62
7
 10
197.128006
 20
97.837601
 40
6.251340
 50
49.468700
 51
130.531006
  0
ARC
  8
0
  6
CONTINUOUS
 62
7
 10
-397.872009
 20
188.899994
 40
1.000000
 50
270.000000
 51
0.000000
  0
ARC
  8
0
  6
CONTINUOUS
 62
7
 10
-398.872009
 20
188.899994
 40
1.000000
 50
180.000000
 51
270.000000
  0
ARC
  8
0
  6
CONTINUOUS
 62
7
 10
-397.872009
 20
267.899994
 40
1.000000
 50
0.000000
 51
90.000000
  0
ARC
  8
0
  6
CONTINUOUS
 62
7
 10
-398.872009
 20
167.399994
 40
1.000000
 50
90.000000
 51
180.000000
  0
ARC
  8
0
  6
CONTINUOUS
 62
7
 10
-398.872009
 20
289.399994
 40
1.000000
 50
180.000000
 51
270.000000
  0
ARC
  8
0
  6
CONTINUOUS
 62
7
 10
-397.872009
 20
289.399994
 40
1.000000
 50
270.000000
 51
0.000000
  0
ARC
  8
0
  6
CONTINUOUS
 62
7
 10
-398.872009
 20
267.899994
 40
1.000000
 50
90.000000
 51
180.000000
  0
ARC
  8
0
  6
CONTINUOUS
 62
7
 10
-397.872009
 20
167.399994
 40
1.000000
 50
0.000000
 51
90.000000
  0
ARC
  8
0
  6
CONTINUOUS
 62
7
 10
-401.872009
 20
298.399994
 40
5.000000
 50
0.000000
 51
90.000000
  0
ARC
  8
0
  6
CONTINUOUS
 62
7
 10
-459.872009
 20
300.799988
 40
2.100010
 50
180.000000
 51
0.000000
  0
ARC
  8
0
  6
CONTINUOUS
 62
7
 10
-453.872009
 20
300.799988
 40
2.100010
 50
180.000000
 51
0.000000
  0
ARC
  8
0
  6
CONTINUOUS
 62
7
 10
-459.872009
 20
156.000000
 40
2.100010
 50
0.000000
 51
180.000000
  0
ARC
  8
0
  6
CONTINUOUS
 62
7
 10
-453.872009
 20
156.000000
 40
2.100010
 50
0.000000
 51
180.000000
  0
ARC
  8
0
  6
CONTINUOUS
 62
7
 10
-460.872009
 20
157.399994
 40
2.000000
 50
90.000000
 51
180.000000
  0
ARC
  8
0
  6
CONTINUOUS
 62
7
 10
-452.872009
 20
157.399994
 40
2.000000
 50
0.000000
 51
90.000000
  0
ARC
  8
0
  6
CONTINUOUS
 62
7
 10
-460.872009
 20
299.399994
 40
2.000000
 50
180.000000
 51
270.000000
  0
ARC
  8
0
  6
CONTINUOUS
 62
7
 10
-452.872009
 20
299.399994
 40
2.000000
 50
270.000000
 51
0.000000
  0
CIRCLE
  8
0
  6
CONTINUOUS
 62
2
 10
-455.872009
 20
234.399994
 40
5.000000
  0
CIRCLE
  8
0
  6
CONTINUOUS
 62
7
 10
-455.872009
 20
234.399994
 40
4.000000
  0
CIRCLE
  8
0
  6
CONTINUOUS
 62
2
 10
-455.872009
 20
218.399994
 40
5.000000
  0
CIRCLE
  8
0
  6
CONTINUOUS
 62
7
 10
-455.872009
 20
218.399994
 40
4.000000
  0
ARC
  8
0
  6
CONTINUOUS
 62
7
 10
-400.622986
 20
163.399994
 40
6.251340
 50
319.468994
 51
40.531300
  0
CIRCLE
  8
0
  6
CONTINUOUS
 62
7
 10
-421.872009
 20
213.399994
 40
8.000000
  0
CIRCLE
  8
0
  6
CONTINUOUS
 62
7
 10
-421.872009
 20
213.399994
 40
6.500000
  0
CIRCLE
  8
0
  6
CONTINUOUS
 62
2
 10
-421.872009
 20
213.399994
 40
7.250000
  0
CIRCLE
  8
0
  6
CONTINUOUS
 62
7
 10
-421.872009
 20
243.399994
 40
6.000000
  0
CIRCLE
  8
0
  6
CONTINUOUS
 62
7
 10
-421.872009
 20
243.399994
 40
5.000000
  0
CIRCLE
  8
0
  6
CONTINUOUS
 62
7
 10
-421.872009
 20
213.399994
 40
11.111100
  0
CIRCLE
  8
0
  6
CONTINUOUS
 62
7
 10
-421.872009
 20
243.399994
 40
8.888890
  0
ARC
  8
0
  6
CONTINUOUS
 62
7
 10
-400.622986
 20
193.899994
 40
6.251340
 50
319.468994
 51
40.531300
  0
ARC
  8
0
  6
CONTINUOUS
 62
7
 10
-400.622986
 20
293.399994
 40
6.251330
 50
319.468994
 51
40.531399
  0
ARC
  8
0
  6
CONTINUOUS
 62
7
 10
-400.622986
 20
262.899994
 40
6.251330
 50
319.468994
 51
40.531399
  0
ARC
  8
0
  6
CONTINUOUS
 62
7
 10
-410.471985
 20
155.100006
 40
0.299997
 50
323.127991
 51
90.000000
  0
ARC
  8
0
  6
CONTINUOUS
 62
7
 10
-410.471985
 20
301.700012
 40
0.299988
 50
270.000000
 51
36.874599
  0
ARC
  8
0
  6
CONTINUOUS
 62
7
 10
-401.872009
 20
158.399994
 40
5.000000
 50
270.000000
 51
0.000000
  0
ARC
  8
0
  6
CONTINUOUS
 62
7
 10
-401.872009
 20
158.399994
 40
2.000000
 50
270.000000
 51
0.000000
  0
ARC
  8
0
  6
CONTINUOUS
 62
7
 10
-401.872009
 20
298.399994
 40
2.000000
 50
0.000000
 51
90.000000
  0
CIRCLE
  8
0
  6
CONTINUOUS
 62
1
 10
-172.666000
 20
-185.860992
 40
2.500000
  0
CIRCLE
  8
0
  6
CONTINUOUS
 62
4
 10
-172.666000
 20
-185.860992
 40
2.000000
  0
CIRCLE
  8
0
  6
CONTINUOUS
 62
1
 10
-135.666000
 20
-185.860992
 40
2.500000
  0
CIRCLE
  8
0
  6
CONTINUOUS
 62
4
 10
-135.666000
 20
-185.860992
 40
2.000000
  0
ARC
  8
0
  6
CONTINUOUS
 62
4
 10
-154.166000
 20
-184.860992
 40
4.000000
 50
180.000000
 51
0.000000
  0
ARC
  8
0
  6
CONTINUOUS
 62
4
 10
-188.166000
 20
-218.110992
 40
9.999990
 50
151.639999
 51
208.358994
  0
ARC
  8
0
  6
CONTINUOUS
 62
4
 10
-188.166000
 20
-227.610992
 40
9.999990
 50
151.641006
 51
208.358994
  0
ARC
  8
0
  6
CONTINUOUS
 62
4
 10
-208.166000
 20
-227.610992
 40
10.000000
 50
331.640991
 51
28.359301
  0
ARC
  8
0
  6
CONTINUOUS
 62
4
 10
-208.166000
 20
-218.110992
 40
10.000000
 50
331.640991
 51
28.359400
  0
ARC
  8
0
  6
CONTINUOUS
 62
4
 10
-176.166000
 20
-218.110992
 40
10.000000
 50
331.640991
 51
28.359400
  0
ARC
  8
0
  6
CONTINUOUS
 62
4
 10
-176.166000
 20
-227.610992
 40
10.000000
 50
331.640991
 51
28.359301
  0
ARC
  8
0
  6
CONTINUOUS
 62
4
 10
-195.166000
 20
-218.110992
 40
9.999990
 50
151.639999
 51
208.358994
  0
ARC
  8
0
  6
CONTINUOUS
 62
4
 10
-195.166000
 20
-227.610992
 40
9.999990
 50
151.641006
 51
208.358994
  0
ARC
  8
0
  6
CONTINUOUS
 62
4
 10
-249.666000
 20
-218.110992
 40
10.000000
 50
331.640991
 51
28.359400
  0
ARC
  8
0
  6
CONTINUOUS
 62
4
 10
-249.666000
 20
-227.610992
 40
10.000000
 50
331.640991
 51
28.359301
  0
ARC
  8
0
  6
CONTINUOUS
 62
4
 10
-236.666000
 20
-218.110992
 40
9.999990
 50
151.639999
 51
208.358994
  0
ARC
  8
0
  6
CONTINUOUS
 62
4
 10
-236.666000
 20
-227.610992
 40
9.999990
 50
151.641006
 51
208.358994
  0
CIRCLE
  8
0
  6
CONTINUOUS
 62
4
 10
-261.665985
 20
-353.860992
 40
7.000000
  0
CIRCLE
  8
0
  6
CONTINUOUS
 62
4
 10
-224.666000
 20
-353.860992
 40
7.000000
  0
CIRCLE
  8
0
  6
CONTINUOUS
 62
4
 10
-187.666000
 20
-353.860992
 40
7.000000
  0
ARC
  8
0
  6
CONTINUOUS
 62
4
 10
-186.166000
 20
-301.860992
 40
12.000000
 50
144.313995
 51
215.684998
  0
ARC
  8
0
  6
CONTINUOUS
 62
4
 10
-196.158997
 20
-292.854004
 40
2.007550
 50
82.970596
 51
270.000000
  0
ARC
  8
0
  6
CONTINUOUS
 62
4
 10
-196.158997
 20
-310.868988
 40
2.007540
 50
90.000000
 51
277.028992
  0
ARC
  8
0
  6
CONTINUOUS
 62
4
 10
-200.173996
 20
-292.854004
 40
2.007540
 50
270.000000
 51
97.029404
  0
ARC
  8
0
  6
CONTINUOUS
 62
4
 10
-210.166000
 20
-301.860992
 40
12.000000
 50
324.315002
 51
35.685501
  0
ARC
  8
0
  6
CONTINUOUS
 62
4
 10
-200.173996
 20
-310.868988
 40
2.007550
 50
262.971008
 51
90.000000
  0
ARC
  8
0
  6
CONTINUOUS
 62
4
 10
-168.173996
 20
-292.854004
 40
2.007540
 50
270.000000
 51
97.029404
  0
ARC
  8
0
  6
CONTINUOUS
 62
4
 10
-178.166000
 20
-301.860992
 40
12.000000
 50
324.315002
 51
35.685501
  0
ARC
  8
0
  6
CONTINUOUS
 62
4
 10
-168.173996
 20
-310.868988
 40
2.007550
 50
262.971008
 51
90.000000
  0
ARC
  8
0
  6
CONTINUOUS
 62
4
 10
-203.158997
 20
-292.854004
 40
2.007550
 50
82.970596
 51
270.000000
  0
ARC
  8
0
  6
CONTINUOUS
 62
4
 10
-193.166000
 20
-301.860992
 40
12.000000
 50
144.313995
 51
215.684998
  0
ARC
  8
0
  6
CONTINUOUS
 62
4
 10
-203.158997
 20
-310.868988
 40
2.007540
 50
90.000000
 51
277.028992
  0
ARC
  8
0
  6
CONTINUOUS
 62
4
 10
-241.673996
 20
-292.854004
 40
2.007540
 50
270.000000
 51
97.029404
  0
ARC
  8
0
  6
CONTINUOUS
 62
4
 10
-251.666000
 20
-301.860992
 40
12.000000
 50
324.315002
 51
35.685501
  0
ARC
  8
0
  6
CONTINUOUS
 62
4
 10
-241.673996
 20
-310.868988
 40
2.007550
 50
262.971008
 51
90.000000
  0
ARC
  8
0
  6
CONTINUOUS
 62
4
 10
-244.658997
 20
-310.868988
 40
2.007540
 50
90.000000
 51
277.028992
  0
ARC
  8
0
  6
CONTINUOUS
 62
4
 10
-234.666000
 20
-301.860992
 40
12.000000
 50
144.313995
 51
215.684998
  0
ARC
  8
0
  6
CONTINUOUS
 62
4
 10
-244.658997
 20
-292.854004
 40
2.007550
 50
82.970596
 51
270.000000
  0
CIRCLE
  8
0
  6
CONTINUOUS
 62
4
 10
-408.519012
 20
-222.860992
 40
9.500000
  0
CIRCLE
  8
0
  6
CONTINUOUS
 62
4
 10
-408.519012
 20
-222.860992
 40
6.500000
  0
CIRCLE
  8
0
  6
CONTINUOUS
 62
4
 10
-408.519012
 20
-222.860992
 40
8.000000
  0
TEXT
  8
0
 62
7
 10
-540.750793
 20
337.375000
 40
12.500000
  1
MODEL:ACY25*ST(200)
 50
0.000000
 41
0.797243
 51
0.000000
  7
STANDARD
  0
TEXT
  8
0
 62
7
 10
371.464844
 20
382.375000
 40
12.500000
  1
DATE: JUN ,2001
 50
0.000000
 41
0.845666
 51
0.000000
  7
STANDARD
  0
TEXT
  8
0
 62
7
 10
355.729370
 20
-390.000000
 40
18.000000
  1
KOGANEI CORP.
 50
0.000000
 41
0.771525
 51
0.000000
  7
STANDARD
  0
TEXT
  8
0
 62
7
 10
-500.035156
 20
382.375000
 40
12.500000
  1
YZ MODULE
 50
0.000000
 41
0.767953
 51
0.000000
  7
STANDARD
  0
TEXT
  8
0
 62
3
 10
-338.642303
 20
322.044006
 40
9.000000
  1
STRETCH LINE B
 50
0.000000
 41
0.767013
 51
0.000000
  7
STANDARD
  0
TEXT
  8
0
 62
7
 10
-470.750793
 20
-35.625000
 40
12.500000
  1
MODEL:-ST_
 50
0.000000
 41
0.822960
 51
0.000000
  7
STANDARD
  0
TEXT
  8
0
 62
7
 10
312.997681
 20
101.393997
 40
9.000000
  1
STROKE
 50
0.000000
 41
0.800101
 51
0.000000
  7
STANDARD
  0
TEXT
  8
0
 62
7
 10
352.290680
 20
116.393997
 40
9.000000
  1
STRETCH LIST
 50
0.000000
 41
0.776883
 51
0.000000
  7
STANDARD
  0
TEXT
  8
0
 62
7
 10
387.790680
 20
86.394402
 40
9.000000
  1
200
 50
0.000000
 41
1.013114
 51
0.000000
  7
STANDARD
  0
TEXT
  8
0
 62
7
 10
422.790680
 20
86.394402
 40
9.000000
  1
300
 50
0.000000
 41
1.013114
 51
0.000000
  7
STANDARD
  0
TEXT
  8
0
 62
7
 10
457.790680
 20
86.394402
 40
9.000000
  1
400
 50
0.000000
 41
1.013114
 51
0.000000
  7
STANDARD
  0
TEXT
  8
0
 62
7
 10
492.790680
 20
86.394402
 40
9.000000
  1
500
 50
0.000000
 41
1.013114
 51
0.000000
  7
STANDARD
  0
TEXT
  8
0
 62
7
 10
527.790710
 20
86.394402
 40
9.000000
  1
600
 50
0.000000
 41
1.013114
 51
0.000000
  7
STANDARD
  0
TEXT
  8
0
 62
7
 10
527.790710
 20
26.394400
 40
9.000000
  1
400
 50
0.000000
 41
1.013114
 51
0.000000
  7
STANDARD
  0
TEXT
  8
0
 62
7
 10
492.790680
 20
26.394400
 40
9.000000
  1
300
 50
0.000000
 41
1.013114
 51
0.000000
  7
STANDARD
  0
TEXT
  8
0
 62
7
 10
457.790680
 20
26.394400
 40
9.000000
  1
200
 50
0.000000
 41
1.013114
 51
0.000000
  7
STANDARD
  0
TEXT
  8
0
 62
7
 10
422.790680
 20
26.394400
 40
9.000000
  1
100
 50
0.000000
 41
1.238251
 51
0.000000
  7
STANDARD
  0
TEXT
  8
0
 62
7
 10
396.790680
 20
26.394400
 40
9.000000
  1
0
 50
0.000000
 41
0.820000
 51
0.000000
  7
STANDARD
  0
TEXT
  8
0
 62
3
 10
-53.641987
 20
336.044006
 40
9.000000
  1
STRETCH LINE A
 50
0.000000
 41
0.767014
 51
0.000000
  7
STANDARD
  0
TEXT
  8
0
 62
7
 10
260.790680
 20
18.894400
 40
9.000000
  1
ACY25-ST1
 50
0.000000
 41
0.767954
 51
0.000000
  7
STANDARD
  0
TEXT
  8
0
 62
7
 10
260.790680
 20
48.894402
 40
9.000000
  1
ACY25
 50
0.000000
 41
0.821532
 51
0.000000
  7
STANDARD
  0
TEXT
  8
0
 62
7
 10
306.690704
 20
96.644402
 40
9.000000
  1
STRETCH
 50
0.000000
 41
0.742951
 51
0.000000
  7
STANDARD
  0
TEXT
  8
0
 62
7
 10
306.690704
 20
87.644402
 40
9.000000
  1
   PLACE
 50
0.000000
 41
0.742951
 51
0.000000
  7
STANDARD
  0
TEXT
  8
0
 62
7
 10
265.950684
 20
75.989998
 40
9.000000
  1
TYPE
 50
0.000000
 41
0.857251
 51
0.000000
  7
STANDARD
  0
TEXT
  8
0
 62
7
 10
361.790680
 20
56.394402
 40
9.000000
  1
A
 50
0.000000
 41
0.820000
 51
0.000000
  7
STANDARD
  0
TEXT
  8
0
 62
7
 10
361.790680
 20
41.394402
 40
9.000000
  1
B
 50
0.000000
 41
0.820000
 51
0.000000
  7
STANDARD
  0
TEXT
  8
0
 62
7
 10
361.790680
 20
26.394400
 40
9.000000
  1
A
 50
0.000000
 41
0.820000
 51
0.000000
  7
STANDARD
  0
TEXT
  8
0
 62
7
 10
361.790680
 20
11.394400
 40
9.000000
  1
B
 50
0.000000
 41
0.820000
 51
0.000000
  7
STANDARD
  0
TEXT
  8
0
 62
7
 10
396.790680
 20
56.394402
 40
9.000000
  1
0
 50
0.000000
 41
0.820000
 51
0.000000
  7
STANDARD
  0
TEXT
  8
0
 62
7
 10
422.790680
 20
56.394402
 40
9.000000
  1
100
 50
0.000000
 41
1.238251
 51
0.000000
  7
STANDARD
  0
TEXT
  8
0
 62
7
 10
457.790680
 20
56.394402
 40
9.000000
  1
200
 50
0.000000
 41
1.013114
 51
0.000000
  7
STANDARD
  0
TEXT
  8
0
 62
7
 10
492.790680
 20
56.394402
 40
9.000000
  1
300
 50
0.000000
 41
1.013114
 51
0.000000
  7
STANDARD
  0
TEXT
  8
0
 62
7
 10
527.790710
 20
56.394402
 40
9.000000
  1
400
 50
0.000000
 41
1.013114
 51
0.000000
  7
STANDARD
  0
TEXT
  8
0
 62
7
 10
536.790710
 20
41.394402
 40
9.000000
  1
-
 50
0.000000
 41
0.820000
 51
0.000000
  7
STANDARD
  0
TEXT
  8
0
 62
7
 10
532.290710
 20
11.394400
 40
9.000000
  1
50
 50
0.000000
 41
1.143001
 51
0.000000
  7
STANDARD
  0
TEXT
  8
0
 62
7
 10
396.790680
 20
41.394402
 40
9.000000
  1
-
 50
0.000000
 41
0.820000
 51
0.000000
  7
STANDARD
  0
TEXT
  8
0
 62
7
 10
392.290680
 20
11.394400
 40
9.000000
  1
50
 50
0.000000
 41
1.143001
 51
0.000000
  7
STANDARD
  0
TEXT
  8
0
 62
7
 10
431.790680
 20
41.394402
 40
9.000000
  1
-
 50
0.000000
 41
0.820000
 51
0.000000
  7
STANDARD
  0
TEXT
  8
0
 62
7
 10
427.290680
 20
11.394400
 40
9.000000
  1
50
 50
0.000000
 41
1.143001
 51
0.000000
  7
STANDARD
  0
TEXT
  8
0
 62
7
 10
466.790680
 20
41.394402
 40
9.000000
  1
-
 50
0.000000
 41
0.820000
 51
0.000000
  7
STANDARD
  0
TEXT
  8
0
 62
7
 10
462.290680
 20
11.394400
 40
9.000000
  1
50
 50
0.000000
 41
1.143001
 51
0.000000
  7
STANDARD
  0
TEXT
  8
0
 62
7
 10
501.790680
 20
41.394402
 40
9.000000
  1
-
 50
0.000000
 41
0.820000
 51
0.000000
  7
STANDARD
  0
TEXT
  8
0
 62
7
 10
497.290680
 20
11.394400
 40
9.000000
  1
50
 50
0.000000
 41
1.143001
 51
0.000000
  7
STANDARD
  0
TEXT
  8
0
 62
7
 10
523.290710
 20
116.393997
 40
9.000000
  1
(mm)
 50
0.000000
 41
0.964407
 51
0.000000
  7
STANDARD
  0
ENDSEC
  0
EOF
