  0
SECTION
  2
HEADER
  9
$ACADVER
  1
AC1003
  9
$EXTMIN
 10
-2.81250000E+02
 20
-1.95000000E+02
  9
$EXTMAX
 10
2.82099854E+02
 20
1.95500000E+02
  9
$LIMMIN
 10
-2.81251000E+02
 20
-1.95001000E+02
  9
$LIMMAX
 10
2.82100854E+02
 20
1.95501000E+02
  9
$SNAPUNIT
 10
1
 20
1
  9
$SNAPBASE
 10
0
 20
0
  9
$GRIDMODE
 70
0
  9
$GRIDUNIT
 10
0
 20
0
  9
$LTSCALE
 40
9.38916423E+00
  9
$TEXTSIZE
 40
3.2
  9
$DIMTAD
 70
0
  9
$LUNITS
 70
2
  9
$LUPREC
 70
4
  9
$FILLETRAD
 40
0
  9
$AUNITS
 70
0
  9
$AUPREC
 70
0
  0
ENDSEC
  0
SECTION
  2
TABLES
  0
TABLE
  2
LTYPE
 70
2
  0
LTYPE
  2
CONTINUOUS
 70
64
  3
Solid-Line
 72
65
 73
0
 40
0
  0
LTYPE
  2
DASHED
 70
64
  3
DASHED
 72
65
 73
2
 40
.75
 49
.5
 49
-.25
  0
LTYPE
  2
HIDDEN
 70
64
  3
HIDDEN
 72
65
 73
2
 40
.375
 49
.25
 49
-.125
  0
LTYPE
  2
CENTER
 70
64
  3
CENTER
 72
65
 73
4
 40
2
 49
1.25
 49
-.25
 49
.25
 49
-.25
  0
LTYPE
  2
PHANTOM
 70
64
  3
PHANTOM
 72
65
 73
6
 40
2.5
 49
1.25
 49
-.25
 49
.25
 49
-.25
 49
.25
 49
-.25
  0
ENDTAB
  0
TABLE
  2
LAYER
 70
1
  0
LAYER
  2
1
 70
0
 62
7
  6
CONTINUOUS
 0
ENDTAB
  0
TABLE
  2
STYLE
 70
2
  0
STYLE
  2
MONOTXT
 70
0
 40
0
 41
1
 50
0
 71
0
 42
.2
  3
monotxt
  0
STYLE
  2
BIGFONT
 70
0
 40
0
 41
1
 50
0
 71
0
 42
.2
  3
txt
  4
bigfont
  0
ENDTAB
  0
ENDSEC
  0
SECTION
  2
ENTITIES
  0
LINE
  8
0
 62
6
 10
8.09847369E+01
 20
-1.25504631E+02
 11
8.27247370E+01
 21
-1.23774631E+02
  0
LINE
  8
0
 62
6
 10
8.07047370E+01
 20
-1.25224631E+02
 11
8.24447371E+01
 21
-1.23494631E+02
  0
LINE
  8
0
 62
6
 10
1.01714737E+02
 20
-1.22254631E+02
 11
1.01714737E+02
 21
-1.26754631E+02
  0
LINE
  8
0
 62
6
 10
9.67947369E+01
 20
-1.26754631E+02
 11
1.01714737E+02
 21
-1.26754631E+02
  0
LINE
  8
0
 62
6
 10
9.67947369E+01
 20
-1.22254631E+02
 11
1.01714737E+02
 21
-1.22254631E+02
  0
LINE
  8
0
  6
CENTER
 62
6
 10
8.17147369E+01
 20
-1.21674631E+02
 11
8.17147369E+01
 21
-1.27254631E+02
  0
LINE
  8
0
 62
6
 10
7.97147369E+01
 20
-1.22904631E+02
 11
7.97147369E+01
 21
-1.26104631E+02
  0
LINE
  8
0
 62
6
 10
7.97147369E+01
 20
-1.23004631E+02
 11
9.62747364E+01
 21
-1.23004631E+02
  0
LINE
  8
0
 62
6
 10
7.97147369E+01
 20
-1.26004631E+02
 11
9.62747364E+01
 21
-1.26004631E+02
  0
LINE
  8
0
  6
CENTER
 62
6
 10
7.83947369E+01
 20
-1.24504631E+02
 11
1.03294737E+02
 21
-1.24504631E+02
  0
CIRCLE
  8
0
 62
6
 10
8.17147369E+01
 20
-1.24510918E+02
 40
1.25000000E+00
  0
CIRCLE
  8
0
 62
6
 10
8.17147369E+01
 20
-1.24510918E+02
 40
1.00000000E+00
  0
CIRCLE
  8
0
 62
6
 10
9.88320160E+01
 20
-1.24186478E+02
 40
2.50000000E-01
  0
CIRCLE
  8
0
 62
6
 10
9.94438934E+01
 20
-1.24845634E+02
 40
2.50000000E-01
  0
CIRCLE
  8
0
 62
6
 10
9.88320160E+01
 20
-1.24186478E+02
 40
4.49999988E-01
  0
CIRCLE
  8
0
 62
6
 10
9.94438934E+01
 20
-1.24845634E+02
 40
4.49999988E-01
  0
CIRCLE
  8
0
 62
6
 10
9.91220856E+01
 20
-1.24504631E+02
 40
1.29999924E+00
  0
ARC
  8
0
 62
6
 10
9.92147369E+01
 20
-1.24504631E+02
 40
3.30437589E+00
 50
1.37084793E+02
 51
2.22915204E+02
  0
LINE
  8
0
 62
6
 10
3.79720123E+01
 20
-1.56454660E+02
 11
3.79720123E+01
 21
-1.60204660E+02
  0
LINE
  8
0
 62
6
 10
3.53720124E+01
 20
-1.57954660E+02
 11
3.53720124E+01
 21
-1.60204660E+02
  0
LINE
  8
0
 62
6
 10
3.54220123E+01
 20
-1.66604660E+02
 11
3.79220123E+01
 21
-1.66604660E+02
  0
LINE
  8
0
 62
6
 10
3.79220123E+01
 20
-1.66604660E+02
 11
3.79220123E+01
 21
-1.67104660E+02
  0
LINE
  8
0
 62
6
 10
3.76920123E+01
 20
-1.66604660E+02
 11
3.76920123E+01
 21
-1.67104660E+02
  0
LINE
  8
0
 62
6
 10
3.56520123E+01
 20
-1.66604660E+02
 11
3.56520123E+01
 21
-1.67104660E+02
  0
LINE
  8
0
 62
6
 10
3.54220123E+01
 20
-1.66604660E+02
 11
3.54220123E+01
 21
-1.67104660E+02
  0
LINE
  8
0
 62
6
 10
3.54220123E+01
 20
-1.70874660E+02
 11
3.79220123E+01
 21
-1.70874660E+02
  0
LINE
  8
0
 62
6
 10
3.79220123E+01
 20
-1.69704660E+02
 11
3.79220123E+01
 21
-1.70874660E+02
  0
LINE
  8
0
 62
6
 10
3.76920123E+01
 20
-1.69704660E+02
 11
3.76920123E+01
 21
-1.71104660E+02
  0
LINE
  8
0
 62
6
 10
3.56520123E+01
 20
-1.69704660E+02
 11
3.56520123E+01
 21
-1.71104660E+02
  0
LINE
  8
0
 62
6
 10
3.54220123E+01
 20
-1.69704660E+02
 11
3.54220123E+01
 21
-1.70874660E+02
  0
LINE
  8
0
 62
6
 10
3.56520124E+01
 20
-1.71104660E+02
 11
3.54220124E+01
 21
-1.70874660E+02
  0
LINE
  8
0
 62
6
 10
3.76920122E+01
 20
-1.71104660E+02
 11
3.79220122E+01
 21
-1.70874660E+02
  0
LINE
  8
0
 62
6
 10
3.56520123E+01
 20
-1.71104660E+02
 11
3.76920123E+01
 21
-1.71104660E+02
  0
LINE
  8
0
 62
6
 10
3.45120122E+01
 20
-1.58454660E+02
 11
3.88320122E+01
 21
-1.55954660E+02
  0
LINE
  8
0
 62
6
 10
3.44220123E+01
 20
-1.60204660E+02
 11
3.89220123E+01
 21
-1.60204660E+02
  0
LINE
  8
0
 62
6
 10
3.46220124E+01
 20
-1.69704660E+02
 11
3.87220123E+01
 21
-1.69704660E+02
  0
LINE
  8
0
 62
6
 10
3.46220124E+01
 20
-1.68904660E+02
 11
3.87220123E+01
 21
-1.68904660E+02
  0
LINE
  8
0
 62
6
 10
3.51720123E+01
 20
-1.67104660E+02
 11
3.81720123E+01
 21
-1.67104660E+02
  0
LINE
  8
0
  6
CENTER
 62
6
 10
3.66720123E+01
 20
-1.54544660E+02
 11
3.66720123E+01
 21
-1.72144660E+02
  0
LINE
  8
0
 62
6
 10
3.89220123E+01
 20
-1.60204660E+02
 11
3.89220123E+01
 21
-1.65954660E+02
  0
LINE
  8
0
 62
6
 10
3.81720123E+01
 20
-1.66704660E+02
 11
3.89220124E+01
 21
-1.65954660E+02
  0
LINE
  8
0
 62
6
 10
3.81720123E+01
 20
-1.67554660E+02
 11
3.81720123E+01
 21
-1.66704660E+02
  0
LINE
  8
0
 62
6
 10
3.87220122E+01
 20
-1.68104660E+02
 11
3.81720123E+01
 21
-1.67554660E+02
  0
LINE
  8
0
 62
6
 10
3.87220123E+01
 20
-1.68104660E+02
 11
3.87220123E+01
 21
-1.69654660E+02
  0
LINE
  8
0
 62
6
 10
3.46220124E+01
 20
-1.68104660E+02
 11
3.46220124E+01
 21
-1.69654660E+02
  0
LINE
  8
0
 62
6
 10
3.46220125E+01
 20
-1.68104660E+02
 11
3.51720124E+01
 21
-1.67554660E+02
  0
LINE
  8
0
 62
6
 10
3.51720123E+01
 20
-1.67554660E+02
 11
3.51720123E+01
 21
-1.66704660E+02
  0
LINE
  8
0
 62
6
 10
3.51720123E+01
 20
-1.66704660E+02
 11
3.44220123E+01
 21
-1.65954660E+02
  0
LINE
  8
0
 62
6
 10
3.44220123E+01
 20
-1.60204660E+02
 11
3.44220123E+01
 21
-1.65954660E+02
  0
LINE
  8
0
 62
6
 10
3.44220123E+01
 20
-1.61704660E+02
 11
3.89220123E+01
 21
-1.61704660E+02
  0
ARC
  8
0
 62
6
 10
3.66768198E+01
 20
-1.69649765E+02
 40
2.04519844E+00
 50
2.70985956E+02
 51
3.59862852E+02
  0
ARC
  8
0
 62
6
 10
3.66720146E+01
 20
-1.69654658E+02
 40
2.05000234E+00
 50
1.80000063E+02
 51
2.70000000E+02
  0
LINE
  8
0
 62
6
 10
1.00414738E+02
 20
-1.54954660E+02
 11
1.00414738E+02
 21
-1.51704660E+02
  0
LINE
  8
0
 62
6
 10
9.78147373E+01
 20
-1.56454660E+02
 11
9.78147373E+01
 21
-1.51704660E+02
  0
LINE
  8
0
 62
6
 10
9.78147373E+01
 20
-1.60204660E+02
 11
9.78147373E+01
 21
-1.57954660E+02
  0
LINE
  8
0
 62
6
 10
1.00414738E+02
 20
-1.60204660E+02
 11
1.00414738E+02
 21
-1.56454660E+02
  0
LINE
  8
0
 62
6
 10
8.04647369E+01
 20
-1.66604660E+02
 11
8.29647369E+01
 21
-1.66604660E+02
  0
LINE
  8
0
 62
6
 10
8.29647369E+01
 20
-1.66604660E+02
 11
8.29647369E+01
 21
-1.67104660E+02
  0
LINE
  8
0
 62
6
 10
8.27347369E+01
 20
-1.66604660E+02
 11
8.27347369E+01
 21
-1.67104660E+02
  0
LINE
  8
0
 62
6
 10
8.06847370E+01
 20
-1.66604660E+02
 11
8.06847370E+01
 21
-1.67104660E+02
  0
LINE
  8
0
 62
6
 10
8.04647369E+01
 20
-1.66604660E+02
 11
8.04647369E+01
 21
-1.67104660E+02
  0
LINE
  8
0
 62
6
 10
9.69547379E+01
 20
-1.58454659E+02
 11
1.01284737E+02
 21
-1.55954659E+02
  0
LINE
  8
0
 62
6
 10
9.69547368E+01
 20
-1.56954660E+02
 11
1.01284738E+02
 21
-1.54454659E+02
  0
LINE
  8
0
 62
6
 10
9.69547380E+01
 20
-1.49474659E+02
 11
1.01284738E+02
 21
-1.46974659E+02
  0
LINE
  8
0
  6
CENTER
 62
6
 10
9.91147366E+01
 20
-1.61524660E+02
 11
9.91147366E+01
 21
-1.51704660E+02
  0
LINE
  8
0
 62
6
 10
9.69547368E+01
 20
-1.47974659E+02
 11
1.01284738E+02
 21
-1.45474659E+02
  0
LINE
  8
0
 62
6
 10
9.98147373E+01
 20
-1.44704660E+02
 11
9.98147373E+01
 21
-1.41704660E+02
  0
LINE
  8
0
 62
6
 10
9.93147373E+01
 20
-1.44704660E+02
 11
9.93147373E+01
 21
-1.41704660E+02
  0
LINE
  8
0
 62
6
 10
9.89147377E+01
 20
-1.44704660E+02
 11
9.89147377E+01
 21
-1.41704660E+02
  0
LINE
  8
0
 62
6
 10
9.84147377E+01
 20
-1.44704660E+02
 11
9.84147377E+01
 21
-1.41704660E+02
  0
LINE
  8
0
 62
6
 10
9.82147369E+01
 20
-1.47244659E+02
 11
9.82147369E+01
 21
-1.44704660E+02
  0
LINE
  8
0
 62
6
 10
9.82147369E+01
 20
-1.51704660E+02
 11
9.82147369E+01
 21
-1.48744659E+02
  0
LINE
  8
0
 62
6
 10
1.00014736E+02
 20
-1.46204660E+02
 11
1.00014736E+02
 21
-1.44704660E+02
  0
LINE
  8
0
 62
6
 10
9.91147366E+01
 20
-1.46724661E+02
 11
9.91147366E+01
 21
-1.44704660E+02
  0
LINE
  8
0
 62
6
 10
9.91147366E+01
 20
-1.51704660E+02
 11
9.91147366E+01
 21
-1.48224661E+02
  0
LINE
  8
0
 62
6
 10
1.00014736E+02
 20
-1.51704660E+02
 11
1.00014736E+02
 21
-1.47704660E+02
  0
LINE
  8
0
 62
6
 10
9.82147369E+01
 20
-1.44704660E+02
 11
1.00014736E+02
 21
-1.44704660E+02
  0
LINE
  8
0
 62
6
 10
9.93147373E+01
 20
-1.41704660E+02
 11
9.98147373E+01
 21
-1.41704660E+02
  0
LINE
  8
0
 62
6
 10
9.84147377E+01
 20
-1.41704660E+02
 11
9.89147377E+01
 21
-1.41704660E+02
  0
LINE
  8
0
  6
CENTER
 62
6
 10
9.95647373E+01
 20
-1.53384660E+02
 11
9.95647373E+01
 21
-1.41454660E+02
  0
LINE
  8
0
  6
CENTER
 62
6
 10
9.86647377E+01
 20
-1.53434660E+02
 11
9.86647377E+01
 21
-1.41504660E+02
  0
LINE
  8
0
 62
6
 10
9.78147373E+01
 20
-1.51704660E+02
 11
1.00414738E+02
 21
-1.51704660E+02
  0
LINE
  8
0
 62
6
 10
9.58147373E+01
 20
-1.61704660E+02
 11
1.01714737E+02
 21
-1.61704660E+02
  0
LINE
  8
0
 62
6
 10
9.58147373E+01
 20
-1.66704660E+02
 11
1.01714737E+02
 21
-1.66704660E+02
  0
LINE
  8
0
 62
6
 10
9.58147373E+01
 20
-1.65954660E+02
 11
1.01714737E+02
 21
-1.65954660E+02
  0
LINE
  8
0
 62
6
 10
9.58147373E+01
 20
-1.60204660E+02
 11
1.01714737E+02
 21
-1.60204660E+02
  0
LINE
  8
0
 62
6
 10
9.58147373E+01
 20
-1.60204660E+02
 11
9.58147373E+01
 21
-1.67104660E+02
  0
LINE
  8
0
  6
CENTER
 62
6
 10
8.17147369E+01
 20
-1.66374660E+02
 11
8.17147369E+01
 21
-1.71524660E+02
  0
LINE
  8
0
 62
6
 10
1.01714737E+02
 20
-1.60204660E+02
 11
1.01714737E+02
 21
-1.67104660E+02
  0
LINE
  8
0
 62
6
 10
-1.28889130E+02
 20
-1.66604660E+02
 11
-1.26389130E+02
 21
-1.66604660E+02
  0
LINE
  8
0
 62
6
 10
-1.26389130E+02
 20
-1.66604660E+02
 11
-1.26389130E+02
 21
-1.67104660E+02
  0
LINE
  8
0
 62
6
 10
-1.26619130E+02
 20
-1.66604660E+02
 11
-1.26619130E+02
 21
-1.67104660E+02
  0
LINE
  8
0
 62
6
 10
-1.28659130E+02
 20
-1.66604660E+02
 11
-1.28659130E+02
 21
-1.67104660E+02
  0
LINE
  8
0
 62
6
 10
-1.28889130E+02
 20
-1.66604660E+02
 11
-1.28889130E+02
 21
-1.67104660E+02
  0
LINE
  8
0
 62
6
 10
-1.28889130E+02
 20
-1.70874660E+02
 11
-1.26389130E+02
 21
-1.70874660E+02
  0
LINE
  8
0
 62
6
 10
-1.26389130E+02
 20
-1.69694660E+02
 11
-1.26389130E+02
 21
-1.70874660E+02
  0
LINE
  8
0
 62
6
 10
-1.26619130E+02
 20
-1.69694660E+02
 11
-1.26619130E+02
 21
-1.71104660E+02
  0
LINE
  8
0
 62
6
 10
-1.28659130E+02
 20
-1.69694660E+02
 11
-1.28659130E+02
 21
-1.71104660E+02
  0
LINE
  8
0
 62
6
 10
-1.28889130E+02
 20
-1.69694660E+02
 11
-1.28889130E+02
 21
-1.70874660E+02
  0
LINE
  8
0
 62
6
 10
-1.28659130E+02
 20
-1.71104660E+02
 11
-1.28889130E+02
 21
-1.70874660E+02
  0
LINE
  8
0
 62
6
 10
-1.26619130E+02
 20
-1.71104660E+02
 11
-1.26389130E+02
 21
-1.70874660E+02
  0
LINE
  8
0
 62
6
 10
-1.28659130E+02
 20
-1.71104660E+02
 11
-1.26619130E+02
 21
-1.71104660E+02
  0
LINE
  8
0
 62
6
 10
-1.29689130E+02
 20
-1.69694660E+02
 11
-1.25589130E+02
 21
-1.69694660E+02
  0
LINE
  8
0
 62
6
 10
-1.29689130E+02
 20
-1.68904660E+02
 11
-1.25589130E+02
 21
-1.68904660E+02
  0
LINE
  8
0
 62
6
 10
-1.25589130E+02
 20
-1.68104660E+02
 11
-1.25589130E+02
 21
-1.69654660E+02
  0
LINE
  8
0
 62
6
 10
-1.25589130E+02
 20
-1.68104660E+02
 11
-1.26139130E+02
 21
-1.67554660E+02
  0
LINE
  8
0
 62
6
 10
-1.26139130E+02
 20
-1.67104660E+02
 11
-1.26139130E+02
 21
-1.67554660E+02
  0
LINE
  8
0
 62
6
 10
-1.29139130E+02
 20
-1.67104660E+02
 11
-1.26139130E+02
 21
-1.67104660E+02
  0
LINE
  8
0
 62
6
 10
-1.29139130E+02
 20
-1.67104660E+02
 11
-1.29139130E+02
 21
-1.67554660E+02
  0
LINE
  8
0
 62
6
 10
-1.29689130E+02
 20
-1.68104660E+02
 11
-1.29139130E+02
 21
-1.67554660E+02
  0
LINE
  8
0
 62
6
 10
-1.29689130E+02
 20
-1.68104660E+02
 11
-1.29689130E+02
 21
-1.69654660E+02
  0
LINE
  8
0
  6
CENTER
 62
6
 10
-1.27639130E+02
 20
-1.65054660E+02
 11
-1.27639130E+02
 21
-1.72124660E+02
  0
ARC
  8
0
 62
6
 10
-1.27639132E+02
 20
-1.69654658E+02
 40
2.05000234E+00
 50
2.70000000E+02
 51
3.59999936E+02
  0
ARC
  8
0
 62
6
 10
-1.27639127E+02
 20
-1.69654658E+02
 40
2.05000234E+00
 50
1.80000063E+02
 51
2.70000000E+02
  0
LINE
  8
0
 62
6
 10
-8.23464050E+01
 20
-1.66604660E+02
 11
-7.98464050E+01
 21
-1.66604660E+02
  0
LINE
  8
0
 62
6
 10
-7.98464050E+01
 20
-1.66604660E+02
 11
-7.98464050E+01
 21
-1.67104660E+02
  0
LINE
  8
0
 62
6
 10
-8.00764050E+01
 20
-1.66604660E+02
 11
-8.00764050E+01
 21
-1.67104660E+02
  0
LINE
  8
0
 62
6
 10
-8.21264050E+01
 20
-1.66604660E+02
 11
-8.21264050E+01
 21
-1.67104660E+02
  0
LINE
  8
0
 62
6
 10
-8.23464050E+01
 20
-1.66604660E+02
 11
-8.23464050E+01
 21
-1.67104660E+02
  0
LINE
  8
0
  6
CENTER
 62
6
 10
-8.10964050E+01
 20
-1.66304660E+02
 11
-8.10964050E+01
 21
-1.71744660E+02
  0
LINE
  8
0
 62
7
 10
5.50000000E+01
 20
-6.07951279E+01
 11
5.50000000E+01
 21
-3.79512405E+00
  0
LINE
  8
0
 62
6
 10
-5.86000061E+01
 20
-2.17951279E+01
 11
-5.86000061E+01
 21
-1.77951279E+01
  0
LINE
  8
0
 62
7
 10
-5.50000000E+01
 20
-3.79512405E+00
 11
5.50000000E+01
 21
-3.79512405E+00
  0
LINE
  8
0
 62
7
 10
-5.50000000E+01
 20
-6.07951279E+01
 11
-5.50000000E+01
 21
-3.79512405E+00
  0
LINE
  8
0
 62
6
 10
-5.71000061E+01
 20
-2.32951279E+01
 11
-5.50000000E+01
 21
-2.32951279E+01
  0
LINE
  8
0
 62
6
 10
-5.71000061E+01
 20
-1.62951279E+01
 11
-5.50000000E+01
 21
-1.62951279E+01
  0
LINE
  8
0
  6
CENTER
 62
2
 10
0.00000000E+00
 20
-6.41153336E+01
 11
0.00000000E+00
 21
0.00000000E+00
  0
LINE
  8
0
 62
7
 10
-5.50000000E+01
 20
-6.07951279E+01
 11
5.50000000E+01
 21
-6.07951279E+01
  0
LINE
  8
0
  6
CENTER
 62
2
 10
-6.00000000E+01
 20
-3.22951241E+01
 11
6.00000000E+01
 21
-3.22951241E+01
  0
LINE
  8
0
  6
CENTER
 62
2
 10
-2.00000000E+01
 20
-3.67951241E+01
 11
-2.00000000E+01
 21
-2.77951241E+01
  0
LINE
  8
0
  6
CENTER
 62
2
 10
2.00000000E+01
 20
-3.57951241E+01
 11
2.00000000E+01
 21
-2.87951241E+01
  0
LINE
  8
0
  6
CENTER
 62
2
 10
3.00000000E+01
 20
-3.67951241E+01
 11
3.00000000E+01
 21
-2.77951241E+01
  0
LINE
  8
0
  6
CENTER
 62
2
 10
-3.00000000E+01
 20
-3.67951241E+01
 11
-3.00000000E+01
 21
-2.77951241E+01
  0
LINE
  8
0
  6
CENTER
 62
2
 10
2.15000000E+01
 20
-3.57951241E+01
 11
2.15000000E+01
 21
-2.87951241E+01
  0
LINE
  8
0
  6
CENTER
 62
2
 10
1.85000000E+01
 20
-3.57951241E+01
 11
1.85000000E+01
 21
-2.87951241E+01
  0
LINE
  8
0
 62
7
 10
1.85000000E+01
 20
-3.07951241E+01
 11
2.15000000E+01
 21
-3.07951241E+01
  0
LINE
  8
0
 62
7
 10
1.85000000E+01
 20
-3.37951241E+01
 11
2.15000000E+01
 21
-3.37951241E+01
  0
LINE
  8
0
  6
CENTER
 62
2
 10
-6.03017464E+01
 20
-1.97951279E+01
 11
-5.35265465E+01
 21
-1.97951279E+01
  0
LINE
  8
0
  6
CENTER
 62
2
 10
-7.36309128E+01
 20
-4.47951279E+01
 11
-5.22592506E+01
 21
-4.47951279E+01
  0
LINE
  8
0
 62
6
 10
-6.85999985E+01
 20
-4.07951202E+01
 11
-6.11000214E+01
 21
-4.07951202E+01
  0
LINE
  8
0
 62
6
 10
-6.85999985E+01
 20
-4.87951202E+01
 11
-6.11000214E+01
 21
-4.87951202E+01
  0
LINE
  8
0
 62
6
 10
-6.90999985E+01
 20
-4.82951202E+01
 11
-6.11000214E+01
 21
-4.82951202E+01
  0
LINE
  8
0
 62
6
 10
-6.90999985E+01
 20
-4.12951202E+01
 11
-6.11000214E+01
 21
-4.12951202E+01
  0
LINE
  8
0
 62
6
 10
-6.85999985E+01
 20
-4.87951279E+01
 11
-6.85999985E+01
 21
-4.07951279E+01
  0
LINE
  8
0
 62
6
 10
-6.90999985E+01
 20
-4.82951279E+01
 11
-6.90999985E+01
 21
-4.12951279E+01
  0
LINE
  8
0
 62
6
 10
-6.85999088E+01
 20
-4.07951924E+01
 11
-6.90999201E+01
 21
-4.12952037E+01
  0
LINE
  8
0
 62
6
 10
-6.85999736E+01
 20
-4.87951362E+01
 11
-6.90999741E+01
 21
-4.82951356E+01
  0
LINE
  8
0
 62
6
 10
-6.11000214E+01
 20
-5.00451279E+01
 11
-6.11000214E+01
 21
-3.95451279E+01
  0
LINE
  8
0
 62
6
 10
-6.05000153E+01
 20
-3.77951202E+01
 11
-5.67000122E+01
 21
-3.77951202E+01
  0
LINE
  8
0
 62
6
 10
-6.05000153E+01
 20
-5.17951202E+01
 11
-5.67000122E+01
 21
-5.17951202E+01
  0
LINE
  8
0
 62
6
 10
-6.05000153E+01
 20
-4.12951202E+01
 11
-5.67000122E+01
 21
-4.12951202E+01
  0
LINE
  8
0
 62
6
 10
-6.05000153E+01
 20
-4.82951355E+01
 11
-5.67000122E+01
 21
-4.82951355E+01
  0
LINE
  8
0
 62
6
 10
-5.61000061E+01
 20
-5.22951202E+01
 11
-5.61000061E+01
 21
-3.72951202E+01
  0
LINE
  8
0
 62
6
 10
-5.61000061E+01
 20
-5.22951202E+01
 11
-5.50000000E+01
 21
-5.22951202E+01
  0
LINE
  8
0
 62
6
 10
-5.61000061E+01
 20
-3.72951202E+01
 11
-5.50000000E+01
 21
-3.72951202E+01
  0
ARC
  8
0
 62
6
 10
-5.71000061E+01
 20
-1.77951279E+01
 40
1.50000000E+00
 50
9.00000002E+01
 51
1.79999964E+02
  0
ARC
  8
0
 62
6
 10
-5.71000061E+01
 20
-2.17951279E+01
 40
1.50000000E+00
 50
1.79999977E+02
 51
2.70000000E+02
  0
CIRCLE
  8
0
 62
7
 10
3.00000000E+01
 20
-3.22951241E+01
 40
2.09999990E+00
  0
CIRCLE
  8
0
 62
7
 10
-3.00000000E+01
 20
-3.22951241E+01
 40
1.14060611E-01
  0
CIRCLE
  8
0
 62
7
 10
-3.00000000E+01
 20
-3.22951241E+01
 40
2.09999990E+00
  0
CIRCLE
  8
0
 62
2
 10
-3.00000000E+01
 20
-3.22951241E+01
 40
2.50000000E+00
  0
CIRCLE
  8
0
 62
2
 10
3.00000000E+01
 20
-3.22951241E+01
 40
2.50000000E+00
  0
CIRCLE
  8
0
 62
7
 10
-2.00000000E+01
 20
-3.22951241E+01
 40
1.50000000E+00
  0
CIRCLE
  8
0
 62
7
 10
0.00000000E+00
 20
-3.22951241E+01
 40
2.00000000E+00
  0
CIRCLE
  8
0
 62
7
 10
0.00000000E+00
 20
-3.22951241E+01
 40
5.00000000E+00
  0
ARC
  8
0
 62
7
 10
2.15000000E+01
 20
-3.22951241E+01
 40
1.50000000E+00
 50
2.70000000E+02
 51
9.00000002E+01
  0
ARC
  8
0
 62
7
 10
1.85000000E+01
 20
-3.22951241E+01
 40
1.50000000E+00
 50
9.00000002E+01
 51
2.70000000E+02
  0
ARC
  8
0
 62
6
 10
-6.66080399E+01
 20
-4.47951279E+01
 40
1.05080252E+01
 50
3.40544242E+02
 51
1.94557750E+01
  0
ARC
  8
0
 62
6
 10
-5.82479401E+01
 20
-3.95451202E+01
 40
2.85206056E+00
 50
1.42150443E+02
 51
2.17849635E+02
  0
ARC
  8
0
 62
6
 10
-5.89520721E+01
 20
-3.95451202E+01
 40
2.85206056E+00
 50
3.22150329E+02
 51
3.78496708E+01
  0
ARC
  8
0
 62
6
 10
-5.82479401E+01
 20
-5.00451202E+01
 40
2.85206056E+00
 50
1.42150771E+02
 51
2.17849485E+02
  0
ARC
  8
0
 62
6
 10
-5.89520721E+01
 20
-5.00451202E+01
 40
2.85206056E+00
 50
3.22150370E+02
 51
3.78492406E+01
  0
ARC
  8
0
 62
6
 10
-5.05919876E+01
 20
-4.47951279E+01
 40
1.05080252E+01
 50
1.60544225E+02
 51
1.99455758E+02
  0
LINE
  8
0
 62
7
 10
5.50000000E+01
 20
1.62538200E+02
 11
5.50000000E+01
 21
1.05538200E+02
  0
LINE
  8
0
 62
7
 10
-5.50000000E+01
 20
1.40038200E+02
 11
-5.40000000E+01
 21
1.40038200E+02
  0
LINE
  8
0
 62
7
 10
-5.50000000E+01
 20
1.28038193E+02
 11
-5.40000000E+01
 21
1.28038193E+02
  0
LINE
  8
0
 62
7
 10
-5.30000000E+01
 20
1.20538200E+02
 11
-2.20000000E+01
 21
1.20538200E+02
  0
LINE
  8
0
 62
7
 10
2.20000000E+01
 20
1.47538193E+02
 11
2.20000000E+01
 21
1.20538200E+02
  0
LINE
  8
0
 62
7
 10
5.30000000E+01
 20
1.47538193E+02
 11
5.30000000E+01
 21
1.20538200E+02
  0
LINE
  8
0
 62
7
 10
-5.30000000E+01
 20
1.47538193E+02
 11
-2.20000000E+01
 21
1.47538193E+02
  0
LINE
  8
0
 62
7
 10
-2.10000000E+01
 20
1.40038200E+02
 11
2.10000000E+01
 21
1.40038200E+02
  0
LINE
  8
0
 62
7
 10
5.40000000E+01
 20
1.40038200E+02
 11
5.50000000E+01
 21
1.40038200E+02
  0
LINE
  8
0
 62
7
 10
5.40000000E+01
 20
1.28038193E+02
 11
5.50000000E+01
 21
1.28038193E+02
  0
LINE
  8
0
 62
7
 10
-2.10000000E+01
 20
1.28038193E+02
 11
2.10000000E+01
 21
1.28038193E+02
  0
LINE
  8
0
 62
7
 10
2.20000000E+01
 20
1.47538193E+02
 11
5.30000000E+01
 21
1.47538193E+02
  0
LINE
  8
0
 62
7
 10
2.20000000E+01
 20
1.20538200E+02
 11
5.30000000E+01
 21
1.20538200E+02
  0
LINE
  8
0
  6
CENTER
 62
2
 10
2.53999939E+01
 20
1.56538200E+02
 11
3.46000061E+01
 21
1.56538200E+02
  0
LINE
  8
0
  6
CENTER
 62
2
 10
3.00000000E+01
 20
1.61138206E+02
 11
3.00000000E+01
 21
1.51938194E+02
  0
LINE
  8
0
  6
CENTER
 62
2
 10
-3.46000061E+01
 20
1.56538200E+02
 11
-2.53999939E+01
 21
1.56538200E+02
  0
LINE
  8
0
  6
CENTER
 62
2
 10
-3.00000000E+01
 20
1.61138206E+02
 11
-3.00000000E+01
 21
1.51938194E+02
  0
LINE
  8
0
  6
CENTER
 62
2
 10
-3.46000061E+01
 20
1.11538200E+02
 11
-2.53999939E+01
 21
1.11538200E+02
  0
LINE
  8
0
  6
CENTER
 62
2
 10
-3.00000000E+01
 20
1.16138206E+02
 11
-3.00000000E+01
 21
1.06938194E+02
  0
LINE
  8
0
  6
CENTER
 62
2
 10
2.53999939E+01
 20
1.11538200E+02
 11
3.46000061E+01
 21
1.11538200E+02
  0
LINE
  8
0
  6
CENTER
 62
2
 10
3.00000000E+01
 20
1.16138206E+02
 11
3.00000000E+01
 21
1.06938194E+02
  0
LINE
  8
0
  6
CENTER
 62
2
 10
-4.50000000E+01
 20
1.47638206E+02
 11
-4.50000000E+01
 21
1.40438194E+02
  0
LINE
  8
0
  6
CENTER
 62
2
 10
-4.86000061E+01
 20
1.44038200E+02
 11
-4.13999939E+01
 21
1.44038200E+02
  0
LINE
  8
0
  6
CENTER
 62
2
 10
-3.00000000E+01
 20
1.47638206E+02
 11
-3.00000000E+01
 21
1.40438194E+02
  0
LINE
  8
0
  6
CENTER
 62
2
 10
-3.36000061E+01
 20
1.44038200E+02
 11
-2.63999939E+01
 21
1.44038200E+02
  0
LINE
  8
0
  6
CENTER
 62
2
 10
-4.50000000E+01
 20
1.27638206E+02
 11
-4.50000000E+01
 21
1.20438194E+02
  0
LINE
  8
0
  6
CENTER
 62
2
 10
-4.86000061E+01
 20
1.24038200E+02
 11
-4.13999939E+01
 21
1.24038200E+02
  0
LINE
  8
0
  6
CENTER
 62
2
 10
-3.00000000E+01
 20
1.27638206E+02
 11
-3.00000000E+01
 21
1.20438194E+02
  0
LINE
  8
0
  6
CENTER
 62
2
 10
-3.36000061E+01
 20
1.24038200E+02
 11
-2.63999939E+01
 21
1.24038200E+02
  0
LINE
  8
0
  6
CENTER
 62
2
 10
-6.00000000E+01
 20
1.34038193E+02
 11
6.00000000E+01
 21
1.34038193E+02
  0
LINE
  8
0
 62
7
 10
-5.30000000E+01
 20
1.47538193E+02
 11
-5.30000000E+01
 21
1.20538200E+02
  0
LINE
  8
0
 62
7
 10
-2.20000000E+01
 20
1.47538193E+02
 11
-2.20000000E+01
 21
1.20538200E+02
  0
LINE
  8
0
 62
7
 10
-2.10000000E+01
 20
1.46538193E+02
 11
-2.10000000E+01
 21
1.21538193E+02
  0
LINE
  8
0
 62
7
 10
-5.40000000E+01
 20
1.21538193E+02
 11
-5.30000000E+01
 21
1.21538193E+02
  0
LINE
  8
0
 62
7
 10
-5.40000000E+01
 20
1.46538193E+02
 11
-5.30000000E+01
 21
1.46538193E+02
  0
LINE
  8
0
 62
7
 10
2.10000000E+01
 20
1.46538193E+02
 11
2.10000000E+01
 21
1.21538193E+02
  0
LINE
  8
0
 62
7
 10
5.40000000E+01
 20
1.46538193E+02
 11
5.40000000E+01
 21
1.21538193E+02
  0
LINE
  8
0
 62
7
 10
-2.20000000E+01
 20
1.46538193E+02
 11
-2.10000000E+01
 21
1.46538193E+02
  0
LINE
  8
0
 62
7
 10
-2.20000000E+01
 20
1.21538193E+02
 11
-2.10000000E+01
 21
1.21538193E+02
  0
LINE
  8
0
 62
7
 10
5.30000000E+01
 20
1.46538193E+02
 11
5.40000000E+01
 21
1.46538193E+02
  0
LINE
  8
0
 62
7
 10
5.30000000E+01
 20
1.21538193E+02
 11
5.40000000E+01
 21
1.21538193E+02
  0
LINE
  8
0
 62
7
 10
2.10000000E+01
 20
1.46538193E+02
 11
2.20000000E+01
 21
1.46538193E+02
  0
LINE
  8
0
 62
7
 10
2.10000000E+01
 20
1.21538193E+02
 11
2.20000000E+01
 21
1.21538193E+02
  0
LINE
  8
0
 62
7
 10
-5.40000000E+01
 20
1.46538193E+02
 11
-5.40000000E+01
 21
1.21538193E+02
  0
LINE
  8
0
 62
7
 10
-5.30000000E+01
 20
1.26538193E+02
 11
-2.20000000E+01
 21
1.26538193E+02
  0
LINE
  8
0
 62
7
 10
-5.30000000E+01
 20
1.41538193E+02
 11
-2.20000000E+01
 21
1.41538193E+02
  0
LINE
  8
0
 62
7
 10
2.20000000E+01
 20
1.41538193E+02
 11
5.30000000E+01
 21
1.41538193E+02
  0
LINE
  8
0
 62
7
 10
2.20000000E+01
 20
1.26538193E+02
 11
5.30000000E+01
 21
1.26538193E+02
  0
LINE
  8
0
 62
7
 10
-5.50000000E+01
 20
1.51038200E+02
 11
5.50000000E+01
 21
1.51038200E+02
  0
LINE
  8
0
 62
7
 10
-5.50000000E+01
 20
1.17038200E+02
 11
5.50000000E+01
 21
1.17038200E+02
  0
LINE
  8
0
 62
6
 10
-5.71000061E+01
 20
1.18038193E+02
 11
-5.50000000E+01
 21
1.18038193E+02
  0
LINE
  8
0
 62
6
 10
-5.71000061E+01
 20
1.25038193E+02
 11
-5.50000000E+01
 21
1.25038193E+02
  0
LINE
  8
0
 62
6
 10
-5.86000061E+01
 20
1.23538193E+02
 11
-5.86000061E+01
 21
1.19538193E+02
  0
LINE
  8
0
  6
CENTER
 62
2
 10
3.36000061E+01
 20
1.44038200E+02
 11
2.63999939E+01
 21
1.44038200E+02
  0
LINE
  8
0
  6
CENTER
 62
2
 10
3.00000000E+01
 20
1.27638206E+02
 11
3.00000000E+01
 21
1.20438194E+02
  0
LINE
  8
0
  6
CENTER
 62
2
 10
3.36000061E+01
 20
1.24038200E+02
 11
2.63999939E+01
 21
1.24038200E+02
  0
LINE
  8
0
  6
CENTER
 62
2
 10
4.85000000E+01
 20
1.24038200E+02
 11
4.13999939E+01
 21
1.24038200E+02
  0
LINE
  8
0
  6
CENTER
 62
2
 10
4.50000000E+01
 20
1.27638206E+02
 11
4.50000000E+01
 21
1.20438194E+02
  0
LINE
  8
0
  6
CENTER
 62
2
 10
4.85000000E+01
 20
1.44038200E+02
 11
4.13999939E+01
 21
1.44038200E+02
  0
LINE
  8
0
  6
CENTER
 62
2
 10
4.50000000E+01
 20
1.47638206E+02
 11
4.50000000E+01
 21
1.40438194E+02
  0
LINE
  8
0
  6
CENTER
 62
2
 10
3.00000000E+01
 20
1.47638206E+02
 11
3.00000000E+01
 21
1.40438194E+02
  0
LINE
  8
0
 62
7
 10
-5.50000000E+01
 20
1.62538200E+02
 11
5.50000000E+01
 21
1.62538200E+02
  0
LINE
  8
0
 62
7
 10
-5.50000000E+01
 20
1.05538200E+02
 11
5.50000000E+01
 21
1.05538200E+02
  0
LINE
  8
0
  6
CENTER
 62
2
 10
-3.75000000E+01
 20
1.49288197E+02
 11
-3.75000000E+01
 21
1.18788200E+02
  0
LINE
  8
0
  6
CENTER
 62
2
 10
3.75000000E+01
 20
1.49288197E+02
 11
3.75000000E+01
 21
1.18788200E+02
  0
LINE
  8
0
  6
CENTER
 62
2
 10
-6.00518570E+01
 20
1.21538193E+02
 11
-5.34811745E+01
 21
1.21538193E+02
  0
LINE
  8
0
 62
7
 10
-5.50000000E+01
 20
1.62538200E+02
 11
-5.50000000E+01
 21
1.05538200E+02
  0
LINE
  8
0
  6
CENTER
 62
2
 10
-7.36309128E+01
 20
1.46538193E+02
 11
-5.22592506E+01
 21
1.46538193E+02
  0
LINE
  8
0
 62
6
 10
-6.85999985E+01
 20
1.50538200E+02
 11
-6.11000214E+01
 21
1.50538200E+02
  0
LINE
  8
0
 62
6
 10
-6.85999985E+01
 20
1.42538200E+02
 11
-6.11000214E+01
 21
1.42538200E+02
  0
LINE
  8
0
 62
6
 10
-6.90999985E+01
 20
1.43038200E+02
 11
-6.11000214E+01
 21
1.43038200E+02
  0
LINE
  8
0
 62
6
 10
-6.90999985E+01
 20
1.50038200E+02
 11
-6.11000214E+01
 21
1.50038200E+02
  0
LINE
  8
0
 62
6
 10
-6.85999985E+01
 20
1.42538193E+02
 11
-6.85999985E+01
 21
1.50538193E+02
  0
LINE
  8
0
 62
6
 10
-6.90999985E+01
 20
1.43038193E+02
 11
-6.90999985E+01
 21
1.50038193E+02
  0
LINE
  8
0
 62
6
 10
-6.85999061E+01
 20
1.50538127E+02
 11
-6.90999174E+01
 21
1.50038115E+02
  0
LINE
  8
0
 62
6
 10
-6.85999709E+01
 20
1.42538183E+02
 11
-6.90999714E+01
 21
1.43038183E+02
  0
LINE
  8
0
 62
6
 10
-6.11000214E+01
 20
1.41288193E+02
 11
-6.11000214E+01
 21
1.51788193E+02
  0
LINE
  8
0
 62
6
 10
-6.05000153E+01
 20
1.53538200E+02
 11
-5.67000122E+01
 21
1.53538200E+02
  0
LINE
  8
0
 62
6
 10
-6.05000153E+01
 20
1.39538200E+02
 11
-5.67000122E+01
 21
1.39538200E+02
  0
LINE
  8
0
 62
6
 10
-6.05000153E+01
 20
1.50038200E+02
 11
-5.67000122E+01
 21
1.50038200E+02
  0
LINE
  8
0
 62
6
 10
-6.05000153E+01
 20
1.43038185E+02
 11
-5.67000122E+01
 21
1.43038185E+02
  0
LINE
  8
0
 62
6
 10
-5.61000061E+01
 20
1.39038200E+02
 11
-5.61000061E+01
 21
1.54038200E+02
  0
LINE
  8
0
 62
6
 10
-5.61000061E+01
 20
1.39038200E+02
 11
-5.50000000E+01
 21
1.39038200E+02
  0
LINE
  8
0
 62
6
 10
-5.61000061E+01
 20
1.54038200E+02
 11
-5.50000000E+01
 21
1.54038200E+02
  0
LINE
  8
0
  6
CENTER
 62
2
 10
0.00000000E+00
 20
1.67538200E+02
 11
0.00000000E+00
 21
1.00538200E+02
  0
CIRCLE
  8
0
 62
2
 10
3.00000000E+01
 20
1.56538200E+02
 40
2.50000000E+00
  0
CIRCLE
  8
0
 62
2
 10
-3.00000000E+01
 20
1.56538200E+02
 40
2.50000000E+00
  0
CIRCLE
  8
0
 62
2
 10
-3.00000000E+01
 20
1.11538200E+02
 40
2.50000000E+00
  0
CIRCLE
  8
0
 62
2
 10
3.00000000E+01
 20
1.11538200E+02
 40
2.50000000E+00
  0
CIRCLE
  8
0
 62
2
 10
-4.50000000E+01
 20
1.44038200E+02
 40
1.50000000E+00
  0
CIRCLE
  8
0
 62
2
 10
-3.00000000E+01
 20
1.44038200E+02
 40
1.50000000E+00
  0
CIRCLE
  8
0
 62
2
 10
-4.50000000E+01
 20
1.24038200E+02
 40
1.50000000E+00
  0
CIRCLE
  8
0
 62
2
 10
-3.00000000E+01
 20
1.24038200E+02
 40
1.50000000E+00
  0
ARC
  8
0
 62
6
 10
-5.71000061E+01
 20
1.19538193E+02
 40
1.50000000E+00
 50
1.80000036E+02
 51
2.70000000E+02
  0
ARC
  8
0
 62
6
 10
-5.71000061E+01
 20
1.23538193E+02
 40
1.50000000E+00
 50
9.00000002E+01
 51
1.80000019E+02
  0
CIRCLE
  8
0
 62
2
 10
3.00000000E+01
 20
1.44038200E+02
 40
1.50000000E+00
  0
CIRCLE
  8
0
 62
2
 10
3.00000000E+01
 20
1.24038200E+02
 40
1.50000000E+00
  0
CIRCLE
  8
0
 62
2
 10
4.50000000E+01
 20
1.24038200E+02
 40
1.50000000E+00
  0
CIRCLE
  8
0
 62
2
 10
4.50000000E+01
 20
1.44038200E+02
 40
1.50000000E+00
  0
ARC
  8
0
 62
6
 10
-6.66080399E+01
 20
1.46538193E+02
 40
1.05080252E+01
 50
3.40544242E+02
 51
1.94557750E+01
  0
ARC
  8
0
 62
6
 10
-5.82479401E+01
 20
1.51788200E+02
 40
2.85206056E+00
 50
1.42150443E+02
 51
2.17849635E+02
  0
ARC
  8
0
 62
6
 10
-5.89520721E+01
 20
1.51788200E+02
 40
2.85206056E+00
 50
3.22150329E+02
 51
3.78496708E+01
  0
ARC
  8
0
 62
6
 10
-5.82479401E+01
 20
1.41288200E+02
 40
2.85206056E+00
 50
1.42150771E+02
 51
2.17849485E+02
  0
ARC
  8
0
 62
6
 10
-5.89520721E+01
 20
1.41288200E+02
 40
2.85206056E+00
 50
3.22150370E+02
 51
3.78492406E+01
  0
ARC
  8
0
 62
6
 10
-5.05919876E+01
 20
1.46538193E+02
 40
1.05080252E+01
 50
1.60544225E+02
 51
1.99455758E+02
  0
CIRCLE
  8
0
 62
7
 10
-4.50000000E+01
 20
1.44038200E+02
 40
1.25000000E+00
  0
CIRCLE
  8
0
 62
7
 10
-3.00000000E+01
 20
1.44038200E+02
 40
1.25000000E+00
  0
CIRCLE
  8
0
 62
7
 10
-4.50000000E+01
 20
1.24038200E+02
 40
1.25000000E+00
  0
CIRCLE
  8
0
 62
7
 10
-3.00000000E+01
 20
1.24038200E+02
 40
1.25000000E+00
  0
CIRCLE
  8
0
 62
7
 10
3.00000000E+01
 20
1.44038200E+02
 40
1.25000000E+00
  0
CIRCLE
  8
0
 62
7
 10
4.50000000E+01
 20
1.44038200E+02
 40
1.25000000E+00
  0
CIRCLE
  8
0
 62
7
 10
4.50000000E+01
 20
1.24038200E+02
 40
1.25000000E+00
  0
CIRCLE
  8
0
 62
7
 10
3.00000000E+01
 20
1.24038200E+02
 40
1.25000000E+00
  0
CIRCLE
  8
0
 62
7
 10
3.00000000E+01
 20
1.56538200E+02
 40
2.09999990E+00
  0
CIRCLE
  8
0
 62
7
 10
-3.00000000E+01
 20
1.56538200E+02
 40
2.09999990E+00
  0
CIRCLE
  8
0
 62
7
 10
-3.00000000E+01
 20
1.11538200E+02
 40
2.09999990E+00
  0
CIRCLE
  8
0
 62
7
 10
3.00000000E+01
 20
1.11538200E+02
 40
2.09999990E+00
  0
LINE
  8
0
 62
7
 10
1.31597580E+02
 20
6.33715363E+01
 11
1.31597580E+02
 21
5.73715363E+01
  0
LINE
  8
0
  6
CENTER
 62
2
 10
1.36097580E+02
 20
6.43715363E+01
 11
1.36097580E+02
 21
3.33715363E+01
  0
LINE
  8
0
 62
7
 10
1.65597580E+02
 20
6.33715363E+01
 11
1.65597580E+02
 21
5.73715363E+01
  0
LINE
  8
0
 62
7
 10
1.77097580E+02
 20
4.17715302E+01
 11
1.77097580E+02
 21
3.78715363E+01
  0
LINE
  8
0
 62
7
 10
1.20097572E+02
 20
3.90055084E+01
 11
1.20097572E+02
 21
3.78715363E+01
  0
LINE
  8
0
 62
7
 10
1.20097572E+02
 20
6.28715363E+01
 11
1.20097572E+02
 21
4.49715424E+01
  0
LINE
  8
0
 62
7
 10
1.20231544E+02
 20
6.33715363E+01
 11
1.31597580E+02
 21
6.33715363E+01
  0
LINE
  8
0
 62
7
 10
1.77097580E+02
 20
6.28715363E+01
 11
1.77097580E+02
 21
4.49715424E+01
  0
LINE
  8
0
 62
7
 10
1.21439262E+02
 20
3.53715363E+01
 11
1.75755890E+02
 21
3.53715363E+01
  0
LINE
  8
0
  6
CENTER
 62
2
 10
1.48597580E+02
 20
3.33715363E+01
 11
1.48597580E+02
 21
7.38715363E+01
  0
LINE
  8
0
  6
CENTER
 62
2
 10
1.79097580E+02
 20
4.63715363E+01
 11
1.18097572E+02
 21
4.63715363E+01
  0
LINE
  8
0
  6
CENTER
 62
2
 10
1.61097580E+02
 20
6.43715363E+01
 11
1.61097580E+02
 21
3.33715363E+01
  0
LINE
  8
0
 62
7
 10
1.76963608E+02
 20
6.33715363E+01
 11
1.65597580E+02
 21
6.33715363E+01
  0
LINE
  8
0
 62
7
 10
1.32097580E+02
 20
6.23715363E+01
 11
1.32097580E+02
 21
5.77715302E+01
  0
LINE
  8
0
 62
7
 10
1.41597580E+02
 20
6.23715363E+01
 11
1.41597580E+02
 21
5.77715302E+01
  0
LINE
  8
0
 62
7
 10
1.65597580E+02
 20
5.73715363E+01
 11
1.54597580E+02
 21
5.73715363E+01
  0
LINE
  8
0
 62
7
 10
1.54597580E+02
 20
6.73715363E+01
 11
1.54597580E+02
 21
6.63397827E+01
  0
LINE
  8
0
 62
7
 10
1.54597580E+02
 20
5.93715363E+01
 11
1.48597580E+02
 21
5.93715363E+01
  0
LINE
  8
0
 62
7
 10
1.65097580E+02
 20
6.23715363E+01
 11
1.55097580E+02
 21
6.23715363E+01
  0
LINE
  8
0
 62
7
 10
1.62097580E+02
 20
7.23715363E+01
 11
1.62097580E+02
 21
6.23715363E+01
  0
LINE
  8
0
 62
7
 10
1.62097580E+02
 20
7.23715363E+01
 11
1.56597588E+02
 21
7.23715363E+01
  0
LINE
  8
0
 62
7
 10
1.31597580E+02
 20
5.73715363E+01
 11
1.42597580E+02
 21
5.73715363E+01
  0
LINE
  8
0
 62
7
 10
1.42597580E+02
 20
6.73715363E+01
 11
1.42597580E+02
 21
6.63397827E+01
  0
LINE
  8
0
 62
7
 10
1.42597580E+02
 20
5.93715363E+01
 11
1.48597580E+02
 21
5.93715363E+01
  0
LINE
  8
0
 62
7
 10
1.42597580E+02
 20
6.73715363E+01
 11
1.54597580E+02
 21
6.73715363E+01
  0
LINE
  8
0
 62
7
 10
1.32097580E+02
 20
6.23715363E+01
 11
1.42097580E+02
 21
6.23715363E+01
  0
LINE
  8
0
 62
7
 10
1.35097580E+02
 20
7.23715363E+01
 11
1.35097580E+02
 21
6.23715363E+01
  0
LINE
  8
0
 62
7
 10
1.77097580E+02
 20
4.49715424E+01
 11
1.76097580E+02
 21
4.49715424E+01
  0
LINE
  8
0
 62
7
 10
1.75597580E+02
 20
4.54715424E+01
 11
1.73997574E+02
 21
4.54715424E+01
  0
LINE
  8
0
 62
7
 10
1.75597580E+02
 20
4.12715302E+01
 11
1.73997574E+02
 21
4.12715302E+01
  0
LINE
  8
0
 62
7
 10
1.76097543E+02
 20
4.49715112E+01
 11
1.75597543E+02
 21
4.54715117E+01
  0
LINE
  8
0
 62
7
 10
1.76097636E+02
 20
4.17714859E+01
 11
1.75597635E+02
 21
4.12714854E+01
  0
LINE
  8
0
 62
7
 10
1.77097580E+02
 20
4.17715302E+01
 11
1.76097580E+02
 21
4.17715302E+01
  0
LINE
  8
0
 62
7
 10
1.20097580E+02
 20
4.49715424E+01
 11
1.21097580E+02
 21
4.49715424E+01
  0
LINE
  8
0
 62
7
 10
1.21597580E+02
 20
4.54715424E+01
 11
1.23197578E+02
 21
4.54715424E+01
  0
LINE
  8
0
 62
7
 10
1.21597580E+02
 20
4.12715302E+01
 11
1.23197578E+02
 21
4.12715302E+01
  0
LINE
  8
0
 62
7
 10
1.21097623E+02
 20
4.49715071E+01
 11
1.21597602E+02
 21
4.54714861E+01
  0
LINE
  8
0
 62
7
 10
1.21097519E+02
 20
4.17714886E+01
 11
1.21597519E+02
 21
4.12714881E+01
  0
LINE
  8
0
 62
7
 10
1.20097580E+02
 20
4.17715302E+01
 11
1.21097580E+02
 21
4.17715302E+01
  0
LINE
  8
0
 62
7
 10
1.20097580E+02
 20
4.17715302E+01
 11
1.20097580E+02
 21
4.07375641E+01
  0
LINE
  8
0
 62
7
 10
1.61597580E+02
 20
7.13715363E+01
 11
1.35597580E+02
 21
7.13715363E+01
  0
LINE
  8
0
 62
7
 10
1.61597580E+02
 20
7.13715363E+01
 11
1.61597580E+02
 21
6.26715393E+01
  0
LINE
  8
0
 62
7
 10
1.35597580E+02
 20
7.13715363E+01
 11
1.35597580E+02
 21
6.23715363E+01
  0
LINE
  8
0
 62
7
 10
1.56097580E+02
 20
7.18715363E+01
 11
1.41097580E+02
 21
7.18715363E+01
  0
LINE
  8
0
 62
7
 10
1.40597552E+02
 20
7.23714979E+01
 11
1.41097553E+02
 21
7.18714973E+01
  0
LINE
  8
0
 62
7
 10
1.56597625E+02
 20
7.23715154E+01
 11
1.56097624E+02
 21
7.18715148E+01
  0
LINE
  8
0
 62
7
 10
1.40597572E+02
 20
7.23715363E+01
 11
1.35097580E+02
 21
7.23715363E+01
  0
LINE
  8
0
 62
7
 10
1.65097580E+02
 20
5.77715302E+01
 11
1.55597580E+02
 21
5.77715302E+01
  0
LINE
  8
0
 62
7
 10
1.55597580E+02
 20
6.23715363E+01
 11
1.55597580E+02
 21
5.77715302E+01
  0
LINE
  8
0
 62
7
 10
1.65097580E+02
 20
6.23715363E+01
 11
1.65097580E+02
 21
5.77715302E+01
  0
LINE
  8
0
 62
7
 10
1.32097580E+02
 20
5.77715302E+01
 11
1.41597580E+02
 21
5.77715302E+01
  0
LINE
  8
0
 62
7
 10
1.55097580E+02
 20
6.76715393E+01
 11
1.55097580E+02
 21
6.63715363E+01
  0
LINE
  8
0
 62
7
 10
1.54597580E+02
 20
6.44032898E+01
 11
1.54597580E+02
 21
5.73715363E+01
  0
LINE
  8
0
 62
7
 10
1.55097580E+02
 20
6.43715363E+01
 11
1.55097580E+02
 21
6.23715363E+01
  0
LINE
  8
0
 62
7
 10
1.61597580E+02
 20
6.26715393E+01
 11
1.55097580E+02
 21
6.26715393E+01
  0
LINE
  8
0
 62
7
 10
1.42097580E+02
 20
6.76715393E+01
 11
1.55097580E+02
 21
6.76715393E+01
  0
LINE
  8
0
 62
7
 10
1.42097580E+02
 20
6.76715393E+01
 11
1.42097580E+02
 21
6.63715363E+01
  0
LINE
  8
0
 62
7
 10
1.35597572E+02
 20
6.26715393E+01
 11
1.42097580E+02
 21
6.26715393E+01
  0
LINE
  8
0
 62
7
 10
1.42097580E+02
 20
6.43715363E+01
 11
1.42097580E+02
 21
6.23715363E+01
  0
LINE
  8
0
 62
7
 10
1.42597580E+02
 20
6.44032898E+01
 11
1.42597580E+02
 21
5.73715363E+01
  0
LINE
  8
0
  6
CENTER
 62
2
 10
1.23197578E+02
 20
4.74715366E+01
 11
1.23197578E+02
 21
3.92715364E+01
  0
LINE
  8
0
  6
CENTER
 62
2
 10
1.73997574E+02
 20
4.74715366E+01
 11
1.73997574E+02
 21
3.92715364E+01
  0
LINE
  8
0
  6
CENTER
 62
2
 10
1.18097572E+02
 20
4.33715363E+01
 11
1.27297577E+02
 21
4.33715363E+01
  0
LINE
  8
0
  6
CENTER
 62
2
 10
1.69897575E+02
 20
4.33715363E+01
 11
1.79097580E+02
 21
4.33715363E+01
  0
LINE
  8
0
 62
7
 10
1.51716748E+02
 20
4.48715363E+01
 11
1.45478411E+02
 21
4.48715363E+01
  0
LINE
  8
0
 62
7
 10
1.51716748E+02
 20
4.78715363E+01
 11
1.45478411E+02
 21
4.78715363E+01
  0
ARC
  8
0
 62
7
 10
1.76097580E+02
 20
6.28715363E+01
 40
1.00000000E+00
 50
3.59999997E+02
 51
2.99999974E+01
  0
ARC
  8
0
 62
7
 10
1.23097572E+02
 20
3.78715363E+01
 40
3.00000000E+00
 50
1.80000008E+02
 51
2.36442684E+02
  0
ARC
  8
0
 62
7
 10
1.74097580E+02
 20
3.78715363E+01
 40
3.00000000E+00
 50
3.03557315E+02
 51
3.59999997E+02
  0
ARC
  8
0
 62
7
 10
1.21097572E+02
 20
6.28715363E+01
 40
1.00000000E+00
 50
1.49999997E+02
 51
1.80000005E+02
  0
CIRCLE
  8
0
 62
7
 10
1.61097580E+02
 20
4.63715363E+01
 40
9.50000000E+00
  0
ARC
  8
0
 62
7
 10
1.73997574E+02
 20
4.33715363E+01
 40
2.09999990E+00
 50
9.00000002E+01
 51
2.70000000E+02
  0
ARC
  8
0
 62
7
 10
1.23197578E+02
 20
4.33715363E+01
 40
2.09999990E+00
 50
2.70000000E+02
 51
9.00000002E+01
  0
CIRCLE
  8
0
 62
7
 10
1.36097580E+02
 20
4.63715363E+01
 40
9.50000000E+00
  0
ARC
  8
0
 62
7
 10
1.19597580E+02
 20
3.98715363E+01
 40
1.00000000E+00
 50
2.99999910E+02
 51
6.00000698E+01
  0
ARC
  8
0
 62
7
 10
1.54847580E+02
 20
6.53715363E+01
 40
1.00000000E+00
 50
7.55225015E+01
 51
2.84477488E+02
  0
ARC
  8
0
 62
7
 10
1.55097580E+02
 20
6.53715363E+01
 40
1.00000000E+00
 50
9.00000002E+01
 51
2.70000000E+02
  0
ARC
  8
0
 62
7
 10
1.42097580E+02
 20
6.53715363E+01
 40
1.00000000E+00
 50
2.70000000E+02
 51
9.00000002E+01
  0
ARC
  8
0
 62
7
 10
1.42347580E+02
 20
6.53715363E+01
 40
1.00000000E+00
 50
2.55522592E+02
 51
1.04477572E+02
  0
CIRCLE
  8
0
 62
7
 10
1.61097580E+02
 20
4.63715363E+01
 40
5.00000000E+00
  0
CIRCLE
  8
0
 62
2
 10
1.61097580E+02
 20
4.63715363E+01
 40
2.50000000E+00
  0
CIRCLE
  8
0
 62
7
 10
1.61097580E+02
 20
4.63715363E+01
 40
2.09999990E+00
  0
CIRCLE
  8
0
 62
7
 10
1.36097580E+02
 20
4.63715363E+01
 40
5.00000000E+00
  0
CIRCLE
  8
0
 62
2
 10
1.36097580E+02
 20
4.63715363E+01
 40
2.50000000E+00
  0
CIRCLE
  8
0
 62
7
 10
1.36097580E+02
 20
4.63715363E+01
 40
2.09999990E+00
  0
TEXT
  8
0
 62
7
 10
1.26052960E+02
 20
5.60565189E+01
 40
3.20000005E+00
  1
O
 41
1.00000000E+00
  7
MONOTXT
  0
TEXT
  8
0
 62
7
 10
1.70349408E+02
 20
5.60565189E+01
 40
3.20000005E+00
  1
C
 41
1.00000000E+00
  7
MONOTXT
  0
LINE
  8
0
 62
7
 10
-1.65781128E+02
 20
5.73715363E+01
 11
-1.54781128E+02
 21
5.73715363E+01
  0
LINE
  8
0
 62
7
 10
-1.54781128E+02
 20
6.73715363E+01
 11
-1.54781128E+02
 21
6.63397827E+01
  0
LINE
  8
0
 62
7
 10
-1.54781128E+02
 20
5.93715363E+01
 11
-1.48781128E+02
 21
5.93715363E+01
  0
LINE
  8
0
 62
7
 10
-1.54781128E+02
 20
6.73715363E+01
 11
-1.42781128E+02
 21
6.73715363E+01
  0
LINE
  8
0
 62
7
 10
-1.65281128E+02
 20
6.23715363E+01
 11
-1.55281128E+02
 21
6.23715363E+01
  0
LINE
  8
0
 62
7
 10
-1.62281128E+02
 20
7.23715363E+01
 11
-1.62281128E+02
 21
6.23715363E+01
  0
LINE
  8
0
 62
7
 10
-1.62281128E+02
 20
7.23715363E+01
 11
-1.56781143E+02
 21
7.23715363E+01
  0
LINE
  8
0
 62
7
 10
-1.31781128E+02
 20
5.73715363E+01
 11
-1.42781128E+02
 21
5.73715363E+01
  0
LINE
  8
0
 62
7
 10
-1.42781128E+02
 20
6.73715363E+01
 11
-1.42781128E+02
 21
6.63397827E+01
  0
LINE
  8
0
 62
7
 10
-1.42781128E+02
 20
5.93715363E+01
 11
-1.48781128E+02
 21
5.93715363E+01
  0
LINE
  8
0
 62
7
 10
-1.32281128E+02
 20
6.23715363E+01
 11
-1.42281128E+02
 21
6.23715363E+01
  0
LINE
  8
0
 62
7
 10
-1.35281128E+02
 20
7.23715363E+01
 11
-1.35281128E+02
 21
6.23715363E+01
  0
LINE
  8
0
 62
7
 10
-1.77281128E+02
 20
4.49715424E+01
 11
-1.76281128E+02
 21
4.49715424E+01
  0
LINE
  8
0
 62
7
 10
-1.75781128E+02
 20
4.54715424E+01
 11
-1.74181122E+02
 21
4.54715424E+01
  0
LINE
  8
0
 62
7
 10
-1.75781128E+02
 20
4.12715302E+01
 11
-1.74181122E+02
 21
4.12715302E+01
  0
LINE
  8
0
 62
7
 10
-1.76281095E+02
 20
4.49715098E+01
 11
-1.75781095E+02
 21
4.54715104E+01
  0
LINE
  8
0
 62
7
 10
-1.76281188E+02
 20
4.17714873E+01
 11
-1.75781187E+02
 21
4.12714867E+01
  0
LINE
  8
0
 62
7
 10
-1.77281128E+02
 20
4.17715302E+01
 11
-1.76281128E+02
 21
4.17715302E+01
  0
LINE
  8
0
 62
7
 10
-1.20281128E+02
 20
4.49715424E+01
 11
-1.21281128E+02
 21
4.49715424E+01
  0
LINE
  8
0
 62
7
 10
-1.21781128E+02
 20
4.54715424E+01
 11
-1.23381134E+02
 21
4.54715424E+01
  0
LINE
  8
0
 62
7
 10
-1.21781128E+02
 20
4.12715302E+01
 11
-1.23381134E+02
 21
4.12715302E+01
  0
LINE
  8
0
 62
7
 10
-1.21281173E+02
 20
4.49715118E+01
 11
-1.21781152E+02
 21
4.54714908E+01
  0
LINE
  8
0
 62
7
 10
-1.21281072E+02
 20
4.17714859E+01
 11
-1.21781073E+02
 21
4.12714854E+01
  0
LINE
  8
0
 62
7
 10
-1.20281128E+02
 20
4.17715302E+01
 11
-1.21281128E+02
 21
4.17715302E+01
  0
LINE
  8
0
 62
7
 10
-1.20281128E+02
 20
4.17715302E+01
 11
-1.20281128E+02
 21
4.07375641E+01
  0
LINE
  8
0
 62
7
 10
-1.61781128E+02
 20
7.13715363E+01
 11
-1.35781128E+02
 21
7.13715363E+01
  0
LINE
  8
0
 62
7
 10
-1.61781128E+02
 20
7.13715363E+01
 11
-1.61781128E+02
 21
6.26715393E+01
  0
LINE
  8
0
 62
7
 10
-1.35781128E+02
 20
7.13715363E+01
 11
-1.35781128E+02
 21
6.23715363E+01
  0
LINE
  8
0
 62
7
 10
-1.56281128E+02
 20
7.18715363E+01
 11
-1.41281128E+02
 21
7.18715363E+01
  0
LINE
  8
0
 62
7
 10
-1.40781106E+02
 20
7.23714952E+01
 11
-1.41281106E+02
 21
7.18714946E+01
  0
LINE
  8
0
 62
7
 10
-1.56781176E+02
 20
7.23715181E+01
 11
-1.56281175E+02
 21
7.18715175E+01
  0
LINE
  8
0
 62
7
 10
-1.40781113E+02
 20
7.23715363E+01
 11
-1.35281128E+02
 21
7.23715363E+01
  0
LINE
  8
0
 62
7
 10
-1.65281128E+02
 20
5.77715302E+01
 11
-1.55781128E+02
 21
5.77715302E+01
  0
LINE
  8
0
 62
7
 10
-1.32281128E+02
 20
5.77715302E+01
 11
-1.41781128E+02
 21
5.77715302E+01
  0
LINE
  8
0
 62
7
 10
-1.55281128E+02
 20
6.76715393E+01
 11
-1.55281128E+02
 21
6.63715363E+01
  0
LINE
  8
0
 62
7
 10
-1.54781128E+02
 20
6.44032898E+01
 11
-1.54781128E+02
 21
5.73715363E+01
  0
LINE
  8
0
 62
7
 10
-1.55281128E+02
 20
6.43715363E+01
 11
-1.55281128E+02
 21
6.23715363E+01
  0
LINE
  8
0
 62
7
 10
-1.61781128E+02
 20
6.26715393E+01
 11
-1.55281128E+02
 21
6.26715393E+01
  0
LINE
  8
0
 62
7
 10
-1.55281128E+02
 20
6.76715393E+01
 11
-1.42281128E+02
 21
6.76715393E+01
  0
LINE
  8
0
 62
7
 10
-1.42281128E+02
 20
6.76715393E+01
 11
-1.42281128E+02
 21
6.63715363E+01
  0
LINE
  8
0
 62
7
 10
-1.35781128E+02
 20
6.26715393E+01
 11
-1.42281128E+02
 21
6.26715393E+01
  0
LINE
  8
0
 62
7
 10
-1.42281128E+02
 20
6.43715363E+01
 11
-1.42281128E+02
 21
6.23715363E+01
  0
LINE
  8
0
 62
7
 10
-1.42781128E+02
 20
6.44032898E+01
 11
-1.42781128E+02
 21
5.73715363E+01
  0
LINE
  8
0
 62
6
 10
-1.53775579E+02
 20
4.63715302E+01
 11
-1.57528357E+02
 21
3.98715303E+01
  0
LINE
  8
0
 62
6
 10
-1.65033915E+02
 20
5.28715356E+01
 11
-1.68786693E+02
 21
4.63715357E+01
  0
LINE
  8
0
 62
6
 10
-1.65033905E+02
 20
3.98715363E+01
 11
-1.57528366E+02
 21
3.98715363E+01
  0
LINE
  8
0
 62
6
 10
-1.65033905E+02
 20
5.28715363E+01
 11
-1.57528351E+02
 21
5.28715363E+01
  0
LINE
  8
0
 62
6
 10
-1.68786691E+02
 20
4.63715390E+01
 11
-1.65033914E+02
 21
3.98715372E+01
  0
LINE
  8
0
 62
6
 10
-1.57528360E+02
 20
5.28715387E+01
 11
-1.53775583E+02
 21
4.63715369E+01
  0
LINE
  8
0
 62
6
 10
-1.62147163E+02
 20
4.78715370E+01
 11
-1.63013191E+02
 21
4.63715331E+01
  0
LINE
  8
0
 62
6
 10
-1.59549074E+02
 20
4.63715290E+01
 11
-1.60415102E+02
 21
4.48715252E+01
  0
LINE
  8
0
 62
6
 10
-1.62147156E+02
 20
4.48715363E+01
 11
-1.60415100E+02
 21
4.48715363E+01
  0
LINE
  8
0
 62
6
 10
-1.62147156E+02
 20
4.78715363E+01
 11
-1.60415100E+02
 21
4.78715363E+01
  0
LINE
  8
0
 62
6
 10
-1.63013188E+02
 20
4.63715389E+01
 11
-1.62147161E+02
 21
4.48715354E+01
  0
LINE
  8
0
 62
6
 10
-1.60415112E+02
 20
4.78715388E+01
 11
-1.59549084E+02
 21
4.63715353E+01
  0
LINE
  8
0
 62
6
 10
-1.32804062E+02
 20
4.67715302E+01
 11
-1.39758194E+02
 21
4.67715302E+01
  0
LINE
  8
0
 62
6
 10
-1.32804062E+02
 20
4.59715424E+01
 11
-1.39758194E+02
 21
4.59715424E+01
  0
LINE
  8
0
 62
7
 10
-1.77281128E+02
 20
6.28715363E+01
 11
-1.77281128E+02
 21
4.49715424E+01
  0
LINE
  8
0
 62
7
 10
-1.77281128E+02
 20
4.17715302E+01
 11
-1.77281128E+02
 21
3.78715363E+01
  0
LINE
  8
0
 62
7
 10
-1.77147156E+02
 20
6.33715363E+01
 11
-1.65781128E+02
 21
6.33715363E+01
  0
LINE
  8
0
 62
7
 10
-1.21622810E+02
 20
3.53715363E+01
 11
-1.75939438E+02
 21
3.53715363E+01
  0
LINE
  8
0
 62
7
 10
-1.20281120E+02
 20
3.90055084E+01
 11
-1.20281120E+02
 21
3.78715363E+01
  0
LINE
  8
0
 62
7
 10
-1.20281120E+02
 20
6.28715363E+01
 11
-1.20281120E+02
 21
4.49715424E+01
  0
LINE
  8
0
 62
7
 10
-1.20415100E+02
 20
6.33715363E+01
 11
-1.31781128E+02
 21
6.33715363E+01
  0
LINE
  8
0
  6
CENTER
 62
2
 10
-1.36281128E+02
 20
6.43715363E+01
 11
-1.36281128E+02
 21
3.33715363E+01
  0
LINE
  8
0
  6
CENTER
 62
2
 10
-1.79281128E+02
 20
4.63715363E+01
 11
-1.18281120E+02
 21
4.63715363E+01
  0
LINE
  8
0
  6
CENTER
 62
2
 10
-1.48781128E+02
 20
3.33715363E+01
 11
-1.48781128E+02
 21
7.38715363E+01
  0
LINE
  8
0
  6
CENTER
 62
2
 10
-1.61281128E+02
 20
6.43715363E+01
 11
-1.61281128E+02
 21
3.33715363E+01
  0
LINE
  8
0
 62
7
 10
-1.65781128E+02
 20
6.33715363E+01
 11
-1.65781128E+02
 21
5.73715363E+01
  0
LINE
  8
0
 62
7
 10
-1.31781128E+02
 20
6.33715363E+01
 11
-1.31781128E+02
 21
5.73715363E+01
  0
LINE
  8
0
 62
7
 10
-1.41781128E+02
 20
6.23715363E+01
 11
-1.41781128E+02
 21
5.77715302E+01
  0
LINE
  8
0
 62
7
 10
-1.32281128E+02
 20
6.23715363E+01
 11
-1.32281128E+02
 21
5.77715302E+01
  0
LINE
  8
0
 62
7
 10
-1.55781128E+02
 20
6.23715363E+01
 11
-1.55781128E+02
 21
5.77715302E+01
  0
LINE
  8
0
 62
7
 10
-1.65281128E+02
 20
6.23715363E+01
 11
-1.65281128E+02
 21
5.77715302E+01
  0
LINE
  8
0
 62
7
 10
-1.51900296E+02
 20
4.48715363E+01
 11
-1.45661959E+02
 21
4.48715363E+01
  0
LINE
  8
0
 62
7
 10
-1.51900296E+02
 20
4.78715363E+01
 11
-1.45661959E+02
 21
4.78715363E+01
  0
CIRCLE
  8
0
 62
7
 10
-1.61281128E+02
 20
4.63715363E+01
 40
9.50000000E+00
  0
ARC
  8
0
 62
7
 10
-1.74181122E+02
 20
4.33715363E+01
 40
2.09999990E+00
 50
2.70000000E+02
 51
9.00000002E+01
  0
ARC
  8
0
 62
7
 10
-1.23381134E+02
 20
4.33715363E+01
 40
2.09999990E+00
 50
9.00000002E+01
 51
2.70000000E+02
  0
CIRCLE
  8
0
 62
7
 10
-1.36281128E+02
 20
4.63715363E+01
 40
9.50000000E+00
  0
ARC
  8
0
 62
7
 10
-1.19781128E+02
 20
3.98715363E+01
 40
1.00000000E+00
 50
1.19999935E+02
 51
2.40000089E+02
  0
ARC
  8
0
 62
7
 10
-1.55031128E+02
 20
6.53715363E+01
 40
1.00000000E+00
 50
2.55522517E+02
 51
1.04477497E+02
  0
ARC
  8
0
 62
7
 10
-1.55281128E+02
 20
6.53715363E+01
 40
1.00000000E+00
 50
2.70000000E+02
 51
9.00000002E+01
  0
ARC
  8
0
 62
7
 10
-1.42281128E+02
 20
6.53715363E+01
 40
1.00000000E+00
 50
9.00000002E+01
 51
2.70000000E+02
  0
ARC
  8
0
 62
7
 10
-1.42531128E+02
 20
6.53715363E+01
 40
1.00000000E+00
 50
7.55224333E+01
 51
2.84477406E+02
  0
CIRCLE
  8
0
 62
6
 10
-1.61281128E+02
 20
4.63715363E+01
 40
4.00000000E+00
  0
CIRCLE
  8
0
 62
6
 10
-1.61281128E+02
 20
4.63715363E+01
 40
3.50000000E+00
  0
CIRCLE
  8
0
 62
6
 10
-1.61281128E+02
 20
4.63715363E+01
 40
6.50000000E+00
  0
CIRCLE
  8
0
 62
6
 10
-1.61281128E+02
 20
4.63715363E+01
 40
1.70000005E+00
  0
CIRCLE
  8
0
 62
6
 10
-1.36281128E+02
 20
4.63715363E+01
 40
5.00000000E+00
  0
CIRCLE
  8
0
 62
6
 10
-1.36281128E+02
 20
4.63715363E+01
 40
3.50000000E+00
  0
ARC
  8
0
 62
7
 10
-1.74281128E+02
 20
3.78715363E+01
 40
3.00000000E+00
 50
1.80000008E+02
 51
2.36442684E+02
  0
ARC
  8
0
 62
7
 10
-1.76281128E+02
 20
6.28715363E+01
 40
1.00000000E+00
 50
1.49999997E+02
 51
1.80000005E+02
  0
ARC
  8
0
 62
7
 10
-1.23281120E+02
 20
3.78715363E+01
 40
3.00000000E+00
 50
3.03557315E+02
 51
3.59999997E+02
  0
ARC
  8
0
 62
7
 10
-1.21281120E+02
 20
6.28715363E+01
 40
1.00000000E+00
 50
3.59999997E+02
 51
2.99999974E+01
  0
CIRCLE
  8
0
 62
7
 10
-1.61281128E+02
 20
4.63715363E+01
 40
7.50000000E+00
  0
TEXT
  8
0
 62
7
 10
-1.26905048E+02
 20
5.60565189E+01
 40
3.20000005E+00
  1
O
 41
1.00000000E+00
  7
MONOTXT
  0
LINE
  8
0
 62
7
 10
-5.50000000E+01
 20
3.53715363E+01
 11
5.50000000E+01
 21
3.53715363E+01
  0
LINE
  8
0
 62
7
 10
-5.50000000E+01
 20
6.33715363E+01
 11
5.50000000E+01
 21
6.33715363E+01
  0
LINE
  8
0
 62
7
 10
-5.30000000E+01
 20
7.23715363E+01
 11
-2.20000000E+01
 21
7.23715363E+01
  0
LINE
  8
0
 62
7
 10
-5.50000000E+01
 20
6.68715363E+01
 11
-5.50000000E+01
 21
3.53715363E+01
  0
LINE
  8
0
 62
7
 10
5.50000000E+01
 20
6.68715363E+01
 11
5.50000000E+01
 21
3.53715363E+01
  0
LINE
  8
0
 62
7
 10
-5.30000000E+01
 20
7.23715363E+01
 11
-5.30000000E+01
 21
6.33715363E+01
  0
LINE
  8
0
 62
7
 10
-2.20000000E+01
 20
7.23715363E+01
 11
-2.20000000E+01
 21
6.33715363E+01
  0
LINE
  8
0
 62
7
 10
2.20000000E+01
 20
7.23715363E+01
 11
2.20000000E+01
 21
6.33715363E+01
  0
LINE
  8
0
 62
7
 10
5.30000000E+01
 20
7.23715363E+01
 11
5.30000000E+01
 21
6.33715363E+01
  0
LINE
  8
0
 62
7
 10
2.20000000E+01
 20
7.23715363E+01
 11
5.30000000E+01
 21
7.23715363E+01
  0
LINE
  8
0
  6
CENTER
 62
2
 10
3.55000000E+01
 20
5.93715363E+01
 11
4.45000000E+01
 21
5.93715363E+01
  0
LINE
  8
0
  6
CENTER
 62
2
 10
-4.00000000E+01
 20
6.38715363E+01
 11
-4.00000000E+01
 21
5.48715363E+01
  0
LINE
  8
0
  6
CENTER
 62
2
 10
4.00000000E+01
 20
6.38715363E+01
 11
4.00000000E+01
 21
5.48715363E+01
  0
LINE
  8
0
  6
CENTER
 62
2
 10
-4.50000000E+00
 20
5.93715363E+01
 11
4.50000000E+00
 21
5.93715363E+01
  0
LINE
  8
0
  6
CENTER
 62
2
 10
-4.45000000E+01
 20
5.93715363E+01
 11
-3.55000000E+01
 21
5.93715363E+01
  0
LINE
  8
0
 62
7
 10
-5.40000000E+01
 20
7.13715363E+01
 11
-5.40000000E+01
 21
6.33715363E+01
  0
LINE
  8
0
 62
7
 10
-2.10000000E+01
 20
7.13715363E+01
 11
-2.10000000E+01
 21
6.33715363E+01
  0
LINE
  8
0
 62
7
 10
2.10000000E+01
 20
7.13715363E+01
 11
2.10000000E+01
 21
6.33715363E+01
  0
LINE
  8
0
 62
7
 10
5.40000000E+01
 20
7.13715363E+01
 11
5.40000000E+01
 21
6.33715363E+01
  0
LINE
  8
0
 62
7
 10
-5.40000000E+01
 20
7.13715363E+01
 11
-5.30000000E+01
 21
7.13715363E+01
  0
LINE
  8
0
 62
7
 10
-2.20000000E+01
 20
7.13715363E+01
 11
-2.10000000E+01
 21
7.13715363E+01
  0
LINE
  8
0
 62
7
 10
2.10000000E+01
 20
7.13715363E+01
 11
2.20000000E+01
 21
7.13715363E+01
  0
LINE
  8
0
 62
7
 10
5.30000000E+01
 20
7.13715363E+01
 11
5.40000000E+01
 21
7.13715363E+01
  0
LINE
  8
0
  6
CENTER
 62
2
 10
-7.36309128E+01
 20
4.63715363E+01
 11
6.00000000E+01
 21
4.63715363E+01
  0
LINE
  8
0
 62
6
 10
-5.61000061E+01
 20
3.88715439E+01
 11
-5.61000061E+01
 21
4.28715363E+01
  0
LINE
  8
0
 62
6
 10
-5.61000061E+01
 20
5.38715439E+01
 11
-5.50000000E+01
 21
5.38715439E+01
  0
LINE
  8
0
 62
6
 10
-5.61000061E+01
 20
3.88715439E+01
 11
-5.50000000E+01
 21
3.88715439E+01
  0
LINE
  8
0
 62
7
 10
-5.50000000E+01
 20
6.68715363E+01
 11
-5.40000000E+01
 21
6.68715363E+01
  0
LINE
  8
0
 62
7
 10
-2.10000000E+01
 20
6.68715363E+01
 11
2.10000000E+01
 21
6.68715363E+01
  0
LINE
  8
0
 62
7
 10
5.40000000E+01
 20
6.68715363E+01
 11
5.50000000E+01
 21
6.68715363E+01
  0
LINE
  8
0
 62
7
 10
-5.50000000E+01
 20
3.90055084E+01
 11
5.50000000E+01
 21
3.90055084E+01
  0
LINE
  8
0
 62
7
 10
-5.50000000E+01
 20
4.07375641E+01
 11
5.50000000E+01
 21
4.07375641E+01
  0
LINE
  8
0
 62
7
 10
-5.50000000E+01
 20
4.17715302E+01
 11
5.50000000E+01
 21
4.17715302E+01
  0
LINE
  8
0
 62
7
 10
-5.50000000E+01
 20
4.49715424E+01
 11
5.50000000E+01
 21
4.49715424E+01
  0
LINE
  8
0
 62
6
 10
-5.71000061E+01
 20
4.98715363E+01
 11
-5.50000000E+01
 21
4.98715363E+01
  0
LINE
  8
0
 62
6
 10
-5.71000061E+01
 20
4.28715363E+01
 11
-5.50000000E+01
 21
4.28715363E+01
  0
LINE
  8
0
 62
6
 10
-5.86000061E+01
 20
4.43715363E+01
 11
-5.86000061E+01
 21
4.83715363E+01
  0
LINE
  8
0
 62
6
 10
-5.61000061E+01
 20
4.98715363E+01
 11
-5.61000061E+01
 21
5.38715439E+01
  0
LINE
  8
0
 62
6
 10
-6.11000214E+01
 20
5.28715286E+01
 11
-5.61000061E+01
 21
5.28715286E+01
  0
LINE
  8
0
 62
6
 10
-6.11000214E+01
 20
3.98715363E+01
 11
-5.61000061E+01
 21
3.98715363E+01
  0
LINE
  8
0
 62
6
 10
-6.11000214E+01
 20
5.28715286E+01
 11
-6.11000214E+01
 21
3.98715363E+01
  0
LINE
  8
0
 62
6
 10
-6.85999736E+01
 20
5.03715360E+01
 11
-6.90999741E+01
 21
4.98715355E+01
  0
LINE
  8
0
 62
6
 10
-6.85999196E+01
 20
4.23716030E+01
 11
-6.90999309E+01
 21
4.28716143E+01
  0
LINE
  8
0
 62
6
 10
-6.85999985E+01
 20
5.03715363E+01
 11
-6.85999985E+01
 21
4.23715363E+01
  0
LINE
  8
0
 62
6
 10
-6.90999985E+01
 20
4.98715363E+01
 11
-6.90999985E+01
 21
4.28715363E+01
  0
LINE
  8
0
 62
6
 10
-6.90999985E+01
 20
4.28715363E+01
 11
-6.11000214E+01
 21
4.28715363E+01
  0
LINE
  8
0
 62
6
 10
-6.90999985E+01
 20
4.98715363E+01
 11
-6.11000214E+01
 21
4.98715363E+01
  0
LINE
  8
0
 62
6
 10
-6.85999985E+01
 20
5.03715363E+01
 11
-6.11000214E+01
 21
5.03715363E+01
  0
LINE
  8
0
 62
6
 10
-6.85999985E+01
 20
4.23715363E+01
 11
-6.11000214E+01
 21
4.23715363E+01
  0
LINE
  8
0
 62
6
 10
-5.86000061E+01
 20
4.63715363E+01
 11
-6.04000130E+01
 21
4.63715363E+01
  0
LINE
  8
0
  6
CENTER
 62
2
 10
0.00000000E+00
 20
6.93715363E+01
 11
0.00000000E+00
 21
3.33715363E+01
  0
CIRCLE
  8
0
 62
7
 10
4.00000000E+01
 20
5.93715363E+01
 40
2.09999990E+00
  0
CIRCLE
  8
0
 62
2
 10
4.00000000E+01
 20
5.93715363E+01
 40
2.50000000E+00
  0
CIRCLE
  8
0
 62
2
 10
0.00000000E+00
 20
5.93715363E+01
 40
2.50000000E+00
  0
CIRCLE
  8
0
 62
7
 10
0.00000000E+00
 20
5.93715363E+01
 40
2.09999990E+00
  0
CIRCLE
  8
0
 62
2
 10
-4.00000000E+01
 20
5.93715363E+01
 40
2.50000000E+00
  0
CIRCLE
  8
0
 62
7
 10
-4.00000000E+01
 20
5.93715363E+01
 40
2.09999990E+00
  0
ARC
  8
0
 62
6
 10
-5.71000061E+01
 20
4.43715363E+01
 40
1.50000000E+00
 50
1.79999977E+02
 51
2.70000000E+02
  0
ARC
  8
0
 62
6
 10
-5.71000061E+01
 20
4.83715363E+01
 40
1.50000000E+00
 50
9.00000002E+01
 51
1.79999964E+02
  0
ARC
  8
0
 62
6
 10
-6.39946747E+01
 20
4.96215363E+01
 40
7.89467382E+00
 50
1.81468414E+00
 51
2.43098317E+01
  0
ARC
  8
0
 62
6
 10
-5.32053375E+01
 20
4.96215363E+01
 40
7.89467382E+00
 50
1.55690310E+02
 51
2.04309810E+02
  0
ARC
  8
0
 62
6
 10
-6.39946747E+01
 20
4.31215363E+01
 40
7.89467382E+00
 50
3.35690223E+02
 51
3.58185316E+02
  0
ARC
  8
0
 62
6
 10
-5.32053375E+01
 20
4.31215363E+01
 40
7.89467382E+00
 50
1.55690255E+02
 51
2.04309755E+02
  0
TEXT
  8
0
 62
7
 10
-2.67600561E+02
 20
1.57350000E+02
 40
6.29999924E+00
  1
MODEL:AFDPG-18-JA
 41
9.99999697E-01
  7
MONOTXT
  0
TEXT
  8
0
 62
7
 10
-2.61300264E+02
 20
1.82350000E+02
 40
6.29999924E+00
  1
FLAT AIR HAND
 41
1.10169458E+00
  7
MONOTXT
  0
TEXT
  8
0
 62
7
 10
1.69885276E+02
 20
-1.89500000E+02
 40
9.00000000E+00
  1
KOGANEI CORP.
 41
1.04838732E+00
  7
MONOTXT
  0
TEXT
  8
0
 62
7
 10
1.97799705E+02
 20
1.82350000E+02
 40
6.29999924E+00
  1
Ver. 1.0
 41
1.08108075E+00
  7
MONOTXT
  0
TEXT
  8
0
 62
7
 10
-8.23568535E+00
 20
-1.18635628E+02
 40
4.50000000E+00
  1
SENSOR
 41
1.00000000E+00
  7
MONOTXT
  0
TEXT
  8
0
 62
7
 10
-8.23568535E+00
 20
-1.25385628E+02
 40
4.50000000E+00
  1
 SWITCH:ZE235
 41
1.04838710E+00
  7
MONOTXT
  0
TEXT
  8
0
 62
7
 10
2.77643146E+01
 20
-1.36635635E+02
 40
4.50000000E+00
  1
ZE255
 41
1.00000000E+00
  7
MONOTXT
  0
TEXT
  8
0
 62
7
 10
-1.65235686E+02
 20
-1.18635628E+02
 40
4.50000000E+00
  1
SENSOR
 41
1.00000000E+00
  7
MONOTXT
  0
TEXT
  8
0
 62
7
 10
-1.65235686E+02
 20
-1.25385628E+02
 40
4.50000000E+00
  1
 SWITCH:ZE135
 41
1.04838710E+00
  7
MONOTXT
  0
TEXT
  8
0
 62
7
 10
-1.29235686E+02
 20
-1.36635635E+02
 40
4.50000000E+00
  1
ZE155
 41
1.00000000E+00
  7
MONOTXT
  0
LINE
  8
0
 62
7
 10
-1.61250000E+02
 20
1.95500000E+02
 11
-1.61250000E+02
 21
1.75500000E+02
  0
LINE
  8
0
 62
7
 10
1.62099976E+02
 20
1.95500000E+02
 11
1.62099976E+02
 21
1.75500000E+02
  0
LINE
  8
0
 62
7
 10
-2.81250000E+02
 20
1.75500000E+02
 11
-1.61250000E+02
 21
1.75500000E+02
  0
LINE
  8
0
 62
7
 10
1.62099976E+02
 20
1.75500000E+02
 11
2.82099854E+02
 21
1.75500000E+02
  0
LINE
  8
0
 62
7
 10
1.62099976E+02
 20
-1.75000000E+02
 11
2.82099854E+02
 21
-1.75000000E+02
  0
LINE
  8
0
 62
7
 10
1.62099976E+02
 20
-1.75000000E+02
 11
1.62099976E+02
 21
-1.95000000E+02
  0
LINE
  8
0
 62
7
 10
-2.81250000E+02
 20
-1.95000000E+02
 11
2.82099854E+02
 21
-1.95000000E+02
  0
LINE
  8
0
 62
7
 10
-2.81250000E+02
 20
1.95500000E+02
 11
-2.81250000E+02
 21
-1.95000000E+02
  0
LINE
  8
0
 62
7
 10
-2.81250000E+02
 20
1.95500000E+02
 11
2.82099854E+02
 21
1.95500000E+02
  0
LINE
  8
0
 62
7
 10
2.82099854E+02
 20
1.95500000E+02
 11
2.82099854E+02
 21
-1.95000000E+02
  0
LINE
  8
0
  6
DASHED
 62
6
 10
7.97099991E+01
 20
-1.26555130E+02
 11
9.66200027E+01
 21
-1.26555130E+02
  0
LINE
  8
0
  6
DASHED
 62
6
 10
7.97099991E+01
 20
-1.22455132E+02
 11
9.66200027E+01
 21
-1.22455132E+02
  0
LINE
  8
0
  6
DASHED
 62
6
 10
7.97099991E+01
 20
-1.22905128E+02
 11
7.97099991E+01
 21
-1.22455132E+02
  0
LINE
  8
0
  6
DASHED
 62
6
 10
7.97099991E+01
 20
-1.26105125E+02
 11
7.97099991E+01
 21
-1.26555130E+02
  0
LINE
  8
0
  6
DASHED
 62
6
 10
-8.30899963E+01
 20
-1.67105133E+02
 11
-6.10900002E+01
 21
-1.67105133E+02
  0
LINE
  8
0
  6
DASHED
 62
6
 10
-7.83899994E+01
 20
-1.71705124E+02
 11
-6.10900002E+01
 21
-1.71705124E+02
  0
LINE
  8
0
  6
DASHED
 62
6
 10
-6.10900002E+01
 20
-1.67105133E+02
 11
-6.10900002E+01
 21
-1.71705124E+02
  0
LINE
  8
0
  6
DASHED
 62
6
 10
-8.30899963E+01
 20
-1.68905136E+02
 11
-8.30899963E+01
 21
-1.67105133E+02
  0
LINE
  8
0
  6
DASHED
 62
6
 10
-7.83899994E+01
 20
-1.70145126E+02
 11
-7.83899994E+01
 21
-1.71705124E+02
  0
LINE
  8
0
  6
DASHED
 62
6
 10
-8.30899963E+01
 20
-1.68905136E+02
 11
-7.88399963E+01
 21
-1.68905136E+02
  0
LINE
  8
0
  6
DASHED
 62
6
 10
-7.88399963E+01
 20
-1.68905136E+02
 11
-7.88399963E+01
 21
-1.70145126E+02
  0
LINE
  8
0
  6
DASHED
 62
6
 10
-7.90899963E+01
 20
-1.68905136E+02
 11
-7.90899963E+01
 21
-1.69705124E+02
  0
LINE
  8
0
  6
DASHED
 62
6
 10
-8.30899963E+01
 20
-1.68905136E+02
 11
-8.30899963E+01
 21
-1.69705124E+02
  0
LINE
  8
0
  6
DASHED
 62
6
 10
-8.30899963E+01
 20
-1.69705124E+02
 11
-7.90899963E+01
 21
-1.69705124E+02
  0
LINE
  8
0
  6
DASHED
 62
6
 10
-7.88899994E+01
 20
-1.68905136E+02
 11
-7.88899994E+01
 21
-1.70905136E+02
  0
LINE
  8
0
  6
DASHED
 62
6
 10
-7.88899994E+01
 20
-1.70905136E+02
 11
-7.83899994E+01
 21
-1.70905136E+02
  0
LINE
  8
0
  6
DASHED
 62
6
 10
-7.88399963E+01
 20
-1.70145126E+02
 11
-7.83899994E+01
 21
-1.70145126E+02
  0
LINE
  8
0
  6
DASHED
 62
6
 10
-5.25900002E+01
 20
-1.68105133E+02
 11
-5.25900002E+01
 21
-1.70705124E+02
  0
LINE
  8
0
  6
CENTER
 62
6
 10
-5.43100014E+01
 20
-1.68955124E+02
 11
-4.23800011E+01
 21
-1.68955124E+02
  0
LINE
  8
0
  6
CENTER
 62
6
 10
-5.42599983E+01
 20
-1.69855133E+02
 11
-4.23400002E+01
 21
-1.69855133E+02
  0
LINE
  8
0
  6
DASHED
 62
6
 10
-4.25900002E+01
 20
-1.68705124E+02
 11
-4.25900002E+01
 21
-1.69205124E+02
  0
LINE
  8
0
  6
DASHED
 62
6
 10
-4.25900002E+01
 20
-1.69605133E+02
 11
-4.25900002E+01
 21
-1.70105133E+02
  0
LINE
  8
0
  6
DASHED
 62
6
 10
-4.55900002E+01
 20
-1.68505127E+02
 11
-4.55900002E+01
 21
-1.70305130E+02
  0
LINE
  8
0
  6
DASHED
 62
6
 10
-5.25900002E+01
 20
-1.70305130E+02
 11
-4.85900002E+01
 21
-1.70305130E+02
  0
LINE
  8
0
  6
DASHED
 62
6
 10
-5.25900002E+01
 20
-1.69405136E+02
 11
-4.91100006E+01
 21
-1.69405136E+02
  0
LINE
  8
0
  6
DASHED
 62
6
 10
-4.76100006E+01
 20
-1.69405136E+02
 11
-4.55900002E+01
 21
-1.69405136E+02
  0
LINE
  8
0
  6
DASHED
 62
6
 10
-4.70900002E+01
 20
-1.70305130E+02
 11
-4.55900002E+01
 21
-1.70305130E+02
  0
LINE
  8
0
  6
DASHED
 62
6
 10
-5.25900002E+01
 20
-1.68505127E+02
 11
-4.96300011E+01
 21
-1.68505127E+02
  0
LINE
  8
0
  6
DASHED
 62
6
 10
-4.81300011E+01
 20
-1.68505127E+02
 11
-4.55900002E+01
 21
-1.68505127E+02
  0
LINE
  8
0
  6
DASHED
 62
6
 10
-4.55900002E+01
 20
-1.68705124E+02
 11
-4.25900002E+01
 21
-1.68705124E+02
  0
LINE
  8
0
  6
DASHED
 62
6
 10
-4.55900002E+01
 20
-1.69205124E+02
 11
-4.25900002E+01
 21
-1.69205124E+02
  0
LINE
  8
0
  6
DASHED
 62
6
 10
-4.55900002E+01
 20
-1.69605133E+02
 11
-4.25900002E+01
 21
-1.69605133E+02
  0
LINE
  8
0
  6
DASHED
 62
6
 10
-4.55900002E+01
 20
-1.70105133E+02
 11
-4.25900002E+01
 21
-1.70105133E+02
  0
LINE
  8
0
 62
6
 10
-4.88600019E+01
 20
-1.67235135E+02
 11
-4.63600001E+01
 21
-1.71565138E+02
  0
LINE
  8
0
  6
CENTER
 62
6
 10
-6.24099998E+01
 20
-1.69405136E+02
 11
-5.25900002E+01
 21
-1.69405136E+02
  0
LINE
  8
0
 62
6
 10
-5.03599995E+01
 20
-1.67235135E+02
 11
-4.78599977E+01
 21
-1.71565138E+02
  0
LINE
  8
0
 62
6
 10
-5.78399984E+01
 20
-1.67235135E+02
 11
-5.53400005E+01
 21
-1.71565131E+02
  0
LINE
  8
0
 62
6
 10
-5.93399960E+01
 20
-1.67235135E+02
 11
-5.68399981E+01
 21
-1.71565131E+02
  0
LINE
  8
0
  6
DASHED
 62
6
 10
-8.21200027E+01
 20
-1.71105133E+02
 11
-8.00699997E+01
 21
-1.71105133E+02
  0
LINE
  8
0
  6
DASHED
 62
6
 10
-8.00699961E+01
 20
-1.71105127E+02
 11
-7.98399943E+01
 21
-1.70875125E+02
  0
LINE
  8
0
  6
DASHED
 62
6
 10
-8.21200002E+01
 20
-1.71105127E+02
 11
-8.23399994E+01
 21
-1.70875128E+02
  0
LINE
  8
0
  6
DASHED
 62
6
 10
-8.23399963E+01
 20
-1.69695129E+02
 11
-8.23399963E+01
 21
-1.70875122E+02
  0
LINE
  8
0
 62
6
 10
-8.21200027E+01
 20
-1.69695129E+02
 11
-8.21200027E+01
 21
-1.71105133E+02
  0
LINE
  8
0
 62
6
 10
-8.00699997E+01
 20
-1.69695129E+02
 11
-8.00699997E+01
 21
-1.71105133E+02
  0
LINE
  8
0
  6
DASHED
 62
6
 10
-7.98399963E+01
 20
-1.69695129E+02
 11
-7.98399963E+01
 21
-1.70875122E+02
  0
LINE
  8
0
  6
DASHED
 62
6
 10
-8.23399963E+01
 20
-1.70875122E+02
 11
-7.98399963E+01
 21
-1.70875122E+02
  0
LINE
  8
0
  6
DASHED
 62
6
 10
-8.30899963E+01
 20
-1.68105133E+02
 11
-6.10900002E+01
 21
-1.68105133E+02
  0
LINE
  8
0
  6
DASHED
 62
6
 10
-8.30899963E+01
 20
-1.67555130E+02
 11
-6.10900002E+01
 21
-1.67555130E+02
  0
LINE
  8
0
  6
DASHED
 62
6
 10
-6.10900002E+01
 20
-1.68105133E+02
 11
-5.88400002E+01
 21
-1.68105133E+02
  0
LINE
  8
0
  6
DASHED
 62
6
 10
-6.10900002E+01
 20
-1.70705124E+02
 11
-5.73400002E+01
 21
-1.70705124E+02
  0
LINE
  8
0
  6
DASHED
 62
6
 10
-5.73400002E+01
 20
-1.68105133E+02
 11
-5.25900002E+01
 21
-1.68105133E+02
  0
LINE
  8
0
  6
DASHED
 62
6
 10
-5.58400002E+01
 20
-1.70705124E+02
 11
-5.25900002E+01
 21
-1.70705124E+02
  0
LINE
  8
0
  6
DASHED
 62
6
 10
7.97099991E+01
 20
-1.67105133E+02
 11
9.58099976E+01
 21
-1.67105133E+02
  0
LINE
  8
0
  6
DASHED
 62
6
 10
8.44100037E+01
 20
-1.71705124E+02
 11
1.01709999E+02
 21
-1.71705124E+02
  0
LINE
  8
0
  6
DASHED
 62
6
 10
7.97099991E+01
 20
-1.69705124E+02
 11
7.97099991E+01
 21
-1.67105133E+02
  0
LINE
  8
0
  6
DASHED
 62
6
 10
8.44100037E+01
 20
-1.70085129E+02
 11
8.44100037E+01
 21
-1.71705124E+02
  0
LINE
  8
0
  6
CENTER
 62
6
 10
8.17099991E+01
 20
-1.66375122E+02
 11
8.17099991E+01
 21
-1.72275131E+02
  0
LINE
  8
0
  6
DASHED
 62
6
 10
7.97099991E+01
 20
-1.68905136E+02
 11
8.39800034E+01
 21
-1.68905136E+02
  0
LINE
  8
0
  6
DASHED
 62
6
 10
7.97099991E+01
 20
-1.69705124E+02
 11
8.37099991E+01
 21
-1.69705124E+02
  0
LINE
  8
0
  6
DASHED
 62
6
 10
8.37099991E+01
 20
-1.68905136E+02
 11
8.37099991E+01
 21
-1.69705124E+02
  0
LINE
  8
0
  6
DASHED
 62
6
 10
8.39100037E+01
 20
-1.70905136E+02
 11
8.44100037E+01
 21
-1.70905136E+02
  0
LINE
  8
0
  6
DASHED
 62
6
 10
8.39100037E+01
 20
-1.68905136E+02
 11
8.39100037E+01
 21
-1.70905136E+02
  0
LINE
  8
0
  6
DASHED
 62
6
 10
8.39800034E+01
 20
-1.70085129E+02
 11
8.44100037E+01
 21
-1.70085129E+02
  0
LINE
  8
0
  6
DASHED
 62
6
 10
8.39800034E+01
 20
-1.68905136E+02
 11
8.39800034E+01
 21
-1.70085129E+02
  0
LINE
  8
0
  6
DASHED
 62
6
 10
7.97099991E+01
 20
-1.68105133E+02
 11
1.01709999E+02
 21
-1.68105133E+02
  0
LINE
  8
0
  6
DASHED
 62
6
 10
7.97099991E+01
 20
-1.67555130E+02
 11
1.01709999E+02
 21
-1.67555130E+02
  0
LINE
  8
0
  6
DASHED
 62
6
 10
8.06900024E+01
 20
-1.71105133E+02
 11
8.27399979E+01
 21
-1.71105133E+02
  0
LINE
  8
0
  6
DASHED
 62
6
 10
8.27400047E+01
 20
-1.71105131E+02
 11
8.29600039E+01
 21
-1.70875132E+02
  0
LINE
  8
0
  6
DASHED
 62
6
 10
8.06899931E+01
 20
-1.71105121E+02
 11
8.04600021E+01
 21
-1.70875130E+02
  0
LINE
  8
0
  6
DASHED
 62
6
 10
8.04599991E+01
 20
-1.69705124E+02
 11
8.04599991E+01
 21
-1.70875122E+02
  0
LINE
  8
0
 62
6
 10
8.06900024E+01
 20
-1.69705124E+02
 11
8.06900024E+01
 21
-1.71105133E+02
  0
LINE
  8
0
 62
6
 10
8.27399979E+01
 20
-1.69705124E+02
 11
8.27399979E+01
 21
-1.71105133E+02
  0
LINE
  8
0
  6
DASHED
 62
6
 10
8.29599991E+01
 20
-1.69705124E+02
 11
8.29599991E+01
 21
-1.70875122E+02
  0
LINE
  8
0
  6
DASHED
 62
6
 10
8.04599991E+01
 20
-1.70875122E+02
 11
8.29599991E+01
 21
-1.70875122E+02
  0
LINE
  8
0
 62
6
 10
8.06900024E+01
 20
-1.66605133E+02
 11
8.06900024E+01
 21
-1.67105133E+02
  0
LINE
  8
0
 62
6
 10
8.27399979E+01
 20
-1.66605133E+02
 11
8.27399979E+01
 21
-1.67105133E+02
  0
LINE
  8
0
  6
DASHED
 62
6
 10
1.01709999E+02
 20
-1.67105133E+02
 11
1.01709999E+02
 21
-1.71705124E+02
  0
ENDSEC
  0
EOF
