  0
SECTION
  2
HEADER
  9
$ACADVER
  1
AC1015
  9
$ACADMAINTVER
 70
    20
  9
$DWGCODEPAGE
  3
ANSI_932
  9
$INSBASE
 10
0.0
 20
0.0
 30
0.0
  9
$EXTMIN
 10
-194.25
 20
-133.5
 30
0.0
  9
$EXTMAX
 10
195.0953083914834
 20
132.6000061035156
 30
0.0
  9
$LIMMIN
 10
-194.25
 20
-133.5
  9
$LIMMAX
 10
196.2500042915344
 20
132.6000061035156
  9
$ORTHOMODE
 70
     0
  9
$REGENMODE
 70
     1
  9
$FILLMODE
 70
     1
  9
$QTEXTMODE
 70
     0
  9
$MIRRTEXT
 70
     1
  9
$LTSCALE
 40
1.0
  9
$ATTMODE
 70
     1
  9
$TEXTSIZE
 40
3.200000047683715
  9
$TRACEWID
 40
0.05
  9
$TEXTSTYLE
  7
MX_NOTE_STANDARD
  9
$CLAYER
  8
0
  9
$CELTYPE
  6
CONTINUOUS
  9
$CECOLOR
 62
   256
  9
$CELTSCALE
 40
1.0
  9
$DISPSILH
 70
     0
  9
$DIMSCALE
 40
1.0
  9
$DIMASZ
 40
2.5
  9
$DIMEXO
 40
1.5
  9
$DIMDLI
 40
3.75
  9
$DIMRND
 40
0.0
  9
$DIMDLE
 40
0.0
  9
$DIMEXE
 40
1.5
  9
$DIMTP
 40
0.0
  9
$DIMTM
 40
0.0
  9
$DIMTXT
 40
3.200000047683715
  9
$DIMCEN
 40
2.5
  9
$DIMTSZ
 40
0.0
  9
$DIMTOL
 70
     0
  9
$DIMLIM
 70
     0
  9
$DIMTIH
 70
     0
  9
$DIMTOH
 70
     0
  9
$DIMSE1
 70
     0
  9
$DIMSE2
 70
     0
  9
$DIMTAD
 70
     1
  9
$DIMZIN
 70
     8
  9
$DIMBLK
  1

  9
$DIMASO
 70
     1
  9
$DIMSHO
 70
     1
  9
$DIMPOST
  1

  9
$DIMAPOST
  1

  9
$DIMALT
 70
     0
  9
$DIMALTD
 70
     4
  9
$DIMALTF
 40
0.03937007874016
  9
$DIMLFAC
 40
1.0
  9
$DIMTOFL
 70
     1
  9
$DIMTVP
 40
0.0
  9
$DIMTIX
 70
     0
  9
$DIMSOXD
 70
     0
  9
$DIMSAH
 70
     0
  9
$DIMBLK1
  1

  9
$DIMBLK2
  1

  9
$DIMSTYLE
  2
MXDIMSTYLE
  9
$DIMCLRD
 70
     0
  9
$DIMCLRE
 70
     0
  9
$DIMCLRT
 70
     0
  9
$DIMTFAC
 40
1.0
  9
$DIMGAP
 40
1.0
  9
$DIMJUST
 70
     0
  9
$DIMSD1
 70
     0
  9
$DIMSD2
 70
     0
  9
$DIMTOLJ
 70
     1
  9
$DIMTZIN
 70
     0
  9
$DIMALTZ
 70
     0
  9
$DIMALTTZ
 70
     0
  9
$DIMUPT
 70
     1
  9
$DIMDEC
 70
     4
  9
$DIMTDEC
 70
     4
  9
$DIMALTU
 70
     2
  9
$DIMALTTD
 70
     4
  9
$DIMTXSTY
  7
MX_NOTE_STANDARD
  9
$DIMAUNIT
 70
     0
  9
$DIMADEC
 70
     0
  9
$DIMALTRND
 40
0.0
  9
$DIMAZIN
 70
     0
  9
$DIMDSEP
 70
    46
  9
$DIMATFIT
 70
     3
  9
$DIMFRAC
 70
     0
  9
$DIMLDRBLK
  1

  9
$DIMLUNIT
 70
     2
  9
$DIMLWD
 70
    -2
  9
$DIMLWE
 70
    -2
  9
$DIMTMOVE
 70
     0
  9
$LUNITS
 70
     2
  9
$LUPREC
 70
     4
  9
$SKETCHINC
 40
0.1
  9
$FILLETRAD
 40
0.0
  9
$AUNITS
 70
     0
  9
$AUPREC
 70
     0
  9
$MENU
  1
acad
  9
$ELEVATION
 40
0.0
  9
$PELEVATION
 40
0.0
  9
$THICKNESS
 40
0.0
  9
$LIMCHECK
 70
     0
  9
$CHAMFERA
 40
0.0
  9
$CHAMFERB
 40
0.0
  9
$CHAMFERC
 40
0.0
  9
$CHAMFERD
 40
0.0
  9
$SKPOLY
 70
     0
  9
$TDCREATE
 40
2453690.590775463
  9
$TDUCREATE
 40
2453690.215775463
  9
$TDUPDATE
 40
2454159.476456435
  9
$TDUUPDATE
 40
2454159.101456435
  9
$TDINDWG
 40
0.0019532292
  9
$TDUSRTIMER
 40
0.0019532292
  9
$USRTIMER
 70
     1
  9
$ANGBASE
 50
0.0
  9
$ANGDIR
 70
     0
  9
$PDMODE
 70
     0
  9
$PDSIZE
 40
0.0
  9
$PLINEWID
 40
0.0
  9
$SPLFRAME
 70
     0
  9
$SPLINETYPE
 70
     6
  9
$SPLINESEGS
 70
     8
  9
$HANDSEED
  5
2DE
  9
$SURFTAB1
 70
     6
  9
$SURFTAB2
 70
     6
  9
$SURFTYPE
 70
     6
  9
$SURFU
 70
     6
  9
$SURFV
 70
     6
  9
$UCSBASE
  2

  9
$UCSNAME
  2

  9
$UCSORG
 10
0.0
 20
0.0
 30
0.0
  9
$UCSXDIR
 10
1.0
 20
0.0
 30
0.0
  9
$UCSYDIR
 10
0.0
 20
1.0
 30
0.0
  9
$UCSORTHOREF
  2

  9
$UCSORTHOVIEW
 70
     0
  9
$UCSORGTOP
 10
0.0
 20
0.0
 30
0.0
  9
$UCSORGBOTTOM
 10
0.0
 20
0.0
 30
0.0
  9
$UCSORGLEFT
 10
0.0
 20
0.0
 30
0.0
  9
$UCSORGRIGHT
 10
0.0
 20
0.0
 30
0.0
  9
$UCSORGFRONT
 10
0.0
 20
0.0
 30
0.0
  9
$UCSORGBACK
 10
0.0
 20
0.0
 30
0.0
  9
$PUCSBASE
  2

  9
$PUCSNAME
  2

  9
$PUCSORG
 10
0.0
 20
0.0
 30
0.0
  9
$PUCSXDIR
 10
1.0
 20
0.0
 30
0.0
  9
$PUCSYDIR
 10
0.0
 20
1.0
 30
0.0
  9
$PUCSORTHOREF
  2

  9
$PUCSORTHOVIEW
 70
     0
  9
$PUCSORGTOP
 10
0.0
 20
0.0
 30
0.0
  9
$PUCSORGBOTTOM
 10
0.0
 20
0.0
 30
0.0
  9
$PUCSORGLEFT
 10
0.0
 20
0.0
 30
0.0
  9
$PUCSORGRIGHT
 10
0.0
 20
0.0
 30
0.0
  9
$PUCSORGFRONT
 10
0.0
 20
0.0
 30
0.0
  9
$PUCSORGBACK
 10
0.0
 20
0.0
 30
0.0
  9
$USERI1
 70
     0
  9
$USERI2
 70
     0
  9
$USERI3
 70
     0
  9
$USERI4
 70
     0
  9
$USERI5
 70
     0
  9
$USERR1
 40
0.0
  9
$USERR2
 40
0.0
  9
$USERR3
 40
0.0
  9
$USERR4
 40
0.0
  9
$USERR5
 40
0.0
  9
$WORLDVIEW
 70
     1
  9
$SHADEDGE
 70
     3
  9
$SHADEDIF
 70
    70
  9
$TILEMODE
 70
     1
  9
$MAXACTVP
 70
    16
  9
$PINSBASE
 10
0.0
 20
0.0
 30
0.0
  9
$PLIMCHECK
 70
     0
  9
$PEXTMIN
 10
1.000000000000000E+20
 20
1.000000000000000E+20
 30
1.000000000000000E+20
  9
$PEXTMAX
 10
-1.000000000000000E+20
 20
-1.000000000000000E+20
 30
-1.000000000000000E+20
  9
$PLIMMIN
 10
0.0
 20
0.0
  9
$PLIMMAX
 10
12.0
 20
9.0
  9
$UNITMODE
 70
     0
  9
$VISRETAIN
 70
     0
  9
$PLINEGEN
 70
     1
  9
$PSLTSCALE
 70
     0
  9
$TREEDEPTH
 70
  3020
  9
$CMLSTYLE
  2
STANDARD
  9
$CMLJUST
 70
     0
  9
$CMLSCALE
 40
1.0
  9
$PROXYGRAPHICS
 70
     1
  9
$MEASUREMENT
 70
     0
  9
$CELWEIGHT
370
    -1
  9
$ENDCAPS
280
     0
  9
$JOINSTYLE
280
     0
  9
$LWDISPLAY
290
     0
  9
$INSUNITS
 70
     0
  9
$HYPERLINKBASE
  1

  9
$STYLESHEET
  1

  9
$XEDIT
290
     1
  9
$CEPSNTYPE
380
     0
  9
$PSTYLEMODE
290
     1
  9
$FINGERPRINTGUID
  2
{3D800E0F-7564-4CF5-8035-CCF502FE8446}
  9
$VERSIONGUID
  2
{3D712461-0B79-4769-B2C6-08B2C78FD3DD}
  9
$EXTNAMES
290
     1
  9
$PSVPSCALE
 40
0.0
  9
$OLESTARTUP
290
     0
  0
ENDSEC
  0
SECTION
  2
CLASSES
  0
CLASS
  1
IMAGE
  2
AcDbRasterImage
  3
ISM
 90
    32895
280
     0
281
     1
  0
CLASS
  1
DICTIONARYVAR
  2
AcDbDictionaryVar
  3
ObjectDBX Classes
 90
        0
280
     0
281
     0
  0
CLASS
  1
RASTERVARIABLES
  2
AcDbRasterVariables
  3
ISM
 90
    32768
280
     0
281
     0
  0
CLASS
  1
IMAGEDEF
  2
AcDbRasterImageDef
  3
ISM
 90
    32768
280
     0
281
     0
  0
CLASS
  1
IMAGEDEF_REACTOR
  2
AcDbRasterImageDefReactor
  3
ISM
 90
    32769
280
     0
281
     0
  0
CLASS
  1
IDBUFFER
  2
AcDbIdBuffer
  3
ObjectDBX Classes
 90
    32768
280
     0
281
     0
  0
CLASS
  1
SPATIAL_FILTER
  2
AcDbSpatialFilter
  3
ObjectDBX Classes
 90
    32768
280
     0
281
     0
  0
CLASS
  1
SORTENTSTABLE
  2
AcDbSortentsTable
  3
ObjectDBX Classes
 90
    32768
280
     0
281
     0
  0
CLASS
  1
LAYER_INDEX
  2
AcDbLayerIndex
  3
ObjectDBX Classes
 90
    32768
280
     0
281
     0
  0
CLASS
  1
SPATIAL_INDEX
  2
AcDbSpatialIndex
  3
ObjectDBX Classes
 90
    32768
280
     0
281
     0
  0
CLASS
  1
OBJECT_PTR
  2
CAseDLPNTableRecord
  3
"ASE-LPNTableRecord"
 90
    32768
280
     0
281
     0
  0
CLASS
  1
LAYOUT
  2
AcDbLayout
  3
ObjectDBX Classes
 90
        0
280
     0
281
     0
  0
CLASS
  1
PLOTSETTINGS
  2
AcDbPlotSettings
  3
ObjectDBX Classes
 90
    32768
280
     0
281
     0
  0
CLASS
  1
ACDBDICTIONARYWDFLT
  2
AcDbDictionaryWithDefault
  3
ObjectDBX Classes
 90
        0
280
     0
281
     0
  0
CLASS
  1
ACDBPLACEHOLDER
  2
AcDbPlaceHolder
  3
ObjectDBX Classes
 90
        0
280
     0
281
     0
  0
CLASS
  1
TABLESTYLE
  2
AcDbTableStyle
  3
ObjectDBX Classes
 90
     2047
280
     0
281
     0
  0
ENDSEC
  0
SECTION
  2
TABLES
  0
TABLE
  2
VPORT
  5
7
330
0
100
AcDbSymbolTable
 70
     4
  0
VPORT
  5
2D8
330
7
100
AcDbSymbolTableRecord
100
AcDbViewportTableRecord
  2
*Active
 70
     0
 10
0.0
 20
0.0
 11
1.0
 21
1.0
 12
1.000002145767211
 22
63.51853312918246
 13
0.0
 23
0.0
 14
1.0
 24
1.0
 15
0.0
 25
0.0
 16
0.0
 26
0.0
 36
1.0
 17
0.0
 27
0.0
 37
0.0
 40
396.6980663194001
 41
1.173455978975032
 42
50.0
 43
0.0
 44
0.0
 50
0.0
 51
0.0
 71
     0
 72
   100
 73
     1
 74
     1
 75
     0
 76
     0
 77
     0
 78
     0
281
     0
 65
     1
110
0.0
120
0.0
130
0.0
111
1.0
121
0.0
131
0.0
112
0.0
122
1.0
132
0.0
 79
     0
146
0.0
  0
ENDTAB
  0
TABLE
  2
LTYPE
  5
4
330
0
100
AcDbSymbolTable
 70
     3
  0
LTYPE
  5
11
330
4
100
AcDbSymbolTableRecord
100
AcDbLinetypeTableRecord
  2
BYBLOCK
 70
     0
  3

 72
    65
 73
     0
 40
0.0
  0
LTYPE
  5
12
330
4
100
AcDbSymbolTableRecord
100
AcDbLinetypeTableRecord
  2
BYLAYER
 70
     0
  3

 72
    65
 73
     0
 40
0.0
  0
LTYPE
  5
13
330
4
100
AcDbSymbolTableRecord
100
AcDbLinetypeTableRecord
  2
CONTINUOUS
 70
     0
  3
Solid line
 72
    65
 73
     0
 40
0.0
  0
LTYPE
  5
4B
330
4
100
AcDbSymbolTableRecord
100
AcDbLinetypeTableRecord
  2
CENTER
 70
     0
  3
Center ____ _ ____ _ ____ _ ____ _ ____ _ ____
 72
    65
 73
     4
 40
26.0
 49
20.0
 74
     0
 49
-2.0
 74
     0
 49
2.0
 74
     0
 49
-2.0
 74
     0
  0
LTYPE
  5
4F
330
4
100
AcDbSymbolTableRecord
100
AcDbLinetypeTableRecord
  2
PHANTOM
 70
     0
  3
Phantom ______  __  __  ______  __  __  ______
 72
    65
 73
     6
 40
30.0
 49
20.0
 74
     0
 49
-2.0
 74
     0
 49
2.0
 74
     0
 49
-2.0
 74
     0
 49
2.0
 74
     0
 49
-2.0
 74
     0
  0
ENDTAB
  0
TABLE
  2
LAYER
  5
2
330
0
100
AcDbSymbolTable
 70
     2
  0
LAYER
  5
14
330
2
100
AcDbSymbolTableRecord
100
AcDbLayerTableRecord
  2
0
 70
     0
 62
     7
  6
CONTINUOUS
370
    -3
390
2C1
  0
LAYER
  5
1D
330
2
100
AcDbSymbolTableRecord
100
AcDbLayerTableRecord
  2
DEFPOINTS
 70
     0
 62
     7
  6
CONTINUOUS
290
     0
370
    -3
390
2C1
  0
ENDTAB
  0
TABLE
  2
STYLE
  5
3
330
0
100
AcDbSymbolTable
 70
     2
  0
STYLE
  5
17
330
3
100
AcDbSymbolTableRecord
100
AcDbTextStyleTableRecord
  2
MX_NOTE_STANDARD
 70
     0
 40
0.0
 41
1.0
 50
0.0
 71
     0
 42
3.200000047683715
  3
txt.shx
  4
extfont.shx
  0
STYLE
  5
2BF
330
3
100
AcDbSymbolTableRecord
100
AcDbTextStyleTableRecord
  2
Standard
 70
     0
 40
0.0
 41
1.0
 50
0.0
 71
     0
 42
0.2
  3

  4

  0
ENDTAB
  0
TABLE
  2
VIEW
  5
5
330
0
100
AcDbSymbolTable
 70
     0
  0
ENDTAB
  0
TABLE
  2
UCS
  5
6
330
0
100
AcDbSymbolTable
 70
     0
  0
ENDTAB
  0
TABLE
  2
APPID
  5
8
330
0
100
AcDbSymbolTable
 70
     1
  0
APPID
  5
16
330
8
100
AcDbSymbolTableRecord
100
AcDbRegAppTableRecord
  2
ACAD
 70
     0
  0
ENDTAB
  0
TABLE
  2
DIMSTYLE
  5
9
330
0
100
AcDbSymbolTable
 70
     1
100
AcDbDimStyleTable
 71
     0
  0
DIMSTYLE
105
18
330
9
100
AcDbSymbolTableRecord
100
AcDbDimStyleTableRecord
  2
MXDIMSTYLE
 70
     0
 41
2.5
 42
1.5
 43
3.75
 44
1.5
 73
     0
 74
     0
 77
     1
 78
     8
140
3.200000047683715
141
2.5
143
0.03937007874016
147
1.0
171
     4
172
     1
274
     4
288
     1
340
17
  0
ENDTAB
  0
TABLE
  2
BLOCK_RECORD
  5
1
330
0
100
AcDbSymbolTable
 70
    11
  0
BLOCK_RECORD
  5
A
330
1
100
AcDbSymbolTableRecord
100
AcDbBlockTableRecord
  2
*MODEL_SPACE
340
2C8
  0
BLOCK_RECORD
  5
B
330
1
100
AcDbSymbolTableRecord
100
AcDbBlockTableRecord
  2
*PAPER_SPACE
340
2C9
  0
BLOCK_RECORD
  5
1E
330
1
100
AcDbSymbolTableRecord
100
AcDbBlockTableRecord
  2
AFDPGH-12-JA-1
340
0
102
{BLKREFS
331
2A5
102
}
  0
BLOCK_RECORD
  5
1F
330
1
100
AcDbSymbolTableRecord
100
AcDbBlockTableRecord
  2
AFDPGH-12-JA-2
340
0
102
{BLKREFS
331
2A4
102
}
  0
BLOCK_RECORD
  5
20
330
1
100
AcDbSymbolTableRecord
100
AcDbBlockTableRecord
  2
AFDPGH-12-JA-3
340
0
102
{BLKREFS
331
2A3
102
}
  0
BLOCK_RECORD
  5
21
330
1
100
AcDbSymbolTableRecord
100
AcDbBlockTableRecord
  2
AFDPGH-12-JA-4
340
0
102
{BLKREFS
331
2A2
102
}
  0
BLOCK_RECORD
  5
22
330
1
100
AcDbSymbolTableRecord
100
AcDbBlockTableRecord
  2
AFDPGH-12-JA-5
340
0
102
{BLKREFS
331
2A1
102
}
  0
BLOCK_RECORD
  5
23
330
1
100
AcDbSymbolTableRecord
100
AcDbBlockTableRecord
  2
AFDPGH-12-JA-6
340
0
102
{BLKREFS
331
2A0
102
}
  0
BLOCK_RECORD
  5
24
330
1
100
AcDbSymbolTableRecord
100
AcDbBlockTableRecord
  2
AFDPGH-12-JA-7
340
0
102
{BLKREFS
331
29F
102
}
  0
BLOCK_RECORD
  5
25
330
1
100
AcDbSymbolTableRecord
100
AcDbBlockTableRecord
  2
AFDPGH-12-JA-8
340
0
102
{BLKREFS
331
29E
102
}
  0
BLOCK_RECORD
  5
26
330
1
100
AcDbSymbolTableRecord
100
AcDbBlockTableRecord
  2
AFDPGH-12-JA-9
340
0
102
{BLKREFS
331
29D
102
}
  0
BLOCK_RECORD
  5
27
330
1
100
AcDbSymbolTableRecord
100
AcDbBlockTableRecord
  2
AFDPGH-12-JA-10
340
0
102
{BLKREFS
331
29C
102
}
  0
BLOCK_RECORD
  5
28
330
1
100
AcDbSymbolTableRecord
100
AcDbBlockTableRecord
  2
AFDPGH-12-JA-11
340
0
102
{BLKREFS
331
29B
102
}
  0
ENDTAB
  0
ENDSEC
  0
SECTION
  2
BLOCKS
  0
BLOCK
  5
D
330
A
100
AcDbEntity
  8
0
100
AcDbBlockBegin
  2
*MODEL_SPACE
 70
     0
 10
0.0
 20
0.0
 30
0.0
  3
*MODEL_SPACE
  1

  0
ENDBLK
  5
E
330
A
100
AcDbEntity
  8
0
100
AcDbBlockEnd
  0
BLOCK
  5
F
330
B
100
AcDbEntity
 67
     1
  8
0
100
AcDbBlockBegin
  2
*PAPER_SPACE
 70
     0
 10
0.0
 20
0.0
 30
0.0
  3
*PAPER_SPACE
  1

  0
ENDBLK
  5
10
330
B
100
AcDbEntity
 67
     1
  8
0
100
AcDbBlockEnd
  0
BLOCK
  5
29
330
1E
100
AcDbEntity
  8
0
100
AcDbBlockBegin
  2
AFDPGH-12-JA-1
 70
     0
 10
0.0
 20
0.0
 30
0.0
  3
AFDPGH-12-JA-1
  1

  0
CIRCLE
  5
2A
330
1E
100
AcDbEntity
  8
0
  6
Continuous
 62
     2
100
AcDbCircle
 10
-19.99999809265137
 20
19.0
 30
0.0
 40
1.5
  0
CIRCLE
  5
2B
330
1E
100
AcDbEntity
  8
0
  6
Continuous
 62
     2
100
AcDbCircle
 10
0.0
 20
19.0
 30
0.0
 40
1.5
  0
CIRCLE
  5
2C
330
1E
100
AcDbEntity
  8
0
  6
Continuous
 62
     2
100
AcDbCircle
 10
20.0
 20
19.0
 30
0.0
 40
1.5
  0
CIRCLE
  5
2D
330
1E
100
AcDbEntity
  8
0
  6
Continuous
 62
     7
100
AcDbCircle
 10
0.0
 20
19.0
 30
0.0
 40
1.25
  0
CIRCLE
  5
2E
330
1E
100
AcDbEntity
  8
0
  6
Continuous
 62
     2
100
AcDbCircle
 10
-16.40000414848327
 20
28.00000095367432
 30
0.0
 40
1.5
  0
ARC
  5
2F
330
1E
100
AcDbEntity
  8
0
  6
Continuous
 62
     7
100
AcDbCircle
 10
35.599999666214
 20
9.300003290176391
 30
0.0
 40
1.0
100
AcDbArc
 50
270.0000179860893
 51
0.0
  0
ARC
  5
30
330
1E
100
AcDbEntity
  8
0
  6
Continuous
 62
     7
100
AcDbCircle
 10
35.599999666214
 20
14.30000305175781
 30
0.0
 40
1.0
100
AcDbArc
 50
0.0
 51
89.99998201391065
  0
CIRCLE
  5
31
330
1E
100
AcDbEntity
  8
0
  6
Continuous
 62
     2
100
AcDbCircle
 10
-28.40000510215759
 20
28.00000095367432
 30
0.0
 40
1.5
  0
CIRCLE
  5
32
330
1E
100
AcDbEntity
  8
0
  6
Continuous
 62
     2
100
AcDbCircle
 10
23.59999585151673
 20
28.00000095367432
 30
0.0
 40
1.5
  0
CIRCLE
  5
33
330
1E
100
AcDbEntity
  8
0
  6
Continuous
 62
     2
100
AcDbCircle
 10
11.59999585151672
 20
28.00000095367432
 30
0.0
 40
1.5
  0
ARC
  5
34
330
1E
100
AcDbEntity
  8
0
  6
Continuous
 62
     7
100
AcDbCircle
 10
31.49999356269836
 20
12.30000305175781
 30
0.0
 40
6.5
100
AcDbArc
 50
337.3801346765886
 51
22.61986532341139
  0
ARC
  5
35
330
1E
100
AcDbEntity
  8
0
  6
Continuous
 62
     7
100
AcDbCircle
 10
31.49999356269836
 20
7.300003230571746
 30
0.0
 40
6.5
100
AcDbArc
 50
337.3801346765886
 51
22.61986532341139
  0
LINE
  5
36
330
1E
100
AcDbEntity
  8
0
  6
Continuous
 62
     7
100
AcDbLine
 10
37.99999356269837
 20
6.800003245472907
 30
0.0
 11
47.50000119209289
 21
6.800003245472907
 31
0.0
  0
LINE
  5
37
330
1E
100
AcDbEntity
  8
0
  6
Continuous
 62
     7
100
AcDbLine
 10
36.599999666214
 20
9.800003290176391
 30
0.0
 11
37.99999356269837
 21
9.800003290176391
 31
0.0
  0
LINE
  5
38
330
1E
100
AcDbEntity
  8
0
  6
Continuous
 62
     2
100
AcDbLine
 10
37.99999356269837
 20
9.800003290176391
 30
0.0
 11
49.73713803291321
 21
9.800003290176391
 31
0.0
  0
LINE
  5
39
330
1E
100
AcDbEntity
  8
0
  6
Continuous
 62
     7
100
AcDbLine
 10
33.99999356269836
 20
2.800003290176391
 30
0.0
 11
33.99999356269836
 21
8.300003290176389
 31
0.0
  0
LINE
  5
3A
330
1E
100
AcDbEntity
  8
0
  6
Continuous
 62
     7
100
AcDbLine
 10
32.99999356269836
 20
16.80000305175781
 30
0.0
 11
33.99999356269836
 21
16.80000305175781
 31
0.0
  0
LINE
  5
3B
330
1E
100
AcDbEntity
  8
0
  6
Continuous
 62
     7
100
AcDbLine
 10
32.99999356269836
 20
2.800003290176391
 30
0.0
 11
33.99999356269836
 21
2.800003290176391
 31
0.0
  0
LINE
  5
3C
330
1E
100
AcDbEntity
  8
0
  6
Continuous
 62
     7
100
AcDbLine
 10
37.99999356269837
 20
4.800003290176391
 30
0.0
 11
37.99999356269837
 21
14.80000305175781
 31
0.0
  0
LINE
  5
3D
330
1E
100
AcDbEntity
  8
0
  6
Continuous
 62
     7
100
AcDbLine
 10
33.99999356269836
 20
15.30000305175781
 30
0.0
 11
33.99999356269836
 21
16.80000305175781
 31
0.0
  0
LINE
  5
3E
330
1E
100
AcDbEntity
  8
0
  6
Continuous
 62
     7
100
AcDbLine
 10
36.46602749824525
 20
14.80000305175781
 30
0.0
 11
37.99999356269837
 21
14.80000305175781
 31
0.0
  0
LINE
  5
3F
330
1E
100
AcDbEntity
  8
0
  6
Continuous
 62
     7
100
AcDbLine
 10
33.99999356269836
 20
4.800003290176391
 30
0.0
 11
37.99999356269837
 21
4.800003290176391
 31
0.0
  0
LINE
  5
40
330
1E
100
AcDbEntity
  8
0
  6
Continuous
 62
     2
100
AcDbLine
 10
37.99999356269837
 20
12.25850329017639
 30
0.0
 11
48.0000011920929
 21
12.25850329017639
 31
0.0
  0
LINE
  5
41
330
1E
100
AcDbEntity
  8
0
  6
Continuous
 62
     2
100
AcDbLine
 10
37.99999356269837
 20
7.34150329017639
 30
0.0
 11
48.0000011920929
 21
7.34150329017639
 31
0.0
  0
LINE
  5
42
330
1E
100
AcDbEntity
  8
0
  6
Continuous
 62
     7
100
AcDbLine
 10
48.0000011920929
 20
7.300003230571746
 30
0.0
 11
48.0000011920929
 21
12.30000305175781
 31
0.0
  0
LINE
  5
43
330
1E
100
AcDbEntity
  8
0
  6
Continuous
 62
     7
100
AcDbLine
 10
47.50000119209289
 20
6.800003245472907
 30
0.0
 11
47.50000119209289
 21
12.80000305175781
 31
0.0
  0
LINE
  5
44
330
1E
100
AcDbEntity
  8
0
  6
Continuous
 62
     7
100
AcDbLine
 10
37.99999356269837
 20
12.80000305175781
 30
0.0
 11
47.50000119209289
 21
12.80000305175781
 31
0.0
  0
LINE
  5
45
330
1E
100
AcDbEntity
  8
0
  6
Continuous
 62
     7
100
AcDbLine
 10
47.50000119209289
 20
6.800003245472907
 30
0.0
 11
48.0000011920929
 21
7.300003245472907
 31
0.0
  0
LINE
  5
46
330
1E
100
AcDbEntity
  8
0
  6
Continuous
 62
     7
100
AcDbLine
 10
47.50000119209289
 20
12.80000305175781
 30
0.0
 11
48.0000011920929
 21
12.30000305175781
 31
0.0
  0
LINE
  5
47
330
1E
100
AcDbEntity
  8
0
  6
Continuous
 62
     7
100
AcDbLine
 10
-33.0
 20
22.99999713897705
 30
0.0
 11
-33.0
 21
-0.0000038146972656
 31
0.0
  0
LINE
  5
48
330
1E
100
AcDbEntity
  8
0
  6
Continuous
 62
     7
100
AcDbLine
 10
-33.79999661445618
 20
23.00000095367432
 30
0.0
 11
33.0000011920929
 21
23.00000095367432
 31
0.0
  0
LINE
  5
49
330
1E
100
AcDbEntity
  8
0
  6
Continuous
 62
     7
100
AcDbLine
 10
33.0000011920929
 20
23.00000095367432
 30
0.0
 11
33.0000011920929
 21
0.0
 31
0.0
  0
LINE
  5
4A
330
1E
100
AcDbEntity
  8
0
  6
Continuous
 62
     7
100
AcDbLine
 10
-33.0000011920929
 20
0.0
 30
0.0
 11
33.0000011920929
 21
0.0
 31
0.0
  0
LINE
  5
4C
330
1E
100
AcDbEntity
  8
0
  6
CENTER
 62
     2
100
AcDbLine
 10
0.0
 20
31.57762241363525
 30
0.0
 11
0.0
 21
-1.706485748291015
 31
0.0
  0
LINE
  5
4D
330
1E
100
AcDbEntity
  8
0
  6
Continuous
 62
     7
100
AcDbLine
 10
-33.0
 20
13.39999389648437
 30
0.0
 11
33.0000011920929
 21
13.39999389648437
 31
0.0
  0
LINE
  5
4E
330
1E
100
AcDbEntity
  8
0
  6
Continuous
 62
     7
100
AcDbLine
 10
-33.0
 20
10.19999718666077
 30
0.0
 11
33.00000119209289
 21
10.19999718666077
 31
0.0
  0
LINE
  5
50
330
1E
100
AcDbEntity
  8
0
  6
PHANTOM
 62
     2
100
AcDbLine
 10
33.0000011920929
 20
30.00000095367432
 30
0.0
 11
30.73375821113586
 21
30.00000095367432
 31
0.0
  0
LINE
  5
51
330
1E
100
AcDbEntity
  8
0
  6
Continuous
 62
     7
100
AcDbLine
 10
29.0000011920929
 20
30.00000095367432
 30
0.0
 11
29.0000011920929
 21
23.00000095367432
 31
0.0
  0
LINE
  5
52
330
1E
100
AcDbEntity
  8
0
  6
Continuous
 62
     7
100
AcDbLine
 10
28.0000011920929
 20
30.00000095367432
 30
0.0
 11
28.0000011920929
 21
23.00000095367432
 31
0.0
  0
LINE
  5
53
330
1E
100
AcDbEntity
  8
0
  6
Continuous
 62
     7
100
AcDbLine
 10
7.199998140335082
 20
30.00000095367432
 30
0.0
 11
7.199998140335082
 21
23.00000095367432
 31
0.0
  0
LINE
  5
54
330
1E
100
AcDbEntity
  8
0
  6
Continuous
 62
     7
100
AcDbLine
 10
6.199998140335082
 20
30.00000095367432
 30
0.0
 11
6.199998140335082
 21
23.00000095367432
 31
0.0
  0
LINE
  5
55
330
1E
100
AcDbEntity
  8
0
  6
Continuous
 62
     7
100
AcDbLine
 10
-33.80000233650207
 20
30.00000095367432
 30
0.0
 11
-33.80000233650207
 21
23.00000095367432
 31
0.0
  0
LINE
  5
56
330
1E
100
AcDbEntity
  8
0
  6
Continuous
 62
     7
100
AcDbLine
 10
-32.80000233650208
 20
30.00000095367432
 30
0.0
 11
-32.80000233650208
 21
23.00000095367432
 31
0.0
  0
LINE
  5
57
330
1E
100
AcDbEntity
  8
0
  6
Continuous
 62
     7
100
AcDbLine
 10
-12.00000262260437
 20
30.00000095367432
 30
0.0
 11
-12.00000262260437
 21
23.00000095367432
 31
0.0
  0
LINE
  5
58
330
1E
100
AcDbEntity
  8
0
  6
Continuous
 62
     7
100
AcDbLine
 10
-11.00000262260437
 20
30.00000095367432
 30
0.0
 11
-11.00000262260437
 21
23.00000095367432
 31
0.0
  0
LINE
  5
59
330
1E
100
AcDbEntity
  8
0
  6
Continuous
 62
     7
100
AcDbLine
 10
-33.80000233650207
 20
30.00000095367432
 30
0.0
 11
-11.00000262260437
 21
30.00000095367432
 31
0.0
  0
LINE
  5
5A
330
1E
100
AcDbEntity
  8
0
  6
Continuous
 62
     7
100
AcDbLine
 10
36.599999666214
 20
14.30000305175781
 30
0.0
 11
36.599999666214
 21
9.300003290176391
 31
0.0
  0
LINE
  5
5B
330
1E
100
AcDbEntity
  8
0
  6
Continuous
 62
     7
100
AcDbLine
 10
33.0000011920929
 20
8.300003290176389
 30
0.0
 11
35.599999666214
 21
8.300003290176389
 31
0.0
  0
LINE
  5
5C
330
1E
100
AcDbEntity
  8
0
  6
Continuous
 62
     7
100
AcDbLine
 10
33.0000011920929
 20
15.30000305175781
 30
0.0
 11
35.599999666214
 21
15.30000305175781
 31
0.0
  0
LINE
  5
5D
330
1E
100
AcDbEntity
  8
0
  6
PHANTOM
 62
     2
100
AcDbLine
 10
33.0000011920929
 20
30.00000095367432
 30
0.0
 11
33.0000011920929
 21
23.00000095367432
 31
0.0
  0
LINE
  5
5E
330
1E
100
AcDbEntity
  8
0
  6
Continuous
 62
     7
100
AcDbLine
 10
29.0000011920929
 20
30.00000095367432
 30
0.0
 11
6.199998140335082
 21
30.00000095367432
 31
0.0
  0
LINE
  5
5F
330
1E
100
AcDbEntity
  8
0
  6
PHANTOM
 62
     2
100
AcDbLine
 10
-5.238184690475463
 20
30.00000095367432
 30
0.0
 11
0.0000011920928955
 21
30.00000095367432
 31
0.0
  0
LINE
  5
60
330
1E
100
AcDbEntity
  8
0
  6
PHANTOM
 62
     2
100
AcDbLine
 10
0.0000011920928955
 20
30.00000095367432
 30
0.0
 11
0.0000011920928955
 21
23.00000095367432
 31
0.0
  0
LINE
  5
61
330
1E
100
AcDbEntity
  8
0
  6
CENTER
 62
     2
100
AcDbLine
 10
-36.97710089733949
 20
11.79999999999999
 30
0.0
 11
37.38421474746122
 21
11.79999999999999
 31
0.0
  0
LINE
  5
62
330
1E
100
AcDbEntity
  8
0
  6
Continuous
 62
     2
100
AcDbLine
 10
23.59999585151673
 20
25.50000095367432
 30
0.0
 11
23.59999585151673
 21
30.50000095367432
 31
0.0
  0
LINE
  5
63
330
1E
100
AcDbEntity
  8
0
  6
Continuous
 62
     2
100
AcDbLine
 10
21.09999585151673
 20
28.00000095367432
 30
0.0
 11
26.09999585151673
 21
28.00000095367432
 31
0.0
  0
CIRCLE
  5
64
330
1E
100
AcDbEntity
  8
0
  6
Continuous
 62
     7
100
AcDbCircle
 10
23.59999585151673
 20
28.00000095367432
 30
0.0
 40
1.2295
  0
LINE
  5
65
330
1E
100
AcDbEntity
  8
0
  6
Continuous
 62
     2
100
AcDbLine
 10
11.59999585151672
 20
25.50000095367432
 30
0.0
 11
11.59999585151672
 21
30.50000095367432
 31
0.0
  0
LINE
  5
66
330
1E
100
AcDbEntity
  8
0
  6
Continuous
 62
     2
100
AcDbLine
 10
9.099995851516723
 20
28.00000095367432
 30
0.0
 11
14.09999585151672
 21
28.00000095367432
 31
0.0
  0
CIRCLE
  5
67
330
1E
100
AcDbEntity
  8
0
  6
Continuous
 62
     7
100
AcDbCircle
 10
11.59999585151672
 20
28.00000095367432
 30
0.0
 40
1.2295
  0
LINE
  5
68
330
1E
100
AcDbEntity
  8
0
  6
Continuous
 62
     2
100
AcDbLine
 10
-28.40000510215759
 20
25.50000095367432
 30
0.0
 11
-28.40000510215759
 21
30.50000095367432
 31
0.0
  0
LINE
  5
69
330
1E
100
AcDbEntity
  8
0
  6
Continuous
 62
     2
100
AcDbLine
 10
-30.90000510215759
 20
28.00000095367432
 30
0.0
 11
-25.90000510215759
 21
28.00000095367432
 31
0.0
  0
CIRCLE
  5
6A
330
1E
100
AcDbEntity
  8
0
  6
Continuous
 62
     7
100
AcDbCircle
 10
-28.40000510215759
 20
28.00000095367432
 30
0.0
 40
1.2295
  0
LINE
  5
6B
330
1E
100
AcDbEntity
  8
0
  6
Continuous
 62
     2
100
AcDbLine
 10
-16.40000414848327
 20
25.50000095367432
 30
0.0
 11
-16.40000414848327
 21
30.50000095367432
 31
0.0
  0
LINE
  5
6C
330
1E
100
AcDbEntity
  8
0
  6
Continuous
 62
     2
100
AcDbLine
 10
-18.90000414848328
 20
28.00000095367432
 30
0.0
 11
-13.90000414848328
 21
28.00000095367432
 31
0.0
  0
CIRCLE
  5
6D
330
1E
100
AcDbEntity
  8
0
  6
Continuous
 62
     7
100
AcDbCircle
 10
-16.40000414848327
 20
28.00000095367432
 30
0.0
 40
1.2295
  0
LINE
  5
6E
330
1E
100
AcDbEntity
  8
0
  6
Continuous
 62
     2
100
AcDbLine
 10
20.0
 20
16.5
 30
0.0
 11
20.0
 21
21.5
 31
0.0
  0
LINE
  5
6F
330
1E
100
AcDbEntity
  8
0
  6
Continuous
 62
     2
100
AcDbLine
 10
17.5
 20
19.0
 30
0.0
 11
22.5
 21
19.0
 31
0.0
  0
CIRCLE
  5
70
330
1E
100
AcDbEntity
  8
0
  6
Continuous
 62
     7
100
AcDbCircle
 10
20.0
 20
19.0
 30
0.0
 40
1.2295
  0
LINE
  5
71
330
1E
100
AcDbEntity
  8
0
  6
Continuous
 62
     2
100
AcDbLine
 10
-19.99999809265137
 20
16.5
 30
0.0
 11
-19.99999809265137
 21
21.5
 31
0.0
  0
LINE
  5
72
330
1E
100
AcDbEntity
  8
0
  6
Continuous
 62
     2
100
AcDbLine
 10
-22.49999809265137
 20
19.0
 30
0.0
 11
-17.49999809265136
 21
19.0
 31
0.0
  0
CIRCLE
  5
73
330
1E
100
AcDbEntity
  8
0
  6
Continuous
 62
     7
100
AcDbCircle
 10
-19.99999809265137
 20
19.0
 30
0.0
 40
1.2295
  0
LINE
  5
74
330
1E
100
AcDbEntity
  8
0
  6
Continuous
 62
     2
100
AcDbLine
 10
-2.5
 20
19.0
 30
0.0
 11
2.5
 21
19.0
 31
0.0
  0
LINE
  5
75
330
1E
100
AcDbEntity
  8
0
  6
Continuous
 62
     2
100
AcDbLine
 10
14.99999737739563
 20
21.50000095367432
 30
0.0
 11
14.99999737739563
 21
24.50000095367432
 31
0.0
  0
LINE
  5
76
330
1E
100
AcDbEntity
  8
0
  6
Continuous
 62
     2
100
AcDbLine
 10
-15.00000071525573
 20
21.50000095367432
 30
0.0
 11
-15.00000071525573
 21
24.50000095367432
 31
0.0
  0
LINE
  5
77
330
1E
100
AcDbEntity
  8
0
  6
Continuous
 62
     2
100
AcDbLine
 10
17.59999585151672
 20
28.50000095367432
 30
0.0
 11
17.59999585151672
 21
31.50000095367432
 31
0.0
  0
LINE
  5
78
330
1E
100
AcDbEntity
  8
0
  6
Continuous
 62
     2
100
AcDbLine
 10
-22.40000796318054
 20
28.50000095367432
 30
0.0
 11
-22.40000796318054
 21
31.50000095367432
 31
0.0
  0
LINE
  5
79
330
1E
100
AcDbEntity
  8
0
  6
Continuous
 62
     2
100
AcDbLine
 10
-25.00000166893005
 20
-1.5
 30
0.0
 11
-25.00000166893005
 21
1.5
 31
0.0
  0
LINE
  5
7A
330
1E
100
AcDbEntity
  8
0
  6
Continuous
 62
     2
100
AcDbLine
 10
-20.00000071525573
 20
-1.5
 30
0.0
 11
-20.00000071525573
 21
1.5
 31
0.0
  0
LINE
  5
7B
330
1E
100
AcDbEntity
  8
0
  6
Continuous
 62
     2
100
AcDbLine
 10
19.99999737739563
 20
-1.5
 30
0.0
 11
19.99999737739563
 21
1.5
 31
0.0
  0
LINE
  5
7C
330
1E
100
AcDbEntity
  8
0
  6
Continuous
 62
     2
100
AcDbLine
 10
25.00000119209289
 20
-1.5
 30
0.0
 11
25.00000119209289
 21
1.5
 31
0.0
  0
LINE
  5
7D
330
1E
100
AcDbEntity
  8
0
  6
Continuous
 62
     2
100
AcDbLine
 10
-34.5
 20
9.799999475479127
 30
0.0
 11
-31.5
 21
9.799999475479127
 31
0.0
  0
ENDBLK
  5
7E
330
1E
100
AcDbEntity
  8
0
100
AcDbBlockEnd
  0
BLOCK
  5
7F
330
1F
100
AcDbEntity
  8
0
100
AcDbBlockBegin
  2
AFDPGH-12-JA-2
 70
     0
 10
0.0
 20
0.0
 30
0.0
  3
AFDPGH-12-JA-2
  1

  0
CIRCLE
  5
80
330
1F
100
AcDbEntity
  8
0
  6
Continuous
 62
     7
100
AcDbCircle
 10
8.499996185302734
 20
11.79999923706054
 30
0.0
 40
6.5
  0
CIRCLE
  5
81
330
1F
100
AcDbEntity
  8
0
  6
Continuous
 62
     7
100
AcDbCircle
 10
-7.5
 20
9.799999475479127
 30
0.0
 40
8.5
  0
ARC
  5
82
330
1F
100
AcDbEntity
  8
0
  6
Continuous
 62
     7
100
AcDbCircle
 10
-19.0
 20
11.79999999999999
 30
0.0
 40
2.5
100
AcDbArc
 50
219.7918164917024
 51
140.2082487689744
  0
ARC
  5
83
330
1F
100
AcDbEntity
  8
0
  6
Continuous
 62
     7
100
AcDbCircle
 10
17.99999618530273
 20
11.79999999999999
 30
0.0
 40
2.5
100
AcDbArc
 50
39.79175123102559
 51
320.2080965869464
  0
CIRCLE
  5
84
330
1F
100
AcDbEntity
  8
0
  6
Continuous
 62
     2
100
AcDbCircle
 10
-7.5
 20
9.799999475479127
 30
0.0
 40
2.5
  0
CIRCLE
  5
85
330
1F
100
AcDbEntity
  8
0
  6
Continuous
 62
     7
100
AcDbCircle
 10
-7.5
 20
9.799999475479127
 30
0.0
 40
5.0
  0
CIRCLE
  5
86
330
1F
100
AcDbEntity
  8
0
  6
Continuous
 62
     7
100
AcDbCircle
 10
8.499996185302734
 20
11.79999923706054
 30
0.0
 40
4.0
  0
CIRCLE
  5
87
330
1F
100
AcDbEntity
  8
0
  6
Continuous
 62
     2
100
AcDbCircle
 10
8.499996185302734
 20
11.79999923706054
 30
0.0
 40
2.5
  0
ARC
  5
88
330
1F
100
AcDbEntity
  8
0
  6
Continuous
 62
     7
100
AcDbCircle
 10
4.499996185302734
 20
23.84616565704345
 30
0.0
 40
0.5
100
AcDbArc
 50
0.0
 51
89.99998201391065
  0
ARC
  5
89
330
1F
100
AcDbEntity
  8
0
  6
Continuous
 62
     7
100
AcDbCircle
 10
-4.5
 20
26.15383625030518
 30
0.0
 40
0.5
100
AcDbArc
 50
179.9999776881997
 51
270.000028004002
  0
ARC
  5
8A
330
1F
100
AcDbEntity
  8
0
  6
Continuous
 62
     7
100
AcDbCircle
 10
-4.5
 20
23.84616565704345
 30
0.0
 40
0.5
100
AcDbArc
 50
89.99998201391065
 51
179.9999640278213
  0
ARC
  5
8B
330
1F
100
AcDbEntity
  8
0
  6
Continuous
 62
     7
100
AcDbCircle
 10
4.499996185302734
 20
26.15383625030518
 30
0.0
 40
0.5
100
AcDbArc
 50
270.0000179860893
 51
0.0
  0
ARC
  5
8C
330
1F
100
AcDbEntity
  8
0
  6
Continuous
 62
     7
100
AcDbCircle
 10
-4.75
 20
25.00000095367432
 30
0.0
 40
1.0
100
AcDbArc
 50
257.4469908954413
 51
102.5530091045587
  0
ARC
  5
8D
330
1F
100
AcDbEntity
  8
0
  6
Continuous
 62
     7
100
AcDbCircle
 10
4.749996185302734
 20
25.00000095367432
 30
0.0
 40
1.0
100
AcDbArc
 50
77.447009564776
 51
282.5529594720016
  0
ARC
  5
8E
330
1F
100
AcDbEntity
  8
0
  6
Continuous
 62
     7
100
AcDbCircle
 10
-4.75
 20
25.00000095367432
 30
0.0
 40
0.6999999880790711
100
AcDbArc
 50
284.4775055169018
 51
75.52248082271986
  0
ARC
  5
8F
330
1F
100
AcDbEntity
  8
0
  6
Continuous
 62
     7
100
AcDbCircle
 10
4.749996185302734
 20
25.00000095367432
 30
0.0
 40
0.6999999880790711
100
AcDbArc
 50
110.9247255739561
 51
249.0752744260439
  0
LINE
  5
90
330
1F
100
AcDbEntity
  8
0
  6
Continuous
 62
     7
100
AcDbLine
 10
20.49999618530273
 20
23.00000095367432
 30
0.0
 11
10.49999618530273
 21
23.00000095367432
 31
0.0
  0
LINE
  5
91
330
1F
100
AcDbEntity
  8
0
  6
Continuous
 62
     7
100
AcDbLine
 10
-10.0
 20
29.49999906684207
 30
0.0
 11
-9.49999811316775
 21
30.00000095367432
 31
0.0
  0
LINE
  5
92
330
1F
100
AcDbEntity
  8
0
  6
Continuous
 62
     7
100
AcDbLine
 10
20.49999618530273
 20
0.0
 30
0.0
 11
-21.5
 21
0.0
 31
0.0
  0
LINE
  5
93
330
1F
100
AcDbEntity
  8
0
  6
Continuous
 62
     7
100
AcDbLine
 10
10.49999618530273
 20
22.99999713897705
 30
0.0
 11
10.49999618530273
 21
18.99999618530273
 31
0.0
  0
LINE
  5
94
330
1F
100
AcDbEntity
  8
0
  6
Continuous
 62
     7
100
AcDbLine
 10
4.499996185302734
 20
26.50000095367432
 30
0.0
 11
4.499996185302734
 21
25.96824550628662
 31
0.0
  0
LINE
  5
95
330
1F
100
AcDbEntity
  8
0
  6
Continuous
 62
     7
100
AcDbLine
 10
-4.5
 20
26.50000095367432
 30
0.0
 11
-4.5
 21
25.96824550628662
 31
0.0
  0
LINE
  5
96
330
1F
100
AcDbEntity
  8
0
  6
Continuous
 62
     7
100
AcDbLine
 10
-10.5
 20
23.00000095367432
 30
0.0
 11
-10.5
 21
19.0
 31
0.0
  0
LINE
  5
97
330
1F
100
AcDbEntity
  8
0
  6
Continuous
 62
     7
100
AcDbLine
 10
20.49999618530273
 20
23.00000095367432
 30
0.0
 11
20.49999618530273
 21
13.39999771118164
 31
0.0
  0
LINE
  5
98
330
1F
100
AcDbEntity
  8
0
  6
Continuous
 62
     7
100
AcDbLine
 10
-10.5
 20
23.00000095367432
 30
0.0
 11
-21.5
 21
23.00000095367432
 31
0.0
  0
LINE
  5
99
330
1F
100
AcDbEntity
  8
0
  6
Continuous
 62
     7
100
AcDbLine
 10
-4.5
 20
19.0
 30
0.0
 11
-10.5
 21
19.0
 31
0.0
  0
LINE
  5
9A
330
1F
100
AcDbEntity
  8
0
  6
Continuous
 62
     7
100
AcDbLine
 10
4.499996185302734
 20
20.0
 30
0.0
 11
-4.5
 21
20.0
 31
0.0
  0
LINE
  5
9B
330
1F
100
AcDbEntity
  8
0
  6
Continuous
 62
     7
100
AcDbLine
 10
10.49999618530273
 20
19.0
 30
0.0
 11
4.499996185302734
 21
19.0
 31
0.0
  0
LINE
  5
9C
330
1F
100
AcDbEntity
  8
0
  6
Continuous
 62
     7
100
AcDbLine
 10
-21.5
 20
23.00000095367432
 30
0.0
 11
-21.5
 21
13.39999771118164
 31
0.0
  0
LINE
  5
9D
330
1F
100
AcDbEntity
  8
0
  6
Continuous
 62
     7
100
AcDbLine
 10
-20.92093917764554
 20
13.39999771118164
 30
0.0
 11
-21.5
 21
13.39999771118164
 31
0.0
  0
LINE
  5
9E
330
1F
100
AcDbEntity
  8
0
  6
Continuous
 62
     7
100
AcDbLine
 10
20.49999618530273
 20
13.39999771118164
 30
0.0
 11
19.92092877369172
 21
13.39999771118164
 31
0.0
  0
LINE
  5
9F
330
1F
100
AcDbEntity
  8
0
  6
Continuous
 62
     7
100
AcDbLine
 10
20.49999618530273
 20
10.19999718666077
 30
0.0
 11
19.92092726435893
 21
10.19999718666077
 31
0.0
  0
LINE
  5
A0
330
1F
100
AcDbEntity
  8
0
  6
Continuous
 62
     7
100
AcDbLine
 10
-20.92092836566413
 20
10.19999718666077
 30
0.0
 11
-21.5
 21
10.19999718666077
 31
0.0
  0
LINE
  5
A1
330
1F
100
AcDbEntity
  8
0
  6
Continuous
 62
     7
100
AcDbLine
 10
-21.5
 20
10.19999718666077
 30
0.0
 11
-21.5
 21
0.0
 31
0.0
  0
LINE
  5
A2
330
1F
100
AcDbEntity
  8
0
  6
Continuous
 62
     7
100
AcDbLine
 10
20.49999618530273
 20
10.19999718666077
 30
0.0
 11
20.49999618530273
 21
0.0
 31
0.0
  0
LINE
  5
A3
330
1F
100
AcDbEntity
  8
0
  6
CENTER
 62
     2
100
AcDbLine
 10
0.0
 20
32.62135601043701
 30
0.0
 11
0.0
 21
-1.706485748291015
 31
0.0
  0
LINE
  5
A4
330
1F
100
AcDbEntity
  8
0
  6
Continuous
 62
     2
100
AcDbLine
 10
-19.0
 20
15.76055526733398
 30
0.0
 11
-19.0
 21
7.607250452041625
 31
0.0
  0
LINE
  5
A5
330
1F
100
AcDbEntity
  8
0
  6
Continuous
 62
     2
100
AcDbLine
 10
17.99999618530273
 20
15.9088020324707
 30
0.0
 11
17.99999618530273
 21
7.607250452041625
 31
0.0
  0
LINE
  5
A6
330
1F
100
AcDbEntity
  8
0
  6
Continuous
 62
     2
100
AcDbLine
 10
1.811490923240327
 20
9.799999475479127
 30
0.0
 11
-16.70721626157348
 21
9.799999475479127
 31
0.0
  0
LINE
  5
A7
330
1F
100
AcDbEntity
  8
0
  6
Continuous
 62
     7
100
AcDbLine
 10
-4.5
 20
24.03175449371337
 30
0.0
 11
-4.5
 21
19.0
 31
0.0
  0
LINE
  5
A8
330
1F
100
AcDbEntity
  8
0
  6
Continuous
 62
     7
100
AcDbLine
 10
4.499996185302734
 20
24.03175449371337
 30
0.0
 11
4.499996185302734
 21
18.99999618530273
 31
0.0
  0
LINE
  5
A9
330
1F
100
AcDbEntity
  8
0
  6
Continuous
 62
     7
100
AcDbLine
 10
4.999996185302734
 20
23.84616565704345
 30
0.0
 11
4.999996185302734
 21
22.0
 31
0.0
  0
LINE
  5
AA
330
1F
100
AcDbEntity
  8
0
  6
Continuous
 62
     2
100
AcDbLine
 10
8.499996185302734
 20
18.80281829833984
 30
0.0
 11
8.499996185302734
 21
4.049442529678344
 31
0.0
  0
LINE
  5
AB
330
1F
100
AcDbEntity
  8
0
  6
Continuous
 62
     7
100
AcDbLine
 10
9.499996185302734
 20
30.00000095367432
 30
0.0
 11
-9.499998113167752
 21
30.00000095367432
 31
0.0
  0
LINE
  5
AC
330
1F
100
AcDbEntity
  8
0
  6
Continuous
 62
     7
100
AcDbLine
 10
10.20000839233398
 20
22.0
 30
0.0
 11
4.799999237060545
 21
22.0
 31
0.0
  0
LINE
  5
AD
330
1F
100
AcDbEntity
  8
0
  6
Continuous
 62
     7
100
AcDbLine
 10
-10.0
 20
29.49999906684207
 30
0.0
 11
-10.0
 21
22.0
 31
0.0
  0
LINE
  5
AE
330
1F
100
AcDbEntity
  8
0
  6
Continuous
 62
     7
100
AcDbLine
 10
9.999996185302734
 20
29.50000095367432
 30
0.0
 11
9.999996185302734
 21
22.0
 31
0.0
  0
LINE
  5
AF
330
1F
100
AcDbEntity
  8
0
  6
Continuous
 62
     7
100
AcDbLine
 10
4.499996185302734
 20
26.50000095367432
 30
0.0
 11
-4.5
 21
26.50000095367432
 31
0.0
  0
LINE
  5
B0
330
1F
100
AcDbEntity
  8
0
  6
Continuous
 62
     7
100
AcDbLine
 10
10.20000839233398
 20
19.19999980926514
 30
0.0
 11
4.799999237060545
 21
19.19999980926514
 31
0.0
  0
LINE
  5
B1
330
1F
100
AcDbEntity
  8
0
  6
Continuous
 62
     7
100
AcDbLine
 10
-4.79998779296875
 20
22.0
 30
0.0
 11
-10.19999694824218
 21
22.0
 31
0.0
  0
LINE
  5
B2
330
1F
100
AcDbEntity
  8
0
  6
Continuous
 62
     2
100
AcDbLine
 10
7.499996185302734
 20
23.16752338409424
 30
0.0
 11
7.499996185302734
 21
18.44060611724853
 31
0.0
  0
LINE
  5
B3
330
1F
100
AcDbEntity
  8
0
  6
Continuous
 62
     7
100
AcDbLine
 10
-10.19999694824218
 20
22.0
 30
0.0
 11
-10.19999694824218
 21
19.19999980926514
 31
0.0
  0
LINE
  5
B4
330
1F
100
AcDbEntity
  8
0
  6
Continuous
 62
     7
100
AcDbLine
 10
-4.800003051757812
 20
22.0
 30
0.0
 11
-4.800003051757812
 21
19.19999980926514
 31
0.0
  0
LINE
  5
B5
330
1F
100
AcDbEntity
  8
0
  6
Continuous
 62
     7
100
AcDbLine
 10
10.19999313354492
 20
22.0
 30
0.0
 11
10.19999313354492
 21
19.19999980926514
 31
0.0
  0
LINE
  5
B6
330
1F
100
AcDbEntity
  8
0
  6
Continuous
 62
     7
100
AcDbLine
 10
-4.79998779296875
 20
19.19999980926514
 30
0.0
 11
-10.19999694824218
 21
19.19999980926514
 31
0.0
  0
LINE
  5
B7
330
1F
100
AcDbEntity
  8
0
  6
Continuous
 62
     7
100
AcDbLine
 10
9.499999140526142
 20
29.99999422155724
 30
0.0
 11
9.999999671320892
 21
29.49999369076249
 31
0.0
  0
LINE
  5
B8
330
1F
100
AcDbEntity
  8
0
  6
Continuous
 62
     7
100
AcDbLine
 10
4.799999237060545
 20
22.0
 30
0.0
 11
4.799999237060545
 21
19.19999980926514
 31
0.0
  0
LINE
  5
B9
330
1F
100
AcDbEntity
  8
0
  6
Continuous
 62
     7
100
AcDbLine
 10
4.999996185302734
 20
27.00000095367432
 30
0.0
 11
-5.0
 21
27.00000095367432
 31
0.0
  0
LINE
  5
BA
330
1F
100
AcDbEntity
  8
0
  6
Continuous
 62
     7
100
AcDbLine
 10
-5.0
 20
27.00000095367432
 30
0.0
 11
-5.0
 21
26.15383625030518
 31
0.0
  0
LINE
  5
BB
330
1F
100
AcDbEntity
  8
0
  6
Continuous
 62
     7
100
AcDbLine
 10
-5.0
 20
23.84616565704345
 30
0.0
 11
-5.0
 21
22.0
 31
0.0
  0
LINE
  5
BC
330
1F
100
AcDbEntity
  8
0
  6
Continuous
 62
     7
100
AcDbLine
 10
4.999996185302734
 20
27.00000095367432
 30
0.0
 11
4.999996185302734
 21
26.15383625030518
 31
0.0
  0
LINE
  5
BD
330
1F
100
AcDbEntity
  8
0
  6
Continuous
 62
     7
100
AcDbLine
 10
2.085369110107421
 20
12.84999847412109
 30
0.0
 11
0.4339447021484375
 21
12.84999847412109
 31
0.0
  0
LINE
  5
BE
330
1F
100
AcDbEntity
  8
0
  6
Continuous
 62
     7
100
AcDbLine
 10
2.085369110107421
 20
10.75
 30
0.0
 11
0.946746826171875
 21
10.75
 31
0.0
  0
LINE
  5
BF
330
1F
100
AcDbEntity
  8
0
  6
Continuous
 62
     2
100
AcDbLine
 10
-7.5
 20
23.16752338409424
 30
0.0
 11
-7.5
 21
-0.24957275390625
 31
0.0
  0
LINE
  5
C0
330
1F
100
AcDbEntity
  8
0
  6
CENTER
 62
     2
100
AcDbLine
 10
22.51165934681029
 20
11.79999999999999
 30
0.0
 11
-24.54704285139247
 21
11.79999999999999
 31
0.0
  0
CIRCLE
  5
C1
330
1F
100
AcDbEntity
  8
0
  6
Continuous
 62
     7
100
AcDbCircle
 10
-7.5
 20
9.799999475479127
 30
0.0
 40
2.067
  0
CIRCLE
  5
C2
330
1F
100
AcDbEntity
  8
0
  6
Continuous
 62
     7
100
AcDbCircle
 10
8.499996185302734
 20
11.79999923706054
 30
0.0
 40
2.067
  0
LINE
  5
C3
330
1F
100
AcDbEntity
  8
0
  6
Continuous
 62
     2
100
AcDbLine
 10
8.499996185302734
 20
28.00000095367432
 30
0.0
 11
11.49999618530273
 21
28.00000095367432
 31
0.0
  0
LINE
  5
C4
330
1F
100
AcDbEntity
  8
0
  6
Continuous
 62
     2
100
AcDbLine
 10
-11.5
 20
28.00000095367432
 30
0.0
 11
-8.5
 21
28.00000095367432
 31
0.0
  0
LINE
  5
C5
330
1F
100
AcDbEntity
  8
0
  6
Continuous
 62
     2
100
AcDbLine
 10
18.99999618530273
 20
19.0
 30
0.0
 11
21.99999618530274
 21
19.0
 31
0.0
  0
LINE
  5
C6
330
1F
100
AcDbEntity
  8
0
  6
Continuous
 62
     2
100
AcDbLine
 10
-23.0
 20
19.0
 30
0.0
 11
-20.0
 21
19.0
 31
0.0
  0
LINE
  5
C7
330
1F
100
AcDbEntity
  8
0
  6
Continuous
 62
     2
100
AcDbLine
 10
-7.5
 20
28.50000095367432
 30
0.0
 11
-7.5
 21
31.50000095367432
 31
0.0
  0
LINE
  5
C8
330
1F
100
AcDbEntity
  8
0
  6
Continuous
 62
     2
100
AcDbLine
 10
7.5
 20
28.50000095367432
 30
0.0
 11
7.5
 21
31.50000095367432
 31
0.0
  0
LINE
  5
C9
330
1F
100
AcDbEntity
  8
0
  6
Continuous
 62
     2
100
AcDbLine
 10
-17.5
 20
21.50000095367432
 30
0.0
 11
-17.5
 21
24.50000095367432
 31
0.0
  0
LINE
  5
CA
330
1F
100
AcDbEntity
  8
0
  6
Continuous
 62
     2
100
AcDbLine
 10
17.5
 20
21.50000095367432
 30
0.0
 11
17.5
 21
24.50000095367432
 31
0.0
  0
LINE
  5
CB
330
1F
100
AcDbEntity
  8
0
  6
Continuous
 62
     2
100
AcDbLine
 10
-17.5
 20
-1.5
 30
0.0
 11
-17.5
 21
1.5
 31
0.0
  0
LINE
  5
CC
330
1F
100
AcDbEntity
  8
0
  6
Continuous
 62
     2
100
AcDbLine
 10
17.5
 20
-1.5
 30
0.0
 11
17.5
 21
1.5
 31
0.0
  0
ENDBLK
  5
CD
330
1F
100
AcDbEntity
  8
0
100
AcDbBlockEnd
  0
BLOCK
  5
CE
330
20
100
AcDbEntity
  8
0
100
AcDbBlockBegin
  2
AFDPGH-12-JA-3
 70
     0
 10
0.0
 20
0.0
 30
0.0
  3
AFDPGH-12-JA-3
  1

  0
CIRCLE
  5
CF
330
20
100
AcDbEntity
  8
0
  6
Continuous
 62
     7
100
AcDbCircle
 10
7.5
 20
9.799999475479127
 30
0.0
 40
5.75
  0
ARC
  5
D0
330
20
100
AcDbEntity
  8
0
  6
Continuous
 62
     7
100
AcDbCircle
 10
-18.0
 20
11.79999732971191
 30
0.0
 40
2.5
100
AcDbArc
 50
219.7917345294325
 51
140.2081691223476
  0
ARC
  5
D1
330
20
100
AcDbEntity
  8
0
  6
Continuous
 62
     7
100
AcDbCircle
 10
4.75
 20
25.00000095367432
 30
0.0
 40
0.6999999880790711
100
AcDbArc
 50
110.9247255739561
 51
249.0752744260439
  0
ARC
  5
D2
330
20
100
AcDbEntity
  8
0
  6
Continuous
 62
     7
100
AcDbCircle
 10
-4.75
 20
25.00000095367432
 30
0.0
 40
1.0
100
AcDbArc
 50
257.4470045558197
 51
102.5529544630453
  0
ARC
  5
D3
330
20
100
AcDbEntity
  8
0
  6
Continuous
 62
     7
100
AcDbCircle
 10
4.75
 20
25.00000095367432
 30
0.0
 40
1.0
100
AcDbArc
 50
77.44695492326262
 51
282.5529594720016
  0
ARC
  5
D4
330
20
100
AcDbEntity
  8
0
  6
Continuous
 62
     7
100
AcDbCircle
 10
19.0
 20
11.79999446868896
 30
0.0
 40
2.5
100
AcDbArc
 50
39.79191621342647
 51
320.2082615693166
  0
ARC
  5
D5
330
20
100
AcDbEntity
  8
0
  6
Continuous
 62
     7
100
AcDbCircle
 10
4.5
 20
26.15383625030518
 30
0.0
 40
0.5
100
AcDbArc
 50
269.999963344576
 51
0.0
  0
ARC
  5
D6
330
20
100
AcDbEntity
  8
0
  6
Continuous
 62
     7
100
AcDbCircle
 10
-4.5
 20
23.84616565704345
 30
0.0
 40
0.5
100
AcDbArc
 50
89.99998201391065
 51
179.9999640278213
  0
ARC
  5
D7
330
20
100
AcDbEntity
  8
0
  6
Continuous
 62
     7
100
AcDbCircle
 10
-4.5
 20
26.15383625030518
 30
0.0
 40
0.5
100
AcDbArc
 50
179.9999640278213
 51
269.999946041732
  0
ARC
  5
D8
330
20
100
AcDbEntity
  8
0
  6
Continuous
 62
     7
100
AcDbCircle
 10
4.5
 20
23.84616565704345
 30
0.0
 40
0.5
100
AcDbArc
 50
0.0
 51
89.99998201391065
  0
ARC
  5
D9
330
20
100
AcDbEntity
  8
0
  6
Continuous
 62
     7
100
AcDbCircle
 10
-4.75
 20
25.00000095367432
 30
0.0
 40
0.6999999880790711
100
AcDbArc
 50
284.4775055169018
 51
75.52242618120648
  0
CIRCLE
  5
DA
330
20
100
AcDbEntity
  8
0
  6
Continuous
 62
     7
100
AcDbCircle
 10
-8.5
 20
11.79999923706054
 30
0.0
 40
3.5
  0
CIRCLE
  5
DB
330
20
100
AcDbEntity
  8
0
  6
Continuous
 62
     7
100
AcDbCircle
 10
-8.5
 20
11.79999923706054
 30
0.0
 40
6.5
  0
CIRCLE
  5
DC
330
20
100
AcDbEntity
  8
0
  6
Continuous
 62
     7
100
AcDbCircle
 10
7.5
 20
9.799999475479127
 30
0.0
 40
8.5
  0
CIRCLE
  5
DD
330
20
100
AcDbEntity
  8
0
  6
Continuous
 62
     7
100
AcDbCircle
 10
7.5
 20
9.799999475479127
 30
0.0
 40
1.75
  0
CIRCLE
  5
DE
330
20
100
AcDbEntity
  8
0
  6
Continuous
 62
     7
100
AcDbCircle
 10
7.5
 20
9.799999475479127
 30
0.0
 40
3.0
  0
CIRCLE
  5
DF
330
20
100
AcDbEntity
  8
0
  6
Continuous
 62
     7
100
AcDbCircle
 10
7.5
 20
9.800000429153442
 30
0.0
 40
4.979645252227783
  0
LINE
  5
E0
330
20
100
AcDbEntity
  8
0
  6
Continuous
 62
     7
100
AcDbLine
 10
-10.5
 20
22.99999713897705
 30
0.0
 11
-10.5
 21
18.99999618530273
 31
0.0
  0
LINE
  5
E1
330
20
100
AcDbEntity
  8
0
  6
Continuous
 62
     7
100
AcDbLine
 10
-4.5
 20
26.50000095367432
 30
0.0
 11
-4.5
 21
25.96824550628662
 31
0.0
  0
LINE
  5
E2
330
20
100
AcDbEntity
  8
0
  6
Continuous
 62
     7
100
AcDbLine
 10
4.5
 20
26.50000095367432
 30
0.0
 11
4.5
 21
25.96824550628662
 31
0.0
  0
LINE
  5
E3
330
20
100
AcDbEntity
  8
0
  6
Continuous
 62
     7
100
AcDbLine
 10
10.5
 20
22.99999713897705
 30
0.0
 11
10.5
 21
18.99999618530273
 31
0.0
  0
LINE
  5
E4
330
20
100
AcDbEntity
  8
0
  6
Continuous
 62
     7
100
AcDbLine
 10
-4.5
 20
20.0
 30
0.0
 11
4.5
 21
20.0
 31
0.0
  0
LINE
  5
E5
330
20
100
AcDbEntity
  8
0
  6
Continuous
 62
     7
100
AcDbLine
 10
-10.5
 20
19.0
 30
0.0
 11
-4.5
 21
19.0
 31
0.0
  0
LINE
  5
E6
330
20
100
AcDbEntity
  8
0
  6
Continuous
 62
     7
100
AcDbLine
 10
-20.5
 20
23.00000095367432
 30
0.0
 11
-20.5
 21
13.39999771118164
 31
0.0
  0
LINE
  5
E7
330
20
100
AcDbEntity
  8
0
  6
Continuous
 62
     7
100
AcDbLine
 10
-20.5
 20
0.0
 30
0.0
 11
21.5
 21
0.0
 31
0.0
  0
LINE
  5
E8
330
20
100
AcDbEntity
  8
0
  6
Continuous
 62
     7
100
AcDbLine
 10
21.5
 20
23.00000095367432
 30
0.0
 11
21.5
 21
13.39999389648437
 31
0.0
  0
LINE
  5
E9
330
20
100
AcDbEntity
  8
0
  6
Continuous
 62
     7
100
AcDbLine
 10
-20.5
 20
23.00000095367432
 30
0.0
 11
-10.5
 21
23.00000095367432
 31
0.0
  0
LINE
  5
EA
330
20
100
AcDbEntity
  8
0
  6
Continuous
 62
     7
100
AcDbLine
 10
4.5
 20
19.0
 30
0.0
 11
10.5
 21
19.0
 31
0.0
  0
LINE
  5
EB
330
20
100
AcDbEntity
  8
0
  6
Continuous
 62
     7
100
AcDbLine
 10
10.5
 20
23.00000095367432
 30
0.0
 11
21.5
 21
23.00000095367432
 31
0.0
  0
LINE
  5
EC
330
20
100
AcDbEntity
  8
0
  6
Continuous
 62
     7
100
AcDbLine
 10
-20.5
 20
10.19999718666077
 30
0.0
 11
-19.92094421386719
 21
10.19999718666077
 31
0.0
  0
LINE
  5
ED
330
20
100
AcDbEntity
  8
0
  6
Continuous
 62
     7
100
AcDbLine
 10
20.92094133653566
 20
13.39999771118164
 30
0.0
 11
21.5
 21
13.39999771118164
 31
0.0
  0
LINE
  5
EE
330
20
100
AcDbEntity
  8
0
  6
Continuous
 62
     7
100
AcDbLine
 10
21.5
 20
10.1999933719635
 30
0.0
 11
21.5
 21
0.0
 31
0.0
  0
LINE
  5
EF
330
20
100
AcDbEntity
  8
0
  6
Continuous
 62
     7
100
AcDbLine
 10
-20.5
 20
10.19999718666077
 30
0.0
 11
-20.5
 21
0.0
 31
0.0
  0
LINE
  5
F0
330
20
100
AcDbEntity
  8
0
  6
Continuous
 62
     7
100
AcDbLine
 10
20.92093953509797
 20
10.19999718666077
 30
0.0
 11
21.5
 21
10.19999718666077
 31
0.0
  0
LINE
  5
F1
330
20
100
AcDbEntity
  8
0
  6
Continuous
 62
     7
100
AcDbLine
 10
-20.5
 20
13.39999771118164
 30
0.0
 11
-19.92093251467925
 21
13.39999771118164
 31
0.0
  0
LINE
  5
F2
330
20
100
AcDbEntity
  8
0
  6
Continuous
 62
     2
100
AcDbLine
 10
19.0
 20
15.76055526733398
 30
0.0
 11
19.0
 21
7.607250452041625
 31
0.0
  0
LINE
  5
F3
330
20
100
AcDbEntity
  8
0
  6
CENTER
 62
     2
100
AcDbLine
 10
0.0
 20
32.62135601043701
 30
0.0
 11
0.0
 21
-1.706485748291015
 31
0.0
  0
LINE
  5
F4
330
20
100
AcDbEntity
  8
0
  6
Continuous
 62
     2
100
AcDbLine
 10
-18.0
 20
15.76055526733398
 30
0.0
 11
-18.0
 21
7.607250452041625
 31
0.0
  0
LINE
  5
F5
330
20
100
AcDbEntity
  8
0
  6
Continuous
 62
     2
100
AcDbLine
 10
-8.5
 20
18.80281829833984
 30
0.0
 11
-8.5
 21
4.049442529678344
 31
0.0
  0
LINE
  5
F6
330
20
100
AcDbEntity
  8
0
  6
Continuous
 62
     7
100
AcDbLine
 10
-10.0
 20
29.50000095367432
 30
0.0
 11
-10.0
 21
22.0
 31
0.0
  0
LINE
  5
F7
330
20
100
AcDbEntity
  8
0
  6
Continuous
 62
     7
100
AcDbLine
 10
-9.500006693961948
 20
30.00000095367432
 30
0.0
 11
9.499989222411386
 21
30.00000095367432
 31
0.0
  0
LINE
  5
F8
330
20
100
AcDbEntity
  8
0
  6
Continuous
 62
     2
100
AcDbLine
 10
-1.822183391381756
 20
9.799999475479127
 30
0.0
 11
16.97417951439163
 21
9.799999475479127
 31
0.0
  0
LINE
  5
F9
330
20
100
AcDbEntity
  8
0
  6
CENTER
 62
     2
100
AcDbLine
 10
-22.17601776123047
 20
11.79999923706054
 30
0.0
 11
23.38751220703125
 21
11.79999923706054
 31
0.0
  0
LINE
  5
FA
330
20
100
AcDbEntity
  8
0
  6
Continuous
 62
     7
100
AcDbLine
 10
-10.20001220703125
 20
22.0
 30
0.0
 11
-4.800003051757812
 21
22.0
 31
0.0
  0
LINE
  5
FB
330
20
100
AcDbEntity
  8
0
  6
Continuous
 62
     2
100
AcDbLine
 10
-7.5
 20
23.16752338409424
 30
0.0
 11
-7.5
 21
18.44060611724853
 31
0.0
  0
LINE
  5
FC
330
20
100
AcDbEntity
  8
0
  6
Continuous
 62
     7
100
AcDbLine
 10
4.79998779296875
 20
22.0
 30
0.0
 11
10.19999694824218
 21
22.0
 31
0.0
  0
LINE
  5
FD
330
20
100
AcDbEntity
  8
0
  6
Continuous
 62
     7
100
AcDbLine
 10
-10.20001220703125
 20
19.19999980926514
 30
0.0
 11
-4.800003051757812
 21
19.19999980926514
 31
0.0
  0
LINE
  5
FE
330
20
100
AcDbEntity
  8
0
  6
Continuous
 62
     7
100
AcDbLine
 10
-4.5
 20
26.50000095367432
 30
0.0
 11
4.5
 21
26.50000095367432
 31
0.0
  0
LINE
  5
FF
330
20
100
AcDbEntity
  8
0
  6
Continuous
 62
     7
100
AcDbLine
 10
10.0
 20
29.4999901760857
 30
0.0
 11
10.0
 21
22.0
 31
0.0
  0
LINE
  5
100
330
20
100
AcDbEntity
  8
0
  6
Continuous
 62
     7
100
AcDbLine
 10
4.800003051757812
 20
22.0
 30
0.0
 11
4.800003051757812
 21
19.19999980926514
 31
0.0
  0
LINE
  5
101
330
20
100
AcDbEntity
  8
0
  6
Continuous
 62
     7
100
AcDbLine
 10
4.79998779296875
 20
19.19999980926514
 30
0.0
 11
10.19999694824218
 21
19.19999980926514
 31
0.0
  0
LINE
  5
102
330
20
100
AcDbEntity
  8
0
  6
Continuous
 62
     7
100
AcDbLine
 10
-10.19999694824218
 20
22.0
 30
0.0
 11
-10.19999694824218
 21
19.19999980926514
 31
0.0
  0
LINE
  5
103
330
20
100
AcDbEntity
  8
0
  6
Continuous
 62
     7
100
AcDbLine
 10
-4.800003051757812
 20
22.0
 30
0.0
 11
-4.800003051757812
 21
19.19999980926514
 31
0.0
  0
LINE
  5
104
330
20
100
AcDbEntity
  8
0
  6
Continuous
 62
     7
100
AcDbLine
 10
10.19999694824218
 20
22.0
 30
0.0
 11
10.19999694824218
 21
19.19999980926514
 31
0.0
  0
LINE
  5
105
330
20
100
AcDbEntity
  8
0
  6
Continuous
 62
     7
100
AcDbLine
 10
10.0
 20
29.4999901760857
 30
0.0
 11
9.499989222411386
 21
30.00000095367432
 31
0.0
  0
LINE
  5
106
330
20
100
AcDbEntity
  8
0
  6
Continuous
 62
     7
100
AcDbLine
 10
-9.500006693961948
 20
30.00000095367432
 30
0.0
 11
-10.00000856207726
 21
29.49999908555901
 31
0.0
  0
LINE
  5
107
330
20
100
AcDbEntity
  8
0
  6
Continuous
 62
     7
100
AcDbLine
 10
5.0
 20
27.00000095367432
 30
0.0
 11
5.0
 21
26.15383625030518
 31
0.0
  0
LINE
  5
108
330
20
100
AcDbEntity
  8
0
  6
Continuous
 62
     7
100
AcDbLine
 10
-5.0
 20
27.00000095367432
 30
0.0
 11
5.0
 21
27.00000095367432
 31
0.0
  0
LINE
  5
109
330
20
100
AcDbEntity
  8
0
  6
Continuous
 62
     7
100
AcDbLine
 10
-5.0
 20
23.84616565704345
 30
0.0
 11
-5.0
 21
22.0
 31
0.0
  0
LINE
  5
10A
330
20
100
AcDbEntity
  8
0
  6
Continuous
 62
     7
100
AcDbLine
 10
5.0
 20
23.84616565704345
 30
0.0
 11
5.0
 21
22.0
 31
0.0
  0
LINE
  5
10B
330
20
100
AcDbEntity
  8
0
  6
Continuous
 62
     7
100
AcDbLine
 10
-4.5
 20
24.03175449371337
 30
0.0
 11
-4.5
 21
18.99999618530273
 31
0.0
  0
LINE
  5
10C
330
20
100
AcDbEntity
  8
0
  6
Continuous
 62
     7
100
AcDbLine
 10
4.5
 20
24.03175449371337
 30
0.0
 11
4.5
 21
19.0
 31
0.0
  0
LINE
  5
10D
330
20
100
AcDbEntity
  8
0
  6
Continuous
 62
     7
100
AcDbLine
 10
-5.0
 20
27.00000095367432
 30
0.0
 11
-5.0
 21
26.15383625030518
 31
0.0
  0
LINE
  5
10E
330
20
100
AcDbEntity
  8
0
  6
Continuous
 62
     7
100
AcDbLine
 10
13.25000430296222
 20
9.800000246744275
 30
0.0
 11
10.37500396023551
 21
14.77964622912895
 31
0.0
  0
LINE
  5
10F
330
20
100
AcDbEntity
  8
0
  6
Continuous
 62
     7
100
AcDbLine
 10
-2.085372924804687
 20
12.84999847412109
 30
0.0
 11
-0.4339447021484375
 21
12.84999847412109
 31
0.0
  0
LINE
  5
110
330
20
100
AcDbEntity
  8
0
  6
Continuous
 62
     7
100
AcDbLine
 10
10.375
 20
14.77964973449707
 30
0.0
 11
4.625
 21
14.77964973449707
 31
0.0
  0
LINE
  5
111
330
20
100
AcDbEntity
  8
0
  6
Continuous
 62
     7
100
AcDbLine
 10
-2.085372924804687
 20
10.75000047683716
 30
0.0
 11
-0.946746826171875
 21
10.75000047683716
 31
0.0
  0
LINE
  5
112
330
20
100
AcDbEntity
  8
0
  6
Continuous
 62
     7
100
AcDbLine
 10
1.749996158928297
 20
9.799997204193459
 30
0.0
 11
4.624996844381712
 21
14.77964284385143
 31
0.0
  0
LINE
  5
113
330
20
100
AcDbEntity
  8
0
  6
Continuous
 62
     7
100
AcDbLine
 10
4.625013141494036
 20
4.820359525657295
 30
0.0
 11
1.75001331285739
 21
9.800005850768684
 31
0.0
  0
LINE
  5
114
330
20
100
AcDbEntity
  8
0
  6
Continuous
 62
     7
100
AcDbLine
 10
13.24999960091463
 20
9.799999621338429
 30
0.0
 11
10.37499977227799
 21
4.82035329622704
 31
0.0
  0
LINE
  5
115
330
20
100
AcDbEntity
  8
0
  6
Continuous
 62
     7
100
AcDbLine
 10
10.375
 20
4.820361375808715
 30
0.0
 11
4.625
 21
4.820361375808715
 31
0.0
  0
LINE
  5
116
330
20
100
AcDbEntity
  8
0
  6
Continuous
 62
     7
100
AcDbLine
 10
9.249983726148455
 20
9.800000242442365
 30
0.0
 11
8.374983726148457
 21
11.31554467186379
 31
0.0
  0
LINE
  5
117
330
20
100
AcDbEntity
  8
0
  6
Continuous
 62
     7
100
AcDbLine
 10
5.750003790424671
 20
9.799997627096672
 30
0.0
 11
6.6250038947328
 21
11.31554205651809
 31
0.0
  0
LINE
  5
118
330
20
100
AcDbEntity
  8
0
  6
Continuous
 62
     7
100
AcDbLine
 10
9.249999509639565
 20
9.800004590895239
 30
0.0
 11
8.374999666101757
 21
8.284460057165688
 31
0.0
  0
LINE
  5
119
330
20
100
AcDbEntity
  8
0
  6
Continuous
 62
     7
100
AcDbLine
 10
8.375
 20
8.28446888923645
 30
0.0
 11
6.625
 21
8.28446888923645
 31
0.0
  0
LINE
  5
11A
330
20
100
AcDbEntity
  8
0
  6
Continuous
 62
     7
100
AcDbLine
 10
6.625004080564849
 20
8.284450408701104
 30
0.0
 11
5.750004237027041
 21
9.799994942430656
 31
0.0
  0
LINE
  5
11B
330
20
100
AcDbEntity
  8
0
  6
Continuous
 62
     7
100
AcDbLine
 10
8.375
 20
11.31555080413818
 30
0.0
 11
6.625
 21
11.31555080413818
 31
0.0
  0
LINE
  5
11C
330
20
100
AcDbEntity
  8
0
  6
Continuous
 62
     2
100
AcDbLine
 10
7.5
 20
23.16752338409424
 30
0.0
 11
7.5
 21
-0.24957275390625
 31
0.0
  0
LINE
  5
11D
330
20
100
AcDbEntity
  8
0
  6
Continuous
 62
     7
100
AcDbLine
 10
-6.732233047033616
 20
10.03223228409418
 30
0.0
 11
-10.26776695296638
 21
13.56776619002691
 31
0.0
  0
LINE
  5
11E
330
20
100
AcDbEntity
  8
0
  6
Continuous
 62
     7
100
AcDbLine
 10
-10.26776695296638
 20
10.03223228409418
 30
0.0
 11
-6.732233047033616
 21
13.56776619002691
 31
0.0
  0
CIRCLE
  5
11F
330
20
100
AcDbEntity
  8
0
  6
Continuous
 62
     2
100
AcDbCircle
 10
7.5
 20
9.799999475479127
 30
0.0
 40
2.458499999999999
  0
LINE
  5
120
330
20
100
AcDbEntity
  8
0
  6
Continuous
 62
     2
100
AcDbLine
 10
-22.0
 20
19.0
 30
0.0
 11
-19.0
 21
19.0
 31
0.0
  0
LINE
  5
121
330
20
100
AcDbEntity
  8
0
  6
Continuous
 62
     2
100
AcDbLine
 10
20.0
 20
19.0
 30
0.0
 11
23.0
 21
19.0
 31
0.0
  0
LINE
  5
122
330
20
100
AcDbEntity
  8
0
  6
Continuous
 62
     2
100
AcDbLine
 10
-11.5
 20
28.00000095367432
 30
0.0
 11
-8.5
 21
28.00000095367432
 31
0.0
  0
LINE
  5
123
330
20
100
AcDbEntity
  8
0
  6
Continuous
 62
     2
100
AcDbLine
 10
8.5
 20
28.00000095367432
 30
0.0
 11
11.5
 21
28.00000095367432
 31
0.0
  0
LINE
  5
124
330
20
100
AcDbEntity
  8
0
  6
Continuous
 62
     2
100
AcDbLine
 10
-7.5
 20
28.50000095367432
 30
0.0
 11
-7.5
 21
31.50000095367432
 31
0.0
  0
LINE
  5
125
330
20
100
AcDbEntity
  8
0
  6
Continuous
 62
     2
100
AcDbLine
 10
7.5
 20
28.50000095367432
 30
0.0
 11
7.5
 21
31.50000095367432
 31
0.0
  0
LINE
  5
126
330
20
100
AcDbEntity
  8
0
  6
Continuous
 62
     2
100
AcDbLine
 10
-17.5
 20
21.50000095367432
 30
0.0
 11
-17.5
 21
24.50000095367432
 31
0.0
  0
LINE
  5
127
330
20
100
AcDbEntity
  8
0
  6
Continuous
 62
     2
100
AcDbLine
 10
17.5
 20
21.50000095367432
 30
0.0
 11
17.5
 21
24.50000095367432
 31
0.0
  0
LINE
  5
128
330
20
100
AcDbEntity
  8
0
  6
Continuous
 62
     2
100
AcDbLine
 10
-17.5
 20
-1.5
 30
0.0
 11
-17.5
 21
1.5
 31
0.0
  0
LINE
  5
129
330
20
100
AcDbEntity
  8
0
  6
Continuous
 62
     2
100
AcDbLine
 10
17.5
 20
-1.5
 30
0.0
 11
17.5
 21
1.5
 31
0.0
  0
ENDBLK
  5
12A
330
20
100
AcDbEntity
  8
0
100
AcDbBlockEnd
  0
BLOCK
  5
12B
330
21
100
AcDbEntity
  8
0
100
AcDbBlockBegin
  2
AFDPGH-12-JA-4
 70
     0
 10
0.0
 20
0.0
 30
0.0
  3
AFDPGH-12-JA-4
  1

  0
LINE
  5
12C
330
21
100
AcDbEntity
  8
0
  6
Continuous
 62
     2
100
AcDbLine
 10
-20.0
 20
-22.0
 30
0.0
 11
-20.0
 21
-19.0
 31
0.0
  0
LINE
  5
12D
330
21
100
AcDbEntity
  8
0
  6
Continuous
 62
     2
100
AcDbLine
 10
-20.0
 20
20.0
 30
0.0
 11
-20.0
 21
23.0
 31
0.0
  0
CIRCLE
  5
12E
330
21
100
AcDbEntity
  8
0
  6
Continuous
 62
     2
100
AcDbCircle
 10
-15.0
 20
-17.5
 30
0.0
 40
2.0
  0
LINE
  5
12F
330
21
100
AcDbEntity
  8
0
  6
Continuous
 62
     2
100
AcDbLine
 10
-15.0
 20
-20.5
 30
0.0
 11
-15.0
 21
-14.5
 31
0.0
  0
LINE
  5
130
330
21
100
AcDbEntity
  8
0
  6
Continuous
 62
     2
100
AcDbLine
 10
-12.0
 20
-17.5
 30
0.0
 11
-18.0
 21
-17.5
 31
0.0
  0
CIRCLE
  5
131
330
21
100
AcDbEntity
  8
0
  6
Continuous
 62
     7
100
AcDbCircle
 10
-15.0
 20
-17.5
 30
0.0
 40
1.620999999999999
  0
CIRCLE
  5
132
330
21
100
AcDbEntity
  8
0
  6
Continuous
 62
     2
100
AcDbCircle
 10
-15.0
 20
17.5
 30
0.0
 40
2.0
  0
LINE
  5
133
330
21
100
AcDbEntity
  8
0
  6
Continuous
 62
     2
100
AcDbLine
 10
-15.0
 20
14.5
 30
0.0
 11
-15.0
 21
20.5
 31
0.0
  0
LINE
  5
134
330
21
100
AcDbEntity
  8
0
  6
Continuous
 62
     2
100
AcDbLine
 10
-12.0
 20
17.5
 30
0.0
 11
-18.0
 21
17.5
 31
0.0
  0
CIRCLE
  5
135
330
21
100
AcDbEntity
  8
0
  6
Continuous
 62
     7
100
AcDbCircle
 10
-15.0
 20
17.5
 30
0.0
 40
1.620999999999999
  0
CIRCLE
  5
136
330
21
100
AcDbEntity
  8
0
  6
Continuous
 62
     2
100
AcDbCircle
 10
-22.40000534057617
 20
-7.5
 30
0.0
 40
1.5
  0
CIRCLE
  5
137
330
21
100
AcDbEntity
  8
0
  6
Continuous
 62
     2
100
AcDbCircle
 10
15.0
 20
-17.5
 30
0.0
 40
2.0
  0
CIRCLE
  5
138
330
21
100
AcDbEntity
  8
0
  6
Continuous
 62
     2
100
AcDbCircle
 10
15.0
 20
17.5
 30
0.0
 40
2.0
  0
ARC
  5
139
330
21
100
AcDbEntity
  8
0
  6
Continuous
 62
     7
100
AcDbCircle
 10
35.859375
 20
3.125
 30
0.0
 40
2.140625
100
AcDbArc
 50
320.0337764490741
 51
39.9662133056422
  0
ARC
  5
13A
330
21
100
AcDbEntity
  8
0
  6
Continuous
 62
     7
100
AcDbCircle
 10
28.75
 20
7.5
 30
0.0
 40
9.25
100
AcDbArc
 50
341.0753489798356
 51
18.92464418997528
  0
ARC
  5
13B
330
21
100
AcDbEntity
  8
0
  6
Continuous
 62
     7
100
AcDbCircle
 10
35.859375
 20
11.875
 30
0.0
 40
2.140625
100
AcDbArc
 50
320.0337866943578
 51
39.9662133056422
  0
CIRCLE
  5
13C
330
21
100
AcDbEntity
  8
0
  6
Continuous
 62
     2
100
AcDbCircle
 10
17.59999847412109
 20
-7.5
 30
0.0
 40
1.5
  0
CIRCLE
  5
13D
330
21
100
AcDbEntity
  8
0
  6
Continuous
 62
     2
100
AcDbCircle
 10
17.59999847412109
 20
7.5
 30
0.0
 40
1.5
  0
CIRCLE
  5
13E
330
21
100
AcDbEntity
  8
0
  6
Continuous
 62
     2
100
AcDbCircle
 10
-22.40000534057617
 20
7.5
 30
0.0
 40
1.5
  0
LINE
  5
13F
330
21
100
AcDbEntity
  8
0
  6
Continuous
 62
     7
100
AcDbLine
 10
6.200000762939453
 20
-4.5
 30
0.0
 11
-11.0
 21
-4.5
 31
0.0
  0
LINE
  5
140
330
21
100
AcDbEntity
  8
0
  6
Continuous
 62
     7
100
AcDbLine
 10
7.200000762939453
 20
10.0
 30
0.0
 11
7.200000762939453
 21
-10.0
 31
0.0
  0
LINE
  5
141
330
21
100
AcDbEntity
  8
0
  6
Continuous
 62
     7
100
AcDbLine
 10
28.00000381469727
 20
-4.5
 30
0.0
 11
7.200000762939453
 21
-4.5
 31
0.0
  0
LINE
  5
142
330
21
100
AcDbEntity
  8
0
  6
Continuous
 62
     7
100
AcDbLine
 10
29.00000381469727
 20
10.0
 30
0.0
 11
6.200000762939453
 21
10.0
 31
0.0
  0
LINE
  5
143
330
21
100
AcDbEntity
  8
0
  6
Continuous
 62
     7
100
AcDbLine
 10
6.200000762939453
 20
10.0
 30
0.0
 11
6.200000762939453
 21
-10.0
 31
0.0
  0
LINE
  5
144
330
21
100
AcDbEntity
  8
0
  6
Continuous
 62
     7
100
AcDbLine
 10
28.00000381469727
 20
4.5
 30
0.0
 11
7.200000762939453
 21
4.5
 31
0.0
  0
LINE
  5
145
330
21
100
AcDbEntity
  8
0
  6
Continuous
 62
     7
100
AcDbLine
 10
6.200000762939453
 20
4.5
 30
0.0
 11
-11.0
 21
4.5
 31
0.0
  0
LINE
  5
146
330
21
100
AcDbEntity
  8
0
  6
Continuous
 62
     7
100
AcDbLine
 10
28.00000381469727
 20
10.0
 30
0.0
 11
28.00000381469727
 21
-10.0
 31
0.0
  0
LINE
  5
147
330
21
100
AcDbEntity
  8
0
  6
Continuous
 62
     7
100
AcDbLine
 10
29.00000381469727
 20
10.0
 30
0.0
 11
29.00000381469727
 21
-10.0
 31
0.0
  0
LINE
  5
148
330
21
100
AcDbEntity
  8
0
  6
Continuous
 62
     2
100
AcDbLine
 10
30.97538757324219
 20
7.5
 30
0.0
 11
49.73713684082031
 21
7.5
 31
0.0
  0
LINE
  5
149
330
21
100
AcDbEntity
  8
0
  6
Continuous
 62
     7
100
AcDbLine
 10
29.00000381469727
 20
-10.0
 30
0.0
 11
6.200000762939453
 21
-10.0
 31
0.0
  0
LINE
  5
14A
330
21
100
AcDbEntity
  8
0
  6
Continuous
 62
     7
100
AcDbLine
 10
-32.99999856948853
 20
-20.5
 30
0.0
 11
33.0
 21
-20.5
 31
0.0
  0
LINE
  5
14B
330
21
100
AcDbEntity
  8
0
  6
Continuous
 62
     7
100
AcDbLine
 10
33.0
 20
21.5
 30
0.0
 11
33.0
 21
-20.5
 31
0.0
  0
LINE
  5
14C
330
21
100
AcDbEntity
  8
0
  6
Continuous
 62
     7
100
AcDbLine
 10
-32.99999856948853
 20
21.5
 30
0.0
 11
33.0
 21
21.5
 31
0.0
  0
LINE
  5
14D
330
21
100
AcDbEntity
  8
0
  6
Continuous
 62
     7
100
AcDbLine
 10
-32.99999856948853
 20
21.5
 30
0.0
 11
-32.99999856948853
 21
10.0
 31
0.0
  0
LINE
  5
14E
330
21
100
AcDbEntity
  8
0
  6
Continuous
 62
     7
100
AcDbLine
 10
33.0
 20
-4.5
 30
0.0
 11
29.00000381469727
 21
-4.5
 31
0.0
  0
LINE
  5
14F
330
21
100
AcDbEntity
  8
0
  6
Continuous
 62
     7
100
AcDbLine
 10
33.0
 20
-10.5
 30
0.0
 11
-32.99999856948853
 21
-10.5
 31
0.0
  0
LINE
  5
150
330
21
100
AcDbEntity
  8
0
  6
Continuous
 62
     7
100
AcDbLine
 10
33.0
 20
10.5
 30
0.0
 11
-32.99999856948853
 21
10.5
 31
0.0
  0
LINE
  5
151
330
21
100
AcDbEntity
  8
0
  6
Continuous
 62
     7
100
AcDbLine
 10
33.0
 20
4.5
 30
0.0
 11
29.00000381469727
 21
4.5
 31
0.0
  0
LINE
  5
152
330
21
100
AcDbEntity
  8
0
  6
CENTER
 62
     2
100
AcDbLine
 10
36.60750579833984
 20
0.0
 30
0.0
 11
-36.97709827473513
 21
0.0
 31
0.0
  0
LINE
  5
153
330
21
100
AcDbEntity
  8
0
  6
Continuous
 62
     7
100
AcDbLine
 10
-32.80000782012939
 20
10.0
 30
0.0
 11
-32.80000782012939
 21
-10.0
 31
0.0
  0
LINE
  5
154
330
21
100
AcDbEntity
  8
0
  6
Continuous
 62
     7
100
AcDbLine
 10
38.0
 20
4.5
 30
0.0
 11
47.5
 21
4.5
 31
0.0
  0
LINE
  5
155
330
21
100
AcDbEntity
  8
0
  6
Continuous
 62
     7
100
AcDbLine
 10
38.0
 20
10.5
 30
0.0
 11
47.5
 21
10.5
 31
0.0
  0
LINE
  5
156
330
21
100
AcDbEntity
  8
0
  6
Continuous
 62
     7
100
AcDbLine
 10
47.5
 20
4.5
 30
0.0
 11
48.0
 21
5.000000000000001
 31
0.0
  0
LINE
  5
157
330
21
100
AcDbEntity
  8
0
  6
Continuous
 62
     7
100
AcDbLine
 10
47.5
 20
10.5
 30
0.0
 11
48.0
 21
10.0
 31
0.0
  0
LINE
  5
158
330
21
100
AcDbEntity
  8
0
  6
Continuous
 62
     7
100
AcDbLine
 10
34.0
 20
10.5
 30
0.0
 11
37.5
 21
10.5
 31
0.0
  0
LINE
  5
159
330
21
100
AcDbEntity
  8
0
  6
Continuous
 62
     7
100
AcDbLine
 10
-11.0
 20
10.0
 30
0.0
 11
-11.0
 21
-10.0
 31
0.0
  0
LINE
  5
15A
330
21
100
AcDbEntity
  8
0
  6
Continuous
 62
     7
100
AcDbLine
 10
-33.80000734329224
 20
10.0
 30
0.0
 11
-33.80000734329224
 21
-10.0
 31
0.0
  0
LINE
  5
15B
330
21
100
AcDbEntity
  8
0
  6
Continuous
 62
     7
100
AcDbLine
 10
-12.00000762939453
 20
-4.5
 30
0.0
 11
-32.80000782012939
 21
-4.5
 31
0.0
  0
LINE
  5
15C
330
21
100
AcDbEntity
  8
0
  6
Continuous
 62
     7
100
AcDbLine
 10
-33.80000734329224
 20
-10.0
 30
0.0
 11
-11.00000762939453
 21
-10.0
 31
0.0
  0
LINE
  5
15D
330
21
100
AcDbEntity
  8
0
  6
Continuous
 62
     7
100
AcDbLine
 10
-33.80000734329224
 20
10.0
 30
0.0
 11
-11.00000762939453
 21
10.0
 31
0.0
  0
LINE
  5
15E
330
21
100
AcDbEntity
  8
0
  6
Continuous
 62
     2
100
AcDbLine
 10
30.97538757324219
 20
-8.5
 30
0.0
 11
38.85311126708984
 21
-8.5
 31
0.0
  0
LINE
  5
15F
330
21
100
AcDbEntity
  8
0
  6
Continuous
 62
     7
100
AcDbLine
 10
38.0
 20
11.875
 30
0.0
 11
38.0
 21
3.125
 31
0.0
  0
LINE
  5
160
330
21
100
AcDbEntity
  8
0
  6
Continuous
 62
     7
100
AcDbLine
 10
33.0
 20
0.5
 30
0.0
 11
34.0
 21
0.5
 31
0.0
  0
LINE
  5
161
330
21
100
AcDbEntity
  8
0
  6
Continuous
 62
     7
100
AcDbLine
 10
33.0
 20
14.5
 30
0.0
 11
34.0
 21
14.5
 31
0.0
  0
LINE
  5
162
330
21
100
AcDbEntity
  8
0
  6
Continuous
 62
     7
100
AcDbLine
 10
34.0
 20
1.75
 30
0.0
 11
37.5
 21
1.75
 31
0.0
  0
LINE
  5
163
330
21
100
AcDbEntity
  8
0
  6
Continuous
 62
     7
100
AcDbLine
 10
34.0
 20
14.5
 30
0.0
 11
34.0
 21
0.5
 31
0.0
  0
LINE
  5
164
330
21
100
AcDbEntity
  8
0
  6
Continuous
 62
     7
100
AcDbLine
 10
34.0
 20
4.5
 30
0.0
 11
37.5
 21
4.5
 31
0.0
  0
LINE
  5
165
330
21
100
AcDbEntity
  8
0
  6
Continuous
 62
     7
100
AcDbLine
 10
48.0
 20
10.0
 30
0.0
 11
48.0
 21
5.000000000000001
 31
0.0
  0
LINE
  5
166
330
21
100
AcDbEntity
  8
0
  6
Continuous
 62
     7
100
AcDbLine
 10
47.5
 20
10.5
 30
0.0
 11
47.5
 21
4.5
 31
0.0
  0
LINE
  5
167
330
21
100
AcDbEntity
  8
0
  6
Continuous
 62
     7
100
AcDbLine
 10
-12.00000762939453
 20
4.5
 30
0.0
 11
-32.80000782012939
 21
4.5
 31
0.0
  0
LINE
  5
168
330
21
100
AcDbEntity
  8
0
  6
Continuous
 62
     7
100
AcDbLine
 10
-12.00000762939453
 20
10.0
 30
0.0
 11
-12.00000762939453
 21
-10.0
 31
0.0
  0
LINE
  5
169
330
21
100
AcDbEntity
  8
0
  6
Continuous
 62
     7
100
AcDbLine
 10
34.0
 20
13.25
 30
0.0
 11
37.5
 21
13.25
 31
0.0
  0
LINE
  5
16A
330
21
100
AcDbEntity
  8
0
  6
Continuous
 62
     7
100
AcDbLine
 10
-32.99999856948853
 20
-10.0
 30
0.0
 11
-32.99999856948853
 21
-20.5
 31
0.0
  0
LINE
  5
16B
330
21
100
AcDbEntity
  8
0
  6
Continuous
 62
     7
100
AcDbLine
 10
33.0
 20
-4.999996948242184
 30
0.0
 11
35.5999984741211
 21
-4.999996948242184
 31
0.0
  0
ARC
  5
16C
330
21
100
AcDbEntity
  8
0
  6
Continuous
 62
     7
100
AcDbCircle
 10
35.5999984741211
 20
-5.999996948242184
 30
0.0
 40
1.0
100
AcDbArc
 50
0.0
 51
89.99998201391065
  0
LINE
  5
16D
330
21
100
AcDbEntity
  8
0
  6
Continuous
 62
     7
100
AcDbLine
 10
36.59999847412109
 20
-5.999996948242184
 30
0.0
 11
36.59999847412109
 21
-10.9999967098236
 31
0.0
  0
ARC
  5
16E
330
21
100
AcDbEntity
  8
0
  6
Continuous
 62
     7
100
AcDbCircle
 10
35.5999984741211
 20
-10.9999967098236
 30
0.0
 40
1.0
100
AcDbArc
 50
270.0000179860893
 51
0.0
  0
LINE
  5
16F
330
21
100
AcDbEntity
  8
0
  6
Continuous
 62
     7
100
AcDbLine
 10
33.0
 20
-11.9999967098236
 30
0.0
 11
35.5999984741211
 21
-11.9999967098236
 31
0.0
  0
LINE
  5
170
330
21
100
AcDbEntity
  8
0
  6
Continuous
 62
     2
100
AcDbLine
 10
17.59999847412109
 20
5.0
 30
0.0
 11
17.59999847412109
 21
10.0
 31
0.0
  0
LINE
  5
171
330
21
100
AcDbEntity
  8
0
  6
Continuous
 62
     2
100
AcDbLine
 10
15.09999847412109
 20
7.5
 30
0.0
 11
20.09999847412109
 21
7.5
 31
0.0
  0
LINE
  5
172
330
21
100
AcDbEntity
  8
0
  6
Continuous
 62
     2
100
AcDbLine
 10
15.0
 20
14.5
 30
0.0
 11
15.0
 21
20.5
 31
0.0
  0
LINE
  5
173
330
21
100
AcDbEntity
  8
0
  6
Continuous
 62
     2
100
AcDbLine
 10
12.0
 20
17.5
 30
0.0
 11
18.0
 21
17.5
 31
0.0
  0
LINE
  5
174
330
21
100
AcDbEntity
  8
0
  6
Continuous
 62
     2
100
AcDbLine
 10
15.0
 20
-20.5
 30
0.0
 11
15.0
 21
-14.5
 31
0.0
  0
LINE
  5
175
330
21
100
AcDbEntity
  8
0
  6
Continuous
 62
     2
100
AcDbLine
 10
12.0
 20
-17.5
 30
0.0
 11
18.0
 21
-17.5
 31
0.0
  0
LINE
  5
176
330
21
100
AcDbEntity
  8
0
  6
Continuous
 62
     2
100
AcDbLine
 10
17.59999847412109
 20
-10.0
 30
0.0
 11
17.59999847412109
 21
-5.0
 31
0.0
  0
LINE
  5
177
330
21
100
AcDbEntity
  8
0
  6
Continuous
 62
     2
100
AcDbLine
 10
15.09999847412109
 20
-7.5
 30
0.0
 11
20.09999847412109
 21
-7.5
 31
0.0
  0
LINE
  5
178
330
21
100
AcDbEntity
  8
0
  6
Continuous
 62
     2
100
AcDbLine
 10
-22.40000534057617
 20
5.0
 30
0.0
 11
-22.40000534057617
 21
10.0
 31
0.0
  0
LINE
  5
179
330
21
100
AcDbEntity
  8
0
  6
Continuous
 62
     2
100
AcDbLine
 10
-24.90000534057617
 20
7.5
 30
0.0
 11
-19.90000534057617
 21
7.5
 31
0.0
  0
LINE
  5
17A
330
21
100
AcDbEntity
  8
0
  6
Continuous
 62
     2
100
AcDbLine
 10
-22.40000534057617
 20
-10.0
 30
0.0
 11
-22.40000534057617
 21
-5.0
 31
0.0
  0
LINE
  5
17B
330
21
100
AcDbEntity
  8
0
  6
Continuous
 62
     2
100
AcDbLine
 10
-24.90000534057617
 20
-7.5
 30
0.0
 11
-19.90000534057617
 21
-7.5
 31
0.0
  0
CIRCLE
  5
17C
330
21
100
AcDbEntity
  8
0
  6
Continuous
 62
     7
100
AcDbCircle
 10
15.0
 20
17.5
 30
0.0
 40
1.620999999999999
  0
CIRCLE
  5
17D
330
21
100
AcDbEntity
  8
0
  6
Continuous
 62
     7
100
AcDbCircle
 10
15.0
 20
-17.5
 30
0.0
 40
1.620999999999999
  0
CIRCLE
  5
17E
330
21
100
AcDbEntity
  8
0
  6
Continuous
 62
     7
100
AcDbCircle
 10
17.59999847412109
 20
7.5
 30
0.0
 40
1.2295
  0
CIRCLE
  5
17F
330
21
100
AcDbEntity
  8
0
  6
Continuous
 62
     7
100
AcDbCircle
 10
-22.40000534057617
 20
7.5
 30
0.0
 40
1.2295
  0
CIRCLE
  5
180
330
21
100
AcDbEntity
  8
0
  6
Continuous
 62
     7
100
AcDbCircle
 10
-22.40000534057617
 20
-7.5
 30
0.0
 40
1.2295
  0
CIRCLE
  5
181
330
21
100
AcDbEntity
  8
0
  6
Continuous
 62
     7
100
AcDbCircle
 10
17.59999847412109
 20
-7.5
 30
0.0
 40
1.2295
  0
LINE
  5
182
330
21
100
AcDbEntity
  8
0
  6
Continuous
 62
     2
100
AcDbLine
 10
38.0
 20
9.9585
 30
0.0
 11
48.0
 21
9.9585
 31
0.0
  0
LINE
  5
183
330
21
100
AcDbEntity
  8
0
  6
Continuous
 62
     2
100
AcDbLine
 10
38.0
 20
5.041499999999999
 30
0.0
 11
48.0
 21
5.041499999999999
 31
0.0
  0
LINE
  5
184
330
21
100
AcDbEntity
  8
0
  6
Continuous
 62
     2
100
AcDbLine
 10
20.0
 20
20.0
 30
0.0
 11
20.0
 21
23.0
 31
0.0
  0
LINE
  5
185
330
21
100
AcDbEntity
  8
0
  6
Continuous
 62
     2
100
AcDbLine
 10
20.0
 20
-22.0
 30
0.0
 11
20.0
 21
-19.0
 31
0.0
  0
LINE
  5
186
330
21
100
AcDbEntity
  8
0
  6
Continuous
 62
     2
100
AcDbLine
 10
23.59999847412109
 20
-11.5
 30
0.0
 11
23.59999847412109
 21
-8.5
 31
0.0
  0
LINE
  5
187
330
21
100
AcDbEntity
  8
0
  6
Continuous
 62
     2
100
AcDbLine
 10
11.59999847412109
 20
-11.5
 30
0.0
 11
11.59999847412109
 21
-8.5
 31
0.0
  0
LINE
  5
188
330
21
100
AcDbEntity
  8
0
  6
Continuous
 62
     2
100
AcDbLine
 10
-16.40000152587891
 20
-11.5
 30
0.0
 11
-16.40000152587891
 21
-8.5
 31
0.0
  0
LINE
  5
189
330
21
100
AcDbEntity
  8
0
  6
Continuous
 62
     2
100
AcDbLine
 10
-28.40000247955323
 20
-11.5
 30
0.0
 11
-28.40000247955323
 21
-8.5
 31
0.0
  0
LINE
  5
18A
330
21
100
AcDbEntity
  8
0
  6
Continuous
 62
     2
100
AcDbLine
 10
23.59999847412109
 20
11.5
 30
0.0
 11
23.59999847412109
 21
8.5
 31
0.0
  0
LINE
  5
18B
330
21
100
AcDbEntity
  8
0
  6
Continuous
 62
     2
100
AcDbLine
 10
11.59999847412109
 20
11.5
 30
0.0
 11
11.59999847412109
 21
8.5
 31
0.0
  0
LINE
  5
18C
330
21
100
AcDbEntity
  8
0
  6
Continuous
 62
     2
100
AcDbLine
 10
-16.40000152587891
 20
11.5
 30
0.0
 11
-16.40000152587891
 21
8.5
 31
0.0
  0
LINE
  5
18D
330
21
100
AcDbEntity
  8
0
  6
Continuous
 62
     2
100
AcDbLine
 10
-28.40000247955323
 20
11.5
 30
0.0
 11
-28.40000247955323
 21
8.5
 31
0.0
  0
LINE
  5
18E
330
21
100
AcDbEntity
  8
0
  6
Continuous
 62
     2
100
AcDbLine
 10
-35.49999856948853
 20
7.5
 30
0.0
 11
-31.49999856948853
 21
7.5
 31
0.0
  0
LINE
  5
18F
330
21
100
AcDbEntity
  8
0
  6
Continuous
 62
     2
100
AcDbLine
 10
-35.49999856948853
 20
-8.5
 30
0.0
 11
-31.49999856948853
 21
-8.5
 31
0.0
  0
LINE
  5
190
330
21
100
AcDbEntity
  8
0
  6
Continuous
 62
     2
100
AcDbLine
 10
-22.40000534057617
 20
-2.5
 30
0.0
 11
-22.40000534057617
 21
2.5
 31
0.0
  0
LINE
  5
191
330
21
100
AcDbEntity
  8
0
  6
Continuous
 62
     2
100
AcDbLine
 10
17.59999847412109
 20
-2.5
 30
0.0
 11
17.59999847412109
 21
2.5
 31
0.0
  0
CIRCLE
  5
192
330
21
100
AcDbEntity
  8
0
  6
Continuous
 62
     7
100
AcDbCircle
 10
-22.40000534057617
 20
0.0
 30
0.0
 40
1.5
  0
CIRCLE
  5
193
330
21
100
AcDbEntity
  8
0
  6
Continuous
 62
     7
100
AcDbCircle
 10
17.59999847412109
 20
0.0
 30
0.0
 40
1.5
  0
LINE
  5
194
330
21
100
AcDbEntity
  8
0
  6
CENTER
 62
     2
100
AcDbLine
 10
0.0
 20
24.16644287109375
 30
0.0
 11
0.0
 21
-23.66268157958984
 31
0.0
  0
ENDBLK
  5
195
330
21
100
AcDbEntity
  8
0
100
AcDbBlockEnd
  0
BLOCK
  5
196
330
22
100
AcDbEntity
  8
0
100
AcDbBlockBegin
  2
AFDPGH-12-JA-5
 70
     0
 10
0.0
 20
0.0
 30
0.0
  3
AFDPGH-12-JA-5
  1

  0
LINE
  5
197
330
22
100
AcDbEntity
  8
0
  6
Continuous
 62
     2
100
AcDbLine
 10
-17.0
 20
-17.5
 30
0.0
 11
-23.0
 21
-17.5
 31
0.0
  0
LINE
  5
198
330
22
100
AcDbEntity
  8
0
  6
Continuous
 62
     2
100
AcDbLine
 10
-20.0
 20
-22.5
 30
0.0
 11
-20.0
 21
-14.5
 31
0.0
  0
CIRCLE
  5
199
330
22
100
AcDbEntity
  8
0
  6
Continuous
 62
     2
100
AcDbCircle
 10
-20.0
 20
-17.5
 30
0.0
 40
2.0
  0
CIRCLE
  5
19A
330
22
100
AcDbEntity
  8
0
  6
Continuous
 62
     7
100
AcDbCircle
 10
-20.0
 20
-17.5
 30
0.0
 40
1.620999999999999
  0
LINE
  5
19B
330
22
100
AcDbEntity
  8
0
  6
Continuous
 62
     2
100
AcDbLine
 10
17.0
 20
-17.5
 30
0.0
 11
23.0
 21
-17.5
 31
0.0
  0
LINE
  5
19C
330
22
100
AcDbEntity
  8
0
  6
Continuous
 62
     2
100
AcDbLine
 10
20.0
 20
-22.5
 30
0.0
 11
20.0
 21
-14.5
 31
0.0
  0
CIRCLE
  5
19D
330
22
100
AcDbEntity
  8
0
  6
Continuous
 62
     2
100
AcDbCircle
 10
20.0
 20
-17.5
 30
0.0
 40
2.0
  0
CIRCLE
  5
19E
330
22
100
AcDbEntity
  8
0
  6
Continuous
 62
     7
100
AcDbCircle
 10
20.0
 20
-17.5
 30
0.0
 40
1.620999999999999
  0
LINE
  5
19F
330
22
100
AcDbEntity
  8
0
  6
Continuous
 62
     2
100
AcDbLine
 10
-17.0
 20
17.5
 30
0.0
 11
-23.0
 21
17.5
 31
0.0
  0
LINE
  5
1A0
330
22
100
AcDbEntity
  8
0
  6
Continuous
 62
     2
100
AcDbLine
 10
-20.0
 20
22.5
 30
0.0
 11
-20.0
 21
14.5
 31
0.0
  0
CIRCLE
  5
1A1
330
22
100
AcDbEntity
  8
0
  6
Continuous
 62
     2
100
AcDbCircle
 10
-20.0
 20
17.5
 30
0.0
 40
2.0
  0
CIRCLE
  5
1A2
330
22
100
AcDbEntity
  8
0
  6
Continuous
 62
     7
100
AcDbCircle
 10
-20.0
 20
17.5
 30
0.0
 40
1.620999999999999
  0
LINE
  5
1A3
330
22
100
AcDbEntity
  8
0
  6
Continuous
 62
     2
100
AcDbLine
 10
17.0
 20
17.5
 30
0.0
 11
23.0
 21
17.5
 31
0.0
  0
LINE
  5
1A4
330
22
100
AcDbEntity
  8
0
  6
Continuous
 62
     2
100
AcDbLine
 10
20.0
 20
22.5
 30
0.0
 11
20.0
 21
14.5
 31
0.0
  0
LINE
  5
1A5
330
22
100
AcDbEntity
  8
0
  6
Continuous
 62
     2
100
AcDbLine
 10
25.0
 20
-2.548385620117187
 30
0.0
 11
25.0
 21
2.441604614257812
 31
0.0
  0
LINE
  5
1A6
330
22
100
AcDbEntity
  8
0
  6
Continuous
 62
     2
100
AcDbLine
 10
-26.00000762939453
 20
-1.913952941343161
 30
0.0
 11
-26.00000762939453
 21
2.082622456847548
 31
0.0
  0
LINE
  5
1A7
330
22
100
AcDbEntity
  8
0
  6
Continuous
 62
     2
100
AcDbLine
 10
-23.99999237060547
 20
-1.913952941343161
 30
0.0
 11
-23.99999237060547
 21
2.082622456847548
 31
0.0
  0
ARC
  5
1A8
330
22
100
AcDbEntity
  8
0
  6
Continuous
 62
     7
100
AcDbCircle
 10
35.5999984741211
 20
6.0
 30
0.0
 40
1.0
100
AcDbArc
 50
269.999963344576
 51
359.9999453584866
  0
ARC
  5
1A9
330
22
100
AcDbEntity
  8
0
  6
Continuous
 62
     7
100
AcDbCircle
 10
35.5999984741211
 20
11.0
 30
0.0
 40
1.0
100
AcDbArc
 50
359.9999453584866
 51
89.99992737239729
  0
CIRCLE
  5
1AA
330
22
100
AcDbEntity
  8
0
  6
Continuous
 62
     7
100
AcDbCircle
 10
25.0
 20
0.0
 30
0.0
 40
1.5
  0
ARC
  5
1AB
330
22
100
AcDbEntity
  8
0
  6
Continuous
 62
     7
100
AcDbCircle
 10
-26.00000762939453
 20
0.0
 30
0.0
 40
1.5
100
AcDbArc
 50
90.00000933466735
 51
270.0000006832453
  0
ARC
  5
1AC
330
22
100
AcDbEntity
  8
0
  6
Continuous
 62
     7
100
AcDbCircle
 10
-23.99999904632569
 20
0.0
 30
0.0
 40
1.5
100
AcDbArc
 50
269.9999974955218
 51
90.00000250447817
  0
CIRCLE
  5
1AD
330
22
100
AcDbEntity
  8
0
  6
Continuous
 62
     2
100
AcDbCircle
 10
20.0
 20
17.5
 30
0.0
 40
2.0
  0
ARC
  5
1AE
330
22
100
AcDbEntity
  8
0
  6
Continuous
 62
     7
100
AcDbCircle
 10
28.75
 20
-7.500003814697265
 30
0.0
 40
9.25
100
AcDbArc
 50
341.0753011685114
 51
18.92459637865108
  0
ARC
  5
1AF
330
22
100
AcDbEntity
  8
0
  6
Continuous
 62
     7
100
AcDbCircle
 10
35.859375
 20
-3.125
 30
0.0
 40
2.140625
100
AcDbArc
 50
320.0337320528444
 51
39.96621304379998
  0
ARC
  5
1B0
330
22
100
AcDbEntity
  8
0
  6
Continuous
 62
     7
100
AcDbCircle
 10
35.859375
 20
-11.87500381469726
 30
0.0
 40
2.140625
100
AcDbArc
 50
320.0337869562
 51
39.96615866412886
  0
LINE
  5
1B1
330
22
100
AcDbEntity
  8
0
  6
Continuous
 62
     7
100
AcDbLine
 10
36.59999847412109
 20
6.0
 30
0.0
 11
36.59999847412109
 21
11.0
 31
0.0
  0
LINE
  5
1B2
330
22
100
AcDbEntity
  8
0
  6
Continuous
 62
     7
100
AcDbLine
 10
33.0
 20
5.0
 30
0.0
 11
35.5999984741211
 21
5.0
 31
0.0
  0
LINE
  5
1B3
330
22
100
AcDbEntity
  8
0
  6
Continuous
 62
     7
100
AcDbLine
 10
33.0
 20
12.0
 30
0.0
 11
35.5999984741211
 21
12.0
 31
0.0
  0
LINE
  5
1B4
330
22
100
AcDbEntity
  8
0
  6
CENTER
 62
     2
100
AcDbLine
 10
-36.97709589054934
 20
0.0
 30
0.0
 11
36.97709207585207
 21
0.0
 31
0.0
  0
LINE
  5
1B5
330
22
100
AcDbEntity
  8
0
  6
Continuous
 62
     7
100
AcDbLine
 10
-33.0
 20
20.5
 30
0.0
 11
-33.0
 21
-21.50000381469727
 31
0.0
  0
LINE
  5
1B6
330
22
100
AcDbEntity
  8
0
  6
Continuous
 62
     7
100
AcDbLine
 10
-33.0
 20
20.5
 30
0.0
 11
33.0
 21
20.5
 31
0.0
  0
LINE
  5
1B7
330
22
100
AcDbEntity
  8
0
  6
Continuous
 62
     7
100
AcDbLine
 10
33.0
 20
20.5
 30
0.0
 11
33.0
 21
-21.50000381469727
 31
0.0
  0
LINE
  5
1B8
330
22
100
AcDbEntity
  8
0
  6
Continuous
 62
     7
100
AcDbLine
 10
-33.0
 20
-21.50000381469727
 30
0.0
 11
33.0
 21
-21.50000381469727
 31
0.0
  0
LINE
  5
1B9
330
22
100
AcDbEntity
  8
0
  6
Continuous
 62
     7
100
AcDbLine
 10
-26.00000762939453
 20
1.5
 30
0.0
 11
-23.99999904632569
 21
1.5
 31
0.0
  0
LINE
  5
1BA
330
22
100
AcDbEntity
  8
0
  6
Continuous
 62
     7
100
AcDbLine
 10
-26.00000762939453
 20
-1.5
 30
0.0
 11
-23.99999904632569
 21
-1.5
 31
0.0
  0
LINE
  5
1BB
330
22
100
AcDbEntity
  8
0
  6
Continuous
 62
     2
100
AcDbLine
 10
-25.0
 20
2.441604614257812
 30
0.0
 11
-25.0
 21
-2.548385620117187
 31
0.0
  0
LINE
  5
1BC
330
22
100
AcDbEntity
  8
0
  6
Continuous
 62
     2
100
AcDbLine
 10
30.89651489257813
 20
8.5
 30
0.0
 11
38.85311126708984
 21
8.5
 31
0.0
  0
LINE
  5
1BD
330
22
100
AcDbEntity
  8
0
  6
Continuous
 62
     7
100
AcDbLine
 10
47.5
 20
-10.50000381469726
 30
0.0
 11
48.0
 21
-10.00000381469726
 31
0.0
  0
LINE
  5
1BE
330
22
100
AcDbEntity
  8
0
  6
Continuous
 62
     7
100
AcDbLine
 10
47.5
 20
-4.500003814697265
 30
0.0
 11
48.0
 21
-5.000003814697263
 31
0.0
  0
LINE
  5
1BF
330
22
100
AcDbEntity
  8
0
  6
Continuous
 62
     2
100
AcDbLine
 10
30.97537994384766
 20
-7.500003814697265
 30
0.0
 11
49.73714447021485
 21
-7.500003814697265
 31
0.0
  0
LINE
  5
1C0
330
22
100
AcDbEntity
  8
0
  6
Continuous
 62
     7
100
AcDbLine
 10
34.0
 20
-14.50000381469726
 30
0.0
 11
34.0
 21
-0.5
 31
0.0
  0
LINE
  5
1C1
330
22
100
AcDbEntity
  8
0
  6
Continuous
 62
     7
100
AcDbLine
 10
33.0
 20
-0.5
 30
0.0
 11
34.0
 21
-0.5
 31
0.0
  0
LINE
  5
1C2
330
22
100
AcDbEntity
  8
0
  6
Continuous
 62
     7
100
AcDbLine
 10
33.0
 20
-14.50000381469726
 30
0.0
 11
34.0
 21
-14.50000381469726
 31
0.0
  0
LINE
  5
1C3
330
22
100
AcDbEntity
  8
0
  6
Continuous
 62
     7
100
AcDbLine
 10
38.0
 20
-11.87500381469726
 30
0.0
 11
38.0
 21
-3.125
 31
0.0
  0
LINE
  5
1C4
330
22
100
AcDbEntity
  8
0
  6
Continuous
 62
     7
100
AcDbLine
 10
34.0
 20
-1.75
 30
0.0
 11
37.5
 21
-1.75
 31
0.0
  0
LINE
  5
1C5
330
22
100
AcDbEntity
  8
0
  6
Continuous
 62
     7
100
AcDbLine
 10
34.0
 20
-13.25000381469726
 30
0.0
 11
37.5
 21
-13.25000381469726
 31
0.0
  0
LINE
  5
1C6
330
22
100
AcDbEntity
  8
0
  6
Continuous
 62
     7
100
AcDbLine
 10
34.0
 20
-10.50000381469726
 30
0.0
 11
37.5
 21
-10.50000381469726
 31
0.0
  0
LINE
  5
1C7
330
22
100
AcDbEntity
  8
0
  6
Continuous
 62
     7
100
AcDbLine
 10
34.0
 20
-4.500003814697265
 30
0.0
 11
37.5
 21
-4.500003814697265
 31
0.0
  0
LINE
  5
1C8
330
22
100
AcDbEntity
  8
0
  6
Continuous
 62
     7
100
AcDbLine
 10
48.0
 20
-10.00000381469726
 30
0.0
 11
48.0
 21
-5.000003814697263
 31
0.0
  0
LINE
  5
1C9
330
22
100
AcDbEntity
  8
0
  6
Continuous
 62
     7
100
AcDbLine
 10
47.5
 20
-10.50000381469726
 30
0.0
 11
47.5
 21
-4.500003814697265
 31
0.0
  0
LINE
  5
1CA
330
22
100
AcDbEntity
  8
0
  6
Continuous
 62
     7
100
AcDbLine
 10
38.0
 20
-10.50000381469726
 30
0.0
 11
47.5
 21
-10.50000381469726
 31
0.0
  0
LINE
  5
1CB
330
22
100
AcDbEntity
  8
0
  6
Continuous
 62
     7
100
AcDbLine
 10
38.0
 20
-4.500003814697265
 30
0.0
 11
47.5
 21
-4.500003814697265
 31
0.0
  0
LINE
  5
1CC
330
22
100
AcDbEntity
  8
0
  6
Continuous
 62
     7
100
AcDbLine
 10
-33.80000877380371
 20
-9.999999998511412
 30
0.0
 11
-33.80000877380371
 21
10.00000000148858
 31
0.0
  0
LINE
  5
1CD
330
22
100
AcDbEntity
  8
0
  6
Continuous
 62
     7
100
AcDbLine
 10
-33.80000877380371
 20
10.0
 30
0.0
 11
-33.0
 21
10.0
 31
0.0
  0
LINE
  5
1CE
330
22
100
AcDbEntity
  8
0
  6
Continuous
 62
     7
100
AcDbLine
 10
-33.80000877380371
 20
-10.0
 30
0.0
 11
-33.0
 21
-10.0
 31
0.0
  0
CIRCLE
  5
1CF
330
22
100
AcDbEntity
  8
0
  6
Continuous
 62
     7
100
AcDbCircle
 10
20.0
 20
17.5
 30
0.0
 40
1.620999999999999
  0
LINE
  5
1D0
330
22
100
AcDbEntity
  8
0
  6
Continuous
 62
     2
100
AcDbLine
 10
37.99999237060547
 20
-9.958503814697266
 30
0.0
 11
48.0
 21
-9.958503814697266
 31
0.0
  0
LINE
  5
1D1
330
22
100
AcDbEntity
  8
0
  6
Continuous
 62
     2
100
AcDbLine
 10
37.99999237060547
 20
-5.041503814697264
 30
0.0
 11
48.0
 21
-5.041503814697264
 31
0.0
  0
LINE
  5
1D2
330
22
100
AcDbEntity
  8
0
  6
Continuous
 62
     2
100
AcDbLine
 10
-35.5
 20
8.5
 30
0.0
 11
-31.5
 21
8.5
 31
0.0
  0
LINE
  5
1D3
330
22
100
AcDbEntity
  8
0
  6
Continuous
 62
     2
100
AcDbLine
 10
-35.5
 20
-7.5
 30
0.0
 11
-31.5
 21
-7.5
 31
0.0
  0
LINE
  5
1D4
330
22
100
AcDbEntity
  8
0
  6
CENTER
 62
     2
100
AcDbLine
 10
0.0
 20
24.70000076293945
 30
0.0
 11
0.0
 21
-24.70000076293945
 31
0.0
  0
ENDBLK
  5
1D5
330
22
100
AcDbEntity
  8
0
100
AcDbBlockEnd
  0
BLOCK
  5
1D6
330
23
100
AcDbEntity
  8
0
100
AcDbBlockBegin
  2
AFDPGH-12-JA-6
 70
     0
 10
0.0
 20
0.0
 30
0.0
  3
AFDPGH-12-JA-6
  1

  0
LINE
  5
1D7
330
23
100
AcDbEntity
  8
0
  6
Continuous
 62
   200
100
AcDbLine
 10
17.75230947294964
 20
-1.199999531828083
 30
0.0
 11
19.25346420597205
 21
-3.799999532629855
 31
0.0
  0
LINE
  5
1D8
330
23
100
AcDbEntity
  8
0
  6
Continuous
 62
   200
100
AcDbLine
 10
0.9500000050888955
 20
0.6001359967678326
 30
0.0
 11
0.95000000476837
 21
-0.0000000005073986
 31
0.0
  0
LINE
  5
1D9
330
23
100
AcDbEntity
  8
0
  6
Continuous
 62
   200
100
AcDbLine
 10
3.050000005088918
 20
0.6001359956462125
 30
0.0
 11
3.050000004768392
 21
-0.0000000016290187
 31
0.0
  0
LINE
  5
1DA
330
23
100
AcDbEntity
  8
0
  6
Continuous
 62
     4
100
AcDbLine
 10
0.7514285764106603
 20
0.4001359968738711
 30
0.0
 11
3.25142857641066
 21
0.4001359955386193
 31
0.0
  0
LINE
  5
1DB
330
23
100
AcDbEntity
  8
0
  6
Continuous
 62
     4
100
AcDbLine
 10
3.05142857651748
 20
0.6001359956454593
 30
0.0
 11
3.25142857641066
 21
0.4001359955386193
 31
0.0
  0
LINE
  5
1DC
330
23
100
AcDbEntity
  8
0
  6
Continuous
 62
     4
100
AcDbLine
 10
0.7514285764106603
 20
0.4001359968738711
 30
0.0
 11
0.9514285765174721
 21
0.6001359967670794
 31
0.0
  0
LINE
  5
1DD
330
23
100
AcDbEntity
  8
0
  6
Continuous
 62
     4
100
AcDbLine
 10
3.25142857641066
 20
0.4001359955386193
 30
0.0
 11
3.251428576196943
 21
-0.0000000017365949
 31
0.0
  0
LINE
  5
1DE
330
23
100
AcDbEntity
  8
0
  6
Continuous
 62
     4
100
AcDbLine
 10
0.7514285761969433
 20
-0.000000000401343
 30
0.0
 11
0.7514285764106603
 21
0.4001359968738711
 31
0.0
  0
LINE
  5
1DF
330
23
100
AcDbEntity
  8
0
  6
Continuous
 62
   200
100
AcDbLine
 10
0.9500000033797704
 20
-2.599864003232184
 30
0.0
 11
0.9500000025793724
 21
-4.098435431803608
 31
0.0
  0
LINE
  5
1E0
330
23
100
AcDbEntity
  8
0
  6
Continuous
 62
   200
100
AcDbLine
 10
3.050000003379792
 20
-2.599864004353804
 30
0.0
 11
3.05000000257786
 21
-4.101292575782367
 31
0.0
  0
LINE
  5
1E1
330
23
100
AcDbEntity
  8
0
  6
Continuous
 62
     4
100
AcDbLine
 10
0.9514285765174721
 20
0.6001359967670794
 30
0.0
 11
3.05142857651748
 21
0.6001359956454593
 31
0.0
  0
LINE
  5
1E2
330
23
100
AcDbEntity
  8
0
  6
Continuous
 62
     4
100
AcDbLine
 10
0.0000000038070453
 20
-1.799864002724774
 30
0.0
 11
0.000000004768367
 21
0.0
 31
0.0
  0
LINE
  5
1E3
330
23
100
AcDbEntity
  8
0
  6
Continuous
 62
   200
100
AcDbLine
 10
2.000000005455476
 20
1.286482307371969
 30
0.0
 11
2.000000002062023
 21
-5.067036250422304
 31
0.0
  0
LINE
  5
1E4
330
23
100
AcDbEntity
  8
0
  6
Continuous
 62
     4
100
AcDbLine
 10
4.000000003806988
 20
-1.800000004861203
 30
0.0
 11
4.000000003379711
 21
-2.600000004861215
 31
0.0
  0
LINE
  5
1E5
330
23
100
AcDbEntity
  8
0
  6
Continuous
 62
     4
100
AcDbLine
 10
0.0000000038070453
 20
-1.799864002724774
 30
0.0
 11
0.0000000033796965
 21
-2.600000002724784
 31
0.0
  0
LINE
  5
1E6
330
23
100
AcDbEntity
  8
0
  6
Continuous
 62
     4
100
AcDbLine
 10
0.7514285748083438
 20
-2.599864003126128
 30
0.0
 11
0.7514285741139731
 21
-3.899864003126126
 31
0.0
  0
LINE
  5
1E7
330
23
100
AcDbEntity
  8
0
  6
Continuous
 62
   200
100
AcDbLine
 10
0.7514285741139731
 20
-3.899864003126126
 30
0.0
 11
3.251428574113973
 21
-3.899864004461377
 31
0.0
  0
LINE
  5
1E8
330
23
100
AcDbEntity
  8
0
  6
Continuous
 62
     4
100
AcDbLine
 10
1.251428573846936
 20
-4.399864003393176
 30
0.0
 11
0.7514285741139731
 21
-3.899864003126126
 31
0.0
  0
LINE
  5
1E9
330
23
100
AcDbEntity
  8
0
  6
Continuous
 62
     4
100
AcDbLine
 10
1.251428573846936
 20
-4.399864003393176
 30
0.0
 11
2.751428573846936
 21
-4.399864004194328
 31
0.0
  0
LINE
  5
1EA
330
23
100
AcDbEntity
  8
0
  6
Continuous
 62
     4
100
AcDbLine
 10
3.251428574113973
 20
-3.899864004461377
 30
0.0
 11
2.751428573846936
 21
-4.399864004194328
 31
0.0
  0
LINE
  5
1EB
330
23
100
AcDbEntity
  8
0
  6
Continuous
 62
     4
100
AcDbLine
 10
3.251428574808343
 20
-2.59986400446138
 30
0.0
 11
3.251428574113973
 21
-3.899864004461377
 31
0.0
  0
LINE
  5
1EC
330
23
100
AcDbEntity
  8
0
  6
Continuous
 62
     4
100
AcDbLine
 10
4.300000003806999
 20
-1.800000005021431
 30
0.0
 11
4.300000002311492
 21
-4.599999524643109
 31
0.0
  0
LINE
  5
1ED
330
23
100
AcDbEntity
  8
0
  6
Continuous
 62
     4
100
AcDbLine
 10
15.50000000231148
 20
-4.599999530625083
 30
0.0
 11
15.50000000476838
 21
-0.0000000082786329
 31
0.0
  0
LINE
  5
1EE
330
23
100
AcDbEntity
  8
0
  6
Continuous
 62
     4
100
AcDbLine
 10
4.300000000949069
 20
-4.599999524643109
 30
0.0
 11
15.49999999754311
 21
-4.599999530625083
 31
0.0
  0
LINE
  5
1EF
330
23
100
AcDbEntity
  8
0
  6
Continuous
 62
     4
100
AcDbLine
 10
-0.0000000009613927
 20
-1.800000002724772
 30
0.0
 11
4.300000002444576
 21
-1.800000005021431
 31
0.0
  0
LINE
  5
1F0
330
23
100
AcDbEntity
  8
0
  6
Continuous
 62
     4
100
AcDbLine
 10
-0.0000000013886705
 20
-2.600000002724784
 30
0.0
 11
3.999999998611344
 21
-2.600000004861215
 31
0.0
  0
LINE
  5
1F1
330
23
100
AcDbEntity
  8
0
  6
Continuous
 62
     4
100
AcDbLine
 10
-0.0000000005875194
 20
-1.100000002724783
 30
0.0
 11
15.50000000418086
 21
-1.100000011003416
 31
0.0
  0
LINE
  5
1F2
330
23
100
AcDbEntity
  8
0
  6
Continuous
 62
     4
100
AcDbLine
 10
-0.0000000002937526
 20
-0.5499999965940106
 30
0.0
 11
15.50000000447463
 21
-0.5500000048726435
 31
0.0
  0
LINE
  5
1F3
330
23
100
AcDbEntity
  8
0
  6
Continuous
 62
     4
100
AcDbLine
 10
0.0
 20
0.0
 30
0.0
 11
15.50000000476838
 21
-0.0000000082786329
 31
0.0
  0
LINE
  5
1F4
330
23
100
AcDbEntity
  8
0
  6
Continuous
 62
     4
100
AcDbLine
 10
15.50000000412745
 20
-1.199999530625077
 30
0.0
 11
17.7523094729496
 21
-1.199999531828083
 31
0.0
  0
LINE
  5
1F5
330
23
100
AcDbEntity
  8
0
  6
Continuous
 62
     4
100
AcDbLine
 10
15.50000000273877
 20
-3.799999530625087
 30
0.0
 11
19.25346420597204
 21
-3.799999532629855
 31
0.0
  0
ENDBLK
  5
1F6
330
23
100
AcDbEntity
  8
0
100
AcDbBlockEnd
  0
BLOCK
  5
1F7
330
24
100
AcDbEntity
  8
0
100
AcDbBlockBegin
  2
AFDPGH-12-JA-7
 70
     0
 10
0.0
 20
0.0
 30
0.0
  3
AFDPGH-12-JA-7
  1

  0
LINE
  5
1F8
330
24
100
AcDbEntity
  8
0
  6
Continuous
 62
   200
100
AcDbLine
 10
1.049999999945697
 20
-0.0000106803918243
 30
0.0
 11
1.05000610441013
 21
0.6001253195771455
 31
0.0
  0
LINE
  5
1F9
330
24
100
AcDbEntity
  8
0
  6
Continuous
 62
   200
100
AcDbLine
 10
-1.049999999945669
 20
0.0000106803918527
 30
0.0
 11
-1.049993895481264
 21
0.6001466803608082
 31
0.0
  0
LINE
  5
1FA
330
24
100
AcDbEntity
  8
0
  6
Continuous
 62
   200
100
AcDbLine
 10
1.04995832600423
 20
-4.097017537322727
 30
0.0
 11
1.049973553261196
 21
-2.600010680257327
 31
0.0
  0
LINE
  5
1FB
330
24
100
AcDbEntity
  8
0
  6
Continuous
 62
   200
100
AcDbLine
 10
-1.050041673887136
 20
-4.096996176539065
 30
0.0
 11
-1.050026446630198
 21
-2.599989319473664
 31
0.0
  0
LINE
  5
1FC
330
24
100
AcDbEntity
  8
0
  6
Continuous
 62
     4
100
AcDbLine
 10
-1.249995929831271
 20
0.4001487147314721
 30
0.0
 11
-1.049993895481264
 21
0.6001466803608082
 31
0.0
  0
LINE
  5
1FD
330
24
100
AcDbEntity
  8
0
  6
Continuous
 62
     4
100
AcDbLine
 10
-1.24999999993534
 20
0.0000127147521738
 30
0.0
 11
-1.249995929831271
 21
0.4001487147314721
 31
0.0
  0
LINE
  5
1FE
330
24
100
AcDbEntity
  8
0
  6
Continuous
 62
     4
100
AcDbLine
 10
-2.050011188875884
 20
-1.099979147749522
 30
0.0
 11
-2.0500259220739
 21
-2.548414576246017
 31
0.0
  0
LINE
  5
1FF
330
24
100
AcDbEntity
  8
0
  6
Continuous
 62
     4
100
AcDbLine
 10
-2.050011188875884
 20
-1.099979147749522
 30
0.0
 11
-1.501434151310689
 21
-0.5485561563093029
 31
0.0
  0
LINE
  5
200
330
24
100
AcDbEntity
  8
0
  6
Continuous
 62
     4
100
AcDbLine
 10
-1.25002644661987
 20
-2.599987285113314
 30
0.0
 11
-1.250039639516472
 21
-3.896994142189072
 31
0.0
  0
LINE
  5
201
330
24
100
AcDbEntity
  8
0
  6
Continuous
 62
     4
100
AcDbLine
 10
-0.7471876116484566
 20
-4.399856399983348
 30
0.0
 11
-1.250039639516472
 21
-3.896994142189072
 31
0.0
  0
LINE
  5
202
330
24
100
AcDbEntity
  8
0
  6
Continuous
 62
     4
100
AcDbLine
 10
-0.7471876116484566
 20
-4.399856399983348
 30
0.0
 11
0.7470981025599315
 21
-4.399871599561393
 31
0.0
  0
LINE
  5
203
330
24
100
AcDbEntity
  8
0
  6
Continuous
 62
   200
100
AcDbLine
 10
-0.0000515408881085
 20
-5.067036246367167
 30
0.0
 11
0.0000130858430225
 21
1.286482311098424
 31
0.0
  0
LINE
  5
204
330
24
100
AcDbEntity
  8
0
  6
Continuous
 62
     4
100
AcDbLine
 10
-1.500005565275387
 20
-0.5471201589357549
 30
0.0
 11
-1.49999999992238
 21
0.0000152604274035
 31
0.0
  0
LINE
  5
205
330
24
100
AcDbEntity
  8
0
  6
Continuous
 62
     4
100
AcDbLine
 10
1.05000610441013
 20
0.6001253195771455
 30
0.0
 11
1.250004070039381
 21
0.4001232852271245
 31
0.0
  0
LINE
  5
206
330
24
100
AcDbEntity
  8
0
  6
Continuous
 62
     4
100
AcDbLine
 10
1.250004070039381
 20
0.4001232852271245
 30
0.0
 11
1.24999999993534
 21
-0.0000127147521454
 31
0.0
  0
LINE
  5
207
330
24
100
AcDbEntity
  8
0
  6
Continuous
 62
     4
100
AcDbLine
 10
2.049988810912054
 20
-1.100020852136651
 30
0.0
 11
2.049974077714068
 21
-2.548456280633146
 31
0.0
  0
LINE
  5
208
330
24
100
AcDbEntity
  8
0
  6
Continuous
 62
     4
100
AcDbLine
 10
1.249973554634209
 20
-2.599876714617678
 30
0.0
 11
1.249960360354208
 21
-3.897019571693433
 31
0.0
  0
LINE
  5
209
330
24
100
AcDbEntity
  8
0
  6
Continuous
 62
     4
100
AcDbLine
 10
1.499994405431408
 20
-0.5500152576741471
 30
0.0
 11
1.499999999922437
 21
-0.000015254977825
 31
0.0
  0
LINE
  5
20A
330
24
100
AcDbEntity
  8
0
  6
Continuous
 62
     4
100
AcDbLine
 10
1.49999439930076
 20
-0.5500152515433144
 30
0.0
 11
2.049988810912054
 21
-1.100020852136651
 31
0.0
  0
LINE
  5
20B
330
24
100
AcDbEntity
  8
0
  6
Continuous
 62
     4
100
AcDbLine
 10
-2.05002644657847
 20
-2.599979147671916
 30
0.0
 11
2.049364276535527
 21
-2.600020845861621
 31
0.0
  0
LINE
  5
20C
330
24
100
AcDbEntity
  8
0
  6
Continuous
 62
     4
100
AcDbLine
 10
-2.050018309137101
 20
-1.799979147713301
 30
0.0
 11
2.049981690650838
 21
-1.800020852100431
 31
0.0
  0
ARC
  5
20D
330
24
100
AcDbEntity
  8
0
  6
Continuous
 62
     4
100
AcDbCircle
 10
-0.0000259380834962
 20
-2.5499989232664
 30
0.0
 40
2.050000596223346
100
AcDbArc
 50
179.9557188390038
 51
359.9994171986903
  0
LINE
  5
20E
330
24
100
AcDbEntity
  8
0
  6
Continuous
 62
     4
100
AcDbLine
 10
1.249960360354208
 20
-3.897019571693433
 30
0.0
 11
0.7470981025599315
 21
-4.399871599561393
 31
0.0
  0
LINE
  5
20F
330
24
100
AcDbEntity
  8
0
  6
Continuous
 62
     4
100
AcDbLine
 10
-1.250039639516472
 20
-3.896994142189072
 30
0.0
 11
1.249960360354208
 21
-3.897019571693433
 31
0.0
  0
LINE
  5
210
330
24
100
AcDbEntity
  8
0
  6
Continuous
 62
     4
100
AcDbLine
 10
-1.501428571350885
 20
0.0000152722337532
 30
0.0
 11
1.499999999922408
 21
-0.0000152577026
 31
0.0
  0
LINE
  5
211
330
24
100
AcDbEntity
  8
0
  6
Continuous
 62
     4
100
AcDbLine
 10
-1.249995929831271
 20
0.4001487147314721
 30
0.0
 11
1.250004070039381
 21
0.4001232852271245
 31
0.0
  0
LINE
  5
212
330
24
100
AcDbEntity
  8
0
  6
Continuous
 62
     4
100
AcDbLine
 10
-1.049993895481264
 20
0.6001466803608082
 30
0.0
 11
1.05000610441013
 21
0.6001253195771455
 31
0.0
  0
ENDBLK
  5
213
330
24
100
AcDbEntity
  8
0
100
AcDbBlockEnd
  0
BLOCK
  5
214
330
25
100
AcDbEntity
  8
0
100
AcDbBlockBegin
  2
AFDPGH-12-JA-8
 70
     0
 10
0.0
 20
0.0
 30
0.0
  3
AFDPGH-12-JA-8
  1

  0
LINE
  5
215
330
25
100
AcDbEntity
  8
0
  6
Continuous
 62
   200
100
AcDbLine
 10
-1.410401753016884
 20
0.0
 30
0.0
 11
21.50288684079608
 21
0.0
 31
0.0
  0
LINE
  5
216
330
25
100
AcDbEntity
  8
0
  6
Continuous
 62
   200
100
AcDbLine
 10
17.75230947359055
 20
1.300000000000011
 30
0.0
 11
19.25346420800164
 21
-1.299999999999997
 31
0.0
  0
LINE
  5
217
330
25
100
AcDbEntity
  8
0
  6
Continuous
 62
     4
100
AcDbLine
 10
15.50000000476838
 20
-1.299999999999997
 30
0.0
 11
19.25346420800163
 21
-1.299999999999997
 31
0.0
  0
LINE
  5
218
330
25
100
AcDbEntity
  8
0
  6
Continuous
 62
     4
100
AcDbLine
 10
15.50000000476838
 20
1.300000000000011
 30
0.0
 11
17.75230947359052
 21
1.300000000000011
 31
0.0
  0
LINE
  5
219
330
25
100
AcDbEntity
  8
0
  6
Continuous
 62
     4
100
AcDbLine
 10
3.900000004768359
 20
-1.5
 30
0.0
 11
3.900000004768359
 21
1.5
 31
0.0
  0
LINE
  5
21A
330
25
100
AcDbEntity
  8
0
  6
Continuous
 62
     4
100
AcDbLine
 10
10.40000000476834
 20
-1.5
 30
0.0
 11
10.40000000476836
 21
1.5
 31
0.0
  0
LINE
  5
21B
330
25
100
AcDbEntity
  8
0
  6
Continuous
 62
     4
100
AcDbLine
 10
8.000000004768381
 20
-0.5999999999999944
 30
0.0
 11
8.000000004768381
 21
0.9000000000000056
 31
0.0
  0
LINE
  5
21C
330
25
100
AcDbEntity
  8
0
  6
Continuous
 62
     4
100
AcDbLine
 10
9.600000004768375
 20
-0.5999999999999944
 30
0.0
 11
9.600000004768375
 21
0.9000000000000056
 31
0.0
  0
LINE
  5
21D
330
25
100
AcDbEntity
  8
0
  6
Continuous
 62
     4
100
AcDbLine
 10
0.0
 20
-2.049999999999996
 30
0.0
 11
0.0
 21
2.050000000000011
 31
0.0
  0
LINE
  5
21E
330
25
100
AcDbEntity
  8
0
  6
Continuous
 62
     4
100
AcDbLine
 10
15.50000000476838
 20
-2.049999999999996
 30
0.0
 11
15.50000000476838
 21
2.050000000000011
 31
0.0
  0
LINE
  5
21F
330
25
100
AcDbEntity
  8
0
  6
Continuous
 62
     4
100
AcDbLine
 10
0.0
 20
1.5
 30
0.0
 11
15.50000000476837
 21
1.5
 31
0.0
  0
LINE
  5
220
330
25
100
AcDbEntity
  8
0
  6
Continuous
 62
     4
100
AcDbLine
 10
0.0
 20
-1.5
 30
0.0
 11
15.50000000476837
 21
-1.5
 31
0.0
  0
CIRCLE
  5
221
330
25
100
AcDbEntity
  8
0
  6
Continuous
 62
     4
100
AcDbCircle
 10
2.000000004768367
 20
0.0
 30
0.0
 40
1.399999999999999
  0
CIRCLE
  5
222
330
25
100
AcDbEntity
  8
0
  6
Continuous
 62
     4
100
AcDbCircle
 10
2.000000004768367
 20
0.0
 30
0.0
 40
1.25
  0
CIRCLE
  5
223
330
25
100
AcDbEntity
  8
0
  6
Continuous
 62
   200
100
AcDbCircle
 10
2.000000004768367
 20
0.0
 30
0.0
 40
1.05
  0
LINE
  5
224
330
25
100
AcDbEntity
  8
0
  6
Continuous
 62
     4
100
AcDbLine
 10
0.9571978986753322
 20
-0.6892486978790089
 30
0.0
 11
2.68924870264739
 21
1.042802106093034
 31
0.0
  0
LINE
  5
225
330
25
100
AcDbEntity
  8
0
  6
Continuous
 62
     4
100
AcDbLine
 10
1.310751318931579
 20
-1.042802072252555
 30
0.0
 11
3.042802112443112
 21
0.6892487212589913
 31
0.0
  0
LINE
  5
226
330
25
100
AcDbEntity
  8
0
  6
Continuous
 62
     4
100
AcDbLine
 10
8.000000004768381
 20
0.9000000000000056
 30
0.0
 11
9.600000004768375
 21
0.9000000000000056
 31
0.0
  0
LINE
  5
227
330
25
100
AcDbEntity
  8
0
  6
Continuous
 62
     4
100
AcDbLine
 10
8.000000004768381
 20
-0.5999999999999944
 30
0.0
 11
9.600000004768375
 21
-0.5999999999999944
 31
0.0
  0
LINE
  5
228
330
25
100
AcDbEntity
  8
0
  6
Continuous
 62
     4
100
AcDbLine
 10
0.0
 20
2.050000000000011
 30
0.0
 11
15.50000000476838
 21
2.050000000000011
 31
0.0
  0
LINE
  5
229
330
25
100
AcDbEntity
  8
0
  6
Continuous
 62
     4
100
AcDbLine
 10
0.0
 20
-2.049999999999996
 30
0.0
 11
15.50000000476838
 21
-2.049999999999996
 31
0.0
  0
LINE
  5
22A
330
25
100
AcDbEntity
  8
0
  6
Continuous
 62
   200
100
AcDbLine
 10
2.000000004768367
 20
2.94285714285715
 30
0.0
 11
2.000000004768367
 21
-3.299984673423466
 31
0.0
  0
ENDBLK
  5
22B
330
25
100
AcDbEntity
  8
0
100
AcDbBlockEnd
  0
BLOCK
  5
22C
330
26
100
AcDbEntity
  8
0
100
AcDbBlockBegin
  2
AFDPGH-12-JA-9
 70
     0
 10
0.0
 20
0.0
 30
0.0
  3
AFDPGH-12-JA-9
  1

  0
LINE
  5
22D
330
26
100
AcDbEntity
  8
0
  6
Continuous
 62
   200
100
AcDbLine
 10
11.19999999999999
 20
8.14451211272798
 30
0.0
 11
13.80000000000001
 21
9.64566684713908
 31
0.0
  0
LINE
  5
22E
330
26
100
AcDbEntity
  8
0
  6
Continuous
 62
     4
100
AcDbLine
 10
10.40000000544955
 20
0.9479762348989313
 30
0.0
 11
12.05095566329532
 21
1.497976229666193
 31
0.0
  0
LINE
  5
22F
330
26
100
AcDbEntity
  8
0
  6
Continuous
 62
     4
100
AcDbLine
 10
12.05095566329532
 20
1.497976229666193
 30
0.0
 11
12.05095566329532
 21
5.897976315961244
 31
0.0
  0
LINE
  5
230
330
26
100
AcDbEntity
  8
0
  6
Continuous
 62
     4
100
AcDbLine
 10
12.94904433670467
 20
4.897976311874074
 30
0.0
 11
12.94904433670467
 21
5.897976311874074
 31
0.0
  0
LINE
  5
231
330
26
100
AcDbEntity
  8
0
  6
Continuous
 62
     4
100
AcDbLine
 10
12.94904433670467
 20
4.897976315961244
 30
0.0
 11
15.0
 21
4.897976315961244
 31
0.0
  0
LINE
  5
232
330
26
100
AcDbEntity
  8
0
  6
Continuous
 62
     4
100
AcDbLine
 10
14.60000000000002
 20
4.897976315961244
 30
0.0
 11
14.60000000000002
 21
5.897976315961244
 31
0.0
  0
LINE
  5
233
330
26
100
AcDbEntity
  8
0
  6
Continuous
 62
     4
100
AcDbLine
 10
10.4
 20
-0.0020236840387469
 30
0.0
 11
10.4
 21
5.897976315961244
 31
0.0
  0
LINE
  5
234
330
26
100
AcDbEntity
  8
0
  6
Continuous
 62
     4
100
AcDbLine
 10
10.4
 20
5.897976315961244
 30
0.0
 11
14.60000000000002
 21
5.897976315961244
 31
0.0
  0
LINE
  5
235
330
26
100
AcDbEntity
  8
0
  6
Continuous
 62
     4
100
AcDbLine
 10
15.0
 20
3.897976315961244
 30
0.0
 11
10.4
 21
3.897976315961244
 31
0.0
  0
LINE
  5
236
330
26
100
AcDbEntity
  8
0
  6
Continuous
 62
   200
100
AcDbLine
 10
0.9499999999999886
 20
0.5979763159612475
 30
0.0
 11
0.9499999999999886
 21
-0.0020236840387469
 31
0.0
  0
LINE
  5
237
330
26
100
AcDbEntity
  8
0
  6
Continuous
 62
   200
100
AcDbLine
 10
3.050000000000011
 20
0.5979763159612475
 30
0.0
 11
3.050000000000011
 21
-0.0020236840387469
 31
0.0
  0
LINE
  5
238
330
26
100
AcDbEntity
  8
0
  6
Continuous
 62
     4
100
AcDbLine
 10
0.751428571428562
 20
0.3979763159612446
 30
0.0
 11
3.251428571428562
 21
0.3979763159612446
 31
0.0
  0
LINE
  5
239
330
26
100
AcDbEntity
  8
0
  6
Continuous
 62
     4
100
AcDbLine
 10
3.051428571428573
 20
0.5979763159612475
 30
0.0
 11
3.251428571428562
 21
0.3979763159612446
 31
0.0
  0
LINE
  5
23A
330
26
100
AcDbEntity
  8
0
  6
Continuous
 62
     4
100
AcDbLine
 10
0.751428571428562
 20
0.3979763159612446
 30
0.0
 11
0.9514285714285792
 21
0.5979763159612475
 31
0.0
  0
LINE
  5
23B
330
26
100
AcDbEntity
  8
0
  6
Continuous
 62
     4
100
AcDbLine
 10
3.251428571428562
 20
0.3979763159612446
 30
0.0
 11
3.251428571428562
 21
-0.0020236840387469
 31
0.0
  0
LINE
  5
23C
330
26
100
AcDbEntity
  8
0
  6
Continuous
 62
     4
100
AcDbLine
 10
0.751428571428562
 20
-0.0020236840387469
 30
0.0
 11
0.751428571428562
 21
0.3979763159612446
 31
0.0
  0
LINE
  5
23D
330
26
100
AcDbEntity
  8
0
  6
Continuous
 62
   200
100
AcDbLine
 10
0.9499999999999886
 20
-2.602023684038755
 30
0.0
 11
0.9499999999999886
 21
-4.100595112610179
 31
0.0
  0
LINE
  5
23E
330
26
100
AcDbEntity
  8
0
  6
Continuous
 62
   200
100
AcDbLine
 10
3.050000000000011
 20
-2.602023684038755
 30
0.0
 11
3.050000000000011
 21
-4.103452255467316
 31
0.0
  0
LINE
  5
23F
330
26
100
AcDbEntity
  8
0
  6
Continuous
 62
     4
100
AcDbLine
 10
0.9514285714285792
 20
0.5979763159612475
 30
0.0
 11
3.051428571428573
 21
0.5979763159612475
 31
0.0
  0
LINE
  5
240
330
26
100
AcDbEntity
  8
0
  6
Continuous
 62
     4
100
AcDbLine
 10
0.0
 20
-1.802023684038758
 30
0.0
 11
0.0
 21
0.0
 31
0.0
  0
LINE
  5
241
330
26
100
AcDbEntity
  8
0
  6
Continuous
 62
   200
100
AcDbLine
 10
2.0
 20
1.284322627126215
 30
0.0
 11
2.0
 21
-5.069195930668072
 31
0.0
  0
LINE
  5
242
330
26
100
AcDbEntity
  8
0
  6
Continuous
 62
     4
100
AcDbLine
 10
4.0
 20
-1.802023684038758
 30
0.0
 11
4.0
 21
-2.602023684038755
 31
0.0
  0
LINE
  5
243
330
26
100
AcDbEntity
  8
0
  6
Continuous
 62
     4
100
AcDbLine
 10
0.0
 20
-1.802023684038758
 30
0.0
 11
0.0
 21
-2.602023684038755
 31
0.0
  0
LINE
  5
244
330
26
100
AcDbEntity
  8
0
  6
Continuous
 62
     4
100
AcDbLine
 10
0.751428571428562
 20
-2.602023684038755
 30
0.0
 11
0.751428571428562
 21
-3.902023684038752
 31
0.0
  0
LINE
  5
245
330
26
100
AcDbEntity
  8
0
  6
Continuous
 62
   200
100
AcDbLine
 10
0.751428571428562
 20
-3.902023684038752
 30
0.0
 11
3.251428571428562
 21
-3.902023684038752
 31
0.0
  0
LINE
  5
246
330
26
100
AcDbEntity
  8
0
  6
Continuous
 62
     4
100
AcDbLine
 10
1.251428571428562
 20
-4.402023684038752
 30
0.0
 11
0.751428571428562
 21
-3.902023684038752
 31
0.0
  0
LINE
  5
247
330
26
100
AcDbEntity
  8
0
  6
Continuous
 62
     4
100
AcDbLine
 10
1.251428571428562
 20
-4.402023684038752
 30
0.0
 11
2.751428571428562
 21
-4.402023684038752
 31
0.0
  0
LINE
  5
248
330
26
100
AcDbEntity
  8
0
  6
Continuous
 62
     4
100
AcDbLine
 10
3.251428571428562
 20
-3.902023684038752
 30
0.0
 11
2.751428571428562
 21
-4.402023684038752
 31
0.0
  0
LINE
  5
249
330
26
100
AcDbEntity
  8
0
  6
Continuous
 62
     4
100
AcDbLine
 10
3.251428571428562
 20
-2.602023684038755
 30
0.0
 11
3.251428571428562
 21
-3.902023684038752
 31
0.0
  0
LINE
  5
24A
330
26
100
AcDbEntity
  8
0
  6
Continuous
 62
     4
100
AcDbLine
 10
4.300000000000011
 20
-1.800000000000011
 30
0.0
 11
4.300000000000011
 21
-4.600000000000008
 31
0.0
  0
LINE
  5
24B
330
26
100
AcDbEntity
  8
0
  6
Continuous
 62
     4
100
AcDbLine
 10
15.0
 20
-4.600000000000008
 30
0.0
 11
15.0
 21
4.897976315961244
 31
0.0
  0
LINE
  5
24C
330
26
100
AcDbEntity
  8
0
  6
Continuous
 62
     4
100
AcDbLine
 10
11.19999999999999
 20
5.897976315961244
 30
0.0
 11
11.19999999999999
 21
8.14451211272798
 31
0.0
  0
LINE
  5
24D
330
26
100
AcDbEntity
  8
0
  6
Continuous
 62
     4
100
AcDbLine
 10
13.80000000000001
 20
5.897976315961244
 30
0.0
 11
13.80000000000001
 21
9.64566684713908
 31
0.0
  0
LINE
  5
24E
330
26
100
AcDbEntity
  8
0
  6
Continuous
 62
     4
100
AcDbLine
 10
4.299999998637616
 20
-4.600000000000008
 30
0.0
 11
14.99999999523163
 21
-4.600000000000008
 31
0.0
  0
LINE
  5
24F
330
26
100
AcDbEntity
  8
0
  6
Continuous
 62
     4
100
AcDbLine
 10
-0.000000004768367
 20
0.0
 30
0.0
 11
14.99999999523163
 21
0.0
 31
0.0
  0
LINE
  5
250
330
26
100
AcDbEntity
  8
0
  6
Continuous
 62
     4
100
AcDbLine
 10
0.0
 20
-1.800000000000011
 30
0.0
 11
4.300000000000011
 21
-1.800000000000011
 31
0.0
  0
LINE
  5
251
330
26
100
AcDbEntity
  8
0
  6
Continuous
 62
     4
100
AcDbLine
 10
-0.000000004768367
 20
-2.600000000000008
 30
0.0
 11
3.999999995231632
 21
-2.600000000000008
 31
0.0
  0
LINE
  5
252
330
26
100
AcDbEntity
  8
0
  6
Continuous
 62
     4
100
AcDbLine
 10
-0.000000004768367
 20
-1.100000008256415
 30
0.0
 11
14.99999999523163
 21
-1.100000008256415
 31
0.0
  0
LINE
  5
253
330
26
100
AcDbEntity
  8
0
  6
Continuous
 62
     4
100
AcDbLine
 10
-0.000000004768367
 20
-0.5500000000000114
 30
0.0
 11
15.0
 21
-0.5500000000000114
 31
0.0
  0
LINE
  5
254
330
26
100
AcDbEntity
  8
0
  6
Continuous
 62
     4
100
AcDbLine
 10
10.39999998841966
 20
0.9479762301305639
 30
0.0
 11
14.99999999523163
 21
0.9479762301305639
 31
0.0
  0
LINE
  5
255
330
26
100
AcDbEntity
  8
0
  6
Continuous
 62
     4
100
AcDbLine
 10
10.40000000544955
 20
1.497976233536533
 30
0.0
 11
15.0
 21
1.497976233536533
 31
0.0
  0
ENDBLK
  5
256
330
26
100
AcDbEntity
  8
0
100
AcDbBlockEnd
  0
BLOCK
  5
257
330
27
100
AcDbEntity
  8
0
100
AcDbBlockBegin
  2
AFDPGH-12-JA-10
 70
     0
 10
0.0
 20
0.0
 30
0.0
  3
AFDPGH-12-JA-10
  1

  0
LINE
  5
258
330
27
100
AcDbEntity
  8
0
  6
Continuous
 62
   200
100
AcDbLine
 10
-0.0000000000000391
 20
-5.546406049129259
 30
0.0
 11
0.0000000000000639
 21
9.669348017065544
 31
0.0
  0
LINE
  5
259
330
27
100
AcDbEntity
  8
0
  6
Continuous
 62
   200
100
AcDbLine
 10
-1.299999999999965
 20
8.144512026432934
 30
0.0
 11
1.300000000000046
 21
9.645666760844008
 31
0.0
  0
LINE
  5
25A
330
27
100
AcDbEntity
  8
0
  6
Continuous
 62
     4
100
AcDbLine
 10
-2.049999999999972
 20
5.897976229666184
 30
0.0
 11
2.050000000000025
 21
5.897976229666156
 31
0.0
  0
LINE
  5
25B
330
27
100
AcDbEntity
  8
0
  6
Continuous
 62
     4
100
AcDbLine
 10
-2.049999999999986
 20
3.897976229666199
 30
0.0
 11
2.050000000000007
 21
3.897976229666169
 31
0.0
  0
LINE
  5
25C
330
27
100
AcDbEntity
  8
0
  6
Continuous
 62
     4
100
AcDbLine
 10
-1.050000000000011
 20
0.5979763159612475
 30
0.0
 11
1.049999999999986
 21
0.5979763159612475
 31
0.0
  0
LINE
  5
25D
330
27
100
AcDbEntity
  8
0
  6
Continuous
 62
     4
100
AcDbLine
 10
-1.25
 20
0.3979763159612446
 30
0.0
 11
-1.050000000000011
 21
0.5979763159612475
 31
0.0
  0
LINE
  5
25E
330
27
100
AcDbEntity
  8
0
  6
Continuous
 62
     4
100
AcDbLine
 10
1.049999999999986
 20
0.5979763159612475
 30
0.0
 11
1.25
 21
0.3979763159612446
 31
0.0
  0
LINE
  5
25F
330
27
100
AcDbEntity
  8
0
  6
Continuous
 62
     4
100
AcDbLine
 10
-1.25
 20
0.3979763159612446
 30
0.0
 11
1.25
 21
0.3979763159612446
 31
0.0
  0
LINE
  5
260
330
27
100
AcDbEntity
  8
0
  6
Continuous
 62
     4
100
AcDbLine
 10
1.25
 20
0.3979763159612446
 30
0.0
 11
1.25
 21
0.0
 31
0.0
  0
LINE
  5
261
330
27
100
AcDbEntity
  8
0
  6
Continuous
 62
     4
100
AcDbLine
 10
-1.25
 20
0.0
 30
0.0
 11
-1.25
 21
0.3979763159612446
 31
0.0
  0
LINE
  5
262
330
27
100
AcDbEntity
  8
0
  6
Continuous
 62
     4
100
AcDbLine
 10
-2.047976315961259
 20
-1.102023684038741
 30
0.0
 11
-1.500000000000007
 21
-0.5511933247651939
 31
0.0
  0
LINE
  5
263
330
27
100
AcDbEntity
  8
0
  6
Continuous
 62
     4
100
AcDbLine
 10
2.049999999999979
 20
-1.100000000000036
 30
0.0
 11
1.5
 21
-0.5500000000000114
 31
0.0
  0
LINE
  5
264
330
27
100
AcDbEntity
  8
0
  6
Continuous
 62
     4
100
AcDbLine
 10
1.249999999999982
 20
-2.600000000000036
 30
0.0
 11
1.249999999999975
 21
-3.899166541181614
 31
0.0
  0
LINE
  5
265
330
27
100
AcDbEntity
  8
0
  6
Continuous
 62
     4
100
AcDbLine
 10
-1.250000000000017
 20
-2.600000000000008
 30
0.0
 11
-1.250000000000024
 21
-3.899166541181614
 31
0.0
  0
LINE
  5
266
330
27
100
AcDbEntity
  8
0
  6
Continuous
 62
     4
100
AcDbLine
 10
-1.250000000000024
 20
-3.899166541181614
 30
0.0
 11
1.249999999999975
 21
-3.899166541181614
 31
0.0
  0
LINE
  5
267
330
27
100
AcDbEntity
  8
0
  6
Continuous
 62
     4
100
AcDbLine
 10
1.249999999999975
 20
-3.899166541181614
 30
0.0
 11
0.7471428571428156
 21
-4.402023684038752
 31
0.0
  0
LINE
  5
268
330
27
100
AcDbEntity
  8
0
  6
Continuous
 62
     4
100
AcDbLine
 10
-0.7471428571428725
 20
-4.402023684038752
 30
0.0
 11
-1.250000000000024
 21
-3.899166541181614
 31
0.0
  0
LINE
  5
269
330
27
100
AcDbEntity
  8
0
  6
Continuous
 62
     4
100
AcDbLine
 10
2.000595112610156
 20
-1.800000000000039
 30
0.0
 11
2.000595112610152
 21
-2.602023684038769
 31
0.0
  0
LINE
  5
26A
330
27
100
AcDbEntity
  8
0
  6
Continuous
 62
     4
100
AcDbLine
 10
-1.999404887389841
 20
-1.799999999999982
 30
0.0
 11
-1.999404887389847
 21
-2.602023684038755
 31
0.0
  0
LINE
  5
26B
330
27
100
AcDbEntity
  8
0
  6
Continuous
 62
     4
100
AcDbLine
 10
-0.7471428571428725
 20
-4.402023684038752
 30
0.0
 11
0.7471428571428156
 21
-4.402023684038752
 31
0.0
  0
LINE
  5
26C
330
27
100
AcDbEntity
  8
0
  6
Continuous
 62
     4
100
AcDbLine
 10
-2.050000000000027
 20
-2.550595112610153
 30
0.0
 11
-2.05000000000002
 21
-1.102023684038741
 31
0.0
  0
LINE
  5
26D
330
27
100
AcDbEntity
  8
0
  6
Continuous
 62
     4
100
AcDbLine
 10
2.049999999999964
 20
-2.641112856947017
 30
0.0
 11
2.049999999999979
 21
-1.100000008256444
 31
0.0
  0
ARC
  5
26E
330
27
100
AcDbEntity
  8
0
  6
Continuous
 62
     4
100
AcDbCircle
 10
-0.0000000000000178
 20
-2.550000000000011
 30
0.0
 40
2.049999999999999
100
AcDbArc
 50
179.9999999999997
 51
359.9999999999997
  0
LINE
  5
26F
330
27
100
AcDbEntity
  8
0
  6
Continuous
 62
     4
100
AcDbLine
 10
-2.050000000000002
 20
1.497976228169051
 30
0.0
 11
-2.049999999999972
 21
5.897976229666184
 31
0.0
  0
LINE
  5
270
330
27
100
AcDbEntity
  8
0
  6
Continuous
 62
     4
100
AcDbLine
 10
2.04999999999999
 20
1.497976232092085
 30
0.0
 11
2.050000000000025
 21
5.897976229666156
 31
0.0
  0
LINE
  5
271
330
27
100
AcDbEntity
  8
0
  6
Continuous
 62
     4
100
AcDbLine
 10
1.500000000000007
 20
0.9479762320920883
 30
0.0
 11
2.050000001444473
 21
1.497976233536519
 31
0.0
  0
LINE
  5
272
330
27
100
AcDbEntity
  8
0
  6
Continuous
 62
     4
100
AcDbLine
 10
-2.050000005367497
 20
1.497976233536533
 30
0.0
 11
-1.499999999999992
 21
0.9479762281690398
 31
0.0
  0
LINE
  5
273
330
27
100
AcDbEntity
  8
0
  6
Continuous
 62
     4
100
AcDbLine
 10
-1.5
 20
-0.5511933238986302
 30
0.0
 11
-1.499999999999992
 21
0.9479762301305784
 31
0.0
  0
LINE
  5
274
330
27
100
AcDbEntity
  8
0
  6
Continuous
 62
     4
100
AcDbLine
 10
1.5
 20
-0.5500000048504319
 30
0.0
 11
1.500000000000007
 21
0.9479762301305639
 31
0.0
  0
LINE
  5
275
330
27
100
AcDbEntity
  8
0
  6
Continuous
 62
     4
100
AcDbLine
 10
-1.500000001961524
 20
0.0
 30
0.0
 11
1.499999998038475
 21
0.0
 31
0.0
  0
LINE
  5
276
330
27
100
AcDbEntity
  8
0
  6
Continuous
 62
     4
100
AcDbLine
 10
-2.050000000000023
 20
-1.800000000000011
 30
0.0
 11
2.049999999999972
 21
-1.800000000000039
 31
0.0
  0
LINE
  5
277
330
27
100
AcDbEntity
  8
0
  6
Continuous
 62
     4
100
AcDbLine
 10
-1.999404887389845
 20
-2.600000000000008
 30
0.0
 11
2.000595112610152
 21
-2.600000000000036
 31
0.0
  0
LINE
  5
278
330
27
100
AcDbEntity
  8
0
  6
Continuous
 62
     4
100
AcDbLine
 10
-1.299999999999968
 20
5.897976229666198
 30
0.0
 11
-1.299999999999961
 21
8.14451202643292
 31
0.0
  0
LINE
  5
279
330
27
100
AcDbEntity
  8
0
  6
Continuous
 62
     4
100
AcDbLine
 10
1.300000000000025
 20
5.897976229666184
 30
0.0
 11
1.300000000000043
 21
9.645666760844008
 31
0.0
  0
LINE
  5
27A
330
27
100
AcDbEntity
  8
0
  6
Continuous
 62
   200
100
AcDbLine
 10
-1.02500000000003
 20
-4.124166541181608
 30
0.0
 11
-1.025000000000019
 21
-2.599999999999994
 31
0.0
  0
LINE
  5
27B
330
27
100
AcDbEntity
  8
0
  6
Continuous
 62
   200
100
AcDbLine
 10
1.024999999999977
 20
-4.124166541181608
 30
0.0
 11
1.024999999999987
 21
-2.600000000000008
 31
0.0
  0
LINE
  5
27C
330
27
100
AcDbEntity
  8
0
  6
Continuous
 62
   200
100
AcDbLine
 10
1.025000000000005
 20
-0.0000000014444481
 30
0.0
 11
1.025000000000012
 21
0.5979763159612475
 31
0.0
  0
LINE
  5
27D
330
27
100
AcDbEntity
  8
0
  6
Continuous
 62
   200
100
AcDbLine
 10
-1.025000000000005
 20
-0.0000000014444481
 30
0.0
 11
-1.025000000000005
 21
0.5979763159612475
 31
0.0
  0
ENDBLK
  5
27E
330
27
100
AcDbEntity
  8
0
100
AcDbBlockEnd
  0
BLOCK
  5
27F
330
28
100
AcDbEntity
  8
0
100
AcDbBlockBegin
  2
AFDPGH-12-JA-11
 70
     0
 10
0.0
 20
0.0
 30
0.0
  3
AFDPGH-12-JA-11
  1

  0
CIRCLE
  5
280
330
28
100
AcDbEntity
  8
0
  6
Continuous
 62
     4
100
AcDbCircle
 10
12.5
 20
0.0
 30
0.0
 40
1.3
  0
ARC
  5
281
330
28
100
AcDbEntity
  8
0
  6
Continuous
 62
     4
100
AcDbCircle
 10
12.5
 20
0.0
 30
0.0
 40
2.1
100
AcDbArc
 50
282.3469323674128
 51
77.29365816157056
  0
ARC
  5
282
330
28
100
AcDbEntity
  8
0
  6
Continuous
 62
     4
100
AcDbCircle
 10
12.5
 20
0.0
 30
0.0
 40
2.1
100
AcDbArc
 50
102.7063418384295
 51
257.6530676325873
  0
LINE
  5
283
330
28
100
AcDbEntity
  8
0
  6
Continuous
 62
     4
100
AcDbLine
 10
0.0
 20
1.5
 30
0.0
 11
11.0303061543301
 21
1.500000000000028
 31
0.0
  0
LINE
  5
284
330
28
100
AcDbEntity
  8
0
  6
Continuous
 62
     4
100
AcDbLine
 10
0.0
 20
2.049999999999996
 30
0.0
 11
0.0
 21
-2.049999999999996
 31
0.0
  0
LINE
  5
285
330
28
100
AcDbEntity
  8
0
  6
Continuous
 62
     4
100
AcDbLine
 10
15.0
 20
2.050000000000025
 30
0.0
 11
15.0
 21
-2.049999999999996
 31
0.0
  0
LINE
  5
286
330
28
100
AcDbEntity
  8
0
  6
Continuous
 62
     4
100
AcDbLine
 10
0.9571428571428556
 20
-0.7142857142857082
 30
0.0
 11
2.688571428571436
 21
1.019999999999996
 31
0.0
  0
LINE
  5
287
330
28
100
AcDbEntity
  8
0
  6
Continuous
 62
     4
100
AcDbLine
 10
1.30857142857144
 20
-1.068571428571416
 30
0.0
 11
3.051993036971481
 21
0.6748501798286242
 31
0.0
  0
LINE
  5
288
330
28
100
AcDbEntity
  8
0
  6
Continuous
 62
     4
100
AcDbLine
 10
3.900000000000005
 20
-1.502857150350294
 30
0.0
 11
3.900000000000005
 21
1.500000006811958
 31
0.0
  0
LINE
  5
289
330
28
100
AcDbEntity
  8
0
  6
Continuous
 62
     4
100
AcDbLine
 10
10.4
 20
-1.502857150350265
 30
0.0
 11
10.4
 21
1.500000006811958
 31
0.0
  0
LINE
  5
28A
330
28
100
AcDbEntity
  8
0
  6
Continuous
 62
     4
100
AcDbLine
 10
8.0
 20
-0.7000000068119477
 30
0.0
 11
8.0
 21
0.9000000000000056
 31
0.0
  0
LINE
  5
28B
330
28
100
AcDbEntity
  8
0
  6
Continuous
 62
     4
100
AcDbLine
 10
9.600000000000022
 20
-0.7000000068119477
 30
0.0
 11
9.600000000000022
 21
0.9000000000000056
 31
0.0
  0
LINE
  5
28C
330
28
100
AcDbEntity
  8
0
  6
Continuous
 62
     4
100
AcDbLine
 10
8.0
 20
0.9000000000000056
 30
0.0
 11
9.600000000000022
 21
0.9000000000000056
 31
0.0
  0
LINE
  5
28D
330
28
100
AcDbEntity
  8
0
  6
Continuous
 62
     4
100
AcDbLine
 10
8.0
 20
-0.7000000000000029
 30
0.0
 11
9.600000000000022
 21
-0.7000000000000029
 31
0.0
  0
LINE
  5
28E
330
28
100
AcDbEntity
  8
0
  6
Continuous
 62
     4
100
AcDbLine
 10
0.0
 20
2.049999999999996
 30
0.0
 11
15.0
 21
2.050000000000025
 31
0.0
  0
LINE
  5
28F
330
28
100
AcDbEntity
  8
0
  6
Continuous
 62
     4
100
AcDbLine
 10
0.0
 20
-2.049999999999996
 30
0.0
 11
15.0
 21
-2.049999999999996
 31
0.0
  0
LINE
  5
290
330
28
100
AcDbEntity
  8
0
  6
Continuous
 62
     4
100
AcDbLine
 10
0.0
 20
-1.5
 30
0.0
 11
11.0303061543301
 21
-1.5
 31
0.0
  0
CIRCLE
  5
291
330
28
100
AcDbEntity
  8
0
  6
Continuous
 62
     4
100
AcDbCircle
 10
2.0
 20
0.0
 30
0.0
 40
1.399999999999999
  0
CIRCLE
  5
292
330
28
100
AcDbEntity
  8
0
  6
Continuous
 62
   200
100
AcDbCircle
 10
2.0
 20
0.0
 30
0.0
 40
1.05
  0
CIRCLE
  5
293
330
28
100
AcDbEntity
  8
0
  6
Continuous
 62
     4
100
AcDbCircle
 10
2.0
 20
0.0
 30
0.0
 40
1.25
  0
CIRCLE
  5
294
330
28
100
AcDbEntity
  8
0
  6
Continuous
 62
     4
100
AcDbCircle
 10
13.15000000272479
 20
0.0
 30
0.0
 40
0.5
  0
CIRCLE
  5
295
330
28
100
AcDbEntity
  8
0
  6
Continuous
 62
     4
100
AcDbCircle
 10
11.84999999727523
 20
0.0000000000000284
 30
0.0
 40
0.5
  0
CIRCLE
  5
296
330
28
100
AcDbEntity
  8
0
  6
Continuous
 62
     4
100
AcDbCircle
 10
13.15000000272479
 20
0.0
 30
0.0
 40
0.29
  0
CIRCLE
  5
297
330
28
100
AcDbEntity
  8
0
  6
Continuous
 62
     4
100
AcDbCircle
 10
11.84999999727523
 20
0.0000000000000284
 30
0.0
 40
0.29
  0
LINE
  5
298
330
28
100
AcDbEntity
  8
0
  6
Continuous
 62
   200
100
AcDbLine
 10
-1.324720577365496
 20
0.0
 30
0.0
 11
16.23761911485022
 21
0.0
 31
0.0
  0
LINE
  5
299
330
28
100
AcDbEntity
  8
0
  6
Continuous
 62
   200
100
AcDbLine
 10
2.0
 20
2.834285714285712
 30
0.0
 11
2.000000000000028
 21
-3.351413244852025
 31
0.0
  0
ENDBLK
  5
29A
330
28
100
AcDbEntity
  8
0
100
AcDbBlockEnd
  0
ENDSEC
  0
SECTION
  2
ENTITIES
  0
INSERT
  5
29B
330
A
100
AcDbEntity
  8
0
  6
ByBlock
100
AcDbBlockReference
  2
AFDPGH-12-JA-11
 10
60.0
 20
-90.0
 30
0.0
  0
INSERT
  5
29C
330
A
100
AcDbEntity
  8
0
  6
ByBlock
100
AcDbBlockReference
  2
AFDPGH-12-JA-10
 10
10.0
 20
-120.0
 30
0.0
  0
INSERT
  5
29D
330
A
100
AcDbEntity
  8
0
  6
ByBlock
100
AcDbBlockReference
  2
AFDPGH-12-JA-9
 10
60.0
 20
-120.0
 30
0.0
  0
INSERT
  5
29E
330
A
100
AcDbEntity
  8
0
  6
ByBlock
100
AcDbBlockReference
  2
AFDPGH-12-JA-8
 10
-90.0
 20
-90.0
 30
0.0
  0
INSERT
  5
29F
330
A
100
AcDbEntity
  8
0
  6
ByBlock
100
AcDbBlockReference
  2
AFDPGH-12-JA-7
 10
-140.0
 20
-120.0
 30
0.0
 50
0.0005826972306337
  0
INSERT
  5
2A0
330
A
100
AcDbEntity
  8
0
  6
ByBlock
100
AcDbBlockReference
  2
AFDPGH-12-JA-6
 10
-90.0
 20
-120.0
 30
0.0
  0
INSERT
  5
2A1
330
A
100
AcDbEntity
  8
0
  6
ByBlock
100
AcDbBlockReference
  2
AFDPGH-12-JA-5
 10
0.0
 20
-30.0
 30
0.0
  0
INSERT
  5
2A2
330
A
100
AcDbEntity
  8
0
  6
ByBlock
100
AcDbBlockReference
  2
AFDPGH-12-JA-4
 10
0.0
 20
100.0
 30
0.0
  0
INSERT
  5
2A3
330
A
100
AcDbEntity
  8
0
  6
ByBlock
100
AcDbBlockReference
  2
AFDPGH-12-JA-3
 10
110.0
 20
20.0
 30
0.0
  0
INSERT
  5
2A4
330
A
100
AcDbEntity
  8
0
  6
ByBlock
100
AcDbBlockReference
  2
AFDPGH-12-JA-2
 10
-110.0
 20
20.0
 30
0.0
  0
INSERT
  5
2A5
330
A
100
AcDbEntity
  8
0
  6
ByBlock
100
AcDbBlockReference
  2
AFDPGH-12-JA-1
 10
0.0
 20
20.0
 30
0.0
  0
LINE
  5
2A6
330
A
100
AcDbEntity
  8
0
  6
Continuous
 62
     7
100
AcDbLine
 10
-104.25
 20
132.6000061035156
 30
0.0
 11
-104.25
 21
117.6000061035156
 31
0.0
  0
MTEXT
  5
2A7
330
A
100
AcDbEntity
  8
0
  6
Continuous
 62
     7
100
AcDbMText
 10
-191.1841603062715
 20
125.1000061035156
 30
0.0
 40
4.5
 41
0.0
 71
     4
 72
     5
  1
\W1.088;\A1;FLAT TYPE AIR HANDS
 73
     1
 44
1.0
1001
ACAD
1000
MTEXTBEGIN
1070
    73
1070
     1
1070
    44
1040
1.0
1070
    74
1070
     0
1000
MTEXTEND
  0
LINE
  5
2A8
330
A
100
AcDbEntity
  8
0
  6
Continuous
 62
     7
100
AcDbLine
 10
-194.25
 20
117.6000061035156
 30
0.0
 11
-104.25
 21
117.6000061035156
 31
0.0
  0
MTEXT
  5
2A9
330
A
100
AcDbEntity
  8
0
  6
Continuous
 62
     7
100
AcDbMText
 10
-16.60666195310813
 20
-70.76439655085533
 30
0.0
 40
4.5
 41
0.0
 71
     1
 72
     5
  1
\A1;ZE235
 73
     1
 44
1.0
1001
ACAD
1000
MTEXTBEGIN
1070
    73
1070
     1
1070
    44
1040
1.0
1070
    74
1070
     0
1000
MTEXTEND
  0
MTEXT
  5
2AA
330
A
100
AcDbEntity
  8
0
  6
Continuous
 62
     7
100
AcDbMText
 10
-16.60666195310813
 20
-77.70745925240344
 30
0.0
 40
4.5
 41
0.0
 71
     1
 72
     5
  1
\A1;ZE255
 73
     1
 44
1.0
1001
ACAD
1000
MTEXTBEGIN
1070
    73
1070
     1
1070
    44
1040
1.0
1070
    74
1070
     0
1000
MTEXTEND
  0
LINE
  5
2AB
330
A
100
AcDbEntity
  8
0
  6
Continuous
 62
     7
100
AcDbLine
 10
-20.19876846057571
 20
-66.97500000000002
 30
0.0
 11
-20.19876846057571
 21
-133.4267309136421
 31
0.0
  0
MTEXT
  5
2AC
330
A
100
AcDbEntity
  8
0
  6
Continuous
 62
     7
100
AcDbMText
 10
-189.9764605299341
 20
-70.76439655085533
 30
0.0
 40
4.5
 41
0.0
 71
     1
 72
     5
  1
\W1.071;\A1;ZE135
 73
     1
 44
1.0
1001
ACAD
1000
MTEXTBEGIN
1070
    73
1070
     1
1070
    44
1040
1.0
1070
    74
1070
     0
1000
MTEXTEND
  0
MTEXT
  5
2AD
330
A
100
AcDbEntity
  8
0
  6
Continuous
 62
     7
100
AcDbMText
 10
-189.9764605299341
 20
-77.70745925240344
 30
0.0
 40
4.5
 41
0.0
 71
     1
 72
     5
  1
\W1.071;\A1;ZE155
 73
     1
 44
1.0
1001
ACAD
1000
MTEXTBEGIN
1070
    73
1070
     1
1070
    44
1040
1.0
1070
    74
1070
     0
1000
MTEXTEND
  0
LINE
  5
2AE
330
A
100
AcDbEntity
  8
0
  6
Continuous
 62
     7
100
AcDbLine
 10
-194.25
 20
-66.97500000000002
 30
0.0
 11
194.8000000119209
 21
-66.97500000000002
 31
0.0
  0
MTEXT
  5
2B0
330
A
100
AcDbEntity
  8
0
  6
Continuous
 62
     7
100
AcDbMText
 10
-185.7058823543333
 20
107.6000061035156
 30
0.0
 40
4.5
 41
0.0
 71
     4
 72
     5
  1
{\W1.059;MODEL:AFDPGH-12-JB}
 73
     1
 44
1.0
1001
ACAD
1000
ACAD_MTEXT_DEFINED_HEIGHT_BEGIN
1070
    46
1040
0.0
1000
ACAD_MTEXT_DEFINED_HEIGHT_END
1000
MTEXTBEGIN
1070
    73
1070
     1
1070
    44
1040
1.0
1070
    74
1070
     0
1000
MTEXTEND
  0
LINE
  5
2B1
330
A
100
AcDbEntity
  8
0
  6
Continuous
 62
     7
100
AcDbLine
 10
-194.25
 20
132.6000061035156
 30
0.0
 11
194.8000030517578
 21
132.6000061035156
 31
0.0
  0
LINE
  5
2B2
330
A
100
AcDbEntity
  8
0
  6
Continuous
 62
     7
100
AcDbLine
 10
194.8000030517578
 20
132.6000061035156
 30
0.0
 11
194.8000030517578
 21
-133.5
 31
0.0
  0
LINE
  5
2B3
330
A
100
AcDbEntity
  8
0
  6
Continuous
 62
     7
100
AcDbLine
 10
-194.25
 20
132.6000061035156
 30
0.0
 11
-194.25
 21
-133.5
 31
0.0
  0
LINE
  5
2B4
330
A
100
AcDbEntity
  8
0
  6
Continuous
 62
     7
100
AcDbLine
 10
-194.25
 20
-133.5
 30
0.0
 11
194.8000030517578
 21
-133.5
 31
0.0
  0
LINE
  5
2B5
330
A
100
AcDbEntity
  8
0
  6
Continuous
 62
     7
100
AcDbLine
 10
109.8000030517578
 20
-118.5
 30
0.0
 11
109.8000030517578
 21
-133.5
 31
0.0
  0
LINE
  5
2B6
330
A
100
AcDbEntity
  8
0
  6
Continuous
 62
     7
100
AcDbLine
 10
109.8000030517578
 20
-118.5
 30
0.0
 11
194.8000030517578
 21
-118.5
 31
0.0
  0
LINE
  5
2B7
330
A
100
AcDbEntity
  8
0
  6
Continuous
 62
     7
100
AcDbLine
 10
109.8000030517578
 20
132.6000061035156
 30
0.0
 11
109.8000030517578
 21
117.6000061035156
 31
0.0
  0
LINE
  5
2B8
330
A
100
AcDbEntity
  8
0
  6
Continuous
 62
     7
100
AcDbLine
 10
109.8000030517578
 20
117.6000061035156
 30
0.0
 11
194.8000030517578
 21
117.6000061035156
 31
0.0
  0
MTEXT
  5
2B9
330
A
100
AcDbEntity
  8
0
  6
Continuous
 62
     7
100
AcDbMText
 10
135.3112389898829
 20
125.1000061035156
 30
0.0
 40
4.5
 41
0.0
 71
     4
 72
     5
  1
\W1.348;\A1;Ver. 1.1
 73
     1
 44
1.0
1001
ACAD
1000
MTEXTBEGIN
1070
    73
1070
     1
1070
    44
1040
1.0
1070
    74
1070
     0
1000
MTEXTEND
  0
MTEXT
  5
2BA
330
A
100
AcDbEntity
  8
0
  6
Continuous
 62
     7
100
AcDbMText
 10
115.5267259825148
 20
-126.0
 30
0.0
 40
6.300000190734863
 41
0.0
 71
     4
 72
     5
  1
\W1.121;\A1;KOGANEI CORP.
 73
     1
 44
1.0
1001
ACAD
1000
MTEXTBEGIN
1070
    73
1070
     1
1070
    44
1040
1.0
1070
    74
1070
     0
1000
MTEXTEND
  0
ENDSEC
  0
SECTION
  2
OBJECTS
  0
DICTIONARY
  5
19
330
0
100
AcDbDictionary
281
     1
  3
ACAD_COLOR
350
2C3
  3
ACAD_GROUP
350
1A
  3
ACAD_LAYOUT
350
2C6
  3
ACAD_MATERIAL
350
2C2
  3
ACAD_MLINESTYLE
350
1B
  3
ACAD_PLOTSETTINGS
350
2C7
  3
ACAD_PLOTSTYLENAME
350
2C0
  3
ACAD_TABLESTYLE
350
2C4
  3
ACDBHEADERROUNDTRIPXREC
350
2D9
  3
AcDbVariableDictionary
350
2CE
  0
DICTIONARY
  5
2C3
102
{ACAD_REACTORS
330
19
102
}
330
19
100
AcDbDictionary
281
     1
  0
DICTIONARY
  5
1A
102
{ACAD_REACTORS
330
19
102
}
330
19
100
AcDbDictionary
281
     1
  0
DICTIONARY
  5
2C6
102
{ACAD_REACTORS
330
19
102
}
330
19
100
AcDbDictionary
281
     1
  3
Model
350
2C8
  3
レイアウト1
350
2C9
  0
DICTIONARY
  5
2C2
102
{ACAD_REACTORS
330
19
102
}
330
19
100
AcDbDictionary
281
     1
  0
DICTIONARY
  5
1B
102
{ACAD_REACTORS
330
19
102
}
330
19
100
AcDbDictionary
281
     1
  3
STANDARD
350
1C
  0
DICTIONARY
  5
2C7
102
{ACAD_REACTORS
330
19
102
}
330
19
100
AcDbDictionary
281
     1
  0
ACDBDICTIONARYWDFLT
  5
2C0
102
{ACAD_REACTORS
330
19
102
}
330
19
100
AcDbDictionary
281
     1
  3
Normal
350
2C1
100
AcDbDictionaryWithDefault
340
2C1
  0
DICTIONARY
  5
2C4
102
{ACAD_REACTORS
330
19
102
}
330
19
100
AcDbDictionary
281
     1
  3
Standard
350
2C5
  0
DICTIONARY
  5
2D9
102
{ACAD_REACTORS
330
19
102
}
330
19
100
AcDbDictionary
281
     1
  0
DICTIONARY
  5
2CE
102
{ACAD_REACTORS
330
19
102
}
330
19
100
AcDbDictionary
281
     1
  3
CTABLESTYLE
350
2CF
  3
DIMASSOC
350
2D0
  3
PROJECTNAME
350
2D1
  0
LAYOUT
  5
2C8
102
{ACAD_XDICTIONARY
360
2DA
102
}
102
{ACAD_REACTORS
330
2C6
102
}
330
2C6
100
AcDbPlotSettings
  1

  2
DocuCentre Color f450
  4

  6

 40
0.0
 41
0.0
 42
0.0
 43
0.0
 44
0.0
 45
0.0
 46
0.0
 47
0.0
 48
0.0
 49
0.0
140
0.0
141
0.0
142
1.0
143
1.0
 70
  1712
 72
     0
 73
     0
 74
     0
  7

 75
     0
147
1.0
148
0.0
149
0.0
100
AcDbLayout
  1
Model
 70
     1
 71
     0
 10
0.0
 20
0.0
 11
12.0
 21
9.0
 12
0.0
 22
0.0
 32
0.0
 14
0.0
 24
0.0
 34
0.0
 15
0.0
 25
0.0
 35
0.0
146
0.0
 13
0.0
 23
0.0
 33
0.0
 16
1.0
 26
0.0
 36
0.0
 17
0.0
 27
1.0
 37
0.0
 76
     0
330
A
  0
LAYOUT
  5
2C9
102
{ACAD_XDICTIONARY
360
2DC
102
}
102
{ACAD_REACTORS
330
2C6
102
}
330
2C6
100
AcDbPlotSettings
  1

  2
DocuCentre Color f450
  4

  6

 40
0.0
 41
0.0
 42
0.0
 43
0.0
 44
0.0
 45
0.0
 46
0.0
 47
0.0
 48
0.0
 49
0.0
140
0.0
141
0.0
142
1.0
143
1.0
 70
   688
 72
     0
 73
     0
 74
     5
  7

 75
    16
147
1.0
148
0.0
149
0.0
100
AcDbLayout
  1
レイアウト1
 70
     0
 71
     1
 10
0.0
 20
0.0
 11
12.0
 21
9.0
 12
0.0
 22
0.0
 32
0.0
 14
1.000000000000000E+20
 24
1.000000000000000E+20
 34
1.000000000000000E+20
 15
-1.000000000000000E+20
 25
-1.000000000000000E+20
 35
-1.000000000000000E+20
146
0.0
 13
0.0
 23
0.0
 33
0.0
 16
1.0
 26
0.0
 36
0.0
 17
0.0
 27
1.0
 37
0.0
 76
     0
330
B
  0
MLINESTYLE
  5
1C
102
{ACAD_REACTORS
330
1B
102
}
330
1B
100
AcDbMlineStyle
  2
STANDARD
 70
     0
  3

 62
     0
 51
90.0
 52
90.0
 71
     2
 49
0.5
 62
   256
  6
BYLAYER
 49
-0.5
 62
   256
  6
BYLAYER
  0
ACDBPLACEHOLDER
  5
2C1
102
{ACAD_REACTORS
330
2C0
102
}
330
2C0
  0
TABLESTYLE
  5
2C5
102
{ACAD_REACTORS
330
2C4
102
}
330
2C4
100
AcDbTableStyle
  3
Standard
 70
     0
 71
     0
 40
0.06
 41
0.06
280
     0
281
     0
  7
MX_NOTE_STANDARD
140
0.18
170
     2
 62
     0
 63
     7
283
     0
274
    -2
284
     1
 64
     0
275
    -2
285
     1
 65
     0
276
    -2
286
     1
 66
     0
277
    -2
287
     1
 67
     0
278
    -2
288
     1
 68
     0
279
    -2
289
     1
 69
     0
  7
MX_NOTE_STANDARD
140
0.25
170
     5
 62
     0
 63
     7
283
     0
274
    -2
284
     1
 64
     0
275
    -2
285
     1
 65
     0
276
    -2
286
     1
 66
     0
277
    -2
287
     1
 67
     0
278
    -2
288
     1
 68
     0
279
    -2
289
     1
 69
     0
  7
MX_NOTE_STANDARD
140
0.18
170
     5
 62
     0
 63
     7
283
     0
274
    -2
284
     1
 64
     0
275
    -2
285
     1
 65
     0
276
    -2
286
     1
 66
     0
277
    -2
287
     1
 67
     0
278
    -2
288
     1
 68
     0
279
    -2
289
     1
 69
     0
  0
DICTIONARYVAR
  5
2CF
102
{ACAD_REACTORS
330
2CE
102
}
330
2CE
100
DictionaryVariables
280
     0
  1
STANDARD
  0
DICTIONARYVAR
  5
2D0
102
{ACAD_REACTORS
330
2CE
102
}
330
2CE
100
DictionaryVariables
280
     0
  1
1
  0
DICTIONARYVAR
  5
2D1
102
{ACAD_REACTORS
330
2CE
102
}
330
2CE
100
DictionaryVariables
280
     0
  1

  0
DICTIONARY
  5
2DA
330
2C8
100
AcDbDictionary
280
     1
281
     1
  3
ACAD_XREC_ROUNDTRIP
360
2DB
  0
DICTIONARY
  5
2DC
330
2C9
100
AcDbDictionary
280
     1
281
     1
  3
ACAD_XREC_ROUNDTRIP
360
2DD
  0
XRECORD
  5
2DB
102
{ACAD_REACTORS
330
2DA
102
}
330
2DA
100
AcDbXrecord
280
     1
102
SHADEPLOT
 70
     0
102
SHADEPLOTRESLEVEL
 70
     2
102
SHADEPLOTCUSTOMDPI
 70
   300
  0
XRECORD
  5
2DD
102
{ACAD_REACTORS
330
2DC
102
}
330
2DC
100
AcDbXrecord
280
     1
102
SHADEPLOT
 70
     0
102
SHADEPLOTRESLEVEL
 70
     2
102
SHADEPLOTCUSTOMDPI
 70
   300
  0
ENDSEC
  0
EOF
