  0
SECTION
  2
HEADER
  9
$ACADVER
  1
AC1015
  9
$ACADMAINTVER
 70
    20
  9
$DWGCODEPAGE
  3
ANSI_932
  9
$INSBASE
 10
0.0
 20
0.0
 30
0.0
  9
$EXTMIN
 10
-281.25
 20
-195.0
 30
0.0
  9
$EXTMAX
 10
283.9503980228688
 20
195.5
 30
0.0
  9
$LIMMIN
 10
-281.25
 20
-195.0
  9
$LIMMAX
 10
285.5999879837036
 20
195.5
  9
$ORTHOMODE
 70
     0
  9
$REGENMODE
 70
     1
  9
$FILLMODE
 70
     1
  9
$QTEXTMODE
 70
     0
  9
$MIRRTEXT
 70
     1
  9
$LTSCALE
 40
1.0
  9
$ATTMODE
 70
     1
  9
$TEXTSIZE
 40
3.200000047683715
  9
$TRACEWID
 40
0.05
  9
$TEXTSTYLE
  7
MX_NOTE_STANDARD
  9
$CLAYER
  8
0
  9
$CELTYPE
  6
CONTINUOUS
  9
$CECOLOR
 62
   256
  9
$CELTSCALE
 40
1.0
  9
$DISPSILH
 70
     0
  9
$DIMSCALE
 40
1.0
  9
$DIMASZ
 40
2.5
  9
$DIMEXO
 40
1.5
  9
$DIMDLI
 40
3.75
  9
$DIMRND
 40
0.0
  9
$DIMDLE
 40
0.0
  9
$DIMEXE
 40
1.5
  9
$DIMTP
 40
0.0
  9
$DIMTM
 40
0.0
  9
$DIMTXT
 40
3.200000047683715
  9
$DIMCEN
 40
2.5
  9
$DIMTSZ
 40
0.0
  9
$DIMTOL
 70
     0
  9
$DIMLIM
 70
     0
  9
$DIMTIH
 70
     0
  9
$DIMTOH
 70
     0
  9
$DIMSE1
 70
     0
  9
$DIMSE2
 70
     0
  9
$DIMTAD
 70
     1
  9
$DIMZIN
 70
     8
  9
$DIMBLK
  1

  9
$DIMASO
 70
     1
  9
$DIMSHO
 70
     1
  9
$DIMPOST
  1

  9
$DIMAPOST
  1

  9
$DIMALT
 70
     0
  9
$DIMALTD
 70
     4
  9
$DIMALTF
 40
0.03937007874016
  9
$DIMLFAC
 40
1.0
  9
$DIMTOFL
 70
     1
  9
$DIMTVP
 40
0.0
  9
$DIMTIX
 70
     0
  9
$DIMSOXD
 70
     0
  9
$DIMSAH
 70
     0
  9
$DIMBLK1
  1

  9
$DIMBLK2
  1

  9
$DIMSTYLE
  2
MXDIMSTYLE
  9
$DIMCLRD
 70
     0
  9
$DIMCLRE
 70
     0
  9
$DIMCLRT
 70
     0
  9
$DIMTFAC
 40
1.0
  9
$DIMGAP
 40
1.0
  9
$DIMJUST
 70
     0
  9
$DIMSD1
 70
     0
  9
$DIMSD2
 70
     0
  9
$DIMTOLJ
 70
     1
  9
$DIMTZIN
 70
     0
  9
$DIMALTZ
 70
     0
  9
$DIMALTTZ
 70
     0
  9
$DIMUPT
 70
     1
  9
$DIMDEC
 70
     4
  9
$DIMTDEC
 70
     4
  9
$DIMALTU
 70
     2
  9
$DIMALTTD
 70
     4
  9
$DIMTXSTY
  7
MX_NOTE_STANDARD
  9
$DIMAUNIT
 70
     0
  9
$DIMADEC
 70
     0
  9
$DIMALTRND
 40
0.0
  9
$DIMAZIN
 70
     0
  9
$DIMDSEP
 70
    46
  9
$DIMATFIT
 70
     3
  9
$DIMFRAC
 70
     0
  9
$DIMLDRBLK
  1

  9
$DIMLUNIT
 70
     2
  9
$DIMLWD
 70
    -2
  9
$DIMLWE
 70
    -2
  9
$DIMTMOVE
 70
     0
  9
$LUNITS
 70
     2
  9
$LUPREC
 70
     4
  9
$SKETCHINC
 40
0.1
  9
$FILLETRAD
 40
0.0
  9
$AUNITS
 70
     0
  9
$AUPREC
 70
     0
  9
$MENU
  1
acad
  9
$ELEVATION
 40
0.0
  9
$PELEVATION
 40
0.0
  9
$THICKNESS
 40
0.0
  9
$LIMCHECK
 70
     0
  9
$CHAMFERA
 40
0.0
  9
$CHAMFERB
 40
0.0
  9
$CHAMFERC
 40
0.0
  9
$CHAMFERD
 40
0.0
  9
$SKPOLY
 70
     0
  9
$TDCREATE
 40
2453690.590787037
  9
$TDUCREATE
 40
2453690.215787037
  9
$TDUPDATE
 40
2454133.428604826
  9
$TDUUPDATE
 40
2454133.053604826
  9
$TDINDWG
 40
0.0007543056
  9
$TDUSRTIMER
 40
0.0007543056
  9
$USRTIMER
 70
     1
  9
$ANGBASE
 50
0.0
  9
$ANGDIR
 70
     0
  9
$PDMODE
 70
     0
  9
$PDSIZE
 40
0.0
  9
$PLINEWID
 40
0.0
  9
$SPLFRAME
 70
     0
  9
$SPLINETYPE
 70
     6
  9
$SPLINESEGS
 70
     8
  9
$HANDSEED
  5
363
  9
$SURFTAB1
 70
     6
  9
$SURFTAB2
 70
     6
  9
$SURFTYPE
 70
     6
  9
$SURFU
 70
     6
  9
$SURFV
 70
     6
  9
$UCSBASE
  2

  9
$UCSNAME
  2

  9
$UCSORG
 10
0.0
 20
0.0
 30
0.0
  9
$UCSXDIR
 10
1.0
 20
0.0
 30
0.0
  9
$UCSYDIR
 10
0.0
 20
1.0
 30
0.0
  9
$UCSORTHOREF
  2

  9
$UCSORTHOVIEW
 70
     0
  9
$UCSORGTOP
 10
0.0
 20
0.0
 30
0.0
  9
$UCSORGBOTTOM
 10
0.0
 20
0.0
 30
0.0
  9
$UCSORGLEFT
 10
0.0
 20
0.0
 30
0.0
  9
$UCSORGRIGHT
 10
0.0
 20
0.0
 30
0.0
  9
$UCSORGFRONT
 10
0.0
 20
0.0
 30
0.0
  9
$UCSORGBACK
 10
0.0
 20
0.0
 30
0.0
  9
$PUCSBASE
  2

  9
$PUCSNAME
  2

  9
$PUCSORG
 10
0.0
 20
0.0
 30
0.0
  9
$PUCSXDIR
 10
1.0
 20
0.0
 30
0.0
  9
$PUCSYDIR
 10
0.0
 20
1.0
 30
0.0
  9
$PUCSORTHOREF
  2

  9
$PUCSORTHOVIEW
 70
     0
  9
$PUCSORGTOP
 10
0.0
 20
0.0
 30
0.0
  9
$PUCSORGBOTTOM
 10
0.0
 20
0.0
 30
0.0
  9
$PUCSORGLEFT
 10
0.0
 20
0.0
 30
0.0
  9
$PUCSORGRIGHT
 10
0.0
 20
0.0
 30
0.0
  9
$PUCSORGFRONT
 10
0.0
 20
0.0
 30
0.0
  9
$PUCSORGBACK
 10
0.0
 20
0.0
 30
0.0
  9
$USERI1
 70
     0
  9
$USERI2
 70
     0
  9
$USERI3
 70
     0
  9
$USERI4
 70
     0
  9
$USERI5
 70
     0
  9
$USERR1
 40
0.0
  9
$USERR2
 40
0.0
  9
$USERR3
 40
0.0
  9
$USERR4
 40
0.0
  9
$USERR5
 40
0.0
  9
$WORLDVIEW
 70
     1
  9
$SHADEDGE
 70
     3
  9
$SHADEDIF
 70
    70
  9
$TILEMODE
 70
     1
  9
$MAXACTVP
 70
    16
  9
$PINSBASE
 10
0.0
 20
0.0
 30
0.0
  9
$PLIMCHECK
 70
     0
  9
$PEXTMIN
 10
1.000000000000000E+20
 20
1.000000000000000E+20
 30
1.000000000000000E+20
  9
$PEXTMAX
 10
-1.000000000000000E+20
 20
-1.000000000000000E+20
 30
-1.000000000000000E+20
  9
$PLIMMIN
 10
0.0
 20
0.0
  9
$PLIMMAX
 10
12.0
 20
9.0
  9
$UNITMODE
 70
     0
  9
$VISRETAIN
 70
     0
  9
$PLINEGEN
 70
     1
  9
$PSLTSCALE
 70
     0
  9
$TREEDEPTH
 70
  3020
  9
$CMLSTYLE
  2
STANDARD
  9
$CMLJUST
 70
     0
  9
$CMLSCALE
 40
1.0
  9
$PROXYGRAPHICS
 70
     1
  9
$MEASUREMENT
 70
     0
  9
$CELWEIGHT
370
    -1
  9
$ENDCAPS
280
     0
  9
$JOINSTYLE
280
     0
  9
$LWDISPLAY
290
     0
  9
$INSUNITS
 70
     0
  9
$HYPERLINKBASE
  1

  9
$STYLESHEET
  1

  9
$XEDIT
290
     1
  9
$CEPSNTYPE
380
     0
  9
$PSTYLEMODE
290
     1
  9
$FINGERPRINTGUID
  2
{71F210C7-AB29-4D4A-8403-13E0130A10DF}
  9
$VERSIONGUID
  2
{504FC855-3D0A-45C6-9987-3FC857A6003C}
  9
$EXTNAMES
290
     1
  9
$PSVPSCALE
 40
0.0
  9
$OLESTARTUP
290
     0
  0
ENDSEC
  0
SECTION
  2
CLASSES
  0
CLASS
  1
IMAGE
  2
AcDbRasterImage
  3
ISM
 90
    32895
280
     0
281
     1
  0
CLASS
  1
DICTIONARYVAR
  2
AcDbDictionaryVar
  3
ObjectDBX Classes
 90
        0
280
     0
281
     0
  0
CLASS
  1
RASTERVARIABLES
  2
AcDbRasterVariables
  3
ISM
 90
    32768
280
     0
281
     0
  0
CLASS
  1
IMAGEDEF
  2
AcDbRasterImageDef
  3
ISM
 90
    32768
280
     0
281
     0
  0
CLASS
  1
IMAGEDEF_REACTOR
  2
AcDbRasterImageDefReactor
  3
ISM
 90
    32769
280
     0
281
     0
  0
CLASS
  1
IDBUFFER
  2
AcDbIdBuffer
  3
ObjectDBX Classes
 90
    32768
280
     0
281
     0
  0
CLASS
  1
SPATIAL_FILTER
  2
AcDbSpatialFilter
  3
ObjectDBX Classes
 90
    32768
280
     0
281
     0
  0
CLASS
  1
SORTENTSTABLE
  2
AcDbSortentsTable
  3
ObjectDBX Classes
 90
        0
280
     0
281
     0
  0
CLASS
  1
LAYER_INDEX
  2
AcDbLayerIndex
  3
ObjectDBX Classes
 90
    32768
280
     0
281
     0
  0
CLASS
  1
SPATIAL_INDEX
  2
AcDbSpatialIndex
  3
ObjectDBX Classes
 90
    32768
280
     0
281
     0
  0
CLASS
  1
OBJECT_PTR
  2
CAseDLPNTableRecord
  3
"ASE-LPNTableRecord"
 90
    32768
280
     0
281
     0
  0
CLASS
  1
LAYOUT
  2
AcDbLayout
  3
ObjectDBX Classes
 90
        0
280
     0
281
     0
  0
CLASS
  1
PLOTSETTINGS
  2
AcDbPlotSettings
  3
ObjectDBX Classes
 90
    32768
280
     0
281
     0
  0
CLASS
  1
ACDBDICTIONARYWDFLT
  2
AcDbDictionaryWithDefault
  3
ObjectDBX Classes
 90
        0
280
     0
281
     0
  0
CLASS
  1
ACDBPLACEHOLDER
  2
AcDbPlaceHolder
  3
ObjectDBX Classes
 90
        0
280
     0
281
     0
  0
CLASS
  1
TABLESTYLE
  2
AcDbTableStyle
  3
ObjectDBX Classes
 90
     2047
280
     0
281
     0
  0
ENDSEC
  0
SECTION
  2
TABLES
  0
TABLE
  2
VPORT
  5
7
330
0
100
AcDbSymbolTable
 70
     2
  0
VPORT
  5
35D
330
7
100
AcDbSymbolTableRecord
100
AcDbViewportTableRecord
  2
*Active
 70
     0
 10
0.0
 20
0.0
 11
1.0
 21
1.0
 12
128.2474895567055
 22
11.18489084261983
 13
0.0
 23
0.0
 14
1.0
 24
1.0
 15
0.0
 25
0.0
 16
0.0
 26
0.0
 36
1.0
 17
0.0
 27
0.0
 37
0.0
 40
571.6466857324106
 41
1.627631578947368
 42
50.0
 43
0.0
 44
0.0
 50
0.0
 51
0.0
 71
     0
 72
   100
 73
     1
 74
     1
 75
     0
 76
     0
 77
     0
 78
     0
281
     0
 65
     1
110
0.0
120
0.0
130
0.0
111
1.0
121
0.0
131
0.0
112
0.0
122
1.0
132
0.0
 79
     0
146
0.0
  0
ENDTAB
  0
TABLE
  2
LTYPE
  5
4
330
0
100
AcDbSymbolTable
 70
     2
  0
LTYPE
  5
11
330
4
100
AcDbSymbolTableRecord
100
AcDbLinetypeTableRecord
  2
BYBLOCK
 70
     0
  3

 72
    65
 73
     0
 40
0.0
  0
LTYPE
  5
12
330
4
100
AcDbSymbolTableRecord
100
AcDbLinetypeTableRecord
  2
BYLAYER
 70
     0
  3

 72
    65
 73
     0
 40
0.0
  0
LTYPE
  5
13
330
4
100
AcDbSymbolTableRecord
100
AcDbLinetypeTableRecord
  2
CONTINUOUS
 70
     0
  3
Solid line
 72
    65
 73
     0
 40
0.0
  0
LTYPE
  5
2A
330
4
100
AcDbSymbolTableRecord
100
AcDbLinetypeTableRecord
  2
CENTER
 70
     0
  3
Center ____ _ ____ _ ____ _ ____ _ ____ _ ____
 72
    65
 73
     4
 40
26.0
 49
20.0
 74
     0
 49
-2.0
 74
     0
 49
2.0
 74
     0
 49
-2.0
 74
     0
  0
ENDTAB
  0
TABLE
  2
LAYER
  5
2
330
0
100
AcDbSymbolTable
 70
     2
  0
LAYER
  5
14
330
2
100
AcDbSymbolTableRecord
100
AcDbLayerTableRecord
  2
0
 70
     0
 62
     7
  6
CONTINUOUS
370
    -3
390
304
  0
LAYER
  5
1D
330
2
100
AcDbSymbolTableRecord
100
AcDbLayerTableRecord
  2
DEFPOINTS
 70
     0
 62
     7
  6
CONTINUOUS
290
     0
370
    -3
390
304
  0
ENDTAB
  0
TABLE
  2
STYLE
  5
3
330
0
100
AcDbSymbolTable
 70
     2
  0
STYLE
  5
17
330
3
100
AcDbSymbolTableRecord
100
AcDbTextStyleTableRecord
  2
MX_NOTE_STANDARD
 70
     0
 40
0.0
 41
1.0
 50
0.0
 71
     0
 42
3.200000047683715
  3
txt.shx
  4
extfont.shx
  0
STYLE
  5
302
330
3
100
AcDbSymbolTableRecord
100
AcDbTextStyleTableRecord
  2
Standard
 70
     0
 40
0.0
 41
1.0
 50
0.0
 71
     0
 42
0.2
  3

  4

  0
ENDTAB
  0
TABLE
  2
VIEW
  5
5
330
0
100
AcDbSymbolTable
 70
     0
  0
ENDTAB
  0
TABLE
  2
UCS
  5
6
330
0
100
AcDbSymbolTable
 70
     0
  0
ENDTAB
  0
TABLE
  2
APPID
  5
8
330
0
100
AcDbSymbolTable
 70
     1
  0
APPID
  5
16
330
8
100
AcDbSymbolTableRecord
100
AcDbRegAppTableRecord
  2
ACAD
 70
     0
  0
ENDTAB
  0
TABLE
  2
DIMSTYLE
  5
9
330
0
100
AcDbSymbolTable
 70
     1
100
AcDbDimStyleTable
 71
     0
  0
DIMSTYLE
105
18
330
9
100
AcDbSymbolTableRecord
100
AcDbDimStyleTableRecord
  2
MXDIMSTYLE
 70
     0
 41
2.5
 42
1.5
 43
3.75
 44
1.5
 73
     0
 74
     0
 77
     1
 78
     8
140
3.200000047683715
141
2.5
143
0.03937007874016
147
1.0
171
     4
172
     1
274
     4
288
     1
340
17
  0
ENDTAB
  0
TABLE
  2
BLOCK_RECORD
  5
1
330
0
100
AcDbSymbolTable
 70
    11
  0
BLOCK_RECORD
  5
A
102
{ACAD_XDICTIONARY
360
357
102
}
330
1
100
AcDbSymbolTableRecord
100
AcDbBlockTableRecord
  2
*MODEL_SPACE
340
30B
  0
BLOCK_RECORD
  5
B
330
1
100
AcDbSymbolTableRecord
100
AcDbBlockTableRecord
  2
*PAPER_SPACE
340
30C
  0
BLOCK_RECORD
  5
1E
330
1
100
AcDbSymbolTableRecord
100
AcDbBlockTableRecord
  2
AFDPGL-18-JB-1
340
0
  0
BLOCK_RECORD
  5
1F
330
1
100
AcDbSymbolTableRecord
100
AcDbBlockTableRecord
  2
AFDPGL-18-JB-2
340
0
102
{BLKREFS
331
2E8
102
}
  0
BLOCK_RECORD
  5
20
330
1
100
AcDbSymbolTableRecord
100
AcDbBlockTableRecord
  2
AFDPGL-18-JB-3
340
0
102
{BLKREFS
331
2E7
102
}
  0
BLOCK_RECORD
  5
21
330
1
100
AcDbSymbolTableRecord
100
AcDbBlockTableRecord
  2
AFDPGL-18-JB-4
340
0
102
{BLKREFS
331
2E6
102
}
  0
BLOCK_RECORD
  5
22
330
1
100
AcDbSymbolTableRecord
100
AcDbBlockTableRecord
  2
AFDPGL-18-JB-5
340
0
102
{BLKREFS
331
2E5
102
}
  0
BLOCK_RECORD
  5
23
330
1
100
AcDbSymbolTableRecord
100
AcDbBlockTableRecord
  2
AFDPGL-18-JB-6
340
0
102
{BLKREFS
331
2E4
102
}
  0
BLOCK_RECORD
  5
24
330
1
100
AcDbSymbolTableRecord
100
AcDbBlockTableRecord
  2
AFDPGL-18-JB-7
340
0
102
{BLKREFS
331
2E3
102
}
  0
BLOCK_RECORD
  5
25
330
1
100
AcDbSymbolTableRecord
100
AcDbBlockTableRecord
  2
AFDPGL-18-JB-8
340
0
102
{BLKREFS
331
2E2
102
}
  0
BLOCK_RECORD
  5
26
330
1
100
AcDbSymbolTableRecord
100
AcDbBlockTableRecord
  2
AFDPGL-18-JB-9
340
0
102
{BLKREFS
331
2E1
102
}
  0
BLOCK_RECORD
  5
27
330
1
100
AcDbSymbolTableRecord
100
AcDbBlockTableRecord
  2
AFDPGL-18-JB-10
340
0
102
{BLKREFS
331
2E0
102
}
  0
BLOCK_RECORD
  5
28
330
1
100
AcDbSymbolTableRecord
100
AcDbBlockTableRecord
  2
AFDPGL-18-JB-11
340
0
102
{BLKREFS
331
2DF
102
}
  0
ENDTAB
  0
ENDSEC
  0
SECTION
  2
BLOCKS
  0
BLOCK
  5
D
330
A
100
AcDbEntity
  8
0
100
AcDbBlockBegin
  2
*MODEL_SPACE
 70
     0
 10
0.0
 20
0.0
 30
0.0
  3
*MODEL_SPACE
  1

  0
ENDBLK
  5
E
330
A
100
AcDbEntity
  8
0
100
AcDbBlockEnd
  0
BLOCK
  5
F
330
B
100
AcDbEntity
 67
     1
  8
0
100
AcDbBlockBegin
  2
*PAPER_SPACE
 70
     0
 10
0.0
 20
0.0
 30
0.0
  3
*PAPER_SPACE
  1

  0
ENDBLK
  5
10
330
B
100
AcDbEntity
 67
     1
  8
0
100
AcDbBlockEnd
  0
BLOCK
  5
29
330
1E
100
AcDbEntity
  8
0
100
AcDbBlockBegin
  2
AFDPGL-18-JB-1
 70
     0
 10
0.0
 20
0.0
 30
0.0
  3
AFDPGL-18-JB-1
  1

  0
LINE
  5
2B
330
1E
100
AcDbEntity
  8
0
  6
CENTER
 62
     2
100
AcDbLine
 10
-100.0
 20
11.0
 30
0.0
 11
89.99999999656834
 21
11.0
 31
0.0
  0
LINE
  5
2C
330
1E
100
AcDbEntity
  8
0
  6
Continuous
 62
     7
100
AcDbLine
 10
-84.0
 20
28.00000762939453
 30
0.0
 11
-83.0
 21
28.00000762939453
 31
0.0
  0
LINE
  5
2D
330
1E
100
AcDbEntity
  8
0
  6
Continuous
 62
     7
100
AcDbLine
 10
82.99998855590819
 20
28.00000762939453
 30
0.0
 11
84.0
 21
28.00000762939453
 31
0.0
  0
LINE
  5
2E
330
1E
100
AcDbEntity
  8
0
  6
Continuous
 62
     7
100
AcDbLine
 10
-83.0
 20
28.00000762939453
 30
0.0
 11
82.99998855590819
 21
28.00000762939453
 31
0.0
  0
LINE
  5
2F
330
1E
100
AcDbEntity
  8
0
  6
Continuous
 62
     7
100
AcDbLine
 10
-83.0
 20
28.00000762939453
 30
0.0
 11
-83.0
 21
0.0
 31
0.0
  0
LINE
  5
30
330
1E
100
AcDbEntity
  8
0
  6
Continuous
 62
     7
100
AcDbLine
 10
82.99998855590819
 20
28.00000762939453
 30
0.0
 11
82.99998855590819
 21
0.0
 31
0.0
  0
LINE
  5
31
330
1E
100
AcDbEntity
  8
0
  6
Continuous
 62
     2
100
AcDbLine
 10
55.50000381469727
 20
24.00000762939453
 30
0.0
 11
64.50000381469727
 21
24.00000762939453
 31
0.0
  0
LINE
  5
32
330
1E
100
AcDbEntity
  8
0
  6
Continuous
 62
     2
100
AcDbLine
 10
-60.0
 20
28.50000762939453
 30
0.0
 11
-60.0
 21
19.50000762939453
 31
0.0
  0
LINE
  5
33
330
1E
100
AcDbEntity
  8
0
  6
Continuous
 62
     2
100
AcDbLine
 10
60.00000381469727
 20
28.50000762939453
 30
0.0
 11
60.00000381469727
 21
19.50000762939453
 31
0.0
  0
LINE
  5
34
330
1E
100
AcDbEntity
  8
0
  6
Continuous
 62
     2
100
AcDbLine
 10
-4.5
 20
24.00000762939453
 30
0.0
 11
4.500003814697265
 21
24.00000762939453
 31
0.0
  0
LINE
  5
35
330
1E
100
AcDbEntity
  8
0
  6
Continuous
 62
     2
100
AcDbLine
 10
-64.5
 20
24.00000762939453
 30
0.0
 11
-55.5
 21
24.00000762939453
 31
0.0
  0
LINE
  5
36
330
1E
100
AcDbEntity
  8
0
  6
Continuous
 62
     7
100
AcDbLine
 10
-41.0
 20
31.50000762939453
 30
0.0
 11
41.0
 21
31.50000762939453
 31
0.0
  0
LINE
  5
37
330
1E
100
AcDbEntity
  8
0
  6
Continuous
 62
     7
100
AcDbLine
 10
83.0
 20
36.50000762939453
 30
0.0
 11
42.0
 21
36.50000762939453
 31
0.0
  0
LINE
  5
38
330
1E
100
AcDbEntity
  8
0
  6
Continuous
 62
     7
100
AcDbLine
 10
42.0
 20
36.00000762939453
 30
0.0
 11
41.0
 21
36.00000762939453
 31
0.0
  0
LINE
  5
39
330
1E
100
AcDbEntity
  8
0
  6
Continuous
 62
     7
100
AcDbLine
 10
42.0
 20
36.50000762939453
 30
0.0
 11
42.0
 21
28.00000762939453
 31
0.0
  0
LINE
  5
3A
330
1E
100
AcDbEntity
  8
0
  6
Continuous
 62
     7
100
AcDbLine
 10
41.0
 20
36.00000762939453
 30
0.0
 11
41.0
 21
28.00000762939453
 31
0.0
  0
LINE
  5
3B
330
1E
100
AcDbEntity
  8
0
  6
Continuous
 62
     7
100
AcDbLine
 10
-83.0
 20
0.0
 30
0.0
 11
82.99998855590819
 21
0.0
 31
0.0
  0
LINE
  5
3C
330
1E
100
AcDbEntity
  8
0
  6
Continuous
 62
     7
100
AcDbLine
 10
-83.0
 20
3.63397216796875
 30
0.0
 11
82.99998855590819
 21
3.63397216796875
 31
0.0
  0
LINE
  5
3D
330
1E
100
AcDbEntity
  8
0
  6
Continuous
 62
     7
100
AcDbLine
 10
-83.0
 20
5.36602783203125
 30
0.0
 11
82.99998855590819
 21
5.36602783203125
 31
0.0
  0
LINE
  5
3E
330
1E
100
AcDbEntity
  8
0
  6
Continuous
 62
     7
100
AcDbLine
 10
-83.0
 20
6.399993896484375
 30
0.0
 11
82.99998855590819
 21
6.399993896484375
 31
0.0
  0
LINE
  5
3F
330
1E
100
AcDbEntity
  8
0
  6
Continuous
 62
     7
100
AcDbLine
 10
-83.0
 20
9.600006103515623
 30
0.0
 11
82.99998855590819
 21
9.600006103515623
 31
0.0
  0
LINE
  5
40
330
1E
100
AcDbEntity
  8
0
  6
Continuous
 62
     7
100
AcDbLine
 10
83.0
 20
36.50000762939453
 30
0.0
 11
83.0
 21
28.00000762939453
 31
0.0
  0
LINE
  5
41
330
1E
100
AcDbEntity
  8
0
  6
Continuous
 62
     7
100
AcDbLine
 10
84.0
 20
36.00000762939453
 30
0.0
 11
84.0
 21
28.00000762939453
 31
0.0
  0
LINE
  5
42
330
1E
100
AcDbEntity
  8
0
  6
Continuous
 62
     7
100
AcDbLine
 10
83.0
 20
36.00000762939453
 30
0.0
 11
84.0
 21
36.00000762939453
 31
0.0
  0
LINE
  5
43
330
1E
100
AcDbEntity
  8
0
  6
Continuous
 62
     7
100
AcDbLine
 10
-83.0
 20
36.50000762939453
 30
0.0
 11
-42.0
 21
36.50000762939453
 31
0.0
  0
LINE
  5
44
330
1E
100
AcDbEntity
  8
0
  6
Continuous
 62
     7
100
AcDbLine
 10
-42.0
 20
36.00000762939453
 30
0.0
 11
-41.0
 21
36.00000762939453
 31
0.0
  0
LINE
  5
45
330
1E
100
AcDbEntity
  8
0
  6
Continuous
 62
     7
100
AcDbLine
 10
-42.0
 20
36.50000762939453
 30
0.0
 11
-42.0
 21
28.00000762939453
 31
0.0
  0
LINE
  5
46
330
1E
100
AcDbEntity
  8
0
  6
Continuous
 62
     7
100
AcDbLine
 10
-41.0
 20
36.00000762939453
 30
0.0
 11
-41.0
 21
28.00000762939453
 31
0.0
  0
LINE
  5
47
330
1E
100
AcDbEntity
  8
0
  6
Continuous
 62
     7
100
AcDbLine
 10
-84.0
 20
36.00000762939453
 30
0.0
 11
-84.0
 21
28.00000762939453
 31
0.0
  0
LINE
  5
48
330
1E
100
AcDbEntity
  8
0
  6
Continuous
 62
     7
100
AcDbLine
 10
-83.0
 20
36.50000762939453
 30
0.0
 11
-83.0
 21
28.00000762939453
 31
0.0
  0
LINE
  5
49
330
1E
100
AcDbEntity
  8
0
  6
Continuous
 62
     7
100
AcDbLine
 10
-83.0
 20
36.00000762939453
 30
0.0
 11
-84.0
 21
36.00000762939453
 31
0.0
  0
CIRCLE
  5
4A
330
1E
100
AcDbEntity
  8
0
  6
Continuous
 62
     2
100
AcDbCircle
 10
60.00000381469727
 20
24.00000762939453
 30
0.0
 40
2.5
  0
CIRCLE
  5
4B
330
1E
100
AcDbEntity
  8
0
  6
Continuous
 62
     2
100
AcDbCircle
 10
0.0
 20
24.00000762939453
 30
0.0
 40
2.5
  0
CIRCLE
  5
4C
330
1E
100
AcDbEntity
  8
0
  6
Continuous
 62
     2
100
AcDbCircle
 10
-60.0
 20
24.00000762939453
 30
0.0
 40
2.5
  0
CIRCLE
  5
4D
330
1E
100
AcDbEntity
  8
0
  6
Continuous
 62
     7
100
AcDbCircle
 10
60.00000381469727
 20
24.00000762939453
 30
0.0
 40
2.067
  0
CIRCLE
  5
4E
330
1E
100
AcDbEntity
  8
0
  6
Continuous
 62
     7
100
AcDbCircle
 10
0.0
 20
24.00000762939453
 30
0.0
 40
2.067
  0
CIRCLE
  5
4F
330
1E
100
AcDbEntity
  8
0
  6
Continuous
 62
     7
100
AcDbCircle
 10
-60.0
 20
24.00000762939453
 30
0.0
 40
2.067
  0
LINE
  5
50
330
1E
100
AcDbEntity
  8
0
  6
Continuous
 62
     7
100
AcDbLine
 10
-96.92349967956543
 20
7.0
 30
0.0
 11
-96.92349967956543
 21
15.0
 31
0.0
  0
LINE
  5
51
330
1E
100
AcDbEntity
  8
0
  6
Continuous
 62
     7
100
AcDbLine
 10
-89.10002136230467
 20
4.5
 30
0.0
 11
-89.10002136230467
 21
17.5
 31
0.0
  0
ARC
  5
52
330
1E
100
AcDbEntity
  8
0
  6
Continuous
 62
     7
100
AcDbCircle
 10
-81.20533752441406
 20
14.25
 30
0.0
 40
7.894673824310302
100
AcDbArc
 50
155.6902416018571
 51
204.3097410952989
  0
LINE
  5
53
330
1E
100
AcDbEntity
  8
0
  6
Continuous
 62
     7
100
AcDbLine
 10
-89.10002136230467
 20
17.5
 30
0.0
 11
-84.10000610351563
 21
17.5
 31
0.0
  0
LINE
  5
54
330
1E
100
AcDbEntity
  8
0
  6
Continuous
 62
     7
100
AcDbLine
 10
-97.59999999999999
 20
7.676500320434569
 30
0.0
 11
-97.59999999999999
 21
14.32349967956543
 31
0.0
  0
LINE
  5
55
330
1E
100
AcDbEntity
  8
0
  6
Continuous
 62
     2
100
AcDbLine
 10
-97.59999999999999
 20
14.3235
 30
0.0
 11
-89.100093736286
 21
14.3235
 31
0.0
  0
LINE
  5
56
330
1E
100
AcDbEntity
  8
0
  6
Continuous
 62
     7
100
AcDbLine
 10
-96.92349205017087
 20
15.00000762939453
 30
0.0
 11
-89.10002136230467
 21
15.00000762939453
 31
0.0
  0
LINE
  5
57
330
1E
100
AcDbEntity
  8
0
  6
Continuous
 62
     7
100
AcDbLine
 10
-96.92349205017087
 20
15.00000762939453
 30
0.0
 11
-97.59999999999999
 21
14.32349967956543
 31
0.0
  0
ARC
  5
58
330
1E
100
AcDbEntity
  8
0
  6
Continuous
 62
     7
100
AcDbCircle
 10
-91.99467468261719
 20
14.25
 30
0.0
 40
7.894673824310302
100
AcDbArc
 50
335.6902181284218
 51
24.30977706747761
  0
LINE
  5
59
330
1E
100
AcDbEntity
  8
0
  6
Continuous
 62
     7
100
AcDbLine
 10
-84.10000610351563
 20
18.50000762939453
 30
0.0
 11
-83.0
 21
18.50000762939453
 31
0.0
  0
LINE
  5
5A
330
1E
100
AcDbEntity
  8
0
  6
Continuous
 62
     7
100
AcDbLine
 10
-84.10000610351563
 20
3.500007629394531
 30
0.0
 11
-84.10000610351563
 21
18.50000762939453
 31
0.0
  0
ARC
  5
5B
330
1E
100
AcDbEntity
  8
0
  6
Continuous
 62
     7
100
AcDbCircle
 10
-81.20533752441406
 20
7.75
 30
0.0
 40
7.894673824310302
100
AcDbArc
 50
155.6901869603437
 51
204.3096864537856
  0
LINE
  5
5C
330
1E
100
AcDbEntity
  8
0
  6
Continuous
 62
     7
100
AcDbLine
 10
-89.10002136230467
 20
4.5
 30
0.0
 11
-84.10000610351563
 21
4.5
 31
0.0
  0
LINE
  5
5D
330
1E
100
AcDbEntity
  8
0
  6
Continuous
 62
     2
100
AcDbLine
 10
-97.59999999999999
 20
7.676499999999997
 30
0.0
 11
-89.100093736286
 21
7.676499999999997
 31
0.0
  0
LINE
  5
5E
330
1E
100
AcDbEntity
  8
0
  6
Continuous
 62
     7
100
AcDbLine
 10
-96.92350730895995
 20
7.000007629394531
 30
0.0
 11
-89.10002136230467
 21
7.000007629394531
 31
0.0
  0
LINE
  5
5F
330
1E
100
AcDbEntity
  8
0
  6
Continuous
 62
     7
100
AcDbLine
 10
-96.92350730895995
 20
7.000007629394531
 30
0.0
 11
-97.59999999999999
 21
7.676500320434569
 31
0.0
  0
ARC
  5
60
330
1E
100
AcDbEntity
  8
0
  6
Continuous
 62
     7
100
AcDbCircle
 10
-91.99467468261719
 20
7.75
 30
0.0
 40
7.894673824310302
100
AcDbArc
 50
335.6901682910091
 51
24.30978187157828
  0
LINE
  5
61
330
1E
100
AcDbEntity
  8
0
  6
Continuous
 62
     7
100
AcDbLine
 10
-84.10000610351563
 20
3.500007629394531
 30
0.0
 11
-83.0
 21
3.500007629394531
 31
0.0
  0
LINE
  5
62
330
1E
100
AcDbEntity
  8
0
  6
Continuous
 62
     2
100
AcDbLine
 10
-70.00000381469728
 20
34.50000762939453
 30
0.0
 11
-70.00000381469728
 21
38.50000762939453
 31
0.0
  0
LINE
  5
63
330
1E
100
AcDbEntity
  8
0
  6
Continuous
 62
     2
100
AcDbLine
 10
-55.0
 20
34.50000762939453
 30
0.0
 11
-55.0
 21
38.50000762939453
 31
0.0
  0
LINE
  5
64
330
1E
100
AcDbEntity
  8
0
  6
Continuous
 62
     2
100
AcDbLine
 10
-50.0
 20
26.00000762939453
 30
0.0
 11
-50.0
 21
30.00000762939453
 31
0.0
  0
LINE
  5
65
330
1E
100
AcDbEntity
  8
0
  6
Continuous
 62
     2
100
AcDbLine
 10
-20.0
 20
26.00000762939453
 30
0.0
 11
-20.0
 21
30.00000762939453
 31
0.0
  0
LINE
  5
66
330
1E
100
AcDbEntity
  8
0
  6
Continuous
 62
     2
100
AcDbLine
 10
20.00000381469726
 20
26.00000762939453
 30
0.0
 11
20.00000381469726
 21
30.00000762939453
 31
0.0
  0
LINE
  5
67
330
1E
100
AcDbEntity
  8
0
  6
Continuous
 62
     2
100
AcDbLine
 10
50.00000381469727
 20
26.00000762939453
 30
0.0
 11
50.00000381469727
 21
30.00000762939453
 31
0.0
  0
LINE
  5
68
330
1E
100
AcDbEntity
  8
0
  6
Continuous
 62
     2
100
AcDbLine
 10
54.99998855590821
 20
34.50000762939453
 30
0.0
 11
54.99998855590821
 21
38.50000762939453
 31
0.0
  0
LINE
  5
69
330
1E
100
AcDbEntity
  8
0
  6
Continuous
 62
     2
100
AcDbLine
 10
69.99998855590821
 20
34.50000762939453
 30
0.0
 11
69.99998855590821
 21
38.50000762939453
 31
0.0
  0
LINE
  5
6A
330
1E
100
AcDbEntity
  8
0
  6
Continuous
 62
     7
100
AcDbLine
 10
-88.40001436164937
 20
11.0
 30
0.0
 11
-84.7999978453819
 21
11.0
 31
0.0
  0
LINE
  5
6B
330
1E
100
AcDbEntity
  8
0
  6
Continuous
 62
     2
100
AcDbLine
 10
-60.0
 20
-2.0
 30
0.0
 11
-60.0
 21
2.0
 31
0.0
  0
LINE
  5
6C
330
1E
100
AcDbEntity
  8
0
  6
Continuous
 62
     2
100
AcDbLine
 10
-35.0
 20
-2.0
 30
0.0
 11
-35.0
 21
2.0
 31
0.0
  0
LINE
  5
6D
330
1E
100
AcDbEntity
  8
0
  6
Continuous
 62
     2
100
AcDbLine
 10
-20.0
 20
-2.0
 30
0.0
 11
-20.0
 21
2.0
 31
0.0
  0
LINE
  5
6E
330
1E
100
AcDbEntity
  8
0
  6
Continuous
 62
     2
100
AcDbLine
 10
20.00000381469726
 20
-2.0
 30
0.0
 11
20.00000381469726
 21
2.0
 31
0.0
  0
LINE
  5
6F
330
1E
100
AcDbEntity
  8
0
  6
Continuous
 62
     2
100
AcDbLine
 10
35.00000381469728
 20
-2.0
 30
0.0
 11
35.00000381469728
 21
2.0
 31
0.0
  0
LINE
  5
70
330
1E
100
AcDbEntity
  8
0
  6
Continuous
 62
     2
100
AcDbLine
 10
60.00000381469727
 20
-2.0
 30
0.0
 11
60.00000381469727
 21
2.0
 31
0.0
  0
LINE
  5
71
330
1E
100
AcDbEntity
  8
0
  6
CENTER
 62
     2
100
AcDbLine
 10
0.0
 20
-4.5
 30
0.0
 11
0.0
 21
35.5
 31
0.0
  0
ENDBLK
  5
72
330
1E
100
AcDbEntity
  8
0
100
AcDbBlockEnd
  0
BLOCK
  5
73
330
1F
100
AcDbEntity
  8
0
100
AcDbBlockBegin
  2
AFDPGL-18-JB-2
 70
     0
 10
0.0
 20
0.0
 30
0.0
  3
AFDPGL-18-JB-2
  1

  0
LINE
  5
74
330
1F
100
AcDbEntity
  8
0
  6
Continuous
 62
     7
100
AcDbLine
 10
27.00010174887541
 20
10.1
 30
0.0
 11
25.39999389648437
 21
10.1
 31
0.0
  0
LINE
  5
75
330
1F
100
AcDbEntity
  8
0
  6
Continuous
 62
     7
100
AcDbLine
 10
-28.50000762939453
 20
6.399999896484375
 30
0.0
 11
-27.50013172191648
 21
6.399999896484375
 31
0.0
  0
LINE
  5
76
330
1F
100
AcDbEntity
  8
0
  6
Continuous
 62
     7
100
AcDbLine
 10
-28.50000762939453
 20
9.600000103515624
 30
0.0
 11
-27.4999667177606
 21
9.600000103515624
 31
0.0
  0
LINE
  5
77
330
1F
100
AcDbEntity
  8
0
  6
Continuous
 62
     7
100
AcDbLine
 10
28.49999237060547
 20
6.399999896484375
 30
0.0
 11
27.50010160321295
 21
6.399999896484375
 31
0.0
  0
ARC
  5
78
330
1F
100
AcDbEntity
  8
0
  6
Continuous
 62
     7
100
AcDbCircle
 10
-25.40000152587891
 20
8.0
 30
0.0
 40
2.1
100
AcDbArc
 50
270.0
 51
90.0
  0
ARC
  5
79
330
1F
100
AcDbEntity
  8
0
  6
Continuous
 62
     7
100
AcDbCircle
 10
25.39999389648437
 20
8.0
 30
0.0
 40
2.1
100
AcDbArc
 50
90.0
 51
270.0
  0
LINE
  5
7A
330
1F
100
AcDbEntity
  8
0
  6
Continuous
 62
     2
100
AcDbLine
 10
25.39999389648437
 20
12.09999847412109
 30
0.0
 11
25.39999389648437
 21
3.900001525878905
 31
0.0
  0
LINE
  5
7B
330
1F
100
AcDbEntity
  8
0
  6
Continuous
 62
     2
100
AcDbLine
 10
21.30000305175781
 20
8.0
 30
0.0
 11
30.5
 21
8.0
 31
0.0
  0
LINE
  5
7C
330
1F
100
AcDbEntity
  8
0
  6
Continuous
 62
     2
100
AcDbLine
 10
-30.5
 20
8.0
 30
0.0
 11
-21.29998779296875
 21
8.0
 31
0.0
  0
LINE
  5
7D
330
1F
100
AcDbEntity
  8
0
  6
Continuous
 62
     2
100
AcDbLine
 10
-25.40000152587891
 20
12.09999847412109
 30
0.0
 11
-25.40000152587891
 21
3.900001525878905
 31
0.0
  0
LINE
  5
7E
330
1F
100
AcDbEntity
  8
0
  6
Continuous
 62
     7
100
AcDbLine
 10
-26.99996686342307
 20
10.1
 30
0.0
 11
-25.40000161767283
 21
10.1
 31
0.0
  0
LINE
  5
7F
330
1F
100
AcDbEntity
  8
0
  6
Continuous
 62
     7
100
AcDbLine
 10
-27.00013186757895
 20
5.9
 30
0.0
 11
-25.40000152587891
 21
5.9
 31
0.0
  0
LINE
  5
80
330
1F
100
AcDbEntity
  8
0
  6
Continuous
 62
     7
100
AcDbLine
 10
-27.4999667177606
 20
9.600000103515624
 30
0.0
 11
-26.99996686342307
 21
10.1
 31
0.0
  0
LINE
  5
81
330
1F
100
AcDbEntity
  8
0
  6
Continuous
 62
     7
100
AcDbLine
 10
-27.50013172191648
 20
6.399999896484375
 30
0.0
 11
-27.00013186757895
 21
5.900000000000001
 31
0.0
  0
LINE
  5
82
330
1F
100
AcDbEntity
  8
0
  6
Continuous
 62
     7
100
AcDbLine
 10
28.5
 20
9.600000103515624
 30
0.0
 11
27.49992715816316
 21
9.600000103515624
 31
0.0
  0
LINE
  5
83
330
1F
100
AcDbEntity
  8
0
  6
Continuous
 62
     7
100
AcDbLine
 10
27.00010174887541
 20
5.9
 30
0.0
 11
25.39999389648437
 21
5.9
 31
0.0
  0
LINE
  5
84
330
1F
100
AcDbEntity
  8
0
  6
Continuous
 62
     7
100
AcDbLine
 10
27.49992715816316
 20
9.600000103515624
 30
0.0
 11
26.99992730382563
 21
10.1
 31
0.0
  0
LINE
  5
85
330
1F
100
AcDbEntity
  8
0
  6
Continuous
 62
     7
100
AcDbLine
 10
27.50010160321295
 20
6.399999896484374
 30
0.0
 11
27.00010174887541
 21
5.900000000000001
 31
0.0
  0
LINE
  5
86
330
1F
100
AcDbEntity
  8
0
  6
Continuous
 62
     7
100
AcDbLine
 10
-17.00000762939453
 20
22.00000762939453
 30
0.0
 11
-6.000007629394531
 21
22.00000762939453
 31
0.0
  0
LINE
  5
87
330
1F
100
AcDbEntity
  8
0
  6
Continuous
 62
     7
100
AcDbLine
 10
-6.000007629394531
 20
32.00000762939453
 30
0.0
 11
-6.000007629394531
 21
30.96825408935547
 31
0.0
  0
LINE
  5
88
330
1F
100
AcDbEntity
  8
0
  6
Continuous
 62
     7
100
AcDbLine
 10
-6.000007629394531
 20
32.00000762939453
 30
0.0
 11
-0.0000076293945313
 21
32.00000762939453
 31
0.0
  0
LINE
  5
89
330
1F
100
AcDbEntity
  8
0
  6
Continuous
 62
     7
100
AcDbLine
 10
-16.50000762939453
 20
27.00000762939453
 30
0.0
 11
-6.500007629394531
 21
27.00000762939453
 31
0.0
  0
LINE
  5
8A
330
1F
100
AcDbEntity
  8
0
  6
Continuous
 62
     7
100
AcDbLine
 10
-13.50000762939453
 20
37.00000762939453
 30
0.0
 11
-13.50000762939453
 21
27.00000762939453
 31
0.0
  0
LINE
  5
8B
330
1F
100
AcDbEntity
  8
0
  6
Continuous
 62
     7
100
AcDbLine
 10
-13.50000762939453
 20
37.00000762939453
 30
0.0
 11
-8.000022888183593
 21
37.00000762939453
 31
0.0
  0
LINE
  5
8C
330
1F
100
AcDbEntity
  8
0
  6
Continuous
 62
     7
100
AcDbLine
 10
17.0
 20
22.00000762939453
 30
0.0
 11
6.0
 21
22.00000762939453
 31
0.0
  0
LINE
  5
8D
330
1F
100
AcDbEntity
  8
0
  6
Continuous
 62
     7
100
AcDbLine
 10
6.0
 20
32.00000762939453
 30
0.0
 11
6.0
 21
30.96825408935547
 31
0.0
  0
LINE
  5
8E
330
1F
100
AcDbEntity
  8
0
  6
Continuous
 62
     7
100
AcDbLine
 10
5.999992370605468
 20
24.00000762939453
 30
0.0
 11
-6.000007629394531
 21
24.00000762939453
 31
0.0
  0
LINE
  5
8F
330
1F
100
AcDbEntity
  8
0
  6
Continuous
 62
     7
100
AcDbLine
 10
5.999992370605468
 20
32.00000762939453
 30
0.0
 11
-0.0000076293945313
 21
32.00000762939453
 31
0.0
  0
LINE
  5
90
330
1F
100
AcDbEntity
  8
0
  6
Continuous
 62
     7
100
AcDbLine
 10
13.49999237060546
 20
37.00000762939453
 30
0.0
 11
13.49999237060546
 21
27.00000762939453
 31
0.0
  0
LINE
  5
91
330
1F
100
AcDbEntity
  8
0
  6
Continuous
 62
     7
100
AcDbLine
 10
28.49999237060547
 20
6.399999896484375
 30
0.0
 11
28.49999237060547
 21
5.36602783203125
 31
0.0
  0
LINE
  5
92
330
1F
100
AcDbEntity
  8
0
  6
Continuous
 62
     7
100
AcDbLine
 10
-12.00000762939453
 20
36.00000762939453
 30
0.0
 11
11.99999237060547
 21
36.00000762939453
 31
0.0
  0
LINE
  5
93
330
1F
100
AcDbEntity
  8
0
  6
Continuous
 62
     7
100
AcDbLine
 10
-7.500007629394531
 20
36.50000762939453
 30
0.0
 11
7.499992370605468
 21
36.50000762939453
 31
0.0
  0
LINE
  5
94
330
1F
100
AcDbEntity
  8
0
  6
Continuous
 62
     7
100
AcDbLine
 10
8.000009127696785
 20
36.99997181766139
 30
0.0
 11
7.500008596902033
 21
36.49997124471975
 31
0.0
  0
LINE
  5
95
330
1F
100
AcDbEntity
  8
0
  6
Continuous
 62
     7
100
AcDbLine
 10
-8.00005063634421
 20
36.99997106931306
 30
0.0
 11
-7.500050105549462
 21
36.49997049637141
 31
0.0
  0
LINE
  5
96
330
1F
100
AcDbEntity
  8
0
  6
Continuous
 62
     7
100
AcDbLine
 10
8.000007629394531
 20
37.00000762939453
 30
0.0
 11
13.49999237060546
 21
37.00000762939453
 31
0.0
  0
LINE
  5
97
330
1F
100
AcDbEntity
  8
0
  6
Continuous
 62
     7
100
AcDbLine
 10
-6.500007629394531
 20
32.30001068115234
 30
0.0
 11
-6.500007629394531
 21
31.00000762939453
 31
0.0
  0
LINE
  5
98
330
1F
100
AcDbEntity
  8
0
  6
Continuous
 62
     7
100
AcDbLine
 10
-6.000007629394531
 20
29.0317611694336
 30
0.0
 11
-6.000007629394531
 21
22.00000762939453
 31
0.0
  0
LINE
  5
99
330
1F
100
AcDbEntity
  8
0
  6
Continuous
 62
     7
100
AcDbLine
 10
-6.500007629394531
 20
29.00000762939453
 30
0.0
 11
-6.500007629394531
 21
27.00000762939453
 31
0.0
  0
LINE
  5
9A
330
1F
100
AcDbEntity
  8
0
  6
Continuous
 62
     7
100
AcDbLine
 10
-12.00000762939453
 20
27.30001068115234
 30
0.0
 11
-6.500007629394531
 21
27.30001068115234
 31
0.0
  0
LINE
  5
9B
330
1F
100
AcDbEntity
  8
0
  6
Continuous
 62
     7
100
AcDbLine
 10
-6.500007629394531
 20
32.30001068115234
 30
0.0
 11
-0.0000076293945313
 21
32.30001068115234
 31
0.0
  0
LINE
  5
9C
330
1F
100
AcDbEntity
  8
0
  6
Continuous
 62
     7
100
AcDbLine
 10
6.5
 20
32.30001068115234
 30
0.0
 11
0.0
 21
32.30001068115234
 31
0.0
  0
LINE
  5
9D
330
1F
100
AcDbEntity
  8
0
  6
Continuous
 62
     7
100
AcDbLine
 10
6.5
 20
32.30001068115234
 30
0.0
 11
6.5
 21
31.00000762939453
 31
0.0
  0
LINE
  5
9E
330
1F
100
AcDbEntity
  8
0
  6
Continuous
 62
     7
100
AcDbLine
 10
11.99999237060547
 20
27.30001068115234
 30
0.0
 11
6.5
 21
27.30001068115234
 31
0.0
  0
LINE
  5
9F
330
1F
100
AcDbEntity
  8
0
  6
Continuous
 62
     7
100
AcDbLine
 10
6.5
 20
29.00000762939453
 30
0.0
 11
6.5
 21
27.00000762939453
 31
0.0
  0
LINE
  5
A0
330
1F
100
AcDbEntity
  8
0
  6
Continuous
 62
     7
100
AcDbLine
 10
6.0
 20
29.0317611694336
 30
0.0
 11
6.0
 21
22.00000762939453
 31
0.0
  0
LINE
  5
A1
330
1F
100
AcDbEntity
  8
0
  6
Continuous
 62
     7
100
AcDbLine
 10
-28.50000762939453
 20
27.50000762939453
 30
0.0
 11
-28.50000762939453
 21
9.600000103515625
 31
0.0
  0
LINE
  5
A2
330
1F
100
AcDbEntity
  8
0
  6
Continuous
 62
     7
100
AcDbLine
 10
-28.50000762939453
 20
6.399999896484375
 30
0.0
 11
-28.50000762939453
 21
2.5
 31
0.0
  0
LINE
  5
A3
330
1F
100
AcDbEntity
  8
0
  6
Continuous
 62
     7
100
AcDbLine
 10
-28.36603546142578
 20
28.00000762939453
 30
0.0
 11
-17.00000762939453
 21
28.00000762939453
 31
0.0
  0
LINE
  5
A4
330
1F
100
AcDbEntity
  8
0
  6
Continuous
 62
     7
100
AcDbLine
 10
27.15830993652344
 20
0.0
 30
0.0
 11
-27.15831756591797
 21
0.0
 31
0.0
  0
LINE
  5
A5
330
1F
100
AcDbEntity
  8
0
  6
Continuous
 62
     7
100
AcDbLine
 10
28.5
 20
3.63397216796875
 30
0.0
 11
28.5
 21
2.5
 31
0.0
  0
LINE
  5
A6
330
1F
100
AcDbEntity
  8
0
  6
Continuous
 62
     7
100
AcDbLine
 10
28.5
 20
27.50000762939453
 30
0.0
 11
28.5
 21
9.600000103515625
 31
0.0
  0
LINE
  5
A7
330
1F
100
AcDbEntity
  8
0
  6
Continuous
 62
     7
100
AcDbLine
 10
28.36602783203125
 20
28.00000762939453
 30
0.0
 11
17.0
 21
28.00000762939453
 31
0.0
  0
LINE
  5
A8
330
1F
100
AcDbEntity
  8
0
  6
Continuous
 62
     2
100
AcDbLine
 10
-12.50000762939453
 20
27.00000762939453
 30
0.0
 11
-12.50000762939453
 21
-2.0
 31
0.0
  0
LINE
  5
A9
330
1F
100
AcDbEntity
  8
0
  6
Continuous
 62
     7
100
AcDbLine
 10
6.5
 20
27.00000762939453
 30
0.0
 11
13.49999237060546
 21
27.00000762939453
 31
0.0
  0
LINE
  5
AA
330
1F
100
AcDbEntity
  8
0
  6
Continuous
 62
     7
100
AcDbLine
 10
16.5
 20
22.29999542236328
 30
0.0
 11
7.0
 21
22.29999542236328
 31
0.0
  0
LINE
  5
AB
330
1F
100
AcDbEntity
  8
0
  6
Continuous
 62
     7
100
AcDbLine
 10
16.5
 20
27.00000762939453
 30
0.0
 11
13.49999237060546
 21
27.00000762939453
 31
0.0
  0
LINE
  5
AC
330
1F
100
AcDbEntity
  8
0
  6
Continuous
 62
     7
100
AcDbLine
 10
16.5
 20
26.59999847412109
 30
0.0
 11
7.0
 21
26.59999847412109
 31
0.0
  0
LINE
  5
AD
330
1F
100
AcDbEntity
  8
0
  6
Continuous
 62
     7
100
AcDbLine
 10
-16.50000762939453
 20
22.29999542236328
 30
0.0
 11
-7.000007629394531
 21
22.29999542236328
 31
0.0
  0
LINE
  5
AE
330
1F
100
AcDbEntity
  8
0
  6
Continuous
 62
     7
100
AcDbLine
 10
-12.50000762939453
 20
35.50000762939453
 30
0.0
 11
-12.50000762939453
 21
27.80001068115235
 31
0.0
  0
LINE
  5
AF
330
1F
100
AcDbEntity
  8
0
  6
Continuous
 62
     7
100
AcDbLine
 10
12.49999237060547
 20
35.50000762939453
 30
0.0
 11
12.49999237060547
 21
27.80001068115235
 31
0.0
  0
LINE
  5
B0
330
1F
100
AcDbEntity
  8
0
  6
Continuous
 62
     7
100
AcDbLine
 10
12.4999938560386
 20
27.79999740989343
 30
0.0
 11
11.99999328309695
 21
27.29999687909867
 31
0.0
  0
LINE
  5
B1
330
1F
100
AcDbEntity
  8
0
  6
Continuous
 62
     7
100
AcDbLine
 10
12.4999925785421
 20
35.50001351009087
 30
0.0
 11
11.99999200560046
 21
36.00001404088562
 31
0.0
  0
LINE
  5
B2
330
1F
100
AcDbEntity
  8
0
  6
Continuous
 62
     7
100
AcDbLine
 10
-12.0000135792356
 20
36.00001235501146
 30
0.0
 11
-12.50001411003035
 21
35.50001178206981
 31
0.0
  0
LINE
  5
B3
330
1F
100
AcDbEntity
  8
0
  6
Continuous
 62
     7
100
AcDbLine
 10
-12.50000295375912
 20
27.80000764128427
 30
0.0
 11
-12.00000238081747
 21
27.30000711048952
 31
0.0
  0
LINE
  5
B4
330
1F
100
AcDbEntity
  8
0
  6
Continuous
 62
     7
100
AcDbLine
 10
-7.000007629394531
 20
27.00000762939453
 30
0.0
 11
-7.000007629394531
 21
22.29999542236328
 31
0.0
  0
LINE
  5
B5
330
1F
100
AcDbEntity
  8
0
  6
Continuous
 62
     7
100
AcDbLine
 10
-16.50000762939453
 20
27.00000762939453
 30
0.0
 11
-16.50000762939453
 21
22.30001068115234
 31
0.0
  0
LINE
  5
B6
330
1F
100
AcDbEntity
  8
0
  6
Continuous
 62
     7
100
AcDbLine
 10
7.0
 20
27.00000762939453
 30
0.0
 11
7.0
 21
22.29999542236328
 31
0.0
  0
LINE
  5
B7
330
1F
100
AcDbEntity
  8
0
  6
Continuous
 62
     7
100
AcDbLine
 10
16.5
 20
27.00000762939453
 30
0.0
 11
16.5
 21
22.30001068115234
 31
0.0
  0
LINE
  5
B8
330
1F
100
AcDbEntity
  8
0
  6
Continuous
 62
     7
100
AcDbLine
 10
17.0
 20
22.00000762939453
 30
0.0
 11
17.0
 21
28.00000762939453
 31
0.0
  0
LINE
  5
B9
330
1F
100
AcDbEntity
  8
0
  6
Continuous
 62
     7
100
AcDbLine
 10
-17.00000762939453
 20
22.00000762939453
 30
0.0
 11
-17.00000762939453
 21
28.00000762939453
 31
0.0
  0
LINE
  5
BA
330
1F
100
AcDbEntity
  8
0
  6
Continuous
 62
     2
100
AcDbLine
 10
12.5
 20
27.00000762939453
 30
0.0
 11
12.5
 21
-2.0
 31
0.0
  0
CIRCLE
  5
BB
330
1F
100
AcDbEntity
  8
0
  6
Continuous
 62
     7
100
AcDbCircle
 10
-12.49999237060547
 20
11.0
 30
0.0
 40
9.5
  0
CIRCLE
  5
BC
330
1F
100
AcDbEntity
  8
0
  6
Continuous
 62
     7
100
AcDbCircle
 10
12.49998474121094
 20
11.0
 30
0.0
 40
9.5
  0
ARC
  5
BD
330
1F
100
AcDbEntity
  8
0
  6
Continuous
 62
     7
100
AcDbCircle
 10
28.99999237060547
 20
4.5
 30
0.0
 40
1.0
100
AcDbArc
 50
119.9999350374125
 51
240.0000886408785
  0
ARC
  5
BE
330
1F
100
AcDbEntity
  8
0
  6
Continuous
 62
     7
100
AcDbCircle
 10
-6.250007629394531
 20
30.00000762939453
 30
0.0
 40
1.0
100
AcDbArc
 50
255.5225167948985
 51
104.4774968654798
  0
ARC
  5
BF
330
1F
100
AcDbEntity
  8
0
  6
Continuous
 62
     7
100
AcDbCircle
 10
-6.500007629394531
 20
30.00000762939453
 30
0.0
 40
1.0
100
AcDbArc
 50
269.9999770049543
 51
90.00000250447817
  0
ARC
  5
C0
330
1F
100
AcDbEntity
  8
0
  6
Continuous
 62
     7
100
AcDbCircle
 10
6.5
 20
30.00000762939453
 30
0.0
 40
1.0
100
AcDbArc
 50
89.99994786296481
 51
269.9999733624887
  0
ARC
  5
C1
330
1F
100
AcDbEntity
  8
0
  6
Continuous
 62
     7
100
AcDbCircle
 10
6.25
 20
30.00000762939453
 30
0.0
 40
1.0
100
AcDbArc
 50
75.52243301139565
 51
284.4774062517878
  0
CIRCLE
  5
C2
330
1F
100
AcDbEntity
  8
0
  6
Continuous
 62
     7
100
AcDbCircle
 10
-12.5
 20
11.0
 30
0.0
 40
3.5
  0
ARC
  5
C3
330
1F
100
AcDbEntity
  8
0
  6
Continuous
 62
     7
100
AcDbCircle
 10
-25.50000762939453
 20
2.5
 30
0.0
 40
3.0
100
AcDbArc
 50
180.000008651422
 51
236.4426838767914
  0
ARC
  5
C4
330
1F
100
AcDbEntity
  8
0
  6
Continuous
 62
     7
100
AcDbCircle
 10
-27.50000762939453
 20
27.50000762939453
 30
0.0
 40
1.0
100
AcDbArc
 50
149.9999973439411
 51
180.0000050089563
  0
ARC
  5
C5
330
1F
100
AcDbEntity
  8
0
  6
Continuous
 62
     7
100
AcDbCircle
 10
25.5
 20
2.5
 30
0.0
 40
3.0
100
AcDbArc
 50
303.5573145293468
 51
359.999997495522
  0
ARC
  5
C6
330
1F
100
AcDbEntity
  8
0
  6
Continuous
 62
     7
100
AcDbCircle
 10
27.5
 20
27.50000762939453
 30
0.0
 40
1.0
100
AcDbArc
 50
359.999997495522
 51
29.99999741973147
  0
LINE
  5
C7
330
1F
100
AcDbEntity
  8
0
  6
CENTER
 62
     2
100
AcDbLine
 10
-30.5
 20
11.0
 30
0.0
 11
30.5
 21
11.0
 31
0.0
  0
LINE
  5
C8
330
1F
100
AcDbEntity
  8
0
  6
Continuous
 62
     7
100
AcDbLine
 10
16.2527847290039
 20
17.5
 30
0.0
 11
8.747222900390625
 21
17.5
 31
0.0
  0
LINE
  5
C9
330
1F
100
AcDbEntity
  8
0
  6
Continuous
 62
     7
100
AcDbLine
 10
8.747232056797656
 20
17.50000174638887
 30
0.0
 11
4.994447551477151
 21
10.99998759518246
 31
0.0
  0
LINE
  5
CA
330
1F
100
AcDbEntity
  8
0
  6
Continuous
 62
     7
100
AcDbLine
 10
13.36602783203125
 20
12.5
 30
0.0
 11
11.63397216796875
 21
12.5
 31
0.0
  0
LINE
  5
CB
330
1F
100
AcDbEntity
  8
0
  6
Continuous
 62
     7
100
AcDbLine
 10
11.63398474826772
 20
12.50000356812859
 30
0.0
 11
10.76794933846167
 21
10.99998607146597
 31
0.0
  0
CIRCLE
  5
CC
330
1F
100
AcDbEntity
  8
0
  6
Continuous
 62
     7
100
AcDbCircle
 10
12.49999237060547
 20
11.0
 30
0.0
 40
4.0
  0
CIRCLE
  5
CD
330
1F
100
AcDbEntity
  8
0
  6
Continuous
 62
     7
100
AcDbCircle
 10
12.49999237060547
 20
11.0
 30
0.0
 40
6.5
  0
CIRCLE
  5
CE
330
1F
100
AcDbEntity
  8
0
  6
Continuous
 62
     7
100
AcDbCircle
 10
12.49999237060547
 20
11.0
 30
0.0
 40
1.700000047683715
  0
LINE
  5
CF
330
1F
100
AcDbEntity
  8
0
  6
Continuous
 62
     7
100
AcDbLine
 10
16.25280171556642
 20
17.4999946543021
 30
0.0
 11
20.00557970990758
 21
10.9999946123271
 31
0.0
  0
LINE
  5
D0
330
1F
100
AcDbEntity
  8
0
  6
Continuous
 62
     7
100
AcDbLine
 10
20.00556287878862
 20
11.00000213381907
 30
0.0
 11
16.25277837346812
 21
4.499987982612651
 31
0.0
  0
LINE
  5
D1
330
1F
100
AcDbEntity
  8
0
  6
Continuous
 62
     7
100
AcDbLine
 10
13.36602020263672
 20
9.5
 30
0.0
 11
11.63397216796875
 21
9.5
 31
0.0
  0
LINE
  5
D2
330
1F
100
AcDbEntity
  8
0
  6
Continuous
 62
     7
100
AcDbLine
 10
14.2320610918041
 20
11.00000365753555
 30
0.0
 11
13.36602568199805
 21
9.499986160872936
 31
0.0
  0
LINE
  5
D3
330
1F
100
AcDbEntity
  8
0
  6
Continuous
 62
     7
100
AcDbLine
 10
13.36605005030196
 20
12.49999607511109
 30
0.0
 11
14.23207808881033
 21
10.99999199942522
 31
0.0
  0
LINE
  5
D4
330
1F
100
AcDbEntity
  8
0
  6
Continuous
 62
     7
100
AcDbLine
 10
10.7679761086847
 20
10.99998808808686
 30
0.0
 11
11.63400414719308
 21
9.499984012401
 31
0.0
  0
LINE
  5
D5
330
1F
100
AcDbEntity
  8
0
  6
Continuous
 62
     7
100
AcDbLine
 10
4.994472443296217
 20
10.99999310458134
 30
0.0
 11
8.747250437637376
 21
4.499993062606336
 31
0.0
  0
LINE
  5
D6
330
1F
100
AcDbEntity
  8
0
  6
Continuous
 62
     7
100
AcDbLine
 10
16.25277709960937
 20
4.5
 30
0.0
 11
8.747230529785154
 21
4.5
 31
0.0
  0
CIRCLE
  5
D7
330
1F
100
AcDbEntity
  8
0
  6
Continuous
 62
     7
100
AcDbCircle
 10
-12.5
 20
11.0
 30
0.0
 40
5.0
  0
LINE
  5
D8
330
1F
100
AcDbEntity
  8
0
  6
Continuous
 62
     2
100
AcDbLine
 10
-10.0
 20
35.00000762939453
 30
0.0
 11
-10.0
 21
39.00000762939453
 31
0.0
  0
LINE
  5
D9
330
1F
100
AcDbEntity
  8
0
  6
Continuous
 62
     2
100
AcDbLine
 10
10.0
 20
35.00000762939453
 30
0.0
 11
10.0
 21
39.00000762939453
 31
0.0
  0
LINE
  5
DA
330
1F
100
AcDbEntity
  8
0
  6
Continuous
 62
     2
100
AcDbLine
 10
-22.5
 20
26.00000762939453
 30
0.0
 11
-22.5
 21
30.00000762939453
 31
0.0
  0
LINE
  5
DB
330
1F
100
AcDbEntity
  8
0
  6
Continuous
 62
     2
100
AcDbLine
 10
-26.5
 20
24.00000762939453
 30
0.0
 11
-30.5
 21
24.00000762939453
 31
0.0
  0
LINE
  5
DC
330
1F
100
AcDbEntity
  8
0
  6
Continuous
 62
     2
100
AcDbLine
 10
22.5
 20
26.00000762939453
 30
0.0
 11
22.5
 21
30.00000762939453
 31
0.0
  0
LINE
  5
DD
330
1F
100
AcDbEntity
  8
0
  6
Continuous
 62
     2
100
AcDbLine
 10
26.5
 20
24.00000762939453
 30
0.0
 11
30.5
 21
24.00000762939453
 31
0.0
  0
CIRCLE
  5
DE
330
1F
100
AcDbEntity
  8
0
  6
Continuous
 62
     2
100
AcDbCircle
 10
12.50000762939453
 20
11.0
 30
0.0
 40
3.3235
  0
LINE
  5
DF
330
1F
100
AcDbEntity
  8
0
  6
Continuous
 62
     7
100
AcDbLine
 10
-9.022941589355468
 20
11.39999389648437
 30
0.0
 11
-15.97707366943359
 21
11.39999389648437
 31
0.0
  0
LINE
  5
E0
330
1F
100
AcDbEntity
  8
0
  6
Continuous
 62
     7
100
AcDbLine
 10
-9.022941589355468
 20
10.60000610351562
 30
0.0
 11
-15.97707366943359
 21
10.60000610351562
 31
0.0
  0
LINE
  5
E1
330
1F
100
AcDbEntity
  8
0
  6
CENTER
 62
     2
100
AcDbLine
 10
0.0
 20
-4.0
 30
0.0
 11
0.0
 21
41.0
 31
0.0
  0
ENDBLK
  5
E2
330
1F
100
AcDbEntity
  8
0
100
AcDbBlockEnd
  0
BLOCK
  5
E3
330
20
100
AcDbEntity
  8
0
100
AcDbBlockBegin
  2
AFDPGL-18-JB-3
 70
     0
 10
0.0
 20
0.0
 30
0.0
  3
AFDPGL-18-JB-3
  1

  0
LINE
  5
E4
330
20
100
AcDbEntity
  8
0
  6
Continuous
 62
     7
100
AcDbLine
 10
-28.49998474121094
 20
6.399999896484375
 30
0.0
 11
-27.50009557269236
 21
6.399999896484375
 31
0.0
  0
LINE
  5
E5
330
20
100
AcDbEntity
  8
0
  6
Continuous
 62
     7
100
AcDbLine
 10
28.5
 20
6.399999896484375
 30
0.0
 11
27.50014854203012
 21
6.399999896484375
 31
0.0
  0
LINE
  5
E6
330
20
100
AcDbEntity
  8
0
  6
Continuous
 62
     7
100
AcDbLine
 10
12.50001671055634
 20
27.80001070460094
 30
0.0
 11
12.00000534802075
 21
27.29999938421315
 31
0.0
  0
LINE
  5
E7
330
20
100
AcDbEntity
  8
0
  6
Continuous
 62
     7
100
AcDbLine
 10
12.00000571469809
 20
35.9999938812889
 30
0.0
 11
12.50000624549284
 21
35.49999330834726
 31
0.0
  0
LINE
  5
E8
330
20
100
AcDbEntity
  8
0
  6
Continuous
 62
     7
100
AcDbLine
 10
-12.4999889791361
 20
35.50000515161173
 30
0.0
 11
-11.99998840619446
 21
36.00000568240648
 31
0.0
  0
LINE
  5
E9
330
20
100
AcDbEntity
  8
0
  6
Continuous
 62
     7
100
AcDbLine
 10
12.50001525878906
 20
35.50000762939453
 30
0.0
 11
12.50001525878906
 21
27.80001068115235
 31
0.0
  0
LINE
  5
EA
330
20
100
AcDbEntity
  8
0
  6
Continuous
 62
     7
100
AcDbLine
 10
-12.49998474121094
 20
35.50000762939453
 30
0.0
 11
-12.49998474121094
 21
27.80001068115235
 31
0.0
  0
LINE
  5
EB
330
20
100
AcDbEntity
  8
0
  6
Continuous
 62
     7
100
AcDbLine
 10
17.00001525878906
 20
22.00000762939453
 30
0.0
 11
6.000015258789063
 21
22.00000762939453
 31
0.0
  0
LINE
  5
EC
330
20
100
AcDbEntity
  8
0
  6
Continuous
 62
     7
100
AcDbLine
 10
6.000015258789063
 20
32.00000762939453
 30
0.0
 11
6.000015258789063
 21
30.96825408935547
 31
0.0
  0
LINE
  5
ED
330
20
100
AcDbEntity
  8
0
  6
Continuous
 62
     7
100
AcDbLine
 10
6.000015258789063
 20
32.00000762939453
 30
0.0
 11
0.0000152587890625
 21
32.00000762939453
 31
0.0
  0
LINE
  5
EE
330
20
100
AcDbEntity
  8
0
  6
Continuous
 62
     7
100
AcDbLine
 10
16.50001525878906
 20
27.00000762939453
 30
0.0
 11
6.500015258789063
 21
27.00000762939453
 31
0.0
  0
LINE
  5
EF
330
20
100
AcDbEntity
  8
0
  6
Continuous
 62
     7
100
AcDbLine
 10
13.50001525878906
 20
37.00000762939453
 30
0.0
 11
13.50001525878906
 21
27.00000762939453
 31
0.0
  0
LINE
  5
F0
330
20
100
AcDbEntity
  8
0
  6
Continuous
 62
     7
100
AcDbLine
 10
13.50001525878906
 20
37.00000762939453
 30
0.0
 11
8.000030517578125
 21
37.00000762939453
 31
0.0
  0
LINE
  5
F1
330
20
100
AcDbEntity
  8
0
  6
Continuous
 62
     7
100
AcDbLine
 10
-17.0
 20
22.00000762939453
 30
0.0
 11
-6.0
 21
22.00000762939453
 31
0.0
  0
LINE
  5
F2
330
20
100
AcDbEntity
  8
0
  6
Continuous
 62
     7
100
AcDbLine
 10
-6.0
 20
32.00000762939453
 30
0.0
 11
-6.0
 21
30.96825408935547
 31
0.0
  0
LINE
  5
F3
330
20
100
AcDbEntity
  8
0
  6
Continuous
 62
     7
100
AcDbLine
 10
-5.999984741210937
 20
24.00000762939453
 30
0.0
 11
6.000015258789063
 21
24.00000762939453
 31
0.0
  0
LINE
  5
F4
330
20
100
AcDbEntity
  8
0
  6
Continuous
 62
     7
100
AcDbLine
 10
-5.999984741210937
 20
32.00000762939453
 30
0.0
 11
0.0000152587890625
 21
32.00000762939453
 31
0.0
  0
LINE
  5
F5
330
20
100
AcDbEntity
  8
0
  6
Continuous
 62
     7
100
AcDbLine
 10
-13.49998474121093
 20
37.00000762939453
 30
0.0
 11
-13.49998474121093
 21
27.00000762939453
 31
0.0
  0
LINE
  5
F6
330
20
100
AcDbEntity
  8
0
  6
Continuous
 62
     7
100
AcDbLine
 10
28.5
 20
9.600000103515624
 30
0.0
 11
27.49996195868817
 21
9.600000103515624
 31
0.0
  0
LINE
  5
F7
330
20
100
AcDbEntity
  8
0
  6
Continuous
 62
     7
100
AcDbLine
 10
26.99995600083552
 20
10.10000610351562
 30
0.0
 11
25.40000915527344
 21
10.10000610351562
 31
0.0
  0
LINE
  5
F8
330
20
100
AcDbEntity
  8
0
  6
Continuous
 62
     7
100
AcDbLine
 10
27.00014258417747
 20
5.899993896484375
 30
0.0
 11
25.40000915527344
 21
5.899993896484375
 31
0.0
  0
LINE
  5
F9
330
20
100
AcDbEntity
  8
0
  6
Continuous
 62
     7
100
AcDbLine
 10
27.49996195868817
 20
9.600000103515624
 30
0.0
 11
26.99995600083552
 21
10.10000610351562
 31
0.0
  0
LINE
  5
FA
330
20
100
AcDbEntity
  8
0
  6
Continuous
 62
     7
100
AcDbLine
 10
27.50014854203012
 20
6.399999896484375
 30
0.0
 11
27.00014258417747
 21
5.899993896484375
 31
0.0
  0
LINE
  5
FB
330
20
100
AcDbEntity
  8
0
  6
Continuous
 62
     7
100
AcDbLine
 10
-28.5
 20
9.600000103515624
 30
0.0
 11
-27.4999089893504
 21
9.600000103515624
 31
0.0
  0
LINE
  5
FC
330
20
100
AcDbEntity
  8
0
  6
Continuous
 62
     7
100
AcDbLine
 10
-26.99990303149775
 20
10.10000610351562
 30
0.0
 11
-25.39999389648437
 21
10.10000610351562
 31
0.0
  0
LINE
  5
FD
330
20
100
AcDbEntity
  8
0
  6
Continuous
 62
     7
100
AcDbLine
 10
-27.0000896148397
 20
5.899993896484375
 30
0.0
 11
-25.39999389648437
 21
5.899993896484375
 31
0.0
  0
LINE
  5
FE
330
20
100
AcDbEntity
  8
0
  6
Continuous
 62
     7
100
AcDbLine
 10
-27.4999089893504
 20
9.600000103515624
 30
0.0
 11
-26.99990303149775
 21
10.10000610351562
 31
0.0
  0
LINE
  5
FF
330
20
100
AcDbEntity
  8
0
  6
Continuous
 62
     7
100
AcDbLine
 10
-27.50009557269236
 20
6.399999896484375
 30
0.0
 11
-27.0000896148397
 21
5.899993896484374
 31
0.0
  0
LINE
  5
100
330
20
100
AcDbEntity
  8
0
  6
Continuous
 62
     7
100
AcDbLine
 10
-28.49998474121094
 20
6.399999896484375
 30
0.0
 11
-28.49998474121094
 21
5.36602783203125
 31
0.0
  0
LINE
  5
101
330
20
100
AcDbEntity
  8
0
  6
Continuous
 62
     7
100
AcDbLine
 10
12.00001525878906
 20
36.00000762939453
 30
0.0
 11
-11.99998474121094
 21
36.00000762939453
 31
0.0
  0
LINE
  5
102
330
20
100
AcDbEntity
  8
0
  6
Continuous
 62
     7
100
AcDbLine
 10
-12.49998216443691
 20
27.79999228138104
 30
0.0
 11
-11.99998159149527
 21
27.29999175058629
 31
0.0
  0
LINE
  5
103
330
20
100
AcDbEntity
  8
0
  6
Continuous
 62
     7
100
AcDbLine
 10
7.500015258789062
 20
36.50000762939453
 30
0.0
 11
-7.499984741210937
 21
36.50000762939453
 31
0.0
  0
LINE
  5
104
330
20
100
AcDbEntity
  8
0
  6
Continuous
 62
     7
100
AcDbLine
 10
-8.000005528290785
 20
36.99996345918226
 30
0.0
 11
-7.500004997496034
 21
36.49996288624061
 31
0.0
  0
LINE
  5
105
330
20
100
AcDbEntity
  8
0
  6
Continuous
 62
     7
100
AcDbLine
 10
8.000050864003242
 20
36.9999558255563
 30
0.0
 11
7.500061122801526
 21
36.4999660422086
 31
0.0
  0
LINE
  5
106
330
20
100
AcDbEntity
  8
0
  6
Continuous
 62
     7
100
AcDbLine
 10
-8.0
 20
37.00000762939453
 30
0.0
 11
-13.49998474121093
 21
37.00000762939453
 31
0.0
  0
LINE
  5
107
330
20
100
AcDbEntity
  8
0
  6
Continuous
 62
     7
100
AcDbLine
 10
6.500015258789063
 20
32.30001068115234
 30
0.0
 11
6.500015258789063
 21
31.00000762939453
 31
0.0
  0
LINE
  5
108
330
20
100
AcDbEntity
  8
0
  6
Continuous
 62
     7
100
AcDbLine
 10
6.000015258789063
 20
29.0317611694336
 30
0.0
 11
6.000015258789063
 21
22.00000762939453
 31
0.0
  0
LINE
  5
109
330
20
100
AcDbEntity
  8
0
  6
Continuous
 62
     7
100
AcDbLine
 10
6.500015258789063
 20
29.00000762939453
 30
0.0
 11
6.500015258789063
 21
27.00000762939453
 31
0.0
  0
LINE
  5
10A
330
20
100
AcDbEntity
  8
0
  6
Continuous
 62
     7
100
AcDbLine
 10
12.00001525878906
 20
27.30001068115234
 30
0.0
 11
6.500015258789063
 21
27.30001068115234
 31
0.0
  0
LINE
  5
10B
330
20
100
AcDbEntity
  8
0
  6
Continuous
 62
     7
100
AcDbLine
 10
6.500015258789063
 20
32.30001068115234
 30
0.0
 11
0.0000152587890625
 21
32.30001068115234
 31
0.0
  0
LINE
  5
10C
330
20
100
AcDbEntity
  8
0
  6
Continuous
 62
     7
100
AcDbLine
 10
-6.5
 20
32.30001068115234
 30
0.0
 11
0.0
 21
32.30001068115234
 31
0.0
  0
LINE
  5
10D
330
20
100
AcDbEntity
  8
0
  6
Continuous
 62
     7
100
AcDbLine
 10
-6.5
 20
32.30001068115234
 30
0.0
 11
-6.5
 21
31.00000762939453
 31
0.0
  0
LINE
  5
10E
330
20
100
AcDbEntity
  8
0
  6
Continuous
 62
     7
100
AcDbLine
 10
-11.99998474121094
 20
27.30001068115234
 30
0.0
 11
-6.5
 21
27.30001068115234
 31
0.0
  0
LINE
  5
10F
330
20
100
AcDbEntity
  8
0
  6
Continuous
 62
     7
100
AcDbLine
 10
-6.5
 20
29.00000762939453
 30
0.0
 11
-6.5
 21
27.00000762939453
 31
0.0
  0
LINE
  5
110
330
20
100
AcDbEntity
  8
0
  6
Continuous
 62
     7
100
AcDbLine
 10
-6.0
 20
29.0317611694336
 30
0.0
 11
-6.0
 21
22.00000762939453
 31
0.0
  0
LINE
  5
111
330
20
100
AcDbEntity
  8
0
  6
Continuous
 62
     7
100
AcDbLine
 10
28.5
 20
27.50000762939453
 30
0.0
 11
28.5
 21
9.600000103515625
 31
0.0
  0
LINE
  5
112
330
20
100
AcDbEntity
  8
0
  6
Continuous
 62
     7
100
AcDbLine
 10
28.5
 20
6.399999896484375
 30
0.0
 11
28.5
 21
2.5
 31
0.0
  0
LINE
  5
113
330
20
100
AcDbEntity
  8
0
  6
Continuous
 62
     7
100
AcDbLine
 10
28.36602783203125
 20
28.00000762939453
 30
0.0
 11
17.00001525878906
 21
28.00000762939453
 31
0.0
  0
LINE
  5
114
330
20
100
AcDbEntity
  8
0
  6
Continuous
 62
     7
100
AcDbLine
 10
-27.15829467773437
 20
0.0
 30
0.0
 11
27.1583251953125
 21
0.0
 31
0.0
  0
LINE
  5
115
330
20
100
AcDbEntity
  8
0
  6
Continuous
 62
     7
100
AcDbLine
 10
-28.5
 20
3.63397216796875
 30
0.0
 11
-28.5
 21
2.5
 31
0.0
  0
LINE
  5
116
330
20
100
AcDbEntity
  8
0
  6
Continuous
 62
     7
100
AcDbLine
 10
-28.5
 20
27.50000762939453
 30
0.0
 11
-28.5
 21
9.600000103515625
 31
0.0
  0
LINE
  5
117
330
20
100
AcDbEntity
  8
0
  6
Continuous
 62
     7
100
AcDbLine
 10
-28.36602783203125
 20
28.00000762939453
 30
0.0
 11
-17.0
 21
28.00000762939453
 31
0.0
  0
LINE
  5
118
330
20
100
AcDbEntity
  8
0
  6
Continuous
 62
     2
100
AcDbLine
 10
-12.5
 20
27.00000762939453
 30
0.0
 11
-12.5
 21
-2.0
 31
0.0
  0
LINE
  5
119
330
20
100
AcDbEntity
  8
0
  6
Continuous
 62
     2
100
AcDbLine
 10
12.50001525878906
 20
27.00000762939453
 30
0.0
 11
12.50001525878906
 21
-2.0
 31
0.0
  0
LINE
  5
11A
330
20
100
AcDbEntity
  8
0
  6
Continuous
 62
     7
100
AcDbLine
 10
16.50001525878906
 20
22.29999542236328
 30
0.0
 11
7.000015258789063
 21
22.29999542236328
 31
0.0
  0
LINE
  5
11B
330
20
100
AcDbEntity
  8
0
  6
Continuous
 62
     7
100
AcDbLine
 10
-6.5
 20
27.00000762939453
 30
0.0
 11
-13.49998474121093
 21
27.00000762939453
 31
0.0
  0
LINE
  5
11C
330
20
100
AcDbEntity
  8
0
  6
Continuous
 62
     7
100
AcDbLine
 10
-16.5
 20
22.29999542236328
 30
0.0
 11
-7.0
 21
22.29999542236328
 31
0.0
  0
LINE
  5
11D
330
20
100
AcDbEntity
  8
0
  6
Continuous
 62
     7
100
AcDbLine
 10
-7.0
 20
27.00000762939453
 30
0.0
 11
-7.0
 21
22.29999542236328
 31
0.0
  0
LINE
  5
11E
330
20
100
AcDbEntity
  8
0
  6
Continuous
 62
     7
100
AcDbLine
 10
-16.5
 20
27.00000762939453
 30
0.0
 11
-13.49998474121093
 21
27.00000762939453
 31
0.0
  0
LINE
  5
11F
330
20
100
AcDbEntity
  8
0
  6
Continuous
 62
     7
100
AcDbLine
 10
-16.5
 20
26.59999847412109
 30
0.0
 11
-7.0
 21
26.59999847412109
 31
0.0
  0
LINE
  5
120
330
20
100
AcDbEntity
  8
0
  6
Continuous
 62
     7
100
AcDbLine
 10
-16.5
 20
27.00000762939453
 30
0.0
 11
-16.5
 21
22.30001068115234
 31
0.0
  0
LINE
  5
121
330
20
100
AcDbEntity
  8
0
  6
Continuous
 62
     7
100
AcDbLine
 10
-17.0
 20
22.00000762939453
 30
0.0
 11
-17.0
 21
28.00000762939453
 31
0.0
  0
LINE
  5
122
330
20
100
AcDbEntity
  8
0
  6
Continuous
 62
     7
100
AcDbLine
 10
17.00001525878906
 20
22.00000762939453
 30
0.0
 11
17.00001525878906
 21
28.00000762939453
 31
0.0
  0
LINE
  5
123
330
20
100
AcDbEntity
  8
0
  6
Continuous
 62
     7
100
AcDbLine
 10
16.50001525878906
 20
27.00000762939453
 30
0.0
 11
16.50001525878906
 21
22.30001068115234
 31
0.0
  0
LINE
  5
124
330
20
100
AcDbEntity
  8
0
  6
Continuous
 62
     7
100
AcDbLine
 10
7.000015258789063
 20
27.00000762939453
 30
0.0
 11
7.000015258789063
 21
22.29999542236328
 31
0.0
  0
LINE
  5
125
330
20
100
AcDbEntity
  8
0
  6
Continuous
 62
     2
100
AcDbLine
 10
-30.5
 20
8.0
 30
0.0
 11
-21.29998779296875
 21
8.0
 31
0.0
  0
LINE
  5
126
330
20
100
AcDbEntity
  8
0
  6
Continuous
 62
     2
100
AcDbLine
 10
-25.39999389648437
 20
12.09999847412109
 30
0.0
 11
-25.39999389648437
 21
3.900001525878905
 31
0.0
  0
LINE
  5
127
330
20
100
AcDbEntity
  8
0
  6
Continuous
 62
     2
100
AcDbLine
 10
25.40000915527344
 20
12.09999847412109
 30
0.0
 11
25.40000915527344
 21
3.900001525878905
 31
0.0
  0
LINE
  5
128
330
20
100
AcDbEntity
  8
0
  6
Continuous
 62
     2
100
AcDbLine
 10
21.30000305175781
 20
8.0
 30
0.0
 11
30.5
 21
8.0
 31
0.0
  0
LINE
  5
129
330
20
100
AcDbEntity
  8
0
  6
Continuous
 62
     7
100
AcDbLine
 10
3.135726928710937
 20
9.5
 30
0.0
 11
-3.135696411132812
 21
9.5
 31
0.0
  0
LINE
  5
12A
330
20
100
AcDbEntity
  8
0
  6
Continuous
 62
     7
100
AcDbLine
 10
3.103744506835937
 20
12.5
 30
0.0
 11
-3.103713989257812
 21
12.5
 31
0.0
  0
CIRCLE
  5
12B
330
20
100
AcDbEntity
  8
0
  6
Continuous
 62
     7
100
AcDbCircle
 10
12.50001525878906
 20
11.0
 30
0.0
 40
9.5
  0
ARC
  5
12C
330
20
100
AcDbEntity
  8
0
  6
Continuous
 62
     7
100
AcDbCircle
 10
25.40000915527344
 20
8.0
 30
0.0
 40
2.099999904632568
100
AcDbArc
 50
90.00000250447817
 51
270.000028004002
  0
ARC
  5
12D
330
20
100
AcDbEntity
  8
0
  6
Continuous
 62
     7
100
AcDbCircle
 10
-25.39999389648437
 20
8.0
 30
0.0
 40
2.099999904632568
100
AcDbArc
 50
270.0000384766569
 51
90.00005714599154
  0
CIRCLE
  5
12E
330
20
100
AcDbEntity
  8
0
  6
Continuous
 62
     7
100
AcDbCircle
 10
-12.5
 20
11.0
 30
0.0
 40
9.5
  0
ARC
  5
12F
330
20
100
AcDbEntity
  8
0
  6
Continuous
 62
     7
100
AcDbCircle
 10
-28.99998474121094
 20
4.5
 30
0.0
 40
1.0
100
AcDbArc
 50
299.9999095378888
 51
60.00006997154381
  0
ARC
  5
130
330
20
100
AcDbEntity
  8
0
  6
Continuous
 62
     7
100
AcDbCircle
 10
6.250015258789063
 20
30.00000762939453
 30
0.0
 40
1.0
100
AcDbArc
 50
75.52250131328737
 51
284.4774882140578
  0
ARC
  5
131
330
20
100
AcDbEntity
  8
0
  6
Continuous
 62
     7
100
AcDbCircle
 10
6.500015258789063
 20
30.00000762939453
 30
0.0
 40
1.0
100
AcDbArc
 50
90.00000250447817
 51
270.000028004002
  0
ARC
  5
132
330
20
100
AcDbEntity
  8
0
  6
Continuous
 62
     7
100
AcDbCircle
 10
-6.5
 20
30.00000762939453
 30
0.0
 40
1.0
100
AcDbArc
 50
270.0000384766569
 51
90.00005714599154
  0
ARC
  5
133
330
20
100
AcDbEntity
  8
0
  6
Continuous
 62
     7
100
AcDbCircle
 10
-6.25
 20
30.00000762939453
 30
0.0
 40
1.0
100
AcDbArc
 50
255.5225919269794
 51
104.4775719975607
  0
ARC
  5
134
330
20
100
AcDbEntity
  8
0
  6
Continuous
 62
     7
100
AcDbCircle
 10
25.50001525878907
 20
2.5
 30
0.0
 40
3.0
100
AcDbArc
 50
303.5573145293468
 51
359.999997495522
  0
ARC
  5
135
330
20
100
AcDbEntity
  8
0
  6
Continuous
 62
     7
100
AcDbCircle
 10
27.5
 20
27.50000762939453
 30
0.0
 40
1.0
100
AcDbArc
 50
359.999997495522
 51
29.99999741973147
  0
ARC
  5
136
330
20
100
AcDbEntity
  8
0
  6
Continuous
 62
     7
100
AcDbCircle
 10
-25.5
 20
2.5
 30
0.0
 40
3.0
100
AcDbArc
 50
180.000008651422
 51
236.4426838767914
  0
ARC
  5
137
330
20
100
AcDbEntity
  8
0
  6
Continuous
 62
     7
100
AcDbCircle
 10
-27.5
 20
27.50000762939453
 30
0.0
 40
1.0
100
AcDbArc
 50
149.9999973439411
 51
180.0000050089563
  0
CIRCLE
  5
138
330
20
100
AcDbEntity
  8
0
  6
Continuous
 62
     7
100
AcDbCircle
 10
12.50001525878906
 20
11.0
 30
0.0
 40
2.066999912261962
  0
CIRCLE
  5
139
330
20
100
AcDbEntity
  8
0
  6
Continuous
 62
     2
100
AcDbCircle
 10
12.50001525878906
 20
11.0
 30
0.0
 40
2.5
  0
CIRCLE
  5
13A
330
20
100
AcDbEntity
  8
0
  6
Continuous
 62
     7
100
AcDbCircle
 10
12.50001525878906
 20
11.0
 30
0.0
 40
5.0
  0
CIRCLE
  5
13B
330
20
100
AcDbEntity
  8
0
  6
Continuous
 62
     7
100
AcDbCircle
 10
-12.5
 20
11.0
 30
0.0
 40
2.066999912261962
  0
CIRCLE
  5
13C
330
20
100
AcDbEntity
  8
0
  6
Continuous
 62
     7
100
AcDbCircle
 10
-12.5
 20
11.0
 30
0.0
 40
5.0
  0
CIRCLE
  5
13D
330
20
100
AcDbEntity
  8
0
  6
Continuous
 62
     2
100
AcDbCircle
 10
-12.5
 20
11.0
 30
0.0
 40
2.5
  0
LINE
  5
13E
330
20
100
AcDbEntity
  8
0
  6
CENTER
 62
     2
100
AcDbLine
 10
-30.5
 20
11.0
 30
0.0
 11
30.5
 21
11.0
 31
0.0
  0
LINE
  5
13F
330
20
100
AcDbEntity
  8
0
  6
Continuous
 62
     2
100
AcDbLine
 10
-10.0
 20
35.00000762939453
 30
0.0
 11
-10.0
 21
39.00000762939453
 31
0.0
  0
LINE
  5
140
330
20
100
AcDbEntity
  8
0
  6
Continuous
 62
     2
100
AcDbLine
 10
10.0
 20
35.00000762939453
 30
0.0
 11
10.0
 21
39.00000762939453
 31
0.0
  0
LINE
  5
141
330
20
100
AcDbEntity
  8
0
  6
Continuous
 62
     2
100
AcDbLine
 10
-26.5
 20
24.00000762939453
 30
0.0
 11
-30.5
 21
24.00000762939453
 31
0.0
  0
LINE
  5
142
330
20
100
AcDbEntity
  8
0
  6
Continuous
 62
     2
100
AcDbLine
 10
-22.5
 20
26.00000762939453
 30
0.0
 11
-22.5
 21
30.00000762939453
 31
0.0
  0
LINE
  5
143
330
20
100
AcDbEntity
  8
0
  6
Continuous
 62
     2
100
AcDbLine
 10
22.5
 20
26.00000762939453
 30
0.0
 11
22.5
 21
30.00000762939453
 31
0.0
  0
LINE
  5
144
330
20
100
AcDbEntity
  8
0
  6
Continuous
 62
     2
100
AcDbLine
 10
26.5
 20
24.00000762939453
 30
0.0
 11
30.5
 21
24.00000762939453
 31
0.0
  0
LINE
  5
145
330
20
100
AcDbEntity
  8
0
  6
CENTER
 62
     2
100
AcDbLine
 10
0.0
 20
-4.0
 30
0.0
 11
0.0
 21
41.0
 31
0.0
  0
ENDBLK
  5
146
330
20
100
AcDbEntity
  8
0
100
AcDbBlockEnd
  0
BLOCK
  5
147
330
21
100
AcDbEntity
  8
0
100
AcDbBlockBegin
  2
AFDPGL-18-JB-4
 70
     0
 10
0.0
 20
0.0
 30
0.0
  3
AFDPGL-18-JB-4
  1

  0
LINE
  5
148
330
21
100
AcDbEntity
  8
0
  6
Continuous
 62
     7
100
AcDbLine
 10
-82.99999999656835
 20
-13.50000000594377
 30
0.0
 11
-82.99999999656835
 21
-28.50000000594377
 31
0.0
  0
LINE
  5
149
330
21
100
AcDbEntity
  8
0
  6
Continuous
 62
     7
100
AcDbLine
 10
82.99998855933985
 20
-13.50000000594377
 30
0.0
 11
82.99998855933985
 21
-28.50000000594377
 31
0.0
  0
LINE
  5
14A
330
21
100
AcDbEntity
  8
0
  6
Continuous
 62
     2
100
AcDbLine
 10
-89.80215303741012
 20
12.50001526473283
 30
0.0
 11
-79.77454652267815
 21
12.50001526473283
 31
0.0
  0
LINE
  5
14B
330
21
100
AcDbEntity
  8
0
  6
Continuous
 62
     7
100
AcDbLine
 10
-82.99999999656835
 20
28.49999999405623
 30
0.0
 11
-82.99999999656835
 21
13.49999999405622
 31
0.0
  0
LINE
  5
14C
330
21
100
AcDbEntity
  8
0
  6
Continuous
 62
     7
100
AcDbLine
 10
-40.99999999656836
 20
5.999999994056224
 30
0.0
 11
40.99998855933985
 21
5.999999994056224
 31
0.0
  0
LINE
  5
14D
330
21
100
AcDbEntity
  8
0
  6
Continuous
 62
     7
100
AcDbLine
 10
-40.99999999656836
 20
-6.000000005943775
 30
0.0
 11
40.99998855933985
 21
-6.000000005943775
 31
0.0
  0
LINE
  5
14E
330
21
100
AcDbEntity
  8
0
  6
Continuous
 62
     7
100
AcDbLine
 10
-85.100006100084
 20
16.00000000594377
 30
0.0
 11
-82.99999999656835
 21
16.00000000594377
 31
0.0
  0
LINE
  5
14F
330
21
100
AcDbEntity
  8
0
  6
Continuous
 62
     7
100
AcDbLine
 10
-85.100006100084
 20
9.000000005943775
 30
0.0
 11
-83.99999999656834
 21
9.000000005943775
 31
0.0
  0
LINE
  5
150
330
21
100
AcDbEntity
  8
0
  6
Continuous
 62
     7
100
AcDbLine
 10
-86.60000610008401
 20
10.50000000594377
 30
0.0
 11
-86.60000610008401
 21
14.50000000594377
 31
0.0
  0
LINE
  5
151
330
21
100
AcDbEntity
  8
0
  6
Continuous
 62
     7
100
AcDbLine
 10
-82.99999999656835
 20
28.49999999405623
 30
0.0
 11
82.99998855933985
 21
28.49999999405623
 31
0.0
  0
LINE
  5
152
330
21
100
AcDbEntity
  8
0
  6
Continuous
 62
     7
100
AcDbLine
 10
-82.99999999656835
 20
-28.50000000594377
 30
0.0
 11
82.99998855933985
 21
-28.50000000594377
 31
0.0
  0
LINE
  5
153
330
21
100
AcDbEntity
  8
0
  6
Continuous
 62
     7
100
AcDbLine
 10
82.99998855933985
 20
28.49999999405623
 30
0.0
 11
82.99998855933985
 21
13.49999999405622
 31
0.0
  0
LINE
  5
154
330
21
100
AcDbEntity
  8
0
  6
Continuous
 62
     7
100
AcDbLine
 10
82.99998855933985
 20
-13.50000000594377
 30
0.0
 11
41.99998855933985
 21
-13.50000000594377
 31
0.0
  0
LINE
  5
155
330
21
100
AcDbEntity
  8
0
  6
Continuous
 62
     7
100
AcDbLine
 10
82.99998855933985
 20
-7.500000005943774
 30
0.0
 11
41.99998855933985
 21
-7.500000005943774
 31
0.0
  0
LINE
  5
156
330
21
100
AcDbEntity
  8
0
  6
Continuous
 62
     7
100
AcDbLine
 10
82.99998855933985
 20
7.499999994056223
 30
0.0
 11
41.99998855933985
 21
7.499999994056223
 31
0.0
  0
LINE
  5
157
330
21
100
AcDbEntity
  8
0
  6
Continuous
 62
     7
100
AcDbLine
 10
82.99998855933985
 20
13.49999999405622
 30
0.0
 11
41.99998855933985
 21
13.49999999405622
 31
0.0
  0
LINE
  5
158
330
21
100
AcDbEntity
  8
0
  6
Continuous
 62
     7
100
AcDbLine
 10
40.99998855933985
 20
12.99999999405622
 30
0.0
 11
40.99998855933985
 21
-13.00000000594377
 31
0.0
  0
LINE
  5
159
330
21
100
AcDbEntity
  8
0
  6
Continuous
 62
     7
100
AcDbLine
 10
41.99998855933985
 20
-13.00000000594377
 30
0.0
 11
40.99998855933985
 21
-13.00000000594377
 31
0.0
  0
LINE
  5
15A
330
21
100
AcDbEntity
  8
0
  6
Continuous
 62
     7
100
AcDbLine
 10
41.99998855933985
 20
12.99999999405622
 30
0.0
 11
40.99998855933985
 21
12.99999999405622
 31
0.0
  0
LINE
  5
15B
330
21
100
AcDbEntity
  8
0
  6
Continuous
 62
     7
100
AcDbLine
 10
41.99998855933985
 20
13.49999999405622
 30
0.0
 11
41.99998855933985
 21
-13.50000000594377
 31
0.0
  0
LINE
  5
15C
330
21
100
AcDbEntity
  8
0
  6
Continuous
 62
     7
100
AcDbLine
 10
83.99998855933985
 20
12.99999999405622
 30
0.0
 11
83.99998855933985
 21
-13.00000000594377
 31
0.0
  0
LINE
  5
15D
330
21
100
AcDbEntity
  8
0
  6
Continuous
 62
     7
100
AcDbLine
 10
82.99998855933985
 20
13.49999999405622
 30
0.0
 11
82.99998855933985
 21
-13.50000000594377
 31
0.0
  0
LINE
  5
15E
330
21
100
AcDbEntity
  8
0
  6
Continuous
 62
     7
100
AcDbLine
 10
82.99998855933985
 20
-13.00000000594377
 30
0.0
 11
83.99998855933985
 21
-13.00000000594377
 31
0.0
  0
LINE
  5
15F
330
21
100
AcDbEntity
  8
0
  6
Continuous
 62
     7
100
AcDbLine
 10
82.99998855933985
 20
12.99999999405622
 30
0.0
 11
83.99998855933985
 21
12.99999999405622
 31
0.0
  0
LINE
  5
160
330
21
100
AcDbEntity
  8
0
  6
Continuous
 62
     7
100
AcDbLine
 10
-83.99999999656834
 20
-12.99999999405622
 30
0.0
 11
-83.99999999656834
 21
13.00000000594377
 31
0.0
  0
LINE
  5
161
330
21
100
AcDbEntity
  8
0
  6
Continuous
 62
     7
100
AcDbLine
 10
-82.99999999656835
 20
13.00000000594377
 30
0.0
 11
-83.99999999656834
 21
13.00000000594377
 31
0.0
  0
LINE
  5
162
330
21
100
AcDbEntity
  8
0
  6
Continuous
 62
     7
100
AcDbLine
 10
-82.99999999656835
 20
-12.99999999405622
 30
0.0
 11
-83.99999999656834
 21
-12.99999999405622
 31
0.0
  0
LINE
  5
163
330
21
100
AcDbEntity
  8
0
  6
Continuous
 62
     7
100
AcDbLine
 10
-82.99999999656835
 20
-13.50000000594377
 30
0.0
 11
-41.99999999656836
 21
-13.50000000594377
 31
0.0
  0
LINE
  5
164
330
21
100
AcDbEntity
  8
0
  6
Continuous
 62
     7
100
AcDbLine
 10
-82.99999999656835
 20
-7.500000005943774
 30
0.0
 11
-41.99999999656836
 21
-7.500000005943774
 31
0.0
  0
LINE
  5
165
330
21
100
AcDbEntity
  8
0
  6
Continuous
 62
     7
100
AcDbLine
 10
-82.99999999656835
 20
7.499999994056223
 30
0.0
 11
-41.99999999656836
 21
7.499999994056223
 31
0.0
  0
LINE
  5
166
330
21
100
AcDbEntity
  8
0
  6
Continuous
 62
     7
100
AcDbLine
 10
-82.99999999656835
 20
13.49999999405622
 30
0.0
 11
-41.99999999656836
 21
13.49999999405622
 31
0.0
  0
LINE
  5
167
330
21
100
AcDbEntity
  8
0
  6
Continuous
 62
     7
100
AcDbLine
 10
-82.99999999656835
 20
13.49999999405622
 30
0.0
 11
-82.99999999656835
 21
-13.50000000594377
 31
0.0
  0
LINE
  5
168
330
21
100
AcDbEntity
  8
0
  6
Continuous
 62
     7
100
AcDbLine
 10
-40.99999999656836
 20
12.99999999405622
 30
0.0
 11
-40.99999999656836
 21
-13.00000000594377
 31
0.0
  0
LINE
  5
169
330
21
100
AcDbEntity
  8
0
  6
Continuous
 62
     7
100
AcDbLine
 10
-41.99999999656836
 20
-13.00000000594377
 30
0.0
 11
-40.99999999656836
 21
-13.00000000594377
 31
0.0
  0
LINE
  5
16A
330
21
100
AcDbEntity
  8
0
  6
Continuous
 62
     7
100
AcDbLine
 10
-41.99999999656836
 20
12.99999999405622
 30
0.0
 11
-40.99999999656836
 21
12.99999999405622
 31
0.0
  0
LINE
  5
16B
330
21
100
AcDbEntity
  8
0
  6
Continuous
 62
     7
100
AcDbLine
 10
-41.99999999656836
 20
13.49999999405622
 30
0.0
 11
-41.99999999656836
 21
-13.50000000594377
 31
0.0
  0
LINE
  5
16C
330
21
100
AcDbEntity
  8
0
  6
Continuous
 62
     7
100
AcDbLine
 10
-82.99999999656835
 20
-17.00000000594377
 30
0.0
 11
82.99998855933985
 21
-17.00000000594377
 31
0.0
  0
LINE
  5
16D
330
21
100
AcDbEntity
  8
0
  6
Continuous
 62
     7
100
AcDbLine
 10
-82.99999999656835
 20
16.99999999405622
 30
0.0
 11
82.99998855933985
 21
16.99999999405622
 31
0.0
  0
LINE
  5
16E
330
21
100
AcDbEntity
  8
0
  6
Continuous
 62
     2
100
AcDbLine
 10
-62.49999999656836
 20
15.25268669676273
 30
0.0
 11
-62.49999999656836
 21
-15.31773127020537
 31
0.0
  0
LINE
  5
16F
330
21
100
AcDbEntity
  8
0
  6
Continuous
 62
     2
100
AcDbLine
 10
62.49998855933984
 20
15.25268669676273
 30
0.0
 11
62.49998855933984
 21
-15.31773127020537
 31
0.0
  0
CIRCLE
  5
170
330
21
100
AcDbEntity
  8
0
  6
Continuous
 62
     2
100
AcDbCircle
 10
50.00000381812891
 20
22.49999999405623
 30
0.0
 40
2.5
  0
CIRCLE
  5
171
330
21
100
AcDbEntity
  8
0
  6
Continuous
 62
     2
100
AcDbCircle
 10
-49.99999999656836
 20
22.49999999405623
 30
0.0
 40
2.5
  0
CIRCLE
  5
172
330
21
100
AcDbEntity
  8
0
  6
Continuous
 62
     2
100
AcDbCircle
 10
-49.99999999656836
 20
-22.50000000594377
 30
0.0
 40
2.5
  0
CIRCLE
  5
173
330
21
100
AcDbEntity
  8
0
  6
Continuous
 62
     2
100
AcDbCircle
 10
50.00000381812891
 20
-22.50000000594377
 30
0.0
 40
2.5
  0
ARC
  5
174
330
21
100
AcDbEntity
  8
0
  6
Continuous
 62
     7
100
AcDbCircle
 10
-85.100006100084
 20
14.50000000594377
 30
0.0
 40
1.5
100
AcDbArc
 50
89.99998201391065
 51
179.9999640278213
  0
ARC
  5
175
330
21
100
AcDbEntity
  8
0
  6
Continuous
 62
     7
100
AcDbCircle
 10
-85.100006100084
 20
10.50000000594377
 30
0.0
 40
1.5
100
AcDbArc
 50
179.9999813306653
 51
270.0000248162786
  0
CIRCLE
  5
176
330
21
100
AcDbEntity
  8
0
  6
Continuous
 62
     2
100
AcDbCircle
 10
54.99998855933984
 20
-10.00000000594377
 30
0.0
 40
1.5
  0
CIRCLE
  5
177
330
21
100
AcDbEntity
  8
0
  6
Continuous
 62
     2
100
AcDbCircle
 10
69.99998855933985
 20
-10.00000000594377
 30
0.0
 40
1.5
  0
CIRCLE
  5
178
330
21
100
AcDbEntity
  8
0
  6
Continuous
 62
     2
100
AcDbCircle
 10
54.99998855933984
 20
9.999999994056224
 30
0.0
 40
1.5
  0
CIRCLE
  5
179
330
21
100
AcDbEntity
  8
0
  6
Continuous
 62
     2
100
AcDbCircle
 10
69.99998855933985
 20
9.999999994056224
 30
0.0
 40
1.5
  0
CIRCLE
  5
17A
330
21
100
AcDbEntity
  8
0
  6
Continuous
 62
     2
100
AcDbCircle
 10
-19.99999999656836
 20
22.49999999405623
 30
0.0
 40
2.5
  0
CIRCLE
  5
17B
330
21
100
AcDbEntity
  8
0
  6
Continuous
 62
     2
100
AcDbCircle
 10
-19.99999999656836
 20
-22.50000000594377
 30
0.0
 40
2.5
  0
CIRCLE
  5
17C
330
21
100
AcDbEntity
  8
0
  6
Continuous
 62
     2
100
AcDbCircle
 10
20.00000381812891
 20
22.49999999405623
 30
0.0
 40
2.5
  0
CIRCLE
  5
17D
330
21
100
AcDbEntity
  8
0
  6
Continuous
 62
     2
100
AcDbCircle
 10
20.00000381812891
 20
-22.50000000594377
 30
0.0
 40
2.5
  0
CIRCLE
  5
17E
330
21
100
AcDbEntity
  8
0
  6
Continuous
 62
     2
100
AcDbCircle
 10
-54.99999999656836
 20
-10.00000000594377
 30
0.0
 40
1.5
  0
CIRCLE
  5
17F
330
21
100
AcDbEntity
  8
0
  6
Continuous
 62
     2
100
AcDbCircle
 10
-70.00000381126561
 20
-10.00000000594377
 30
0.0
 40
1.5
  0
CIRCLE
  5
180
330
21
100
AcDbEntity
  8
0
  6
Continuous
 62
     2
100
AcDbCircle
 10
-54.99999999656836
 20
9.999999994056224
 30
0.0
 40
1.5
  0
CIRCLE
  5
181
330
21
100
AcDbEntity
  8
0
  6
Continuous
 62
     2
100
AcDbCircle
 10
-70.00000381126561
 20
9.999999994056224
 30
0.0
 40
1.5
  0
CIRCLE
  5
182
330
21
100
AcDbEntity
  8
0
  6
Continuous
 62
     7
100
AcDbCircle
 10
50.00000381812891
 20
22.49999999405623
 30
0.0
 40
2.067
  0
CIRCLE
  5
183
330
21
100
AcDbEntity
  8
0
  6
Continuous
 62
     7
100
AcDbCircle
 10
20.00000381812891
 20
22.49999999405623
 30
0.0
 40
2.067
  0
CIRCLE
  5
184
330
21
100
AcDbEntity
  8
0
  6
Continuous
 62
     7
100
AcDbCircle
 10
20.00000381812891
 20
-22.50000000594377
 30
0.0
 40
2.067
  0
CIRCLE
  5
185
330
21
100
AcDbEntity
  8
0
  6
Continuous
 62
     7
100
AcDbCircle
 10
50.00000381812891
 20
-22.50000000594377
 30
0.0
 40
2.067
  0
CIRCLE
  5
186
330
21
100
AcDbEntity
  8
0
  6
Continuous
 62
     7
100
AcDbCircle
 10
-49.99999999656836
 20
22.49999999405623
 30
0.0
 40
2.067
  0
CIRCLE
  5
187
330
21
100
AcDbEntity
  8
0
  6
Continuous
 62
     7
100
AcDbCircle
 10
-19.99999999656836
 20
22.49999999405623
 30
0.0
 40
2.067
  0
CIRCLE
  5
188
330
21
100
AcDbEntity
  8
0
  6
Continuous
 62
     7
100
AcDbCircle
 10
-49.99999999656836
 20
-22.50000000594377
 30
0.0
 40
2.067
  0
CIRCLE
  5
189
330
21
100
AcDbEntity
  8
0
  6
Continuous
 62
     7
100
AcDbCircle
 10
-19.99999999656836
 20
-22.50000000594377
 30
0.0
 40
2.067
  0
CIRCLE
  5
18A
330
21
100
AcDbEntity
  8
0
  6
Continuous
 62
     7
100
AcDbCircle
 10
-70.00000381126561
 20
9.999999994056224
 30
0.0
 40
1.2295
  0
CIRCLE
  5
18B
330
21
100
AcDbEntity
  8
0
  6
Continuous
 62
     7
100
AcDbCircle
 10
-54.99999999656836
 20
9.999999994056224
 30
0.0
 40
1.2295
  0
CIRCLE
  5
18C
330
21
100
AcDbEntity
  8
0
  6
Continuous
 62
     7
100
AcDbCircle
 10
-70.00000381126561
 20
-10.00000000594377
 30
0.0
 40
1.2295
  0
CIRCLE
  5
18D
330
21
100
AcDbEntity
  8
0
  6
Continuous
 62
     7
100
AcDbCircle
 10
-54.99999999656836
 20
-10.00000000594377
 30
0.0
 40
1.2295
  0
CIRCLE
  5
18E
330
21
100
AcDbEntity
  8
0
  6
Continuous
 62
     7
100
AcDbCircle
 10
54.99998855933984
 20
9.999999994056224
 30
0.0
 40
1.2295
  0
CIRCLE
  5
18F
330
21
100
AcDbEntity
  8
0
  6
Continuous
 62
     7
100
AcDbCircle
 10
69.99998855933985
 20
9.999999994056224
 30
0.0
 40
1.2295
  0
CIRCLE
  5
190
330
21
100
AcDbEntity
  8
0
  6
Continuous
 62
     7
100
AcDbCircle
 10
54.99998855933984
 20
-10.00000000594377
 30
0.0
 40
1.2295
  0
CIRCLE
  5
191
330
21
100
AcDbEntity
  8
0
  6
Continuous
 62
     7
100
AcDbCircle
 10
69.99998855933985
 20
-10.00000000594377
 30
0.0
 40
1.2295
  0
LINE
  5
192
330
21
100
AcDbEntity
  8
0
  6
CENTER
 62
     2
100
AcDbLine
 10
-90.0
 20
0.0
 30
0.0
 11
90.0
 21
0.0
 31
0.0
  0
LINE
  5
193
330
21
100
AcDbEntity
  8
0
  6
Continuous
 62
     2
100
AcDbLine
 10
50.00000381812891
 20
17.99999999405623
 30
0.0
 11
50.00000381812891
 21
26.99999999405623
 31
0.0
  0
LINE
  5
194
330
21
100
AcDbEntity
  8
0
  6
Continuous
 62
     2
100
AcDbLine
 10
45.50000381812891
 20
22.49999999405623
 30
0.0
 11
54.50000381812891
 21
22.49999999405623
 31
0.0
  0
LINE
  5
195
330
21
100
AcDbEntity
  8
0
  6
Continuous
 62
     2
100
AcDbLine
 10
20.00000381812891
 20
17.99999999405623
 30
0.0
 11
20.00000381812891
 21
26.99999999405623
 31
0.0
  0
LINE
  5
196
330
21
100
AcDbEntity
  8
0
  6
Continuous
 62
     2
100
AcDbLine
 10
15.50000381812891
 20
22.49999999405623
 30
0.0
 11
24.50000381812891
 21
22.49999999405623
 31
0.0
  0
LINE
  5
197
330
21
100
AcDbEntity
  8
0
  6
Continuous
 62
     2
100
AcDbLine
 10
-19.99999999656836
 20
17.99999999405623
 30
0.0
 11
-19.99999999656836
 21
26.99999999405623
 31
0.0
  0
LINE
  5
198
330
21
100
AcDbEntity
  8
0
  6
Continuous
 62
     2
100
AcDbLine
 10
-24.49999999656836
 20
22.49999999405623
 30
0.0
 11
-15.49999999656835
 21
22.49999999405623
 31
0.0
  0
LINE
  5
199
330
21
100
AcDbEntity
  8
0
  6
Continuous
 62
     2
100
AcDbLine
 10
-49.99999999656836
 20
17.99999999405623
 30
0.0
 11
-49.99999999656836
 21
26.99999999405623
 31
0.0
  0
LINE
  5
19A
330
21
100
AcDbEntity
  8
0
  6
Continuous
 62
     2
100
AcDbLine
 10
-54.49999999656835
 20
22.49999999405623
 30
0.0
 11
-45.49999999656836
 21
22.49999999405623
 31
0.0
  0
LINE
  5
19B
330
21
100
AcDbEntity
  8
0
  6
Continuous
 62
     2
100
AcDbLine
 10
-49.99999999656836
 20
-27.00000000594377
 30
0.0
 11
-49.99999999656836
 21
-18.00000000594377
 31
0.0
  0
LINE
  5
19C
330
21
100
AcDbEntity
  8
0
  6
Continuous
 62
     2
100
AcDbLine
 10
-54.49999999656835
 20
-22.50000000594377
 30
0.0
 11
-45.49999999656836
 21
-22.50000000594377
 31
0.0
  0
LINE
  5
19D
330
21
100
AcDbEntity
  8
0
  6
Continuous
 62
     2
100
AcDbLine
 10
-19.99999999656836
 20
-27.00000000594377
 30
0.0
 11
-19.99999999656836
 21
-18.00000000594377
 31
0.0
  0
LINE
  5
19E
330
21
100
AcDbEntity
  8
0
  6
Continuous
 62
     2
100
AcDbLine
 10
-24.49999999656836
 20
-22.50000000594377
 30
0.0
 11
-15.49999999656835
 21
-22.50000000594377
 31
0.0
  0
LINE
  5
19F
330
21
100
AcDbEntity
  8
0
  6
Continuous
 62
     2
100
AcDbLine
 10
20.00000381812891
 20
-27.00000000594377
 30
0.0
 11
20.00000381812891
 21
-18.00000000594377
 31
0.0
  0
LINE
  5
1A0
330
21
100
AcDbEntity
  8
0
  6
Continuous
 62
     2
100
AcDbLine
 10
15.50000381812891
 20
-22.50000000594377
 30
0.0
 11
24.50000381812891
 21
-22.50000000594377
 31
0.0
  0
LINE
  5
1A1
330
21
100
AcDbEntity
  8
0
  6
Continuous
 62
     2
100
AcDbLine
 10
50.00000381812891
 20
-27.00000000594377
 30
0.0
 11
50.00000381812891
 21
-18.00000000594377
 31
0.0
  0
LINE
  5
1A2
330
21
100
AcDbEntity
  8
0
  6
Continuous
 62
     2
100
AcDbLine
 10
45.50000381812891
 20
-22.50000000594377
 30
0.0
 11
54.50000381812891
 21
-22.50000000594377
 31
0.0
  0
LINE
  5
1A3
330
21
100
AcDbEntity
  8
0
  6
Continuous
 62
     2
100
AcDbLine
 10
51.99998855933984
 20
9.999999994056224
 30
0.0
 11
57.99998855933985
 21
9.999999994056224
 31
0.0
  0
LINE
  5
1A4
330
21
100
AcDbEntity
  8
0
  6
Continuous
 62
     2
100
AcDbLine
 10
54.99998855933984
 20
6.999999994056224
 30
0.0
 11
54.99998855933984
 21
12.99999999405622
 31
0.0
  0
LINE
  5
1A5
330
21
100
AcDbEntity
  8
0
  6
Continuous
 62
     2
100
AcDbLine
 10
66.99998855933985
 20
9.999999994056224
 30
0.0
 11
72.99998855933985
 21
9.999999994056224
 31
0.0
  0
LINE
  5
1A6
330
21
100
AcDbEntity
  8
0
  6
Continuous
 62
     2
100
AcDbLine
 10
69.99998855933985
 20
6.999999994056224
 30
0.0
 11
69.99998855933985
 21
12.99999999405622
 31
0.0
  0
LINE
  5
1A7
330
21
100
AcDbEntity
  8
0
  6
Continuous
 62
     2
100
AcDbLine
 10
51.99998855933984
 20
-10.00000000594377
 30
0.0
 11
57.99998855933985
 21
-10.00000000594377
 31
0.0
  0
LINE
  5
1A8
330
21
100
AcDbEntity
  8
0
  6
Continuous
 62
     2
100
AcDbLine
 10
54.99998855933984
 20
-13.00000000594377
 30
0.0
 11
54.99998855933984
 21
-7.000000005943775
 31
0.0
  0
LINE
  5
1A9
330
21
100
AcDbEntity
  8
0
  6
Continuous
 62
     2
100
AcDbLine
 10
66.99998855933985
 20
-10.00000000594377
 30
0.0
 11
72.99998855933985
 21
-10.00000000594377
 31
0.0
  0
LINE
  5
1AA
330
21
100
AcDbEntity
  8
0
  6
Continuous
 62
     2
100
AcDbLine
 10
69.99998855933985
 20
-13.00000000594377
 30
0.0
 11
69.99998855933985
 21
-7.000000005943775
 31
0.0
  0
LINE
  5
1AB
330
21
100
AcDbEntity
  8
0
  6
Continuous
 62
     2
100
AcDbLine
 10
-57.99999999656836
 20
9.999999994056224
 30
0.0
 11
-51.99999999656835
 21
9.999999994056224
 31
0.0
  0
LINE
  5
1AC
330
21
100
AcDbEntity
  8
0
  6
Continuous
 62
     2
100
AcDbLine
 10
-54.99999999656836
 20
6.999999994056224
 30
0.0
 11
-54.99999999656836
 21
12.99999999405622
 31
0.0
  0
LINE
  5
1AD
330
21
100
AcDbEntity
  8
0
  6
Continuous
 62
     2
100
AcDbLine
 10
-57.99999999656836
 20
-10.00000000594377
 30
0.0
 11
-51.99999999656835
 21
-10.00000000594377
 31
0.0
  0
LINE
  5
1AE
330
21
100
AcDbEntity
  8
0
  6
Continuous
 62
     2
100
AcDbLine
 10
-54.99999999656836
 20
-13.00000000594377
 30
0.0
 11
-54.99999999656836
 21
-7.000000005943775
 31
0.0
  0
LINE
  5
1AF
330
21
100
AcDbEntity
  8
0
  6
Continuous
 62
     2
100
AcDbLine
 10
-73.00000381126562
 20
9.999999994056224
 30
0.0
 11
-67.00000381126561
 21
9.999999994056224
 31
0.0
  0
LINE
  5
1B0
330
21
100
AcDbEntity
  8
0
  6
Continuous
 62
     2
100
AcDbLine
 10
-70.00000381126561
 20
6.999999994056224
 30
0.0
 11
-70.00000381126561
 21
12.99999999405622
 31
0.0
  0
LINE
  5
1B1
330
21
100
AcDbEntity
  8
0
  6
Continuous
 62
     2
100
AcDbLine
 10
-73.00000381126562
 20
-10.00000000594377
 30
0.0
 11
-67.00000381126561
 21
-10.00000000594377
 31
0.0
  0
LINE
  5
1B2
330
21
100
AcDbEntity
  8
0
  6
Continuous
 62
     2
100
AcDbLine
 10
-70.00000381126561
 20
-13.00000000594377
 30
0.0
 11
-70.00000381126561
 21
-7.000000005943775
 31
0.0
  0
LINE
  5
1B3
330
21
100
AcDbEntity
  8
0
  6
Continuous
 62
     2
100
AcDbLine
 10
-99.99999999656836
 20
-12.50001525284529
 30
0.0
 11
-79.77454652267815
 21
-12.50001525284529
 31
0.0
  0
ARC
  5
1B4
330
21
100
AcDbEntity
  8
0
  6
Continuous
 62
     7
100
AcDbCircle
 10
-86.95207214012304
 20
-17.75003814102888
 30
0.0
 40
2.852060556411743
100
AcDbArc
 50
322.150329129456
 51
37.84967087054408
  0
ARC
  5
1B5
330
21
100
AcDbEntity
  8
0
  6
Continuous
 62
     7
100
AcDbCircle
 10
-86.95207214012304
 20
-7.250038141028881
 30
0.0
 40
2.852060556411743
100
AcDbArc
 50
322.1507594313736
 51
37.84962988940906
  0
ARC
  5
1B6
330
21
100
AcDbEntity
  8
0
  6
Continuous
 62
     7
100
AcDbCircle
 10
-94.60804748191991
 20
-12.50003051163435
 30
0.0
 40
10.50802516937256
100
AcDbArc
 50
340.5442248185533
 51
19.45575787860264
  0
LINE
  5
1B7
330
21
100
AcDbEntity
  8
0
  6
Continuous
 62
     7
100
AcDbLine
 10
-97.59992762258704
 20
-15.87501525284529
 30
0.0
 11
-97.59992762258704
 21
-9.125015252845287
 31
0.0
  0
ARC
  5
1B8
330
21
100
AcDbEntity
  8
0
  6
Continuous
 62
     7
100
AcDbCircle
 10
-78.59197997703709
 20
-12.50003051163435
 30
0.0
 40
10.50802516937256
100
AcDbArc
 50
160.5442421213974
 51
199.4557751814466
  0
ARC
  5
1B9
330
21
100
AcDbEntity
  8
0
  6
Continuous
 62
     7
100
AcDbCircle
 10
-86.24794006004494
 20
-7.250038141028881
 30
0.0
 40
2.852060556411743
100
AcDbArc
 50
142.1505153657963
 51
217.8492287294809
  0
ARC
  5
1BA
330
21
100
AcDbEntity
  8
0
  6
Continuous
 62
     7
100
AcDbCircle
 10
-86.24794006004494
 20
-17.75003814102888
 30
0.0
 40
2.852060556411743
100
AcDbArc
 50
142.1503651016346
 51
217.849556578561
  0
LINE
  5
1BB
330
21
100
AcDbEntity
  8
0
  6
Continuous
 62
     7
100
AcDbLine
 10
-88.50001525535741
 20
-5.500038141028881
 30
0.0
 11
-84.70001220359963
 21
-5.500038141028881
 31
0.0
  0
LINE
  5
1BC
330
21
100
AcDbEntity
  8
0
  6
Continuous
 62
     7
100
AcDbLine
 10
-88.50001525535741
 20
-9.000022882239816
 30
0.0
 11
-84.70001220359963
 21
-9.000022882239816
 31
0.0
  0
LINE
  5
1BD
330
21
100
AcDbEntity
  8
0
  6
Continuous
 62
     7
100
AcDbLine
 10
-88.50001525535741
 20
-16.00003814102888
 30
0.0
 11
-84.70001220359963
 21
-16.00003814102888
 31
0.0
  0
LINE
  5
1BE
330
21
100
AcDbEntity
  8
0
  6
Continuous
 62
     7
100
AcDbLine
 10
-88.50001525535741
 20
-19.50003814102888
 30
0.0
 11
-84.70001220359963
 21
-19.50003814102888
 31
0.0
  0
LINE
  5
1BF
330
21
100
AcDbEntity
  8
0
  6
Continuous
 62
     7
100
AcDbLine
 10
-89.10002135887303
 20
-7.250030511634348
 30
0.0
 11
-89.10002135887303
 21
-17.75003051163435
 31
0.0
  0
LINE
  5
1C0
330
21
100
AcDbEntity
  8
0
  6
Continuous
 62
     7
100
AcDbLine
 10
-96.97495051077064
 20
-8.500038141028881
 30
0.0
 11
-89.10002135887303
 21
-8.500038141028881
 31
0.0
  0
LINE
  5
1C1
330
21
100
AcDbEntity
  8
0
  6
Continuous
 62
     7
100
AcDbLine
 10
-96.97490473440344
 20
-16.50003814102888
 30
0.0
 11
-89.10002135887303
 21
-16.50003814102888
 31
0.0
  0
LINE
  5
1C2
330
21
100
AcDbEntity
  8
0
  6
Continuous
 62
     2
100
AcDbLine
 10
-97.59992762258704
 20
-15.82351525284528
 30
0.0
 11
-89.10002135887303
 21
-15.82351525284528
 31
0.0
  0
LINE
  5
1C3
330
21
100
AcDbEntity
  8
0
  6
Continuous
 62
     2
100
AcDbLine
 10
-97.59992762258704
 20
-9.176515252845293
 30
0.0
 11
-89.10002135887303
 21
-9.176515252845293
 31
0.0
  0
LINE
  5
1C4
330
21
100
AcDbEntity
  8
0
  6
Continuous
 62
     7
100
AcDbLine
 10
-96.97490473440344
 20
-16.50003814102888
 30
0.0
 11
-97.59992762258704
 21
-15.87501525284529
 31
0.0
  0
LINE
  5
1C5
330
21
100
AcDbEntity
  8
0
  6
Continuous
 62
     7
100
AcDbLine
 10
-96.97495051077064
 20
-8.500038141028881
 30
0.0
 11
-97.59992762258704
 21
-9.125015252845287
 31
0.0
  0
LINE
  5
1C6
330
21
100
AcDbEntity
  8
0
  6
Continuous
 62
     7
100
AcDbLine
 10
-96.97490473440344
 20
-8.500030511634347
 30
0.0
 11
-96.97490473440344
 21
-16.50003051163435
 31
0.0
  0
LINE
  5
1C7
330
21
100
AcDbEntity
  8
0
  6
Continuous
 62
     7
100
AcDbLine
 10
-84.10000610008401
 20
-20.00003814102888
 30
0.0
 11
-82.99999999656835
 21
-20.00003814102888
 31
0.0
  0
LINE
  5
1C8
330
21
100
AcDbEntity
  8
0
  6
Continuous
 62
     7
100
AcDbLine
 10
-84.10000610008401
 20
-5.000038141028881
 30
0.0
 11
-84.10000610008401
 21
-20.00003814102888
 31
0.0
  0
LINE
  5
1C9
330
21
100
AcDbEntity
  8
0
  6
Continuous
 62
     7
100
AcDbLine
 10
-84.10000610008401
 20
-5.000038141028881
 30
0.0
 11
-83.99999999656834
 21
-5.000038141028881
 31
0.0
  0
LINE
  5
1CA
330
21
100
AcDbEntity
  8
0
  6
Continuous
 62
     2
100
AcDbLine
 10
-59.99999999656835
 20
30.50000000594377
 30
0.0
 11
-59.99999999656835
 21
26.50000000594377
 31
0.0
  0
LINE
  5
1CB
330
21
100
AcDbEntity
  8
0
  6
Continuous
 62
     2
100
AcDbLine
 10
60.00000381812892
 20
30.50000000594377
 30
0.0
 11
60.00000381812892
 21
26.50000000594377
 31
0.0
  0
LINE
  5
1CC
330
21
100
AcDbEntity
  8
0
  6
Continuous
 62
     2
100
AcDbLine
 10
80.99998855933986
 20
12.5
 30
0.0
 11
85.99998855933986
 21
12.5
 31
0.0
  0
LINE
  5
1CD
330
21
100
AcDbEntity
  8
0
  6
Continuous
 62
     2
100
AcDbLine
 10
80.99998855933986
 20
-12.5
 30
0.0
 11
85.99998855933986
 21
-12.5
 31
0.0
  0
LINE
  5
1CE
330
21
100
AcDbEntity
  8
0
  6
Continuous
 62
     2
100
AcDbLine
 10
60.00000381812892
 20
-30.50000000594377
 30
0.0
 11
60.00000381812892
 21
-26.50000000594377
 31
0.0
  0
LINE
  5
1CF
330
21
100
AcDbEntity
  8
0
  6
Continuous
 62
     2
100
AcDbLine
 10
-59.99999999656835
 20
-30.50000000594377
 30
0.0
 11
-59.99999999656835
 21
-26.50000000594377
 31
0.0
  0
CIRCLE
  5
1D0
330
21
100
AcDbEntity
  8
0
  6
Continuous
 62
     7
100
AcDbCircle
 10
-62.49999999656836
 20
0.0
 30
0.0
 40
2.0
  0
CIRCLE
  5
1D1
330
21
100
AcDbEntity
  8
0
  6
Continuous
 62
     7
100
AcDbCircle
 10
62.49998855933984
 20
0.0
 30
0.0
 40
2.0
  0
LINE
  5
1D2
330
21
100
AcDbEntity
  8
0
  6
CENTER
 62
     2
100
AcDbLine
 10
0.0
 20
-35.0
 30
0.0
 11
0.0
 21
35.0
 31
0.0
  0
ENDBLK
  5
1D3
330
21
100
AcDbEntity
  8
0
100
AcDbBlockEnd
  0
BLOCK
  5
1D4
330
22
100
AcDbEntity
  8
0
100
AcDbBlockBegin
  2
AFDPGL-18-JB-5
 70
     0
 10
0.0
 20
0.0
 30
0.0
  3
AFDPGL-18-JB-5
  1

  0
LINE
  5
1D5
330
22
100
AcDbEntity
  8
0
  6
Continuous
 62
     7
100
AcDbLine
 10
-84.0
 20
-9.000007629394708
 30
0.0
 11
-84.0
 21
5.0
 31
0.0
  0
LINE
  5
1D6
330
22
100
AcDbEntity
  8
0
  6
Continuous
 62
     7
100
AcDbLine
 10
82.99998855590819
 20
-13.0
 30
0.0
 11
83.99998855590819
 21
-13.0
 31
0.0
  0
LINE
  5
1D7
330
22
100
AcDbEntity
  8
0
  6
Continuous
 62
     7
100
AcDbLine
 10
83.99998855590819
 20
13.0
 30
0.0
 11
83.99998855590819
 21
-13.0
 31
0.0
  0
LINE
  5
1D8
330
22
100
AcDbEntity
  8
0
  6
Continuous
 62
     7
100
AcDbLine
 10
82.99998855590819
 20
13.0
 30
0.0
 11
83.99998855590819
 21
13.0
 31
0.0
  0
LINE
  5
1D9
330
22
100
AcDbEntity
  8
0
  6
Continuous
 62
     2
100
AcDbLine
 10
-89.80215304084179
 20
-12.50000762939453
 30
0.0
 11
-79.7745465261098
 21
-12.50000762939453
 31
0.0
  0
LINE
  5
1DA
330
22
100
AcDbEntity
  8
0
  6
Continuous
 62
     7
100
AcDbLine
 10
-83.0
 20
-28.5
 30
0.0
 11
-83.0
 21
28.5
 31
0.0
  0
LINE
  5
1DB
330
22
100
AcDbEntity
  8
0
  6
CENTER
 62
     2
100
AcDbLine
 10
-90.00000000343161
 20
0.0
 30
0.0
 11
89.99999999656834
 21
0.0
 31
0.0
  0
LINE
  5
1DC
330
22
100
AcDbEntity
  8
0
  6
Continuous
 62
     7
100
AcDbLine
 10
-85.10000610351562
 20
-16.00000762939453
 30
0.0
 11
-83.0
 21
-16.00000762939453
 31
0.0
  0
LINE
  5
1DD
330
22
100
AcDbEntity
  8
0
  6
Continuous
 62
     7
100
AcDbLine
 10
-85.10000610351562
 20
-9.000007629394531
 30
0.0
 11
-83.0
 21
-9.000007629394531
 31
0.0
  0
LINE
  5
1DE
330
22
100
AcDbEntity
  8
0
  6
Continuous
 62
     7
100
AcDbLine
 10
-86.60000610351563
 20
-10.50000762939453
 30
0.0
 11
-86.60000610351563
 21
-14.50000762939453
 31
0.0
  0
LINE
  5
1DF
330
22
100
AcDbEntity
  8
0
  6
Continuous
 62
     7
100
AcDbLine
 10
-83.0
 20
-28.5
 30
0.0
 11
82.99998855590819
 21
-28.5
 31
0.0
  0
LINE
  5
1E0
330
22
100
AcDbEntity
  8
0
  6
Continuous
 62
     7
100
AcDbLine
 10
-83.0
 20
28.5
 30
0.0
 11
82.99998855590819
 21
28.5
 31
0.0
  0
LINE
  5
1E1
330
22
100
AcDbEntity
  8
0
  6
Continuous
 62
     7
100
AcDbLine
 10
82.99998855590819
 20
-28.5
 30
0.0
 11
82.99998855590819
 21
28.5
 31
0.0
  0
LINE
  5
1E2
330
22
100
AcDbEntity
  8
0
  6
Continuous
 62
     2
100
AcDbLine
 10
20.00000381469726
 20
-3.5
 30
0.0
 11
20.00000381469726
 21
3.5
 31
0.0
  0
LINE
  5
1E3
330
22
100
AcDbEntity
  8
0
  6
Continuous
 62
     2
100
AcDbLine
 10
-20.0
 20
-3.5
 30
0.0
 11
-20.0
 21
3.5
 31
0.0
  0
LINE
  5
1E4
330
22
100
AcDbEntity
  8
0
  6
Continuous
 62
     2
100
AcDbLine
 10
21.50000381469727
 20
-3.5
 30
0.0
 11
21.50000381469727
 21
3.5
 31
0.0
  0
LINE
  5
1E5
330
22
100
AcDbEntity
  8
0
  6
Continuous
 62
     2
100
AcDbLine
 10
18.50000381469726
 20
-3.5
 30
0.0
 11
18.50000381469726
 21
3.5
 31
0.0
  0
LINE
  5
1E6
330
22
100
AcDbEntity
  8
0
  6
Continuous
 62
     7
100
AcDbLine
 10
18.50000381469726
 20
-1.5
 30
0.0
 11
21.50000381469727
 21
-1.5
 31
0.0
  0
LINE
  5
1E7
330
22
100
AcDbEntity
  8
0
  6
Continuous
 62
     7
100
AcDbLine
 10
18.50000381469726
 20
1.5
 30
0.0
 11
21.50000381469727
 21
1.5
 31
0.0
  0
ARC
  5
1E8
330
22
100
AcDbEntity
  8
0
  6
Continuous
 62
     7
100
AcDbCircle
 10
-85.10000610351562
 20
-14.50000762939453
 30
0.0
 40
1.5
100
AcDbArc
 50
180.0000359721787
 51
270.0000179860893
  0
ARC
  5
1E9
330
22
100
AcDbEntity
  8
0
  6
Continuous
 62
     7
100
AcDbCircle
 10
-85.10000610351562
 20
-10.50000762939453
 30
0.0
 40
1.5
100
AcDbArc
 50
89.99997199599798
 51
180.0000223118003
  0
CIRCLE
  5
1EA
330
22
100
AcDbEntity
  8
0
  6
Continuous
 62
     2
100
AcDbCircle
 10
60.00000381469727
 20
0.0
 30
0.0
 40
2.5
  0
CIRCLE
  5
1EB
330
22
100
AcDbEntity
  8
0
  6
Continuous
 62
     2
100
AcDbCircle
 10
35.00000381469727
 20
0.0
 30
0.0
 40
2.5
  0
CIRCLE
  5
1EC
330
22
100
AcDbEntity
  8
0
  6
Continuous
 62
     2
100
AcDbCircle
 10
-35.0
 20
0.0
 30
0.0
 40
2.5
  0
CIRCLE
  5
1ED
330
22
100
AcDbEntity
  8
0
  6
Continuous
 62
     2
100
AcDbCircle
 10
-60.0
 20
0.0
 30
0.0
 40
2.5
  0
CIRCLE
  5
1EE
330
22
100
AcDbEntity
  8
0
  6
Continuous
 62
     7
100
AcDbCircle
 10
-20.0
 20
0.0
 30
0.0
 40
1.5
  0
ARC
  5
1EF
330
22
100
AcDbEntity
  8
0
  6
Continuous
 62
     7
100
AcDbCircle
 10
21.50000381469727
 20
0.0
 30
0.0
 40
1.5
100
AcDbArc
 50
269.9999974955218
 51
90.00000250447817
  0
ARC
  5
1F0
330
22
100
AcDbEntity
  8
0
  6
Continuous
 62
     7
100
AcDbCircle
 10
18.50000381469726
 20
0.0
 30
0.0
 40
1.5
100
AcDbArc
 50
90.00000250447817
 51
270.0000006832453
  0
CIRCLE
  5
1F1
330
22
100
AcDbEntity
  8
0
  6
Continuous
 62
     7
100
AcDbCircle
 10
0.0
 20
0.0
 30
0.0
 40
5.0
  0
CIRCLE
  5
1F2
330
22
100
AcDbEntity
  8
0
  6
Continuous
 62
     7
100
AcDbCircle
 10
0.0
 20
0.0
 30
0.0
 40
2.0
  0
CIRCLE
  5
1F3
330
22
100
AcDbEntity
  8
0
  6
Continuous
 62
     7
100
AcDbCircle
 10
60.00000381469727
 20
0.0
 30
0.0
 40
2.067
  0
CIRCLE
  5
1F4
330
22
100
AcDbEntity
  8
0
  6
Continuous
 62
     7
100
AcDbCircle
 10
35.00000381469727
 20
0.0
 30
0.0
 40
2.067
  0
CIRCLE
  5
1F5
330
22
100
AcDbEntity
  8
0
  6
Continuous
 62
     7
100
AcDbCircle
 10
-35.0
 20
0.0
 30
0.0
 40
2.067
  0
CIRCLE
  5
1F6
330
22
100
AcDbEntity
  8
0
  6
Continuous
 62
     7
100
AcDbCircle
 10
-60.0
 20
0.0
 30
0.0
 40
2.067
  0
LINE
  5
1F7
330
22
100
AcDbEntity
  8
0
  6
Continuous
 62
     2
100
AcDbLine
 10
60.00000381469727
 20
4.5
 30
0.0
 11
60.00000381469727
 21
-4.5
 31
0.0
  0
LINE
  5
1F8
330
22
100
AcDbEntity
  8
0
  6
Continuous
 62
     2
100
AcDbLine
 10
-35.0
 20
4.5
 30
0.0
 11
-35.0
 21
-4.5
 31
0.0
  0
LINE
  5
1F9
330
22
100
AcDbEntity
  8
0
  6
Continuous
 62
     2
100
AcDbLine
 10
-60.0
 20
4.5
 30
0.0
 11
-60.0
 21
-4.5
 31
0.0
  0
LINE
  5
1FA
330
22
100
AcDbEntity
  8
0
  6
Continuous
 62
     2
100
AcDbLine
 10
35.00000381469727
 20
4.5
 30
0.0
 11
35.00000381469727
 21
-4.5
 31
0.0
  0
LINE
  5
1FB
330
22
100
AcDbEntity
  8
0
  6
CENTER
 62
     2
100
AcDbLine
 10
0.0
 20
-35.0
 30
0.0
 11
0.0
 21
35.0
 31
0.0
  0
LINE
  5
1FC
330
22
100
AcDbEntity
  8
0
  6
Continuous
 62
     2
100
AcDbLine
 10
-100.0
 20
12.50000762939453
 30
0.0
 11
-79.7745465261098
 21
12.50000762939453
 31
0.0
  0
LINE
  5
1FD
330
22
100
AcDbEntity
  8
0
  6
Continuous
 62
     7
100
AcDbLine
 10
-84.10000610351563
 20
20.0
 30
0.0
 11
-83.0
 21
20.0
 31
0.0
  0
LINE
  5
1FE
330
22
100
AcDbEntity
  8
0
  6
Continuous
 62
     7
100
AcDbLine
 10
-84.10000610351563
 20
20.0
 30
0.0
 11
-84.10000610351563
 21
5.0
 31
0.0
  0
ARC
  5
1FF
330
22
100
AcDbEntity
  8
0
  6
Continuous
 62
     7
100
AcDbCircle
 10
-94.60804748535156
 20
12.50000762939453
 30
0.0
 40
10.50802516937256
100
AcDbArc
 50
340.5442248185533
 51
19.45575787860264
  0
LINE
  5
200
330
22
100
AcDbEntity
  8
0
  6
Continuous
 62
     7
100
AcDbLine
 10
-97.5999276260187
 20
9.125007629394531
 30
0.0
 11
-97.5999276260187
 21
15.87500762939453
 31
0.0
  0
ARC
  5
201
330
22
100
AcDbEntity
  8
0
  6
Continuous
 62
     7
100
AcDbCircle
 10
-78.59197998046875
 20
12.50000762939453
 30
0.0
 40
10.50802516937256
100
AcDbArc
 50
160.5442421213974
 51
199.4557751814466
  0
ARC
  5
202
330
22
100
AcDbEntity
  8
0
  6
Continuous
 62
     7
100
AcDbCircle
 10
-86.95207214355468
 20
17.75
 30
0.0
 40
2.852060556411743
100
AcDbArc
 50
322.1507594313736
 51
37.84962988940906
  0
ARC
  5
203
330
22
100
AcDbEntity
  8
0
  6
Continuous
 62
     7
100
AcDbCircle
 10
-86.24794006347656
 20
17.75
 30
0.0
 40
2.852060556411743
100
AcDbArc
 50
142.1505153657963
 51
217.8492287294809
  0
ARC
  5
204
330
22
100
AcDbEntity
  8
0
  6
Continuous
 62
     7
100
AcDbCircle
 10
-86.95207214355468
 20
7.25
 30
0.0
 40
2.852060556411743
100
AcDbArc
 50
322.150329129456
 51
37.84967087054408
  0
ARC
  5
205
330
22
100
AcDbEntity
  8
0
  6
Continuous
 62
     7
100
AcDbCircle
 10
-86.24794006347656
 20
7.25
 30
0.0
 40
2.852060556411743
100
AcDbArc
 50
142.1503651016346
 51
217.849556578561
  0
LINE
  5
206
330
22
100
AcDbEntity
  8
0
  6
Continuous
 62
     7
100
AcDbLine
 10
-88.50001525878907
 20
19.5
 30
0.0
 11
-84.70001220703125
 21
19.5
 31
0.0
  0
LINE
  5
207
330
22
100
AcDbEntity
  8
0
  6
Continuous
 62
     7
100
AcDbLine
 10
-88.50001525878907
 20
16.00001525878906
 30
0.0
 11
-84.70001220703125
 21
16.00001525878906
 31
0.0
  0
LINE
  5
208
330
22
100
AcDbEntity
  8
0
  6
Continuous
 62
     7
100
AcDbLine
 10
-88.50001525878907
 20
9.0
 30
0.0
 11
-84.70001220703125
 21
9.0
 31
0.0
  0
LINE
  5
209
330
22
100
AcDbEntity
  8
0
  6
Continuous
 62
     7
100
AcDbLine
 10
-88.50001525878907
 20
5.5
 30
0.0
 11
-84.70001220703125
 21
5.5
 31
0.0
  0
LINE
  5
20A
330
22
100
AcDbEntity
  8
0
  6
Continuous
 62
     7
100
AcDbLine
 10
-89.10002136230467
 20
17.75000762939453
 30
0.0
 11
-89.10002136230467
 21
7.250007629394531
 31
0.0
  0
LINE
  5
20B
330
22
100
AcDbEntity
  8
0
  6
Continuous
 62
     7
100
AcDbLine
 10
-96.97493525541322
 20
16.5
 30
0.0
 11
-89.10002136230467
 21
16.5
 31
0.0
  0
LINE
  5
20C
330
22
100
AcDbEntity
  8
0
  6
Continuous
 62
     7
100
AcDbLine
 10
-96.97491999662418
 20
8.5
 30
0.0
 11
-89.10002136230467
 21
8.5
 31
0.0
  0
LINE
  5
20D
330
22
100
AcDbEntity
  8
0
  6
Continuous
 62
     2
100
AcDbLine
 10
-97.5999276260187
 20
9.176507629394528
 30
0.0
 11
-89.10002136230467
 21
9.176507629394528
 31
0.0
  0
LINE
  5
20E
330
22
100
AcDbEntity
  8
0
  6
Continuous
 62
     2
100
AcDbLine
 10
-97.5999276260187
 20
15.82350762939453
 30
0.0
 11
-89.10002136230467
 21
15.82350762939453
 31
0.0
  0
LINE
  5
20F
330
22
100
AcDbEntity
  8
0
  6
Continuous
 62
     7
100
AcDbLine
 10
-96.97491999662418
 20
8.5
 30
0.0
 11
-97.5999276260187
 21
9.125007629394531
 31
0.0
  0
LINE
  5
210
330
22
100
AcDbEntity
  8
0
  6
Continuous
 62
     7
100
AcDbLine
 10
-96.97493525541322
 20
16.5
 30
0.0
 11
-97.5999276260187
 21
15.87500762939453
 31
0.0
  0
LINE
  5
211
330
22
100
AcDbEntity
  8
0
  6
Continuous
 62
     7
100
AcDbLine
 10
-96.97491999662418
 20
16.50000762939453
 30
0.0
 11
-96.97491999662418
 21
8.500007629394531
 31
0.0
  0
LINE
  5
212
330
22
100
AcDbEntity
  8
0
  6
Continuous
 62
     7
100
AcDbLine
 10
-84.10000610351563
 20
5.0
 30
0.0
 11
-83.0
 21
5.0
 31
0.0
  0
LINE
  5
213
330
22
100
AcDbEntity
  8
0
  6
Continuous
 62
     2
100
AcDbLine
 10
-59.99999999656836
 20
30.50000763533831
 30
0.0
 11
-59.99999999656836
 21
26.50000763533831
 31
0.0
  0
LINE
  5
214
330
22
100
AcDbEntity
  8
0
  6
Continuous
 62
     2
100
AcDbLine
 10
60.0000038181289
 20
30.50000763533831
 30
0.0
 11
60.0000038181289
 21
26.50000763533831
 31
0.0
  0
LINE
  5
215
330
22
100
AcDbEntity
  8
0
  6
Continuous
 62
     2
100
AcDbLine
 10
-59.99999999656836
 20
-30.49999237654925
 30
0.0
 11
-59.99999999656836
 21
-26.49999237654924
 31
0.0
  0
LINE
  5
216
330
22
100
AcDbEntity
  8
0
  6
Continuous
 62
     2
100
AcDbLine
 10
60.0000038181289
 20
-30.49999237654925
 30
0.0
 11
60.0000038181289
 21
-26.49999237654924
 31
0.0
  0
LINE
  5
217
330
22
100
AcDbEntity
  8
0
  6
Continuous
 62
     2
100
AcDbLine
 10
80.99998855933986
 20
-12.5
 30
0.0
 11
85.99998855933986
 21
-12.5
 31
0.0
  0
LINE
  5
218
330
22
100
AcDbEntity
  8
0
  6
Continuous
 62
     2
100
AcDbLine
 10
80.99998855933986
 20
12.5
 30
0.0
 11
85.99998855933986
 21
12.5
 31
0.0
  0
ENDBLK
  5
219
330
22
100
AcDbEntity
  8
0
100
AcDbBlockEnd
  0
BLOCK
  5
21A
330
23
100
AcDbEntity
  8
0
100
AcDbBlockBegin
  2
AFDPGL-18-JB-6
 70
     0
 10
0.0
 20
0.0
 30
0.0
  3
AFDPGL-18-JB-6
  1

  0
LINE
  5
21B
330
23
100
AcDbEntity
  8
0
  6
Continuous
 62
     4
100
AcDbLine
 10
15.50000000476837
 20
-3.79999952234644
 30
0.0
 11
19.25346420800163
 21
-3.799999522346467
 31
0.0
  0
LINE
  5
21C
330
23
100
AcDbEntity
  8
0
  6
Continuous
 62
     4
100
AcDbLine
 10
15.50000000476838
 20
-1.199999522346445
 30
0.0
 11
17.75230947359052
 21
-1.199999522346445
 31
0.0
  0
LINE
  5
21D
330
23
100
AcDbEntity
  8
0
  6
Continuous
 62
     4
100
AcDbLine
 10
0.0
 20
0.0
 30
0.0
 11
15.50000000476838
 21
0.0
 31
0.0
  0
LINE
  5
21E
330
23
100
AcDbEntity
  8
0
  6
Continuous
 62
     4
100
AcDbLine
 10
0.0
 20
-0.5499999965940106
 30
0.0
 11
15.50000000476838
 21
-0.5499999965940106
 31
0.0
  0
LINE
  5
21F
330
23
100
AcDbEntity
  8
0
  6
Continuous
 62
     4
100
AcDbLine
 10
0.0
 20
-1.100000002724783
 30
0.0
 11
15.50000000476838
 21
-1.100000002724783
 31
0.0
  0
LINE
  5
220
330
23
100
AcDbEntity
  8
0
  6
Continuous
 62
     4
100
AcDbLine
 10
0.0
 20
-2.600000002724784
 30
0.0
 11
4.000000000000014
 21
-2.600000002724784
 31
0.0
  0
LINE
  5
221
330
23
100
AcDbEntity
  8
0
  6
Continuous
 62
     4
100
AcDbLine
 10
0.0
 20
-1.800000002724772
 30
0.0
 11
4.300000003405969
 21
-1.800000002724772
 31
0.0
  0
LINE
  5
222
330
23
100
AcDbEntity
  8
0
  6
Continuous
 62
     4
100
AcDbLine
 10
4.300000003405969
 20
-4.59999952234645
 30
0.0
 11
15.50000000000001
 21
-4.59999952234645
 31
0.0
  0
LINE
  5
223
330
23
100
AcDbEntity
  8
0
  6
Continuous
 62
     4
100
AcDbLine
 10
15.50000000476838
 20
-4.59999952234645
 30
0.0
 11
15.50000000476838
 21
0.0
 31
0.0
  0
LINE
  5
224
330
23
100
AcDbEntity
  8
0
  6
Continuous
 62
     4
100
AcDbLine
 10
4.300000004768392
 20
-1.800000002724772
 30
0.0
 11
4.300000004768392
 21
-4.59999952234645
 31
0.0
  0
LINE
  5
225
330
23
100
AcDbEntity
  8
0
  6
Continuous
 62
     4
100
AcDbLine
 10
3.251428576196943
 20
-2.599864002724785
 30
0.0
 11
3.251428576196928
 21
-3.899864002724768
 31
0.0
  0
LINE
  5
226
330
23
100
AcDbEntity
  8
0
  6
Continuous
 62
     4
100
AcDbLine
 10
3.251428576196928
 20
-3.899864002724768
 30
0.0
 11
2.751428576196943
 21
-4.399864002724768
 31
0.0
  0
LINE
  5
227
330
23
100
AcDbEntity
  8
0
  6
Continuous
 62
     4
100
AcDbLine
 10
1.251428576196928
 20
-4.399864002724768
 30
0.0
 11
2.751428576196943
 21
-4.399864002724768
 31
0.0
  0
LINE
  5
228
330
23
100
AcDbEntity
  8
0
  6
Continuous
 62
     4
100
AcDbLine
 10
1.251428576196928
 20
-4.399864002724768
 30
0.0
 11
0.7514285761969291
 21
-3.899864002724768
 31
0.0
  0
LINE
  5
229
330
23
100
AcDbEntity
  8
0
  6
Continuous
 62
   200
100
AcDbLine
 10
0.7514285761969291
 20
-3.899864002724768
 30
0.0
 11
3.251428576196928
 21
-3.899864002724768
 31
0.0
  0
LINE
  5
22A
330
23
100
AcDbEntity
  8
0
  6
Continuous
 62
     4
100
AcDbLine
 10
0.7514285761969575
 20
-2.599864002724785
 30
0.0
 11
0.7514285761969291
 21
-3.899864002724768
 31
0.0
  0
LINE
  5
22B
330
23
100
AcDbEntity
  8
0
  6
Continuous
 62
     4
100
AcDbLine
 10
0.000000004768367
 20
-1.799864002724774
 30
0.0
 11
0.000000004768367
 21
-2.600000002724784
 31
0.0
  0
LINE
  5
22C
330
23
100
AcDbEntity
  8
0
  6
Continuous
 62
     4
100
AcDbLine
 10
4.00000000476838
 20
-1.800000002724772
 30
0.0
 11
4.00000000476838
 21
-2.600000002724784
 31
0.0
  0
LINE
  5
22D
330
23
100
AcDbEntity
  8
0
  6
Continuous
 62
     4
100
AcDbLine
 10
0.000000004768367
 20
-1.799864002724774
 30
0.0
 11
0.000000004768367
 21
0.0
 31
0.0
  0
LINE
  5
22E
330
23
100
AcDbEntity
  8
0
  6
Continuous
 62
     4
100
AcDbLine
 10
0.9514285761969459
 20
0.6001359972752312
 30
0.0
 11
3.051428576196954
 21
0.6001359972752312
 31
0.0
  0
LINE
  5
22F
330
23
100
AcDbEntity
  8
0
  6
Continuous
 62
   200
100
AcDbLine
 10
3.050000004768392
 20
-2.599864002724785
 30
0.0
 11
3.050000004768392
 21
-4.101292574153347
 31
0.0
  0
LINE
  5
230
330
23
100
AcDbEntity
  8
0
  6
Continuous
 62
   200
100
AcDbLine
 10
0.9500000047683839
 20
-2.599864002724785
 30
0.0
 11
0.9500000047683554
 21
-4.098435431296196
 31
0.0
  0
LINE
  5
231
330
23
100
AcDbEntity
  8
0
  6
Continuous
 62
     4
100
AcDbLine
 10
0.7514285761969291
 20
0.0
 30
0.0
 11
0.7514285761969291
 21
0.4001359972752141
 31
0.0
  0
LINE
  5
232
330
23
100
AcDbEntity
  8
0
  6
Continuous
 62
     4
100
AcDbLine
 10
3.251428576196943
 20
0.4001359972752141
 30
0.0
 11
3.251428576196943
 21
0.0
 31
0.0
  0
LINE
  5
233
330
23
100
AcDbEntity
  8
0
  6
Continuous
 62
     4
100
AcDbLine
 10
0.7514285761969291
 20
0.4001359972752141
 30
0.0
 11
0.9514285761969459
 21
0.6001359972752312
 31
0.0
  0
LINE
  5
234
330
23
100
AcDbEntity
  8
0
  6
Continuous
 62
     4
100
AcDbLine
 10
3.051428576196954
 20
0.6001359972752312
 30
0.0
 11
3.251428576196943
 21
0.4001359972752141
 31
0.0
  0
LINE
  5
235
330
23
100
AcDbEntity
  8
0
  6
Continuous
 62
     4
100
AcDbLine
 10
0.7514285761969291
 20
0.4001359972752141
 30
0.0
 11
3.251428576196943
 21
0.4001359972752141
 31
0.0
  0
LINE
  5
236
330
23
100
AcDbEntity
  8
0
  6
Continuous
 62
   200
100
AcDbLine
 10
3.050000004768392
 20
0.6001359972752312
 30
0.0
 11
3.050000004768392
 21
0.0
 31
0.0
  0
LINE
  5
237
330
23
100
AcDbEntity
  8
0
  6
Continuous
 62
   200
100
AcDbLine
 10
0.9500000047683554
 20
0.6001359972752312
 30
0.0
 11
0.9500000047683554
 21
0.0
 31
0.0
  0
LINE
  5
238
330
23
100
AcDbEntity
  8
0
  6
Continuous
 62
   200
100
AcDbLine
 10
17.75230947359055
 20
-1.199999522346445
 30
0.0
 11
19.25346420800163
 21
-3.799999522346467
 31
0.0
  0
LINE
  5
239
330
23
100
AcDbEntity
  8
0
  6
Continuous
 62
   200
100
AcDbLine
 10
2.000000004768367
 20
1.286482308440184
 30
0.0
 11
2.000000004768367
 21
-5.067036249354088
 31
0.0
  0
ENDBLK
  5
23A
330
23
100
AcDbEntity
  8
0
100
AcDbBlockEnd
  0
BLOCK
  5
23B
330
24
100
AcDbEntity
  8
0
100
AcDbBlockBegin
  2
AFDPGL-18-JB-7
 70
     0
 10
0.0
 20
0.0
 30
0.0
  3
AFDPGL-18-JB-7
  1

  0
LINE
  5
23C
330
24
100
AcDbEntity
  8
0
  6
Continuous
 62
     4
100
AcDbLine
 10
-1.25
 20
0.4001360000000034
 30
0.0
 11
-1.049999999999982
 21
0.6001360000000205
 31
0.0
  0
LINE
  5
23D
330
24
100
AcDbEntity
  8
0
  6
Continuous
 62
     4
100
AcDbLine
 10
-0.747142857142876
 20
-4.399864000000007
 30
0.0
 11
-1.250000000000028
 21
-3.897006857142855
 31
0.0
  0
LINE
  5
23E
330
24
100
AcDbEntity
  8
0
  6
Continuous
 62
   200
100
AcDbLine
 10
-0.0000000000000284
 20
-5.067036246629299
 30
0.0
 11
0.0
 21
1.286482311164973
 31
0.0
  0
LINE
  5
23F
330
24
100
AcDbEntity
  8
0
  6
Continuous
 62
     4
100
AcDbLine
 10
-2.050000000000039
 20
-2.599999999999994
 30
0.0
 11
2.049390723326041
 21
-2.600000000000022
 31
0.0
  0
LINE
  5
240
330
24
100
AcDbEntity
  8
0
  6
Continuous
 62
     4
100
AcDbLine
 10
-2.050000000000011
 20
-1.799999999999982
 30
0.0
 11
2.050000000000011
 21
-1.800000000000011
 31
0.0
  0
ARC
  5
241
330
24
100
AcDbEntity
  8
0
  6
Continuous
 62
     4
100
AcDbCircle
 10
-0.0000000000000284
 20
-2.549998923398334
 30
0.0
 40
2.050000596223346
100
AcDbArc
 50
179.9563016403131
 51
359.9999999999996
  0
LINE
  5
242
330
24
100
AcDbEntity
  8
0
  6
Continuous
 62
     4
100
AcDbLine
 10
1.249999999999971
 20
-3.897006857142855
 30
0.0
 11
0.7471428571428192
 21
-4.399864000000007
 31
0.0
  0
LINE
  5
243
330
24
100
AcDbEntity
  8
0
  6
Continuous
 62
     4
100
AcDbLine
 10
-1.250000000000028
 20
-3.897006857142855
 30
0.0
 11
1.249999999999971
 21
-3.897006857142855
 31
0.0
  0
LINE
  5
244
330
24
100
AcDbEntity
  8
0
  6
Continuous
 62
     4
100
AcDbLine
 10
-1.501428571428561
 20
0.0000000000000284
 30
0.0
 11
1.5
 21
-0.0000000000000284
 31
0.0
  0
LINE
  5
245
330
24
100
AcDbEntity
  8
0
  6
Continuous
 62
     4
100
AcDbLine
 10
-1.25
 20
0.4001360000000034
 30
0.0
 11
1.249999999999971
 21
0.400135999999975
 31
0.0
  0
LINE
  5
246
330
24
100
AcDbEntity
  8
0
  6
Continuous
 62
     4
100
AcDbLine
 10
-1.049999999999982
 20
0.6001360000000205
 30
0.0
 11
1.050000000000039
 21
0.6001359999999921
 31
0.0
  0
LINE
  5
247
330
24
100
AcDbEntity
  8
0
  6
Continuous
 62
     4
100
AcDbLine
 10
1.499999993869266
 20
-0.5499999938692497
 30
0.0
 11
2.050000000000011
 21
-1.100000000000022
 31
0.0
  0
LINE
  5
248
330
24
100
AcDbEntity
  8
0
  6
Continuous
 62
     4
100
AcDbLine
 10
1.499999999999971
 20
-0.5500000000000114
 30
0.0
 11
1.5
 21
0.0000000027247609
 31
0.0
  0
LINE
  5
249
330
24
100
AcDbEntity
  8
0
  6
Continuous
 62
     4
100
AcDbLine
 10
1.25
 20
-2.599864000000025
 30
0.0
 11
1.249999999999971
 21
-3.897006857142855
 31
0.0
  0
LINE
  5
24A
330
24
100
AcDbEntity
  8
0
  6
Continuous
 62
     4
100
AcDbLine
 10
2.050000000000011
 20
-1.100000000000022
 30
0.0
 11
2.050000000000011
 21
-2.548435428571452
 31
0.0
  0
LINE
  5
24B
330
24
100
AcDbEntity
  8
0
  6
Continuous
 62
     4
100
AcDbLine
 10
1.249999999999971
 20
0.400135999999975
 30
0.0
 11
1.25
 21
0.0
 31
0.0
  0
LINE
  5
24C
330
24
100
AcDbEntity
  8
0
  6
Continuous
 62
     4
100
AcDbLine
 10
1.050000000000039
 20
0.6001359999999921
 30
0.0
 11
1.249999999999971
 21
0.400135999999975
 31
0.0
  0
LINE
  5
24D
330
24
100
AcDbEntity
  8
0
  6
Continuous
 62
   200
100
AcDbLine
 10
-1.050000000000011
 20
-4.097006857142844
 30
0.0
 11
-1.050000000000011
 21
-2.599999999999994
 31
0.0
  0
LINE
  5
24E
330
24
100
AcDbEntity
  8
0
  6
Continuous
 62
   200
100
AcDbLine
 10
1.050000000000011
 20
-4.097006857142872
 30
0.0
 11
1.050000000000011
 21
-2.600000000000022
 31
0.0
  0
LINE
  5
24F
330
24
100
AcDbEntity
  8
0
  6
Continuous
 62
   200
100
AcDbLine
 10
-1.049999999999982
 20
0.0000000000000284
 30
0.0
 11
-1.049999999999982
 21
0.6001360000000205
 31
0.0
  0
LINE
  5
250
330
24
100
AcDbEntity
  8
0
  6
Continuous
 62
   200
100
AcDbLine
 10
1.050000000000011
 20
-0.0000000000000284
 30
0.0
 11
1.050000000000039
 21
0.6001359999999921
 31
0.0
  0
LINE
  5
251
330
24
100
AcDbEntity
  8
0
  6
Continuous
 62
     4
100
AcDbLine
 10
-1.5
 20
-0.5471354166666629
 30
0.0
 11
-1.5
 21
0.0000000027247893
 31
0.0
  0
LINE
  5
252
330
24
100
AcDbEntity
  8
0
  6
Continuous
 62
     4
100
AcDbLine
 10
-0.747142857142876
 20
-4.399864000000007
 30
0.0
 11
0.7471428571428192
 21
-4.399864000000007
 31
0.0
  0
LINE
  5
253
330
24
100
AcDbEntity
  8
0
  6
Continuous
 62
     4
100
AcDbLine
 10
-1.250000000000028
 20
-2.599999999999994
 30
0.0
 11
-1.250000000000028
 21
-3.897006857142855
 31
0.0
  0
LINE
  5
254
330
24
100
AcDbEntity
  8
0
  6
Continuous
 62
     4
100
AcDbLine
 10
-2.050000000000011
 20
-1.099999999999994
 30
0.0
 11
-1.501428571428561
 21
-0.548571428571421
 31
0.0
  0
LINE
  5
255
330
24
100
AcDbEntity
  8
0
  6
Continuous
 62
     4
100
AcDbLine
 10
-2.050000000000011
 20
-1.099999999999994
 30
0.0
 11
-2.050000000000039
 21
-2.548435428571423
 31
0.0
  0
LINE
  5
256
330
24
100
AcDbEntity
  8
0
  6
Continuous
 62
     4
100
AcDbLine
 10
-1.25
 20
0.0
 30
0.0
 11
-1.25
 21
0.4001360000000034
 31
0.0
  0
ENDBLK
  5
257
330
24
100
AcDbEntity
  8
0
100
AcDbBlockEnd
  0
BLOCK
  5
258
330
25
100
AcDbEntity
  8
0
100
AcDbBlockBegin
  2
AFDPGL-18-JB-8
 70
     0
 10
0.0
 20
0.0
 30
0.0
  3
AFDPGL-18-JB-8
  1

  0
LINE
  5
259
330
25
100
AcDbEntity
  8
0
  6
Continuous
 62
     4
100
AcDbLine
 10
0.0
 20
-2.049999999999996
 30
0.0
 11
15.50000000476838
 21
-2.049999999999996
 31
0.0
  0
LINE
  5
25A
330
25
100
AcDbEntity
  8
0
  6
Continuous
 62
     4
100
AcDbLine
 10
0.0
 20
2.050000000000011
 30
0.0
 11
15.50000000476838
 21
2.050000000000011
 31
0.0
  0
LINE
  5
25B
330
25
100
AcDbEntity
  8
0
  6
Continuous
 62
     4
100
AcDbLine
 10
8.000000004768381
 20
-0.5999999999999944
 30
0.0
 11
9.600000004768375
 21
-0.5999999999999944
 31
0.0
  0
LINE
  5
25C
330
25
100
AcDbEntity
  8
0
  6
Continuous
 62
     4
100
AcDbLine
 10
8.000000004768381
 20
0.9000000000000056
 30
0.0
 11
9.600000004768375
 21
0.9000000000000056
 31
0.0
  0
LINE
  5
25D
330
25
100
AcDbEntity
  8
0
  6
Continuous
 62
     4
100
AcDbLine
 10
1.310751318931579
 20
-1.042802072252555
 30
0.0
 11
3.042802112443112
 21
0.6892487212589913
 31
0.0
  0
LINE
  5
25E
330
25
100
AcDbEntity
  8
0
  6
Continuous
 62
     4
100
AcDbLine
 10
0.9571978986753322
 20
-0.6892486978790089
 30
0.0
 11
2.68924870264739
 21
1.042802106093034
 31
0.0
  0
CIRCLE
  5
25F
330
25
100
AcDbEntity
  8
0
  6
Continuous
 62
   200
100
AcDbCircle
 10
2.000000004768367
 20
0.0
 30
0.0
 40
1.05
  0
CIRCLE
  5
260
330
25
100
AcDbEntity
  8
0
  6
Continuous
 62
     4
100
AcDbCircle
 10
2.000000004768367
 20
0.0
 30
0.0
 40
1.25
  0
CIRCLE
  5
261
330
25
100
AcDbEntity
  8
0
  6
Continuous
 62
     4
100
AcDbCircle
 10
2.000000004768367
 20
0.0
 30
0.0
 40
1.399999999999999
  0
LINE
  5
262
330
25
100
AcDbEntity
  8
0
  6
Continuous
 62
     4
100
AcDbLine
 10
0.0
 20
-1.5
 30
0.0
 11
15.50000000476838
 21
-1.5
 31
0.0
  0
LINE
  5
263
330
25
100
AcDbEntity
  8
0
  6
Continuous
 62
     4
100
AcDbLine
 10
0.0
 20
1.5
 30
0.0
 11
15.50000000476838
 21
1.5
 31
0.0
  0
LINE
  5
264
330
25
100
AcDbEntity
  8
0
  6
Continuous
 62
     4
100
AcDbLine
 10
15.50000000476838
 20
-2.049999999999996
 30
0.0
 11
15.50000000476838
 21
2.050000000000011
 31
0.0
  0
LINE
  5
265
330
25
100
AcDbEntity
  8
0
  6
Continuous
 62
     4
100
AcDbLine
 10
0.0
 20
-2.049999999999996
 30
0.0
 11
0.0
 21
2.050000000000011
 31
0.0
  0
LINE
  5
266
330
25
100
AcDbEntity
  8
0
  6
Continuous
 62
     4
100
AcDbLine
 10
9.600000004768375
 20
-0.5999999999999944
 30
0.0
 11
9.600000004768375
 21
0.9000000000000056
 31
0.0
  0
LINE
  5
267
330
25
100
AcDbEntity
  8
0
  6
Continuous
 62
     4
100
AcDbLine
 10
8.000000004768381
 20
-0.5999999999999944
 30
0.0
 11
8.000000004768381
 21
0.9000000000000056
 31
0.0
  0
LINE
  5
268
330
25
100
AcDbEntity
  8
0
  6
Continuous
 62
     4
100
AcDbLine
 10
10.40000000476836
 20
-1.5
 30
0.0
 11
10.40000000476836
 21
1.5
 31
0.0
  0
LINE
  5
269
330
25
100
AcDbEntity
  8
0
  6
Continuous
 62
     4
100
AcDbLine
 10
3.900000004768359
 20
-1.5
 30
0.0
 11
3.900000004768359
 21
1.5
 31
0.0
  0
LINE
  5
26A
330
25
100
AcDbEntity
  8
0
  6
Continuous
 62
   200
100
AcDbLine
 10
2.000000004768367
 20
2.94285714285715
 30
0.0
 11
2.000000004768367
 21
-3.299984673423466
 31
0.0
  0
LINE
  5
26B
330
25
100
AcDbEntity
  8
0
  6
Continuous
 62
     4
100
AcDbLine
 10
15.50000000476838
 20
1.300000000000011
 30
0.0
 11
17.75230947359052
 21
1.300000000000011
 31
0.0
  0
LINE
  5
26C
330
25
100
AcDbEntity
  8
0
  6
Continuous
 62
     4
100
AcDbLine
 10
15.50000000476838
 20
-1.299999999999997
 30
0.0
 11
19.25346420800163
 21
-1.299999999999997
 31
0.0
  0
LINE
  5
26D
330
25
100
AcDbEntity
  8
0
  6
Continuous
 62
   200
100
AcDbLine
 10
17.75230947359055
 20
1.300000000000011
 30
0.0
 11
19.25346420800164
 21
-1.299999999999997
 31
0.0
  0
LINE
  5
26E
330
25
100
AcDbEntity
  8
0
  6
CENTER
 62
   200
100
AcDbLine
 10
-1.410401753016884
 20
0.0
 30
0.0
 11
21.50288684079608
 21
0.0
 31
0.0
  0
ENDBLK
  5
26F
330
25
100
AcDbEntity
  8
0
100
AcDbBlockEnd
  0
BLOCK
  5
270
330
26
100
AcDbEntity
  8
0
100
AcDbBlockBegin
  2
AFDPGL-18-JB-9
 70
     0
 10
0.0
 20
0.0
 30
0.0
  3
AFDPGL-18-JB-9
  1

  0
LINE
  5
271
330
26
100
AcDbEntity
  8
0
  6
Continuous
 62
     4
100
AcDbLine
 10
10.40000000939312
 20
1.497976239262783
 30
0.0
 11
15.00000000394356
 21
1.497976241795555
 31
0.0
  0
LINE
  5
272
330
26
100
AcDbEntity
  8
0
  6
Continuous
 62
     4
100
AcDbLine
 10
10.39999999266607
 20
0.9479762358568279
 30
0.0
 11
14.99999999947803
 21
0.9479762383896002
 31
0.0
  0
LINE
  5
273
330
26
100
AcDbEntity
  8
0
  6
Continuous
 62
     4
100
AcDbLine
 10
0.0000000003028333
 20
-0.5500000000000114
 30
0.0
 11
15.0000000050712
 21
-0.5499999917409753
 31
0.0
  0
LINE
  5
274
330
26
100
AcDbEntity
  8
0
  6
Continuous
 62
     4
100
AcDbLine
 10
0.0000000006056666
 20
-1.100000008256415
 30
0.0
 11
15.00000000060567
 21
-1.099999999997379
 31
0.0
  0
LINE
  5
275
330
26
100
AcDbEntity
  8
0
  6
Continuous
 62
     4
100
AcDbLine
 10
0.0000000014315731
 20
-2.600000000000022
 30
0.0
 11
4.000000001431573
 21
-2.599999997797596
 31
0.0
  0
LINE
  5
276
330
26
100
AcDbEntity
  8
0
  6
Continuous
 62
     4
100
AcDbLine
 10
0.0000000057594463
 20
-1.800000000000011
 30
0.0
 11
4.300000005759457
 21
-1.799999997632425
 31
0.0
  0
LINE
  5
277
330
26
100
AcDbEntity
  8
0
  6
Continuous
 62
     4
100
AcDbLine
 10
0.0
 20
0.0
 30
0.0
 11
15.0
 21
0.0000000082590361
 31
0.0
  0
LINE
  5
278
330
26
100
AcDbEntity
  8
0
  6
Continuous
 62
     4
100
AcDbLine
 10
4.300000005938756
 20
-4.599999997632437
 30
0.0
 11
15.00000000253277
 21
-4.599999991740986
 31
0.0
  0
LINE
  5
279
330
26
100
AcDbEntity
  8
0
  6
Continuous
 62
     4
100
AcDbLine
 10
13.80000000152092
 20
5.89797632355956
 30
0.0
 11
13.79999999945744
 21
9.645666854737383
 31
0.0
  0
LINE
  5
27A
330
26
100
AcDbEntity
  8
0
  6
Continuous
 62
     4
100
AcDbLine
 10
11.2000000015209
 20
5.897976322127988
 30
0.0
 11
11.20000000028396
 21
8.144512118894709
 31
0.0
  0
LINE
  5
27B
330
26
100
AcDbEntity
  8
0
  6
Continuous
 62
     4
100
AcDbLine
 10
15.00000000730114
 20
-4.599999991740986
 30
0.0
 11
15.00000000207151
 21
4.89797632422028
 31
0.0
  0
LINE
  5
27C
330
26
100
AcDbEntity
  8
0
  6
Continuous
 62
     4
100
AcDbLine
 10
4.300000005759457
 20
-1.799999997632425
 30
0.0
 11
4.300000007301151
 21
-4.599999997632437
 31
0.0
  0
LINE
  5
27D
330
26
100
AcDbEntity
  8
0
  6
Continuous
 62
     4
100
AcDbLine
 10
3.25142857762961
 20
-2.6020236822485
 30
0.0
 11
3.251428578345396
 21
-3.902023682248483
 31
0.0
  0
LINE
  5
27E
330
26
100
AcDbEntity
  8
0
  6
Continuous
 62
     4
100
AcDbLine
 10
3.251428578345396
 20
-3.902023682248483
 30
0.0
 11
2.751428578620704
 21
-4.402023682523804
 31
0.0
  0
LINE
  5
27F
330
26
100
AcDbEntity
  8
0
  6
Continuous
 62
     4
100
AcDbLine
 10
1.251428578620704
 20
-4.40202368334971
 30
0.0
 11
2.751428578620704
 21
-4.402023682523804
 31
0.0
  0
LINE
  5
280
330
26
100
AcDbEntity
  8
0
  6
Continuous
 62
     4
100
AcDbLine
 10
1.251428578620704
 20
-4.40202368334971
 30
0.0
 11
0.7514285783453972
 21
-3.902023683625003
 31
0.0
  0
LINE
  5
281
330
26
100
AcDbEntity
  8
0
  6
Continuous
 62
   200
100
AcDbLine
 10
0.7514285783453972
 20
-3.902023683625003
 30
0.0
 11
3.251428578345396
 21
-3.902023682248483
 31
0.0
  0
LINE
  5
282
330
26
100
AcDbEntity
  8
0
  6
Continuous
 62
     4
100
AcDbLine
 10
0.7514285776296106
 20
-2.602023683625021
 30
0.0
 11
0.7514285783453972
 21
-3.902023683625003
 31
0.0
  0
LINE
  5
283
330
26
100
AcDbEntity
  8
0
  6
Continuous
 62
     4
100
AcDbLine
 10
0.0000000057605689
 20
-1.802023684038772
 30
0.0
 11
0.0000000062010486
 21
-2.602023684038755
 31
0.0
  0
LINE
  5
284
330
26
100
AcDbEntity
  8
0
  6
Continuous
 62
     4
100
AcDbLine
 10
4.000000005760568
 20
-1.802023681836345
 30
0.0
 11
4.000000006201048
 21
-2.602023681836328
 31
0.0
  0
LINE
  5
285
330
26
100
AcDbEntity
  8
0
  6
Continuous
 62
   200
100
AcDbLine
 10
2.00000000406122
 20
1.284322628227414
 30
0.0
 11
2.000000007559478
 21
-5.069195929566859
 31
0.0
  0
LINE
  5
286
330
26
100
AcDbEntity
  8
0
  6
Continuous
 62
     4
100
AcDbLine
 10
0.0000000057605689
 20
-1.802023684038772
 30
0.0
 11
0.000000004768367
 21
0.0
 31
0.0
  0
LINE
  5
287
330
26
100
AcDbEntity
  8
0
  6
Continuous
 62
     4
100
AcDbLine
 10
0.9514285758676948
 20
0.5979763164851306
 30
0.0
 11
3.051428575867688
 21
0.5979763176413826
 31
0.0
  0
LINE
  5
288
330
26
100
AcDbEntity
  8
0
  6
Continuous
 62
   200
100
AcDbLine
 10
3.050000006201059
 20
-2.602023682359401
 30
0.0
 11
3.050000007027748
 21
-4.103452253787963
 31
0.0
  0
LINE
  5
289
330
26
100
AcDbEntity
  8
0
  6
Continuous
 62
   200
100
AcDbLine
 10
0.9500000062010371
 20
-2.602023683515682
 30
0.0
 11
0.950000007026162
 21
-4.100595112087091
 31
0.0
  0
LINE
  5
28A
330
26
100
AcDbEntity
  8
0
  6
Continuous
 62
     4
100
AcDbLine
 10
0.7514285761980375
 20
-0.0020236836250263
 30
0.0
 11
0.7514285759777977
 21
0.3979763163749794
 31
0.0
  0
LINE
  5
28B
330
26
100
AcDbEntity
  8
0
  6
Continuous
 62
     4
100
AcDbLine
 10
3.251428575977797
 20
0.3979763177514997
 30
0.0
 11
3.251428576198037
 21
-0.002023682248506
 31
0.0
  0
LINE
  5
28C
330
26
100
AcDbEntity
  8
0
  6
Continuous
 62
     4
100
AcDbLine
 10
0.7514285759777977
 20
0.3979763163749794
 30
0.0
 11
0.9514285758676948
 21
0.5979763164851306
 31
0.0
  0
LINE
  5
28D
330
26
100
AcDbEntity
  8
0
  6
Continuous
 62
     4
100
AcDbLine
 10
3.051428575867688
 20
0.5979763176413826
 30
0.0
 11
3.251428575977797
 21
0.3979763177514997
 31
0.0
  0
LINE
  5
28E
330
26
100
AcDbEntity
  8
0
  6
Continuous
 62
     4
100
AcDbLine
 10
0.7514285759777977
 20
0.3979763163749794
 30
0.0
 11
3.251428575977797
 21
0.3979763177514997
 31
0.0
  0
LINE
  5
28F
330
26
100
AcDbEntity
  8
0
  6
Continuous
 62
   200
100
AcDbLine
 10
3.050000004439127
 20
0.5979763176406152
 30
0.0
 11
3.050000004769486
 21
-0.0020236823594075
 31
0.0
  0
LINE
  5
290
330
26
100
AcDbEntity
  8
0
  6
Continuous
 62
   200
100
AcDbLine
 10
0.9500000044391043
 20
0.5979763164843348
 30
0.0
 11
0.9500000047694639
 21
-0.0020236835156879
 31
0.0
  0
LINE
  5
291
330
26
100
AcDbEntity
  8
0
  6
Continuous
 62
     4
100
AcDbLine
 10
15.00000000262213
 20
3.89797632422028
 30
0.0
 11
10.40000000262214
 21
3.897976321687508
 31
0.0
  0
LINE
  5
292
330
26
100
AcDbEntity
  8
0
  6
Continuous
 62
     4
100
AcDbLine
 10
10.40000000152092
 20
5.897976321687508
 30
0.0
 11
14.60000000152095
 21
5.89797632400004
 31
0.0
  0
LINE
  5
293
330
26
100
AcDbEntity
  8
0
  6
Continuous
 62
     4
100
AcDbLine
 10
10.40000000476948
 20
-0.0020236783124972
 30
0.0
 11
10.40000000152092
 21
5.897976321687508
 31
0.0
  0
LINE
  5
294
330
26
100
AcDbEntity
  8
0
  6
Continuous
 62
     4
100
AcDbLine
 10
14.60000000207154
 20
4.89797632400004
 30
0.0
 11
14.60000000152095
 21
5.89797632400004
 31
0.0
  0
LINE
  5
295
330
26
100
AcDbEntity
  8
0
  6
Continuous
 62
     4
100
AcDbLine
 10
12.9490443387762
 20
4.897976323091028
 30
0.0
 11
15.00000000207151
 21
4.89797632422028
 31
0.0
  0
LINE
  5
296
330
26
100
AcDbEntity
  8
0
  6
Continuous
 62
     4
100
AcDbLine
 10
12.9490443387762
 20
4.897976319003844
 30
0.0
 11
12.94904433822559
 21
5.897976319003844
 31
0.0
  0
LINE
  5
297
330
26
100
AcDbEntity
  8
0
  6
Continuous
 62
     4
100
AcDbLine
 10
12.05095566723889
 20
1.497976236301497
 30
0.0
 11
12.05095566481624
 21
5.897976322596548
 31
0.0
  0
LINE
  5
298
330
26
100
AcDbEntity
  8
0
  6
Continuous
 62
     4
100
AcDbLine
 10
10.40000000969595
 20
0.9479762406251948
 30
0.0
 11
12.05095566723889
 21
1.497976236301497
 31
0.0
  0
LINE
  5
299
330
26
100
AcDbEntity
  8
0
  6
Continuous
 62
   200
100
AcDbLine
 10
11.20000000028396
 20
8.144512118894738
 30
0.0
 11
13.79999999945744
 21
9.645666854737411
 31
0.0
  0
ENDBLK
  5
29A
330
26
100
AcDbEntity
  8
0
100
AcDbBlockEnd
  0
BLOCK
  5
29B
330
27
100
AcDbEntity
  8
0
100
AcDbBlockBegin
  2
AFDPGL-18-JB-10
 70
     0
 10
0.0
 20
0.0
 30
0.0
  3
AFDPGL-18-JB-10
  1

  0
LINE
  5
29C
330
27
100
AcDbEntity
  8
0
  6
Continuous
 62
   200
100
AcDbLine
 10
-1.025000000000005
 20
-0.0000000014444481
 30
0.0
 11
-1.025000000000005
 21
0.5979763159612333
 31
0.0
  0
LINE
  5
29D
330
27
100
AcDbEntity
  8
0
  6
Continuous
 62
   200
100
AcDbLine
 10
1.025000000000005
 20
-0.0000000014444481
 30
0.0
 11
1.025000000000005
 21
0.5979763159612333
 31
0.0
  0
LINE
  5
29E
330
27
100
AcDbEntity
  8
0
  6
Continuous
 62
   200
100
AcDbLine
 10
1.024999999999991
 20
-4.124166541181608
 30
0.0
 11
1.024999999999991
 21
-2.600000000000022
 31
0.0
  0
LINE
  5
29F
330
27
100
AcDbEntity
  8
0
  6
Continuous
 62
   200
100
AcDbLine
 10
-1.025000000000019
 20
-4.124166541181608
 30
0.0
 11
-1.025000000000012
 21
-2.599999999999994
 31
0.0
  0
LINE
  5
2A0
330
27
100
AcDbEntity
  8
0
  6
Continuous
 62
     4
100
AcDbLine
 10
1.300000000000004
 20
5.897976229666198
 30
0.0
 11
1.300000000000018
 21
9.645666760843994
 31
0.0
  0
LINE
  5
2A1
330
27
100
AcDbEntity
  8
0
  6
Continuous
 62
     4
100
AcDbLine
 10
-1.29999999999999
 20
5.897976229666198
 30
0.0
 11
-1.299999999999982
 21
8.14451202643292
 31
0.0
  0
LINE
  5
2A2
330
27
100
AcDbEntity
  8
0
  6
Continuous
 62
     4
100
AcDbLine
 10
-1.999404887389836
 20
-2.599999999999994
 30
0.0
 11
2.000595112610156
 21
-2.600000000000022
 31
0.0
  0
LINE
  5
2A3
330
27
100
AcDbEntity
  8
0
  6
Continuous
 62
     4
100
AcDbLine
 10
-2.050000000000018
 20
-1.800000000000011
 30
0.0
 11
2.049999999999975
 21
-1.800000000000011
 31
0.0
  0
LINE
  5
2A4
330
27
100
AcDbEntity
  8
0
  6
Continuous
 62
     4
100
AcDbLine
 10
-1.500000001961524
 20
0.0
 30
0.0
 11
1.499999998038475
 21
0.0
 31
0.0
  0
LINE
  5
2A5
330
27
100
AcDbEntity
  8
0
  6
Continuous
 62
     4
100
AcDbLine
 10
1.5
 20
-0.5500000048504319
 30
0.0
 11
1.5
 21
0.9479762301305639
 31
0.0
  0
LINE
  5
2A6
330
27
100
AcDbEntity
  8
0
  6
Continuous
 62
     4
100
AcDbLine
 10
-1.5
 20
-0.551193323898616
 30
0.0
 11
-1.5
 21
0.9479762301305639
 31
0.0
  0
LINE
  5
2A7
330
27
100
AcDbEntity
  8
0
  6
Continuous
 62
     4
100
AcDbLine
 10
-2.0500000053675
 20
1.497976233536548
 30
0.0
 11
-1.5
 21
0.9479762281690398
 31
0.0
  0
LINE
  5
2A8
330
27
100
AcDbEntity
  8
0
  6
Continuous
 62
     4
100
AcDbLine
 10
1.5
 20
0.9479762320920883
 30
0.0
 11
2.050000001444466
 21
1.497976233536519
 31
0.0
  0
LINE
  5
2A9
330
27
100
AcDbEntity
  8
0
  6
Continuous
 62
     4
100
AcDbLine
 10
2.04999999999999
 20
1.497976232092071
 30
0.0
 11
2.050000000000004
 21
5.897976229666169
 31
0.0
  0
LINE
  5
2AA
330
27
100
AcDbEntity
  8
0
  6
Continuous
 62
     4
100
AcDbLine
 10
-2.050000000000004
 20
1.497976228169022
 30
0.0
 11
-2.04999999999999
 21
5.897976229666198
 31
0.0
  0
ARC
  5
2AB
330
27
100
AcDbEntity
  8
0
  6
Continuous
 62
     4
100
AcDbCircle
 10
-0.0000000000000071
 20
-2.550000000000011
 30
0.0
 40
2.049999999999999
100
AcDbArc
 50
179.9999999999998
 51
359.9999999999998
  0
LINE
  5
2AC
330
27
100
AcDbEntity
  8
0
  6
Continuous
 62
     4
100
AcDbLine
 10
2.049999999999975
 20
-2.641112856946989
 30
0.0
 11
2.049999999999975
 21
-1.100000008256415
 31
0.0
  0
LINE
  5
2AD
330
27
100
AcDbEntity
  8
0
  6
Continuous
 62
     4
100
AcDbLine
 10
-2.050000000000018
 20
-2.550595112610181
 30
0.0
 11
-2.050000000000018
 21
-1.102023684038726
 31
0.0
  0
LINE
  5
2AE
330
27
100
AcDbEntity
  8
0
  6
Continuous
 62
     4
100
AcDbLine
 10
-0.7471428571428618
 20
-4.402023684038766
 30
0.0
 11
0.7471428571428334
 21
-4.402023684038766
 31
0.0
  0
LINE
  5
2AF
330
27
100
AcDbEntity
  8
0
  6
Continuous
 62
     4
100
AcDbLine
 10
-1.999404887389836
 20
-1.800000000000011
 30
0.0
 11
-1.999404887389836
 21
-2.602023684038755
 31
0.0
  0
LINE
  5
2B0
330
27
100
AcDbEntity
  8
0
  6
Continuous
 62
     4
100
AcDbLine
 10
2.000595112610163
 20
-1.800000000000011
 30
0.0
 11
2.000595112610156
 21
-2.602023684038755
 31
0.0
  0
LINE
  5
2B1
330
27
100
AcDbEntity
  8
0
  6
Continuous
 62
     4
100
AcDbLine
 10
-0.7471428571428618
 20
-4.402023684038766
 30
0.0
 11
-1.250000000000014
 21
-3.899166541181614
 31
0.0
  0
LINE
  5
2B2
330
27
100
AcDbEntity
  8
0
  6
Continuous
 62
     4
100
AcDbLine
 10
1.249999999999985
 20
-3.899166541181614
 30
0.0
 11
0.7471428571428334
 21
-4.402023684038766
 31
0.0
  0
LINE
  5
2B3
330
27
100
AcDbEntity
  8
0
  6
Continuous
 62
     4
100
AcDbLine
 10
-1.250000000000014
 20
-3.899166541181614
 30
0.0
 11
1.249999999999985
 21
-3.899166541181614
 31
0.0
  0
LINE
  5
2B4
330
27
100
AcDbEntity
  8
0
  6
Continuous
 62
     4
100
AcDbLine
 10
-1.250000000000007
 20
-2.599999999999994
 30
0.0
 11
-1.250000000000014
 21
-3.899166541181614
 31
0.0
  0
LINE
  5
2B5
330
27
100
AcDbEntity
  8
0
  6
Continuous
 62
     4
100
AcDbLine
 10
1.249999999999992
 20
-2.600000000000022
 30
0.0
 11
1.249999999999985
 21
-3.899166541181614
 31
0.0
  0
LINE
  5
2B6
330
27
100
AcDbEntity
  8
0
  6
Continuous
 62
     4
100
AcDbLine
 10
2.049999999999975
 20
-1.100000000000022
 30
0.0
 11
1.5
 21
-0.5500000000000114
 31
0.0
  0
LINE
  5
2B7
330
27
100
AcDbEntity
  8
0
  6
Continuous
 62
     4
100
AcDbLine
 10
-2.047976315961257
 20
-1.102023684038755
 30
0.0
 11
-1.5
 21
-0.5511933247651939
 31
0.0
  0
LINE
  5
2B8
330
27
100
AcDbEntity
  8
0
  6
Continuous
 62
     4
100
AcDbLine
 10
-1.25
 20
0.0
 30
0.0
 11
-1.25
 21
0.3979763159612446
 31
0.0
  0
LINE
  5
2B9
330
27
100
AcDbEntity
  8
0
  6
Continuous
 62
     4
100
AcDbLine
 10
1.25
 20
0.3979763159612446
 30
0.0
 11
1.25
 21
0.0
 31
0.0
  0
LINE
  5
2BA
330
27
100
AcDbEntity
  8
0
  6
Continuous
 62
     4
100
AcDbLine
 10
-1.25
 20
0.3979763159612446
 30
0.0
 11
1.25
 21
0.3979763159612446
 31
0.0
  0
LINE
  5
2BB
330
27
100
AcDbEntity
  8
0
  6
Continuous
 62
     4
100
AcDbLine
 10
1.04999999999999
 20
0.5979763159612333
 30
0.0
 11
1.25
 21
0.3979763159612446
 31
0.0
  0
LINE
  5
2BC
330
27
100
AcDbEntity
  8
0
  6
Continuous
 62
     4
100
AcDbLine
 10
-1.25
 20
0.3979763159612446
 30
0.0
 11
-1.050000000000011
 21
0.5979763159612617
 31
0.0
  0
LINE
  5
2BD
330
27
100
AcDbEntity
  8
0
  6
Continuous
 62
     4
100
AcDbLine
 10
-1.050000000000011
 20
0.5979763159612617
 30
0.0
 11
1.04999999999999
 21
0.5979763159612333
 31
0.0
  0
LINE
  5
2BE
330
27
100
AcDbEntity
  8
0
  6
Continuous
 62
     4
100
AcDbLine
 10
-2.049999999999996
 20
3.897976229666199
 30
0.0
 11
2.049999999999996
 21
3.897976229666169
 31
0.0
  0
LINE
  5
2BF
330
27
100
AcDbEntity
  8
0
  6
Continuous
 62
     4
100
AcDbLine
 10
-2.04999999999999
 20
5.897976229666198
 30
0.0
 11
2.050000000000004
 21
5.897976229666169
 31
0.0
  0
LINE
  5
2C0
330
27
100
AcDbEntity
  8
0
  6
Continuous
 62
   200
100
AcDbLine
 10
-1.299999999999982
 20
8.14451202643292
 30
0.0
 11
1.300000000000018
 21
9.645666760843994
 31
0.0
  0
LINE
  5
2C1
330
27
100
AcDbEntity
  8
0
  6
Continuous
 62
   200
100
AcDbLine
 10
-0.0000000000000213
 20
-5.546406049129273
 30
0.0
 11
0.0000000000000355
 21
9.669348017065544
 31
0.0
  0
ENDBLK
  5
2C2
330
27
100
AcDbEntity
  8
0
100
AcDbBlockEnd
  0
BLOCK
  5
2C3
330
28
100
AcDbEntity
  8
0
100
AcDbBlockBegin
  2
AFDPGL-18-JB-11
 70
     0
 10
0.0
 20
0.0
 30
0.0
  3
AFDPGL-18-JB-11
  1

  0
LINE
  5
2C4
330
28
100
AcDbEntity
  8
0
  6
Continuous
 62
   200
100
AcDbLine
 10
2.000002883182248
 20
2.834283679779915
 30
0.0
 11
1.999996590766599
 21
-3.351415279354625
 31
0.0
  0
LINE
  5
2C5
330
28
100
AcDbEntity
  8
0
  6
CENTER
 62
   200
100
AcDbLine
 10
-1.324720577364814
 20
0.0000013475748801
 30
0.0
 11
16.2376191148418
 21
-0.0000165177532381
 31
0.0
  0
CIRCLE
  5
2C6
330
28
100
AcDbEntity
  8
0
  6
Continuous
 62
     4
100
AcDbCircle
 10
11.84999999726911
 20
-0.0000120544381588
 30
0.0
 40
0.29
  0
CIRCLE
  5
2C7
330
28
100
AcDbEntity
  8
0
  6
Continuous
 62
     4
100
AcDbCircle
 10
13.15000000271799
 20
-0.0000133768660078
 30
0.0
 40
0.29
  0
CIRCLE
  5
2C8
330
28
100
AcDbEntity
  8
0
  6
Continuous
 62
     4
100
AcDbCircle
 10
11.84999999726911
 20
-0.0000120544381588
 30
0.0
 40
0.5
  0
CIRCLE
  5
2C9
330
28
100
AcDbEntity
  8
0
  6
Continuous
 62
     4
100
AcDbCircle
 10
13.15000000271799
 20
-0.0000133768660078
 30
0.0
 40
0.5
  0
CIRCLE
  5
2CA
330
28
100
AcDbEntity
  8
0
  6
Continuous
 62
     4
100
AcDbCircle
 10
1.999999999998962
 20
-0.0000020345043339
 30
0.0
 40
1.25
  0
CIRCLE
  5
2CB
330
28
100
AcDbEntity
  8
0
  6
Continuous
 62
   200
100
AcDbCircle
 10
1.999999999998962
 20
-0.0000020345043339
 30
0.0
 40
1.05
  0
CIRCLE
  5
2CC
330
28
100
AcDbEntity
  8
0
  6
Continuous
 62
     4
100
AcDbCircle
 10
1.999999999998962
 20
-0.0000020345043339
 30
0.0
 40
1.399999999999999
  0
LINE
  5
2CD
330
28
100
AcDbEntity
  8
0
  6
Continuous
 62
     4
100
AcDbLine
 10
-0.0000015258782469
 20
-1.499999999999218
 30
0.0
 11
11.03030462844615
 21
-1.500011220602061
 31
0.0
  0
LINE
  5
2CE
330
28
100
AcDbEntity
  8
0
  6
Continuous
 62
     4
100
AcDbLine
 10
-0.000002085366944
 20
-2.049999999998931
 30
0.0
 11
14.99999791462528
 21
-2.050015258781442
 31
0.0
  0
LINE
  5
2CF
330
28
100
AcDbEntity
  8
0
  6
Continuous
 62
     4
100
AcDbLine
 10
0.000002085366944
 20
2.049999999998931
 30
0.0
 11
15.00000208535917
 21
2.049984741216448
 31
0.0
  0
LINE
  5
2D0
330
28
100
AcDbEntity
  8
0
  6
Continuous
 62
     4
100
AcDbLine
 10
7.999999287919338
 20
-0.7000081380169832
 30
0.0
 11
9.599999287918535
 21
-0.7000097656204503
 31
0.0
  0
LINE
  5
2D1
330
28
100
AcDbEntity
  8
0
  6
Continuous
 62
     4
100
AcDbLine
 10
8.000000915522802
 20
0.8999918619822011
 30
0.0
 11
9.600000915522
 21
0.899990234378734
 31
0.0
  0
LINE
  5
2D2
330
28
100
AcDbEntity
  8
0
  6
Continuous
 62
     4
100
AcDbLine
 10
9.599999287918535
 20
-0.7000097724323951
 30
0.0
 11
9.600000915522
 21
0.899990234378734
 31
0.0
  0
LINE
  5
2D3
330
28
100
AcDbEntity
  8
0
  6
Continuous
 62
     4
100
AcDbLine
 10
7.999999287919338
 20
-0.700008144828928
 30
0.0
 11
8.000000915522802
 21
0.8999918619822011
 31
0.0
  0
LINE
  5
2D4
330
28
100
AcDbEntity
  8
0
  6
Continuous
 62
     4
100
AcDbLine
 10
10.39999847120992
 20
-1.502867729772034
 30
0.0
 11
10.40000152587288
 21
1.499989427388641
 31
0.0
  0
LINE
  5
2D5
330
28
100
AcDbEntity
  8
0
  6
Continuous
 62
     4
100
AcDbLine
 10
3.899998471213294
 20
-1.502861117632974
 30
0.0
 11
3.900001525876248
 21
1.49999603952773
 31
0.0
  0
LINE
  5
2D6
330
28
100
AcDbEntity
  8
0
  6
Continuous
 62
     4
100
AcDbLine
 10
1.308570341564163
 20
-1.06857275971798
 30
0.0
 11
3.051993723462714
 21
0.6748470751817451
 31
0.0
  0
LINE
  5
2D7
330
28
100
AcDbEntity
  8
0
  6
Continuous
 62
     4
100
AcDbLine
 10
0.9571421305336683
 20
-0.7142866879409837
 30
0.0
 11
2.688572466167258
 21
1.019997265044352
 31
0.0
  0
LINE
  5
2D8
330
28
100
AcDbEntity
  8
0
  6
Continuous
 62
     4
100
AcDbLine
 10
15.00000208535917
 20
2.049984741216448
 30
0.0
 11
14.99999791462528
 21
-2.050015258781442
 31
0.0
  0
LINE
  5
2D9
330
28
100
AcDbEntity
  8
0
  6
Continuous
 62
     4
100
AcDbLine
 10
0.000002085366944
 20
2.049999999998931
 30
0.0
 11
-0.000002085366944
 21
-2.049999999998931
 31
0.0
  0
LINE
  5
2DA
330
28
100
AcDbEntity
  8
0
  6
Continuous
 62
     4
100
AcDbLine
 10
0.0000015258782469
 20
1.499999999999218
 30
0.0
 11
11.03030768020265
 21
1.499988779396403
 31
0.0
  0
ARC
  5
2DB
330
28
100
AcDbEntity
  8
0
  6
Continuous
 62
     4
100
AcDbCircle
 10
12.49999999999353
 20
-0.0000127156520904
 30
0.0
 40
2.1
100
AcDbArc
 50
102.7062835541737
 51
257.6530093483313
  0
ARC
  5
2DC
330
28
100
AcDbEntity
  8
0
  6
Continuous
 62
     4
100
AcDbCircle
 10
12.49999999999353
 20
-0.0000127156520904
 30
0.0
 40
2.1
100
AcDbArc
 50
282.346874083157
 51
77.29359987731467
  0
CIRCLE
  5
2DD
330
28
100
AcDbEntity
  8
0
  6
Continuous
 62
     4
100
AcDbCircle
 10
12.49999999999353
 20
-0.0000127156520904
 30
0.0
 40
1.3
  0
ENDBLK
  5
2DE
330
28
100
AcDbEntity
  8
0
100
AcDbBlockEnd
  0
ENDSEC
  0
SECTION
  2
ENTITIES
  0
INSERT
  5
2DF
330
A
100
AcDbEntity
  8
0
  6
ByBlock
100
AcDbBlockReference
  2
AFDPGL-18-JB-11
 10
110.0
 20
-120.0
 30
0.0
 50
0.0000582842558924
  0
INSERT
  5
2E0
330
A
100
AcDbEntity
  8
0
  6
ByBlock
100
AcDbBlockReference
  2
AFDPGL-18-JB-10
 10
40.0
 20
-160.0
 30
0.0
  0
INSERT
  5
2E1
330
A
100
AcDbEntity
  8
0
  6
ByBlock
100
AcDbBlockReference
  2
AFDPGL-18-JB-9
 10
110.0
 20
-160.0
 30
0.0
 50
359.9999999684528
  0
INSERT
  5
2E2
330
A
100
AcDbEntity
  8
0
  6
ByBlock
100
AcDbBlockReference
  2
AFDPGL-18-JB-8
 10
-130.0
 20
-120.0
 30
0.0
  0
INSERT
  5
2E3
330
A
100
AcDbEntity
  8
0
  6
ByBlock
100
AcDbBlockReference
  2
AFDPGL-18-JB-7
 10
-200.0
 20
-160.0
 30
0.0
  0
INSERT
  5
2E4
330
A
100
AcDbEntity
  8
0
  6
ByBlock
100
AcDbBlockReference
  2
AFDPGL-18-JB-6
 10
-130.0
 20
-160.0
 30
0.0
  0
INSERT
  5
2E5
330
A
100
AcDbEntity
  8
0
  6
ByBlock
100
AcDbBlockReference
  2
AFDPGL-18-JB-5
 10
0.0
 20
-40.0
 30
0.0
  0
INSERT
  5
2E6
330
A
100
AcDbEntity
  8
0
  6
ByBlock
100
AcDbBlockReference
  2
AFDPGL-18-JB-4
 10
0.0
 20
130.0
 30
0.0
  0
INSERT
  5
2E7
330
A
100
AcDbEntity
  8
0
  6
ByBlock
100
AcDbBlockReference
  2
AFDPGL-18-JB-3
 10
170.0
 20
30.0
 30
0.0
  0
INSERT
  5
2E8
330
A
100
AcDbEntity
  8
0
  6
ByBlock
100
AcDbBlockReference
  2
AFDPGL-18-JB-2
 10
-180.0
 20
30.0
 30
0.0
  0
LINE
  5
2EA
330
A
100
AcDbEntity
  8
0
  6
Continuous
 62
     7
100
AcDbLine
 10
-155.25
 20
195.5
 30
0.0
 11
-155.25
 21
175.5
 31
0.0
  0
LINE
  5
2EB
330
A
100
AcDbEntity
  8
0
  6
Continuous
 62
     7
100
AcDbLine
 10
-281.25
 20
175.5
 30
0.0
 11
-155.25
 21
175.5
 31
0.0
  0
MTEXT
  5
2EC
330
A
100
AcDbEntity
  8
0
  6
Continuous
 62
     7
100
AcDbMText
 10
-276.9578262061815
 20
185.5
 30
0.0
 40
6.300000190734863
 41
0.0
 71
     4
 72
     5
  1
\W1.088;\A1;FLAT TYPE AIR HANDS
 73
     1
 44
1.0
1001
ACAD
1000
MTEXTBEGIN
1070
    73
1070
     1
1070
    44
1040
1.0
1070
    74
1070
     0
1000
MTEXTEND
  0
MTEXT
  5
2ED
330
A
100
AcDbEntity
  8
0
  6
Continuous
 62
     7
100
AcDbMText
 10
0.3282231585184833
 20
-105.6591666666666
 30
0.0
 40
4.5
 41
0.0
 71
     1
 72
     5
  1
\A1;ZE235
 73
     1
 44
1.0
1001
ACAD
1000
MTEXTBEGIN
1070
    73
1070
     1
1070
    44
1040
1.0
1070
    74
1070
     0
1000
MTEXTEND
  0
MTEXT
  5
2EE
330
A
100
AcDbEntity
  8
0
  6
Continuous
 62
     7
100
AcDbMText
 10
0.3282231585184833
 20
-112.6022293682148
 30
0.0
 40
4.5
 41
0.0
 71
     1
 72
     5
  1
\A1;ZE255
 73
     1
 44
1.0
1001
ACAD
1000
MTEXTBEGIN
1070
    73
1070
     1
1070
    44
1040
1.0
1070
    74
1070
     0
1000
MTEXTEND
  0
LINE
  5
2EF
330
A
100
AcDbEntity
  8
0
  6
Continuous
 62
     7
100
AcDbLine
 10
-9.5750732421875
 20
-97.375
 30
0.0
 11
-9.5750732421875
 21
-195.0
 31
0.0
  0
MTEXT
  5
2F0
330
A
100
AcDbEntity
  8
0
  6
Continuous
 62
     7
100
AcDbMText
 10
-267.6100538321299
 20
-112.0327502015481
 30
0.0
 40
4.5
 41
0.0
 71
     1
 72
     5
  1
\W1.071;\A1;ZE155
 73
     1
 44
1.0
1001
ACAD
1000
MTEXTBEGIN
1070
    73
1070
     1
1070
    44
1040
1.0
1070
    74
1070
     0
1000
MTEXTEND
  0
MTEXT
  5
2F1
330
A
100
AcDbEntity
  8
0
  6
Continuous
 62
     7
100
AcDbMText
 10
-267.6100538321299
 20
-105.0896875
 30
0.0
 40
4.5
 41
0.0
 71
     1
 72
     5
  1
\W1.071;\A1;ZE135
 73
     1
 44
1.0
1001
ACAD
1000
MTEXTBEGIN
1070
    73
1070
     1
1070
    44
1040
1.0
1070
    74
1070
     0
1000
MTEXTEND
  0
LINE
  5
2F2
330
A
100
AcDbEntity
  8
0
  6
Continuous
 62
     7
100
AcDbLine
 10
-281.25
 20
-97.375
 30
0.0
 11
282.099853515625
 21
-97.375
 31
0.0
  0
LINE
  5
2F3
330
A
100
AcDbEntity
  8
0
  6
Continuous
 62
     7
100
AcDbLine
 10
282.099853515625
 20
195.5
 30
0.0
 11
282.099853515625
 21
-195.0
 31
0.0
  0
LINE
  5
2F4
330
A
100
AcDbEntity
  8
0
  6
Continuous
 62
     7
100
AcDbLine
 10
-281.25
 20
195.5
 30
0.0
 11
282.099853515625
 21
195.5
 31
0.0
  0
LINE
  5
2F5
330
A
100
AcDbEntity
  8
0
  6
Continuous
 62
     7
100
AcDbLine
 10
-281.25
 20
195.5
 30
0.0
 11
-281.25
 21
-195.0
 31
0.0
  0
LINE
  5
2F6
330
A
100
AcDbEntity
  8
0
  6
Continuous
 62
     7
100
AcDbLine
 10
-281.25
 20
-195.0
 30
0.0
 11
282.099853515625
 21
-195.0
 31
0.0
  0
LINE
  5
2F7
330
A
100
AcDbEntity
  8
0
  6
Continuous
 62
     7
100
AcDbLine
 10
162.0999755859375
 20
-175.0
 30
0.0
 11
162.0999755859375
 21
-195.0
 31
0.0
  0
LINE
  5
2F8
330
A
100
AcDbEntity
  8
0
  6
Continuous
 62
     7
100
AcDbLine
 10
162.0999755859375
 20
-175.0
 30
0.0
 11
282.099853515625
 21
-175.0
 31
0.0
  0
LINE
  5
2F9
330
A
100
AcDbEntity
  8
0
  6
Continuous
 62
     7
100
AcDbLine
 10
162.0999755859375
 20
175.5
 30
0.0
 11
282.099853515625
 21
175.5
 31
0.0
  0
LINE
  5
2FA
330
A
100
AcDbEntity
  8
0
  6
Continuous
 62
     7
100
AcDbLine
 10
162.0999755859375
 20
195.5
 30
0.0
 11
162.0999755859375
 21
175.5
 31
0.0
  0
MTEXT
  5
2FB
330
A
100
AcDbEntity
  8
0
  6
Continuous
 62
     7
100
AcDbMText
 10
198.315705179235
 20
185.5
 30
0.0
 40
6.300000190734863
 41
0.0
 71
     4
 72
     5
  1
\W1.348;\A1;Ver. 1.1
 73
     1
 44
1.0
1001
ACAD
1000
MTEXTBEGIN
1070
    73
1070
     1
1070
    44
1040
1.0
1070
    74
1070
     0
1000
MTEXTEND
  0
MTEXT
  5
2FC
330
A
100
AcDbEntity
  8
0
  6
Continuous
 62
     7
100
AcDbMText
 10
170.2809980228688
 20
-185.0
 30
0.0
 40
9.0
 41
0.0
 71
     4
 72
     5
  1
\W1.121;\A1;KOGANEI CORP.
 73
     1
 44
1.0
1001
ACAD
1000
MTEXTBEGIN
1070
    73
1070
     1
1070
    44
1040
1.0
1070
    74
1070
     0
1000
MTEXTEND
  0
MTEXT
  5
2FD
330
A
100
AcDbEntity
  8
0
  6
Continuous
 62
     7
100
AcDbMText
 10
-268.288235357775
 20
160.5
 30
0.0
 40
6.300000190734863
 41
0.0
 71
     4
 72
     5
  1
\W1.059;\A1;MODEL:AFDPGL-18-JB
 73
     1
 44
1.0
1001
ACAD
1000
MTEXTBEGIN
1070
    73
1070
     1
1070
    44
1040
1.0
1070
    74
1070
     0
1000
MTEXTEND
  0
LINE
  5
310
330
A
100
AcDbEntity
  8
0
  6
CENTER
 62
     2
100
AcDbLine
 10
-100.0
 20
41.0
 30
0.0
 11
89.99999999656834
 21
41.0
 31
0.0
  0
LINE
  5
311
330
A
100
AcDbEntity
  8
0
  6
Continuous
 62
     7
100
AcDbLine
 10
-84.0
 20
58.00000762939453
 30
0.0
 11
-83.0
 21
58.00000762939453
 31
0.0
  0
LINE
  5
312
330
A
100
AcDbEntity
  8
0
  6
Continuous
 62
     7
100
AcDbLine
 10
82.99998855590819
 20
58.00000762939453
 30
0.0
 11
84.0
 21
58.00000762939453
 31
0.0
  0
LINE
  5
313
330
A
100
AcDbEntity
  8
0
  6
Continuous
 62
     7
100
AcDbLine
 10
-83.0
 20
58.00000762939453
 30
0.0
 11
82.99998855590819
 21
58.00000762939453
 31
0.0
  0
LINE
  5
314
330
A
100
AcDbEntity
  8
0
  6
Continuous
 62
     7
100
AcDbLine
 10
-83.0
 20
58.00000762939453
 30
0.0
 11
-83.0
 21
30.0
 31
0.0
  0
LINE
  5
315
330
A
100
AcDbEntity
  8
0
  6
Continuous
 62
     7
100
AcDbLine
 10
82.99998855590819
 20
58.00000762939453
 30
0.0
 11
82.99998855590819
 21
30.0
 31
0.0
  0
LINE
  5
316
330
A
100
AcDbEntity
  8
0
  6
Continuous
 62
     2
100
AcDbLine
 10
55.50000381469727
 20
54.00000762939453
 30
0.0
 11
64.50000381469727
 21
54.00000762939453
 31
0.0
  0
LINE
  5
317
330
A
100
AcDbEntity
  8
0
  6
Continuous
 62
     2
100
AcDbLine
 10
-60.0
 20
58.50000762939453
 30
0.0
 11
-60.0
 21
49.50000762939453
 31
0.0
  0
LINE
  5
318
330
A
100
AcDbEntity
  8
0
  6
Continuous
 62
     2
100
AcDbLine
 10
60.00000381469727
 20
58.50000762939453
 30
0.0
 11
60.00000381469727
 21
49.50000762939453
 31
0.0
  0
LINE
  5
319
330
A
100
AcDbEntity
  8
0
  6
Continuous
 62
     2
100
AcDbLine
 10
-4.5
 20
54.00000762939453
 30
0.0
 11
4.500003814697265
 21
54.00000762939453
 31
0.0
  0
LINE
  5
31A
330
A
100
AcDbEntity
  8
0
  6
Continuous
 62
     2
100
AcDbLine
 10
-64.5
 20
54.00000762939453
 30
0.0
 11
-55.5
 21
54.00000762939453
 31
0.0
  0
LINE
  5
31B
330
A
100
AcDbEntity
  8
0
  6
Continuous
 62
     7
100
AcDbLine
 10
-41.0
 20
61.50000762939453
 30
0.0
 11
41.0
 21
61.50000762939453
 31
0.0
  0
LINE
  5
31C
330
A
100
AcDbEntity
  8
0
  6
Continuous
 62
     7
100
AcDbLine
 10
83.0
 20
67.00000762939453
 30
0.0
 11
42.0
 21
67.00000762939453
 31
0.0
  0
LINE
  5
31D
330
A
100
AcDbEntity
  8
0
  6
Continuous
 62
     7
100
AcDbLine
 10
42.0
 20
66.00000762939453
 30
0.0
 11
41.0
 21
66.00000762939453
 31
0.0
  0
LINE
  5
31E
330
A
100
AcDbEntity
  8
0
  6
Continuous
 62
     7
100
AcDbLine
 10
42.0
 20
67.00000762939453
 30
0.0
 11
42.0
 21
58.00000762939453
 31
0.0
  0
LINE
  5
31F
330
A
100
AcDbEntity
  8
0
  6
Continuous
 62
     7
100
AcDbLine
 10
41.0
 20
66.00000762939453
 30
0.0
 11
41.0
 21
58.00000762939453
 31
0.0
  0
LINE
  5
320
330
A
100
AcDbEntity
  8
0
  6
Continuous
 62
     7
100
AcDbLine
 10
-83.0
 20
30.0
 30
0.0
 11
82.99998855590819
 21
30.0
 31
0.0
  0
LINE
  5
321
330
A
100
AcDbEntity
  8
0
  6
Continuous
 62
     7
100
AcDbLine
 10
-83.0
 20
33.63397216796875
 30
0.0
 11
82.99998855590819
 21
33.63397216796875
 31
0.0
  0
LINE
  5
322
330
A
100
AcDbEntity
  8
0
  6
Continuous
 62
     7
100
AcDbLine
 10
-83.0
 20
35.36602783203125
 30
0.0
 11
82.99998855590819
 21
35.36602783203125
 31
0.0
  0
LINE
  5
323
330
A
100
AcDbEntity
  8
0
  6
Continuous
 62
     7
100
AcDbLine
 10
-83.0
 20
36.39999389648437
 30
0.0
 11
82.99998855590819
 21
36.39999389648437
 31
0.0
  0
LINE
  5
324
330
A
100
AcDbEntity
  8
0
  6
Continuous
 62
     7
100
AcDbLine
 10
-83.0
 20
39.60000610351563
 30
0.0
 11
82.99998855590819
 21
39.60000610351563
 31
0.0
  0
LINE
  5
325
330
A
100
AcDbEntity
  8
0
  6
Continuous
 62
     7
100
AcDbLine
 10
83.0
 20
67.00000762939453
 30
0.0
 11
83.0
 21
58.00000762939453
 31
0.0
  0
LINE
  5
326
330
A
100
AcDbEntity
  8
0
  6
Continuous
 62
     7
100
AcDbLine
 10
84.0
 20
66.00000762939453
 30
0.0
 11
84.0
 21
58.00000762939453
 31
0.0
  0
LINE
  5
327
330
A
100
AcDbEntity
  8
0
  6
Continuous
 62
     7
100
AcDbLine
 10
83.0
 20
66.00000762939453
 30
0.0
 11
84.0
 21
66.00000762939453
 31
0.0
  0
LINE
  5
328
330
A
100
AcDbEntity
  8
0
  6
Continuous
 62
     7
100
AcDbLine
 10
-83.0
 20
67.00000762939453
 30
0.0
 11
-42.0
 21
67.00000762939453
 31
0.0
  0
LINE
  5
329
330
A
100
AcDbEntity
  8
0
  6
Continuous
 62
     7
100
AcDbLine
 10
-42.0
 20
66.00000762939453
 30
0.0
 11
-41.0
 21
66.00000762939453
 31
0.0
  0
LINE
  5
32A
330
A
100
AcDbEntity
  8
0
  6
Continuous
 62
     7
100
AcDbLine
 10
-42.0
 20
67.00000762939453
 30
0.0
 11
-42.0
 21
58.00000762939453
 31
0.0
  0
LINE
  5
32B
330
A
100
AcDbEntity
  8
0
  6
Continuous
 62
     7
100
AcDbLine
 10
-41.0
 20
66.00000762939453
 30
0.0
 11
-41.0
 21
58.00000762939453
 31
0.0
  0
LINE
  5
32C
330
A
100
AcDbEntity
  8
0
  6
Continuous
 62
     7
100
AcDbLine
 10
-84.0
 20
66.00000762939453
 30
0.0
 11
-84.0
 21
58.00000762939453
 31
0.0
  0
LINE
  5
32D
330
A
100
AcDbEntity
  8
0
  6
Continuous
 62
     7
100
AcDbLine
 10
-83.0
 20
67.00000762939453
 30
0.0
 11
-83.0
 21
58.00000762939453
 31
0.0
  0
LINE
  5
32E
330
A
100
AcDbEntity
  8
0
  6
Continuous
 62
     7
100
AcDbLine
 10
-83.0
 20
66.00000762939453
 30
0.0
 11
-84.0
 21
66.00000762939453
 31
0.0
  0
CIRCLE
  5
32F
330
A
100
AcDbEntity
  8
0
  6
Continuous
 62
     2
100
AcDbCircle
 10
60.00000381469727
 20
54.00000762939453
 30
0.0
 40
2.5
  0
CIRCLE
  5
330
330
A
100
AcDbEntity
  8
0
  6
Continuous
 62
     2
100
AcDbCircle
 10
0.0
 20
54.00000762939453
 30
0.0
 40
2.5
  0
CIRCLE
  5
331
330
A
100
AcDbEntity
  8
0
  6
Continuous
 62
     2
100
AcDbCircle
 10
-60.0
 20
54.00000762939453
 30
0.0
 40
2.5
  0
CIRCLE
  5
332
330
A
100
AcDbEntity
  8
0
  6
Continuous
 62
     7
100
AcDbCircle
 10
60.00000381469727
 20
54.00000762939453
 30
0.0
 40
2.067
  0
CIRCLE
  5
333
330
A
100
AcDbEntity
  8
0
  6
Continuous
 62
     7
100
AcDbCircle
 10
0.0
 20
54.00000762939453
 30
0.0
 40
2.067
  0
CIRCLE
  5
334
330
A
100
AcDbEntity
  8
0
  6
Continuous
 62
     7
100
AcDbCircle
 10
-60.0
 20
54.00000762939453
 30
0.0
 40
2.067
  0
LINE
  5
335
330
A
100
AcDbEntity
  8
0
  6
Continuous
 62
     7
100
AcDbLine
 10
-96.92349967956543
 20
37.0
 30
0.0
 11
-96.92349967956543
 21
45.0
 31
0.0
  0
LINE
  5
336
330
A
100
AcDbEntity
  8
0
  6
Continuous
 62
     7
100
AcDbLine
 10
-89.10002136230467
 20
34.5
 30
0.0
 11
-89.10002136230467
 21
47.5
 31
0.0
  0
ARC
  5
337
330
A
100
AcDbEntity
  8
0
  6
Continuous
 62
     7
100
AcDbCircle
 10
-81.20533752441406
 20
44.24999999999999
 30
0.0
 40
7.894673824310302
100
AcDbArc
 50
155.690241601857
 51
204.309741095299
  0
LINE
  5
338
330
A
100
AcDbEntity
  8
0
  6
Continuous
 62
     7
100
AcDbLine
 10
-89.10002136230467
 20
47.5
 30
0.0
 11
-84.10000610351563
 21
47.5
 31
0.0
  0
LINE
  5
339
330
A
100
AcDbEntity
  8
0
  6
Continuous
 62
     7
100
AcDbLine
 10
-97.59999999999999
 20
37.67650032043457
 30
0.0
 11
-97.59999999999999
 21
44.32349967956542
 31
0.0
  0
LINE
  5
33A
330
A
100
AcDbEntity
  8
0
  6
Continuous
 62
     2
100
AcDbLine
 10
-97.59999999999999
 20
44.3235
 30
0.0
 11
-89.100093736286
 21
44.3235
 31
0.0
  0
LINE
  5
33B
330
A
100
AcDbEntity
  8
0
  6
Continuous
 62
     7
100
AcDbLine
 10
-96.92349205017087
 20
45.00000762939452
 30
0.0
 11
-89.10002136230467
 21
45.00000762939452
 31
0.0
  0
LINE
  5
33C
330
A
100
AcDbEntity
  8
0
  6
Continuous
 62
     7
100
AcDbLine
 10
-96.92349205017087
 20
45.00000762939452
 30
0.0
 11
-97.59999999999999
 21
44.32349967956542
 31
0.0
  0
ARC
  5
33D
330
A
100
AcDbEntity
  8
0
  6
Continuous
 62
     7
100
AcDbCircle
 10
-91.99467468261719
 20
44.24999999999999
 30
0.0
 40
7.894673824310302
100
AcDbArc
 50
335.6902181284218
 51
24.3097770674777
  0
LINE
  5
33E
330
A
100
AcDbEntity
  8
0
  6
Continuous
 62
     7
100
AcDbLine
 10
-84.10000610351563
 20
48.50000762939453
 30
0.0
 11
-83.0
 21
48.50000762939453
 31
0.0
  0
LINE
  5
33F
330
A
100
AcDbEntity
  8
0
  6
Continuous
 62
     7
100
AcDbLine
 10
-84.10000610351563
 20
33.50000762939453
 30
0.0
 11
-84.10000610351563
 21
48.50000762939453
 31
0.0
  0
ARC
  5
340
330
A
100
AcDbEntity
  8
0
  6
Continuous
 62
     7
100
AcDbCircle
 10
-81.20533752441406
 20
37.75
 30
0.0
 40
7.894673824310302
100
AcDbArc
 50
155.6901869603436
 51
204.3096864537856
  0
LINE
  5
341
330
A
100
AcDbEntity
  8
0
  6
Continuous
 62
     7
100
AcDbLine
 10
-89.10002136230467
 20
34.5
 30
0.0
 11
-84.10000610351563
 21
34.5
 31
0.0
  0
LINE
  5
342
330
A
100
AcDbEntity
  8
0
  6
Continuous
 62
     2
100
AcDbLine
 10
-97.59999999999999
 20
37.6765
 30
0.0
 11
-89.100093736286
 21
37.6765
 31
0.0
  0
LINE
  5
343
330
A
100
AcDbEntity
  8
0
  6
Continuous
 62
     7
100
AcDbLine
 10
-96.92350730895995
 20
37.00000762939453
 30
0.0
 11
-89.10002136230467
 21
37.00000762939453
 31
0.0
  0
LINE
  5
344
330
A
100
AcDbEntity
  8
0
  6
Continuous
 62
     7
100
AcDbLine
 10
-96.92350730895995
 20
37.00000762939453
 30
0.0
 11
-97.59999999999999
 21
37.67650032043457
 31
0.0
  0
ARC
  5
345
330
A
100
AcDbEntity
  8
0
  6
Continuous
 62
     7
100
AcDbCircle
 10
-91.99467468261719
 20
37.75
 30
0.0
 40
7.894673824310302
100
AcDbArc
 50
335.6901682910091
 51
24.3097818715782
  0
LINE
  5
346
330
A
100
AcDbEntity
  8
0
  6
Continuous
 62
     7
100
AcDbLine
 10
-84.10000610351563
 20
33.50000762939453
 30
0.0
 11
-83.0
 21
33.50000762939453
 31
0.0
  0
LINE
  5
347
330
A
100
AcDbEntity
  8
0
  6
Continuous
 62
     2
100
AcDbLine
 10
-70.00000381469728
 20
64.50000762939453
 30
0.0
 11
-70.00000381469728
 21
68.50000762939453
 31
0.0
  0
LINE
  5
348
330
A
100
AcDbEntity
  8
0
  6
Continuous
 62
     2
100
AcDbLine
 10
-55.0
 20
64.50000762939453
 30
0.0
 11
-55.0
 21
68.50000762939453
 31
0.0
  0
LINE
  5
349
330
A
100
AcDbEntity
  8
0
  6
Continuous
 62
     2
100
AcDbLine
 10
-50.0
 20
56.00000762939453
 30
0.0
 11
-50.0
 21
60.00000762939453
 31
0.0
  0
LINE
  5
34A
330
A
100
AcDbEntity
  8
0
  6
Continuous
 62
     2
100
AcDbLine
 10
-20.0
 20
56.00000762939453
 30
0.0
 11
-20.0
 21
60.00000762939453
 31
0.0
  0
LINE
  5
34B
330
A
100
AcDbEntity
  8
0
  6
Continuous
 62
     2
100
AcDbLine
 10
20.00000381469726
 20
56.00000762939453
 30
0.0
 11
20.00000381469726
 21
60.00000762939453
 31
0.0
  0
LINE
  5
34C
330
A
100
AcDbEntity
  8
0
  6
Continuous
 62
     2
100
AcDbLine
 10
50.00000381469727
 20
56.00000762939453
 30
0.0
 11
50.00000381469727
 21
60.00000762939453
 31
0.0
  0
LINE
  5
34D
330
A
100
AcDbEntity
  8
0
  6
Continuous
 62
     2
100
AcDbLine
 10
54.99998855590821
 20
64.50000762939453
 30
0.0
 11
54.99998855590821
 21
68.50000762939453
 31
0.0
  0
LINE
  5
34E
330
A
100
AcDbEntity
  8
0
  6
Continuous
 62
     2
100
AcDbLine
 10
69.99998855590821
 20
64.50000762939453
 30
0.0
 11
69.99998855590821
 21
68.50000762939453
 31
0.0
  0
LINE
  5
34F
330
A
100
AcDbEntity
  8
0
  6
Continuous
 62
     7
100
AcDbLine
 10
-88.40001436164937
 20
41.0
 30
0.0
 11
-84.7999978453819
 21
41.0
 31
0.0
  0
LINE
  5
350
330
A
100
AcDbEntity
  8
0
  6
Continuous
 62
     2
100
AcDbLine
 10
-60.0
 20
28.0
 30
0.0
 11
-60.0
 21
32.0
 31
0.0
  0
LINE
  5
351
330
A
100
AcDbEntity
  8
0
  6
Continuous
 62
     2
100
AcDbLine
 10
-35.0
 20
28.0
 30
0.0
 11
-35.0
 21
32.0
 31
0.0
  0
LINE
  5
352
330
A
100
AcDbEntity
  8
0
  6
Continuous
 62
     2
100
AcDbLine
 10
-20.0
 20
28.0
 30
0.0
 11
-20.0
 21
32.0
 31
0.0
  0
LINE
  5
353
330
A
100
AcDbEntity
  8
0
  6
Continuous
 62
     2
100
AcDbLine
 10
20.00000381469726
 20
28.0
 30
0.0
 11
20.00000381469726
 21
32.0
 31
0.0
  0
LINE
  5
354
330
A
100
AcDbEntity
  8
0
  6
Continuous
 62
     2
100
AcDbLine
 10
35.00000381469728
 20
28.0
 30
0.0
 11
35.00000381469728
 21
32.0
 31
0.0
  0
LINE
  5
355
330
A
100
AcDbEntity
  8
0
  6
Continuous
 62
     2
100
AcDbLine
 10
60.00000381469727
 20
28.0
 30
0.0
 11
60.00000381469727
 21
32.0
 31
0.0
  0
LINE
  5
356
330
A
100
AcDbEntity
  8
0
  6
CENTER
 62
     2
100
AcDbLine
 10
0.0
 20
25.5
 30
0.0
 11
0.0
 21
65.5
 31
0.0
  0
ENDSEC
  0
SECTION
  2
OBJECTS
  0
DICTIONARY
  5
19
330
0
100
AcDbDictionary
281
     1
  3
ACAD_COLOR
350
306
  3
ACAD_GROUP
350
1A
  3
ACAD_LAYOUT
350
309
  3
ACAD_MATERIAL
350
305
  3
ACAD_MLINESTYLE
350
1B
  3
ACAD_PLOTSETTINGS
350
30A
  3
ACAD_PLOTSTYLENAME
350
303
  3
ACAD_TABLESTYLE
350
307
  3
ACDBHEADERROUNDTRIPXREC
350
35E
  3
AcDbVariableDictionary
350
359
  0
DICTIONARY
  5
357
330
A
100
AcDbDictionary
280
     1
281
     1
  3
ACAD_SORTENTS
360
358
  0
DICTIONARY
  5
306
102
{ACAD_REACTORS
330
19
102
}
330
19
100
AcDbDictionary
281
     1
  0
DICTIONARY
  5
1A
102
{ACAD_REACTORS
330
19
102
}
330
19
100
AcDbDictionary
281
     1
  0
DICTIONARY
  5
309
102
{ACAD_REACTORS
330
19
102
}
330
19
100
AcDbDictionary
281
     1
  3
Model
350
30B
  3
レイアウト1
350
30C
  0
DICTIONARY
  5
305
102
{ACAD_REACTORS
330
19
102
}
330
19
100
AcDbDictionary
281
     1
  0
DICTIONARY
  5
1B
102
{ACAD_REACTORS
330
19
102
}
330
19
100
AcDbDictionary
281
     1
  3
STANDARD
350
1C
  0
DICTIONARY
  5
30A
102
{ACAD_REACTORS
330
19
102
}
330
19
100
AcDbDictionary
281
     1
  0
ACDBDICTIONARYWDFLT
  5
303
102
{ACAD_REACTORS
330
19
102
}
330
19
100
AcDbDictionary
281
     1
  3
Normal
350
304
100
AcDbDictionaryWithDefault
340
304
  0
DICTIONARY
  5
307
102
{ACAD_REACTORS
330
19
102
}
330
19
100
AcDbDictionary
281
     1
  3
Standard
350
308
  0
DICTIONARY
  5
35E
102
{ACAD_REACTORS
330
19
102
}
330
19
100
AcDbDictionary
281
     1
  0
DICTIONARY
  5
359
102
{ACAD_REACTORS
330
19
102
}
330
19
100
AcDbDictionary
281
     1
  3
CTABLESTYLE
350
35A
  3
DIMASSOC
350
35B
  3
PROJECTNAME
350
35C
  0
SORTENTSTABLE
  5
358
102
{ACAD_REACTORS
330
357
102
}
330
357
100
AcDbSortentsTable
330
A
331
2FC
  5
355
331
2EB
  5
344
331
348
  5
334
331
326
  5
312
331
337
  5
323
331
315
  5
2EF
331
2FA
  5
353
331
346
  5
332
331
324
  5
310
331
335
  5
321
331
313
  5
2ED
331
2F8
  5
351
331
344
  5
330
331
322
  5
2FC
331
333
  5
31F
331
311
  5
2EB
331
2E7
  5
2E7
331
2F6
  5
34F
331
342
  5
32E
331
320
  5
2FA
331
331
  5
31D
331
2E5
  5
2E5
331
2F4
  5
34D
331
356
  5
342
331
340
  5
32C
331
31E
  5
2F8
331
32F
  5
31B
331
2E3
  5
2E3
331
2F2
  5
34B
331
354
  5
340
331
33E
  5
32A
331
31C
  5
2F6
331
34F
  5
33B
331
32D
  5
319
331
2E1
  5
2E1
331
2F0
  5
349
331
352
  5
33E
331
33C
  5
328
331
31A
  5
2F4
331
34D
  5
339
331
32B
  5
317
331
2DF
  5
2DF
331
350
  5
33C
331
33A
  5
326
331
318
  5
2F2
331
2EE
  5
347
331
34B
  5
337
331
329
  5
315
331
2FD
  5
356
331
338
  5
324
331
2EC
  5
345
331
349
  5
335
331
327
  5
313
331
316
  5
2F0
331
2FB
  5
354
331
2EA
  5
343
331
347
  5
333
331
325
  5
311
331
336
  5
322
331
314
  5
2EE
331
2F9
  5
352
331
345
  5
331
331
323
  5
2FD
331
334
  5
320
331
312
  5
2EC
331
2E8
  5
2E8
331
2F7
  5
350
331
343
  5
32F
331
321
  5
2FB
331
332
  5
31E
331
310
  5
2EA
331
2E6
  5
2E6
331
2F5
  5
34E
331
341
  5
32D
331
31F
  5
2F9
331
330
  5
31C
331
2E4
  5
2E4
331
2F3
  5
34C
331
355
  5
341
331
33F
  5
32B
331
31D
  5
2F7
331
32E
  5
31A
331
2E2
  5
2E2
331
2F1
  5
34A
331
353
  5
33F
331
33D
  5
329
331
31B
  5
2F5
331
34E
  5
33A
331
32C
  5
318
331
2E0
  5
2E0
331
351
  5
33D
331
33B
  5
327
331
319
  5
2F3
331
2EF
  5
348
331
34C
  5
338
331
32A
  5
316
331
339
  5
325
331
2ED
  5
346
331
34A
  5
336
331
328
  5
314
331
317
  5
2F1
  0
LAYOUT
  5
30B
102
{ACAD_XDICTIONARY
360
35F
102
}
102
{ACAD_REACTORS
330
309
102
}
330
309
100
AcDbPlotSettings
  1

  2
DocuCentre Color f450
  4

  6

 40
0.0
 41
0.0
 42
0.0
 43
0.0
 44
0.0
 45
0.0
 46
0.0
 47
0.0
 48
0.0
 49
0.0
140
0.0
141
0.0
142
1.0
143
1.0
 70
  1712
 72
     0
 73
     0
 74
     0
  7

 75
     0
147
1.0
148
0.0
149
0.0
100
AcDbLayout
  1
Model
 70
     1
 71
     0
 10
0.0
 20
0.0
 11
12.0
 21
9.0
 12
0.0
 22
0.0
 32
0.0
 14
0.0
 24
0.0
 34
0.0
 15
0.0
 25
0.0
 35
0.0
146
0.0
 13
0.0
 23
0.0
 33
0.0
 16
1.0
 26
0.0
 36
0.0
 17
0.0
 27
1.0
 37
0.0
 76
     0
330
A
  0
LAYOUT
  5
30C
102
{ACAD_XDICTIONARY
360
361
102
}
102
{ACAD_REACTORS
330
309
102
}
330
309
100
AcDbPlotSettings
  1

  2
DocuCentre Color f450
  4

  6

 40
0.0
 41
0.0
 42
0.0
 43
0.0
 44
0.0
 45
0.0
 46
0.0
 47
0.0
 48
0.0
 49
0.0
140
0.0
141
0.0
142
1.0
143
1.0
 70
   688
 72
     0
 73
     0
 74
     5
  7

 75
    16
147
1.0
148
0.0
149
0.0
100
AcDbLayout
  1
レイアウト1
 70
     0
 71
     1
 10
0.0
 20
0.0
 11
12.0
 21
9.0
 12
0.0
 22
0.0
 32
0.0
 14
1.000000000000000E+20
 24
1.000000000000000E+20
 34
1.000000000000000E+20
 15
-1.000000000000000E+20
 25
-1.000000000000000E+20
 35
-1.000000000000000E+20
146
0.0
 13
0.0
 23
0.0
 33
0.0
 16
1.0
 26
0.0
 36
0.0
 17
0.0
 27
1.0
 37
0.0
 76
     0
330
B
  0
MLINESTYLE
  5
1C
102
{ACAD_REACTORS
330
1B
102
}
330
1B
100
AcDbMlineStyle
  2
STANDARD
 70
     0
  3

 62
     0
 51
90.0
 52
90.0
 71
     2
 49
0.5
 62
   256
  6
BYLAYER
 49
-0.5
 62
   256
  6
BYLAYER
  0
ACDBPLACEHOLDER
  5
304
102
{ACAD_REACTORS
330
303
102
}
330
303
  0
TABLESTYLE
  5
308
102
{ACAD_REACTORS
330
307
102
}
330
307
100
AcDbTableStyle
  3
Standard
 70
     0
 71
     0
 40
0.06
 41
0.06
280
     0
281
     0
  7
MX_NOTE_STANDARD
140
0.18
170
     2
 62
     0
 63
     7
283
     0
274
    -2
284
     1
 64
     0
275
    -2
285
     1
 65
     0
276
    -2
286
     1
 66
     0
277
    -2
287
     1
 67
     0
278
    -2
288
     1
 68
     0
279
    -2
289
     1
 69
     0
  7
MX_NOTE_STANDARD
140
0.25
170
     5
 62
     0
 63
     7
283
     0
274
    -2
284
     1
 64
     0
275
    -2
285
     1
 65
     0
276
    -2
286
     1
 66
     0
277
    -2
287
     1
 67
     0
278
    -2
288
     1
 68
     0
279
    -2
289
     1
 69
     0
  7
MX_NOTE_STANDARD
140
0.18
170
     5
 62
     0
 63
     7
283
     0
274
    -2
284
     1
 64
     0
275
    -2
285
     1
 65
     0
276
    -2
286
     1
 66
     0
277
    -2
287
     1
 67
     0
278
    -2
288
     1
 68
     0
279
    -2
289
     1
 69
     0
  0
DICTIONARYVAR
  5
35A
102
{ACAD_REACTORS
330
359
102
}
330
359
100
DictionaryVariables
280
     0
  1
STANDARD
  0
DICTIONARYVAR
  5
35B
102
{ACAD_REACTORS
330
359
102
}
330
359
100
DictionaryVariables
280
     0
  1
1
  0
DICTIONARYVAR
  5
35C
102
{ACAD_REACTORS
330
359
102
}
330
359
100
DictionaryVariables
280
     0
  1

  0
DICTIONARY
  5
35F
330
30B
100
AcDbDictionary
280
     1
281
     1
  3
ACAD_XREC_ROUNDTRIP
360
360
  0
DICTIONARY
  5
361
330
30C
100
AcDbDictionary
280
     1
281
     1
  3
ACAD_XREC_ROUNDTRIP
360
362
  0
XRECORD
  5
360
102
{ACAD_REACTORS
330
35F
102
}
330
35F
100
AcDbXrecord
280
     1
102
SHADEPLOT
 70
     0
102
SHADEPLOTRESLEVEL
 70
     2
102
SHADEPLOTCUSTOMDPI
 70
   300
  0
XRECORD
  5
362
102
{ACAD_REACTORS
330
361
102
}
330
361
100
AcDbXrecord
280
     1
102
SHADEPLOT
 70
     0
102
SHADEPLOTRESLEVEL
 70
     2
102
SHADEPLOTCUSTOMDPI
 70
   300
  0
ENDSEC
  0
EOF
