  0
SECTION
  2
HEADER
  0
ENDSEC
  0
SECTION
  2
TABLES
  0
TABLE
  2
LTYPE
 70
     4
  0
LTYPE
  2
CONTINUOUS
 70
    64
  3
Solid line
 72
    65
 73
     0
 40
0.000000
  0
LTYPE
  2
DASHED
 70
    64
  3
__ __ __ __ __ __ __ __ __ __ __ __ __ __ __
 72
    65
 73
     2
 40
3.500000
 49
2.000000
 49
-1.500000
  0
LTYPE
  2
CENTER
 70
    64
  3
____ _ ____ _ ____ _ ____ _ ____ _ ____ _ ____
 72
    65
 73
     4
 40
17.500000
 49
13.000000
 49
-1.500000
 49
1.500000
 49
-1.500000
  0
LTYPE
  2
PHANTOM
 70
    64
  3
_____ _ _ _____ _ _ _____ _ _ _____ _ _ ____  
 72
    65
 73
     6
 40
15.500000
 49
8.000000
 49
-1.500000
 49
1.500000
 49
-1.500000
 49
1.500000
 49
-1.500000
  0
ENDTAB
  0
TABLE
  2
LAYER
 70
     1
  0
LAYER
  2
0
 70
     0
 62
     7
  6
CONTINUOUS
  0
ENDTAB
  0
TABLE
  2
STYLE
 70
     1
  0
STYLE
  2
STANDARD
 70
     0
 40
0.000000
 41
1.000000
 50
0.000000
 71
     0
 42
0.200000
  3
txt
  4
BIGFONT
  0
ENDTAB
  0
TABLE
  2
VIEW
 70
     0
  0
ENDTAB
  0
ENDSEC
  0
SECTION
  2
BLOCKS
  0
ENDSEC
  0
SECTION
  2
ENTITIES
  0
LINE
  8
0
  6
CONTINUOUS
 62
7
 10
-281.250000
 20
195.500000
 11
282.100006
 21
195.500000
  0
LINE
  8
0
  6
CONTINUOUS
 62
7
 10
-281.250000
 20
195.500000
 11
-281.250000
 21
-195.000000
  0
LINE
  8
0
  6
CONTINUOUS
 62
7
 10
282.100006
 20
195.500000
 11
282.100006
 21
-195.000000
  0
LINE
  8
0
  6
CONTINUOUS
 62
7
 10
-281.250000
 20
-195.000000
 11
282.100006
 21
-195.000000
  0
LINE
  8
0
  6
CONTINUOUS
 62
7
 10
162.100006
 20
-175.000000
 11
162.100006
 21
-195.000000
  0
LINE
  8
0
  6
CONTINUOUS
 62
7
 10
162.100006
 20
-175.000000
 11
282.100006
 21
-175.000000
  0
LINE
  8
0
  6
CONTINUOUS
 62
7
 10
162.100006
 20
175.500000
 11
282.100006
 21
175.500000
  0
LINE
  8
0
  6
CONTINUOUS
 62
7
 10
-281.250000
 20
175.500000
 11
-161.250000
 21
175.500000
  0
LINE
  8
0
  6
CONTINUOUS
 62
7
 10
162.100006
 20
195.500000
 11
162.100006
 21
175.500000
  0
LINE
  8
0
  6
CONTINUOUS
 62
7
 10
-161.250000
 20
195.500000
 11
-161.250000
 21
175.500000
  0
LINE
  8
0
  6
CONTINUOUS
 62
7
 10
68.000000
 20
-109.500000
 11
80.000000
 21
-109.500000
  0
LINE
  8
0
  6
CONTINUOUS
 62
7
 10
68.000000
 20
-112.709000
 11
68.000000
 21
-115.500000
  0
LINE
  8
0
  6
CONTINUOUS
 62
7
 10
68.000000
 20
-109.500000
 11
68.000000
 21
-110.291000
  0
LINE
  8
0
  6
CONTINUOUS
 62
7
 10
60.500000
 20
-105.000000
 11
67.000000
 21
-105.000000
  0
LINE
  8
0
  6
CONTINUOUS
 62
7
 10
60.500000
 20
-115.000000
 11
68.000000
 21
-115.000000
  0
LINE
  8
0
  6
CONTINUOUS
 62
7
 10
67.300003
 20
-105.300003
 11
80.699997
 21
-105.300003
  0
LINE
  8
0
  6
CONTINUOUS
 62
7
 10
80.000000
 20
-112.709000
 11
80.000000
 21
-115.500000
  0
LINE
  8
0
  6
CONTINUOUS
 62
7
 10
80.000000
 20
-109.500000
 11
80.000000
 21
-110.291000
  0
LINE
  8
0
  6
CONTINUOUS
 62
7
 10
87.500000
 20
-105.000000
 11
81.000000
 21
-105.000000
  0
LINE
  8
0
  6
CONTINUOUS
 62
7
 10
87.500000
 20
-105.000000
 11
87.500000
 21
-115.000000
  0
LINE
  8
0
  6
CONTINUOUS
 62
7
 10
87.500000
 20
-115.000000
 11
80.000000
 21
-115.000000
  0
LINE
  8
0
  6
CONTINUOUS
 62
7
 10
60.500000
 20
-105.000000
 11
60.500000
 21
-115.000000
  0
LINE
  8
0
  6
CONTINUOUS
 62
7
 10
67.000000
 20
-105.000000
 11
67.300003
 21
-105.300003
  0
LINE
  8
0
  6
CONTINUOUS
 62
7
 10
81.000000
 20
-105.000000
 11
80.699997
 21
-105.300003
  0
LINE
  8
0
  6
CONTINUOUS
 62
7
 10
88.000000
 20
-115.500000
 11
80.000000
 21
-115.500000
  0
LINE
  8
0
  6
CONTINUOUS
 62
7
 10
88.000000
 20
-125.000000
 11
60.000000
 21
-125.000000
  0
LINE
  8
0
  6
CONTINUOUS
 62
7
 10
60.000000
 20
-115.500000
 11
68.000000
 21
-115.500000
  0
LINE
  8
0
  6
CONTINUOUS
 62
7
 10
60.000000
 20
-115.500000
 11
60.000000
 21
-125.000000
  0
LINE
  8
0
  6
CONTINUOUS
 62
7
 10
88.000000
 20
-115.500000
 11
88.000000
 21
-125.000000
  0
LINE
  8
0
  6
CONTINUOUS
 62
7
 10
128.500000
 20
-105.500000
 11
128.500000
 21
-115.000000
  0
LINE
  8
0
  6
CONTINUOUS
 62
7
 10
135.000000
 20
-105.000000
 11
171.000000
 21
-105.000000
  0
LINE
  8
0
  6
CONTINUOUS
 62
7
 10
135.000000
 20
-105.000000
 11
135.000000
 21
-115.000000
  0
LINE
  8
0
  6
CONTINUOUS
 62
7
 10
128.500000
 20
-105.500000
 11
135.000000
 21
-105.500000
  0
LINE
  8
0
  6
CONTINUOUS
 62
7
 10
177.500000
 20
-105.500000
 11
177.500000
 21
-115.000000
  0
LINE
  8
0
  6
CONTINUOUS
 62
7
 10
171.000000
 20
-105.000000
 11
171.000000
 21
-115.000000
  0
LINE
  8
0
  6
CONTINUOUS
 62
7
 10
177.500000
 20
-105.500000
 11
171.000000
 21
-105.500000
  0
LINE
  8
0
  6
CONTINUOUS
 62
7
 10
98.000000
 20
-109.500000
 11
128.500000
 21
-109.500000
  0
LINE
  8
0
  6
CONTINUOUS
 62
7
 10
177.500000
 20
-109.500000
 11
188.000000
 21
-109.500000
  0
LINE
  8
0
  6
CONTINUOUS
 62
7
 10
98.000000
 20
-125.000000
 11
98.000000
 21
-109.500000
  0
LINE
  8
0
  6
CONTINUOUS
 62
7
 10
188.000000
 20
-125.000000
 11
188.000000
 21
-109.500000
  0
LINE
  8
0
  6
CONTINUOUS
 62
7
 10
98.000000
 20
-125.000000
 11
188.000000
 21
-125.000000
  0
LINE
  8
0
  6
CONTINUOUS
 62
7
 10
171.000000
 20
-62.500000
 11
135.000000
 21
-62.500000
  0
LINE
  8
0
  6
CONTINUOUS
 62
7
 10
135.000000
 20
-62.500000
 11
135.000000
 21
-89.500000
  0
LINE
  8
0
  6
CONTINUOUS
 62
7
 10
171.000000
 20
-89.500000
 11
135.000000
 21
-89.500000
  0
LINE
  8
0
  6
CONTINUOUS
 62
7
 10
171.000000
 20
-62.500000
 11
171.000000
 21
-89.500000
  0
LINE
  8
0
  6
CONTINUOUS
 62
7
 10
98.000000
 20
-70.000000
 11
128.500000
 21
-70.000000
  0
LINE
  8
0
  6
CONTINUOUS
 62
7
 10
177.500000
 20
-70.000000
 11
188.000000
 21
-70.000000
  0
LINE
  8
0
  6
CONTINUOUS
 62
7
 10
98.000000
 20
-82.000000
 11
128.500000
 21
-82.000000
  0
LINE
  8
0
  6
CONTINUOUS
 62
7
 10
177.500000
 20
-82.000000
 11
188.000000
 21
-82.000000
  0
LINE
  8
0
  6
CONTINUOUS
 62
7
 10
171.000000
 20
-83.000000
 11
135.000000
 21
-83.000000
  0
LINE
  8
0
  6
CONTINUOUS
 62
7
 10
171.000000
 20
-69.000000
 11
135.000000
 21
-69.000000
  0
LINE
  8
0
  6
CONTINUOUS
 62
7
 10
177.500000
 20
-62.700001
 11
171.000000
 21
-62.700001
  0
LINE
  8
0
  6
CONTINUOUS
 62
7
 10
177.500000
 20
-89.300003
 11
177.500000
 21
-62.700001
  0
LINE
  8
0
  6
CONTINUOUS
 62
7
 10
177.500000
 20
-89.300003
 11
171.000000
 21
-89.300003
  0
LINE
  8
0
  6
CONTINUOUS
 62
7
 10
188.000000
 20
-62.000000
 11
98.000000
 21
-62.000000
  0
LINE
  8
0
  6
CONTINUOUS
 62
7
 10
188.000000
 20
-90.000000
 11
98.000000
 21
-90.000000
  0
LINE
  8
0
  6
CONTINUOUS
 62
7
 10
98.000000
 20
-62.000000
 11
98.000000
 21
-90.000000
  0
LINE
  8
0
  6
CONTINUOUS
 62
7
 10
188.000000
 20
-62.000000
 11
188.000000
 21
-90.000000
  0
LINE
  8
0
  6
CONTINUOUS
 62
7
 10
177.199997
 20
-119.500000
 11
170.598007
 21
-119.500000
  0
LINE
  8
0
  6
CONTINUOUS
 62
7
 10
98.000000
 20
-115.500000
 11
106.653000
 21
-115.500000
  0
LINE
  8
0
  6
CONTINUOUS
 62
7
 10
115.402000
 20
-119.500000
 11
108.800003
 21
-119.500000
  0
LINE
  8
0
  6
CONTINUOUS
 62
7
 10
128.500000
 20
-115.000000
 11
177.500000
 21
-115.000000
  0
LINE
  8
0
  6
CONTINUOUS
 62
7
 10
128.500000
 20
-46.500000
 11
128.500000
 21
-37.000000
  0
LINE
  8
0
  6
CONTINUOUS
 62
7
 10
135.000000
 20
-47.000000
 11
171.000000
 21
-47.000000
  0
LINE
  8
0
  6
CONTINUOUS
 62
7
 10
135.000000
 20
-47.000000
 11
135.000000
 21
-37.000000
  0
LINE
  8
0
  6
CONTINUOUS
 62
7
 10
128.500000
 20
-46.500000
 11
135.000000
 21
-46.500000
  0
LINE
  8
0
  6
CONTINUOUS
 62
7
 10
177.500000
 20
-46.500000
 11
177.500000
 21
-37.000000
  0
LINE
  8
0
  6
CONTINUOUS
 62
7
 10
171.000000
 20
-47.000000
 11
171.000000
 21
-37.000000
  0
LINE
  8
0
  6
CONTINUOUS
 62
7
 10
177.500000
 20
-46.500000
 11
171.000000
 21
-46.500000
  0
LINE
  8
0
  6
CONTINUOUS
 62
7
 10
98.000000
 20
-42.500000
 11
128.500000
 21
-42.500000
  0
LINE
  8
0
  6
CONTINUOUS
 62
7
 10
177.500000
 20
-42.500000
 11
188.000000
 21
-42.500000
  0
LINE
  8
0
  6
CONTINUOUS
 62
7
 10
98.000000
 20
-27.000000
 11
98.000000
 21
-42.500000
  0
LINE
  8
0
  6
CONTINUOUS
 62
7
 10
188.000000
 20
-27.000000
 11
188.000000
 21
-42.500000
  0
LINE
  8
0
  6
CONTINUOUS
 62
7
 10
98.000000
 20
-27.000000
 11
188.000000
 21
-27.000000
  0
LINE
  8
0
  6
CONTINUOUS
 62
7
 10
177.199997
 20
-32.500000
 11
170.598007
 21
-32.500000
  0
LINE
  8
0
  6
CONTINUOUS
 62
7
 10
98.000000
 20
-36.500000
 11
106.653000
 21
-36.500000
  0
LINE
  8
0
  6
CONTINUOUS
 62
7
 10
115.402000
 20
-32.500000
 11
108.800003
 21
-32.500000
  0
LINE
  8
0
  6
CONTINUOUS
 62
7
 10
128.500000
 20
-37.000000
 11
177.500000
 21
-37.000000
  0
LINE
  8
0
  6
CONTINUOUS
 62
7
 10
165.000000
 20
-121.000000
 11
121.000000
 21
-121.000000
  0
LINE
  8
0
  6
CONTINUOUS
 62
7
 10
165.000000
 20
-31.000000
 11
121.000000
 21
-31.000000
  0
LINE
  8
0
  6
CONTINUOUS
 62
7
 10
128.500000
 20
-89.300003
 11
128.500000
 21
-62.700001
  0
LINE
  8
0
  6
CONTINUOUS
 62
7
 10
128.500000
 20
-89.300003
 11
135.000000
 21
-89.300003
  0
LINE
  8
0
  6
CONTINUOUS
 62
7
 10
128.500000
 20
-62.700001
 11
135.000000
 21
-62.700001
  0
LINE
  8
0
  6
CONTINUOUS
 62
7
 10
179.347000
 20
-36.500000
 11
188.000000
 21
-36.500000
  0
LINE
  8
0
  6
CONTINUOUS
 62
7
 10
179.347000
 20
-115.500000
 11
188.000000
 21
-115.500000
  0
LINE
  8
0
  6
CENTER
 62
2
 10
118.000000
 20
-27.500000
 11
118.000000
 21
-34.500000
  0
LINE
  8
0
  6
CENTER
 62
2
 10
114.500000
 20
-31.000000
 11
121.500000
 21
-31.000000
  0
LINE
  8
0
  6
CENTER
 62
2
 10
168.000000
 20
-27.500000
 11
168.000000
 21
-34.500000
  0
LINE
  8
0
  6
CENTER
 62
2
 10
164.500000
 20
-31.000000
 11
171.500000
 21
-31.000000
  0
LINE
  8
0
  6
CENTER
 62
2
 10
157.000000
 20
-112.500000
 11
157.000000
 21
-105.500000
  0
LINE
  8
0
  6
CENTER
 62
2
 10
153.500000
 20
-109.000000
 11
160.500000
 21
-109.000000
  0
LINE
  8
0
  6
CENTER
 62
2
 10
149.000000
 20
-112.500000
 11
149.000000
 21
-105.500000
  0
LINE
  8
0
  6
CENTER
 62
2
 10
145.500000
 20
-109.000000
 11
152.500000
 21
-109.000000
  0
LINE
  8
0
  6
CENTER
 62
2
 10
112.000000
 20
-60.500000
 11
112.000000
 21
-70.500000
  0
LINE
  8
0
  6
CENTER
 62
2
 10
107.000000
 20
-65.500000
 11
117.000000
 21
-65.500000
  0
LINE
  8
0
  6
CENTER
 62
2
 10
112.000000
 20
-81.500000
 11
112.000000
 21
-91.500000
  0
LINE
  8
0
  6
CENTER
 62
2
 10
107.000000
 20
-86.500000
 11
117.000000
 21
-86.500000
  0
LINE
  8
0
  6
CENTER
 62
2
 10
138.000000
 20
-62.500000
 11
138.000000
 21
-69.500000
  0
LINE
  8
0
  6
CENTER
 62
2
 10
134.500000
 20
-66.000000
 11
141.500000
 21
-66.000000
  0
LINE
  8
0
  6
CENTER
 62
2
 10
153.000000
 20
-62.500000
 11
153.000000
 21
-69.500000
  0
LINE
  8
0
  6
CENTER
 62
2
 10
149.500000
 20
-66.000000
 11
156.500000
 21
-66.000000
  0
LINE
  8
0
  6
CENTER
 62
2
 10
168.000000
 20
-62.500000
 11
168.000000
 21
-69.500000
  0
LINE
  8
0
  6
CENTER
 62
2
 10
164.500000
 20
-66.000000
 11
171.500000
 21
-66.000000
  0
LINE
  8
0
  6
CENTER
 62
2
 10
174.000000
 20
-60.500000
 11
174.000000
 21
-70.500000
  0
LINE
  8
0
  6
CENTER
 62
2
 10
169.000000
 20
-65.500000
 11
179.000000
 21
-65.500000
  0
LINE
  8
0
  6
CENTER
 62
2
 10
174.000000
 20
-81.500000
 11
174.000000
 21
-91.500000
  0
LINE
  8
0
  6
CENTER
 62
2
 10
169.000000
 20
-86.500000
 11
179.000000
 21
-86.500000
  0
LINE
  8
0
  6
CENTER
 62
2
 10
168.000000
 20
-82.500000
 11
168.000000
 21
-89.500000
  0
LINE
  8
0
  6
CENTER
 62
2
 10
164.500000
 20
-86.000000
 11
171.500000
 21
-86.000000
  0
LINE
  8
0
  6
CENTER
 62
2
 10
96.000000
 20
-76.000000
 11
190.000000
 21
-76.000000
  0
LINE
  8
0
  6
CENTER
 62
2
 10
153.000000
 20
-82.500000
 11
153.000000
 21
-89.500000
  0
LINE
  8
0
  6
CENTER
 62
2
 10
149.500000
 20
-86.000000
 11
156.500000
 21
-86.000000
  0
LINE
  8
0
  6
CENTER
 62
2
 10
138.000000
 20
-82.500000
 11
138.000000
 21
-89.500000
  0
LINE
  8
0
  6
CENTER
 62
2
 10
134.500000
 20
-86.000000
 11
141.500000
 21
-86.000000
  0
LINE
  8
0
  6
CENTER
 62
2
 10
104.000000
 20
-115.000000
 11
104.000000
 21
-124.000000
  0
LINE
  8
0
  6
CENTER
 62
2
 10
99.500000
 20
-119.500000
 11
108.500000
 21
-119.500000
  0
LINE
  8
0
  6
CENTER
 62
2
 10
118.000000
 20
-117.500000
 11
118.000000
 21
-124.500000
  0
LINE
  8
0
  6
CENTER
 62
2
 10
114.500000
 20
-121.000000
 11
121.500000
 21
-121.000000
  0
LINE
  8
0
  6
CENTER
 62
2
 10
148.000000
 20
-46.000000
 11
148.000000
 21
-40.000000
  0
LINE
  8
0
  6
CENTER
 62
2
 10
145.000000
 20
-43.000000
 11
151.000000
 21
-43.000000
  0
LINE
  8
0
  6
CENTER
 62
2
 10
158.000000
 20
-46.000000
 11
158.000000
 21
-40.000000
  0
LINE
  8
0
  6
CENTER
 62
2
 10
155.000000
 20
-43.000000
 11
161.000000
 21
-43.000000
  0
LINE
  8
0
  6
CENTER
 62
2
 10
168.000000
 20
-117.500000
 11
168.000000
 21
-124.500000
  0
LINE
  8
0
  6
CENTER
 62
2
 10
164.500000
 20
-121.000000
 11
171.500000
 21
-121.000000
  0
LINE
  8
0
  6
CENTER
 62
2
 10
182.000000
 20
-115.000000
 11
182.000000
 21
-124.000000
  0
LINE
  8
0
  6
CENTER
 62
2
 10
177.500000
 20
-119.500000
 11
186.500000
 21
-119.500000
  0
LINE
  8
0
  6
CENTER
 62
2
 10
65.000000
 20
-117.500000
 11
65.000000
 21
-124.500000
  0
LINE
  8
0
  6
CENTER
 62
2
 10
61.500000
 20
-121.000000
 11
68.500000
 21
-121.000000
  0
LINE
  8
0
  6
DASHED
 62
2
 10
110.000000
 20
-120.000000
 11
110.000000
 21
-125.000000
  0
LINE
  8
0
  6
DASHED
 62
2
 10
110.349998
 20
-120.000000
 11
110.349998
 21
-125.000000
  0
LINE
  8
0
  6
DASHED
 62
2
 10
109.000000
 20
-120.000000
 11
115.000000
 21
-120.000000
  0
LINE
  8
0
  6
CENTER
 62
2
 10
112.000000
 20
-117.500000
 11
112.000000
 21
-127.000000
  0
LINE
  8
0
  6
DASHED
 62
2
 10
113.650002
 20
-120.000000
 11
113.650002
 21
-125.000000
  0
LINE
  8
0
  6
DASHED
 62
2
 10
114.000000
 20
-120.000000
 11
114.000000
 21
-125.000000
  0
LINE
  8
0
  6
DASHED
 62
2
 10
115.000000
 20
-119.500000
 11
115.000000
 21
-120.000000
  0
LINE
  8
0
  6
DASHED
 62
2
 10
109.000000
 20
-119.500000
 11
109.000000
 21
-120.000000
  0
LINE
  8
0
  6
DASHED
 62
2
 10
172.000000
 20
-120.000000
 11
172.000000
 21
-125.000000
  0
LINE
  8
0
  6
DASHED
 62
2
 10
172.350006
 20
-120.000000
 11
172.350006
 21
-125.000000
  0
LINE
  8
0
  6
DASHED
 62
2
 10
171.000000
 20
-120.000000
 11
177.000000
 21
-120.000000
  0
LINE
  8
0
  6
CENTER
 62
2
 10
174.000000
 20
-117.500000
 11
174.000000
 21
-127.000000
  0
LINE
  8
0
  6
DASHED
 62
2
 10
175.649994
 20
-120.000000
 11
175.649994
 21
-125.000000
  0
LINE
  8
0
  6
DASHED
 62
2
 10
176.000000
 20
-120.000000
 11
176.000000
 21
-125.000000
  0
LINE
  8
0
  6
DASHED
 62
2
 10
177.000000
 20
-119.500000
 11
177.000000
 21
-120.000000
  0
LINE
  8
0
  6
DASHED
 62
2
 10
171.000000
 20
-119.500000
 11
171.000000
 21
-120.000000
  0
LINE
  8
0
  6
DASHED
 62
2
 10
114.000000
 20
-32.000000
 11
114.000000
 21
-27.000000
  0
LINE
  8
0
  6
DASHED
 62
2
 10
113.650002
 20
-32.000000
 11
113.650002
 21
-27.000000
  0
LINE
  8
0
  6
DASHED
 62
2
 10
115.000000
 20
-32.000000
 11
109.000000
 21
-32.000000
  0
LINE
  8
0
  6
CENTER
 62
2
 10
112.000000
 20
-34.500000
 11
112.000000
 21
-25.000000
  0
LINE
  8
0
  6
DASHED
 62
2
 10
110.349998
 20
-32.000000
 11
110.349998
 21
-27.000000
  0
LINE
  8
0
  6
DASHED
 62
2
 10
110.000000
 20
-32.000000
 11
110.000000
 21
-27.000000
  0
LINE
  8
0
  6
DASHED
 62
2
 10
109.000000
 20
-32.500000
 11
109.000000
 21
-32.000000
  0
LINE
  8
0
  6
DASHED
 62
2
 10
115.000000
 20
-32.500000
 11
115.000000
 21
-32.000000
  0
LINE
  8
0
  6
DASHED
 62
2
 10
176.000000
 20
-32.000000
 11
176.000000
 21
-27.000000
  0
LINE
  8
0
  6
DASHED
 62
2
 10
175.649994
 20
-32.000000
 11
175.649994
 21
-27.000000
  0
LINE
  8
0
  6
DASHED
 62
2
 10
177.000000
 20
-32.000000
 11
171.000000
 21
-32.000000
  0
LINE
  8
0
  6
CENTER
 62
2
 10
174.000000
 20
-34.500000
 11
174.000000
 21
-25.000000
  0
LINE
  8
0
  6
DASHED
 62
2
 10
172.350006
 20
-32.000000
 11
172.350006
 21
-27.000000
  0
LINE
  8
0
  6
DASHED
 62
2
 10
172.000000
 20
-32.000000
 11
172.000000
 21
-27.000000
  0
LINE
  8
0
  6
DASHED
 62
2
 10
171.000000
 20
-32.500000
 11
171.000000
 21
-32.000000
  0
LINE
  8
0
  6
DASHED
 62
2
 10
177.000000
 20
-32.500000
 11
177.000000
 21
-32.000000
  0
LINE
  8
0
  6
CENTER
 62
2
 10
74.000000
 20
-103.000000
 11
74.000000
 21
-127.000000
  0
LINE
  8
0
  6
CENTER
 62
2
 10
66.599998
 20
-118.000000
 11
81.400002
 21
-118.000000
  0
LINE
  8
0
  6
CENTER
 62
2
 10
64.000000
 20
-103.000000
 11
64.000000
 21
-107.000000
  0
LINE
  8
0
  6
CENTER
 62
2
 10
84.000000
 20
-103.000000
 11
84.000000
 21
-107.000000
  0
LINE
  8
0
  6
CENTER
 62
2
 10
138.000000
 20
-103.000000
 11
138.000000
 21
-107.000000
  0
LINE
  8
0
  6
CENTER
 62
2
 10
153.000000
 20
-103.000000
 11
153.000000
 21
-107.000000
  0
LINE
  8
0
  6
CENTER
 62
2
 10
168.000000
 20
-103.000000
 11
168.000000
 21
-107.000000
  0
LINE
  8
0
  6
CENTER
 62
2
 10
138.000000
 20
-49.000000
 11
138.000000
 21
-45.000000
  0
LINE
  8
0
  6
CENTER
 62
2
 10
153.000000
 20
-49.000000
 11
153.000000
 21
-45.000000
  0
LINE
  8
0
  6
CENTER
 62
2
 10
168.000000
 20
-49.000000
 11
168.000000
 21
-45.000000
  0
LINE
  8
0
  6
CONTINUOUS
 62
7
 10
218.000000
 20
-109.500000
 11
206.000000
 21
-109.500000
  0
LINE
  8
0
  6
CONTINUOUS
 62
7
 10
218.000000
 20
-112.709000
 11
218.000000
 21
-115.500000
  0
LINE
  8
0
  6
CONTINUOUS
 62
7
 10
218.000000
 20
-109.500000
 11
218.000000
 21
-110.291000
  0
LINE
  8
0
  6
CONTINUOUS
 62
7
 10
225.500000
 20
-105.000000
 11
219.000000
 21
-105.000000
  0
LINE
  8
0
  6
CONTINUOUS
 62
7
 10
225.500000
 20
-115.000000
 11
218.000000
 21
-115.000000
  0
LINE
  8
0
  6
CONTINUOUS
 62
7
 10
218.699997
 20
-105.300003
 11
205.300003
 21
-105.300003
  0
LINE
  8
0
  6
CONTINUOUS
 62
7
 10
206.000000
 20
-112.709000
 11
206.000000
 21
-115.500000
  0
LINE
  8
0
  6
CONTINUOUS
 62
7
 10
206.000000
 20
-109.500000
 11
206.000000
 21
-110.291000
  0
LINE
  8
0
  6
CONTINUOUS
 62
7
 10
198.500000
 20
-105.000000
 11
205.000000
 21
-105.000000
  0
LINE
  8
0
  6
CONTINUOUS
 62
7
 10
198.500000
 20
-105.000000
 11
198.500000
 21
-115.000000
  0
LINE
  8
0
  6
CONTINUOUS
 62
7
 10
198.500000
 20
-115.000000
 11
206.000000
 21
-115.000000
  0
LINE
  8
0
  6
CONTINUOUS
 62
7
 10
225.500000
 20
-105.000000
 11
225.500000
 21
-115.000000
  0
LINE
  8
0
  6
CONTINUOUS
 62
7
 10
219.000000
 20
-105.000000
 11
218.699997
 21
-105.300003
  0
LINE
  8
0
  6
CONTINUOUS
 62
7
 10
205.000000
 20
-105.000000
 11
205.300003
 21
-105.300003
  0
LINE
  8
0
  6
CONTINUOUS
 62
7
 10
198.000000
 20
-115.500000
 11
206.000000
 21
-115.500000
  0
LINE
  8
0
  6
CONTINUOUS
 62
7
 10
198.000000
 20
-125.000000
 11
226.000000
 21
-125.000000
  0
LINE
  8
0
  6
CONTINUOUS
 62
7
 10
226.000000
 20
-115.500000
 11
218.000000
 21
-115.500000
  0
LINE
  8
0
  6
CONTINUOUS
 62
7
 10
226.000000
 20
-115.500000
 11
226.000000
 21
-125.000000
  0
LINE
  8
0
  6
CONTINUOUS
 62
7
 10
198.000000
 20
-115.500000
 11
198.000000
 21
-125.000000
  0
LINE
  8
0
  6
CENTER
 62
2
 10
221.000000
 20
-117.500000
 11
221.000000
 21
-124.500000
  0
LINE
  8
0
  6
CENTER
 62
2
 10
224.500000
 20
-121.000000
 11
217.500000
 21
-121.000000
  0
LINE
  8
0
  6
CENTER
 62
2
 10
212.000000
 20
-103.000000
 11
212.000000
 21
-127.000000
  0
LINE
  8
0
  6
CENTER
 62
2
 10
219.399994
 20
-118.000000
 11
204.600006
 21
-118.000000
  0
LINE
  8
0
  6
CENTER
 62
2
 10
222.000000
 20
-103.000000
 11
222.000000
 21
-107.000000
  0
LINE
  8
0
  6
CENTER
 62
2
 10
202.000000
 20
-103.000000
 11
202.000000
 21
-107.000000
  0
LINE
  8
0
  6
CONTINUOUS
 62
7
 10
-193.000000
 20
-109.500000
 11
-181.000000
 21
-109.500000
  0
LINE
  8
0
  6
CONTINUOUS
 62
7
 10
-193.000000
 20
-112.709000
 11
-193.000000
 21
-115.500000
  0
LINE
  8
0
  6
CONTINUOUS
 62
7
 10
-193.000000
 20
-109.500000
 11
-193.000000
 21
-110.291000
  0
LINE
  8
0
  6
CONTINUOUS
 62
7
 10
-200.500000
 20
-105.000000
 11
-194.000000
 21
-105.000000
  0
LINE
  8
0
  6
CONTINUOUS
 62
7
 10
-200.500000
 20
-115.000000
 11
-193.000000
 21
-115.000000
  0
LINE
  8
0
  6
CONTINUOUS
 62
7
 10
-193.699997
 20
-105.300003
 11
-180.300003
 21
-105.300003
  0
LINE
  8
0
  6
CONTINUOUS
 62
7
 10
-181.000000
 20
-112.709000
 11
-181.000000
 21
-115.500000
  0
LINE
  8
0
  6
CONTINUOUS
 62
7
 10
-181.000000
 20
-109.500000
 11
-181.000000
 21
-110.291000
  0
LINE
  8
0
  6
CONTINUOUS
 62
7
 10
-173.500000
 20
-105.000000
 11
-180.000000
 21
-105.000000
  0
LINE
  8
0
  6
CONTINUOUS
 62
7
 10
-173.500000
 20
-105.000000
 11
-173.500000
 21
-115.000000
  0
LINE
  8
0
  6
CONTINUOUS
 62
7
 10
-173.500000
 20
-115.000000
 11
-181.000000
 21
-115.000000
  0
LINE
  8
0
  6
CONTINUOUS
 62
7
 10
-200.500000
 20
-105.000000
 11
-200.500000
 21
-115.000000
  0
LINE
  8
0
  6
CONTINUOUS
 62
7
 10
-194.000000
 20
-105.000000
 11
-193.699997
 21
-105.300003
  0
LINE
  8
0
  6
CONTINUOUS
 62
7
 10
-180.000000
 20
-105.000000
 11
-180.300003
 21
-105.300003
  0
LINE
  8
0
  6
CONTINUOUS
 62
7
 10
-173.000000
 20
-115.500000
 11
-181.000000
 21
-115.500000
  0
LINE
  8
0
  6
CONTINUOUS
 62
7
 10
-173.000000
 20
-125.000000
 11
-201.000000
 21
-125.000000
  0
LINE
  8
0
  6
CONTINUOUS
 62
7
 10
-201.000000
 20
-115.500000
 11
-193.000000
 21
-115.500000
  0
LINE
  8
0
  6
CONTINUOUS
 62
7
 10
-201.000000
 20
-115.500000
 11
-201.000000
 21
-125.000000
  0
LINE
  8
0
  6
CONTINUOUS
 62
7
 10
-173.000000
 20
-115.500000
 11
-173.000000
 21
-125.000000
  0
LINE
  8
0
  6
CONTINUOUS
 62
7
 10
-145.000000
 20
-105.500000
 11
-145.000000
 21
-115.000000
  0
LINE
  8
0
  6
CONTINUOUS
 62
7
 10
-138.500000
 20
-105.000000
 11
-117.500000
 21
-105.000000
  0
LINE
  8
0
  6
CONTINUOUS
 62
7
 10
-138.500000
 20
-105.000000
 11
-138.500000
 21
-115.000000
  0
LINE
  8
0
  6
CONTINUOUS
 62
7
 10
-145.000000
 20
-105.500000
 11
-138.500000
 21
-105.500000
  0
LINE
  8
0
  6
CONTINUOUS
 62
7
 10
-111.000000
 20
-105.500000
 11
-111.000000
 21
-115.000000
  0
LINE
  8
0
  6
CONTINUOUS
 62
7
 10
-117.500000
 20
-105.000000
 11
-117.500000
 21
-115.000000
  0
LINE
  8
0
  6
CONTINUOUS
 62
7
 10
-111.000000
 20
-105.500000
 11
-117.500000
 21
-105.500000
  0
LINE
  8
0
  6
CONTINUOUS
 62
7
 10
-163.000000
 20
-109.500000
 11
-145.000000
 21
-109.500000
  0
LINE
  8
0
  6
CONTINUOUS
 62
7
 10
-111.000000
 20
-109.500000
 11
-103.000000
 21
-109.500000
  0
LINE
  8
0
  6
CONTINUOUS
 62
7
 10
-163.000000
 20
-125.000000
 11
-163.000000
 21
-109.500000
  0
LINE
  8
0
  6
CONTINUOUS
 62
7
 10
-103.000000
 20
-125.000000
 11
-103.000000
 21
-109.500000
  0
LINE
  8
0
  6
CONTINUOUS
 62
7
 10
-163.000000
 20
-125.000000
 11
-103.000000
 21
-125.000000
  0
LINE
  8
0
  6
CENTER
 62
2
 10
-100.702003
 20
-76.000000
 11
-166.587006
 21
-76.000000
  0
LINE
  8
0
  6
CONTINUOUS
 62
7
 10
-117.500000
 20
-62.500000
 11
-138.500000
 21
-62.500000
  0
LINE
  8
0
  6
CONTINUOUS
 62
7
 10
-138.500000
 20
-62.500000
 11
-138.500000
 21
-89.500000
  0
LINE
  8
0
  6
CONTINUOUS
 62
7
 10
-117.500000
 20
-89.500000
 11
-138.500000
 21
-89.500000
  0
LINE
  8
0
  6
CONTINUOUS
 62
7
 10
-117.500000
 20
-62.500000
 11
-117.500000
 21
-89.500000
  0
LINE
  8
0
  6
CONTINUOUS
 62
7
 10
-163.000000
 20
-70.000000
 11
-145.000000
 21
-70.000000
  0
LINE
  8
0
  6
CONTINUOUS
 62
7
 10
-111.000000
 20
-70.000000
 11
-103.000000
 21
-70.000000
  0
LINE
  8
0
  6
CONTINUOUS
 62
7
 10
-163.000000
 20
-82.000000
 11
-145.000000
 21
-82.000000
  0
LINE
  8
0
  6
CONTINUOUS
 62
7
 10
-111.000000
 20
-82.000000
 11
-103.000000
 21
-82.000000
  0
LINE
  8
0
  6
CONTINUOUS
 62
7
 10
-117.500000
 20
-83.000000
 11
-138.500000
 21
-83.000000
  0
LINE
  8
0
  6
CONTINUOUS
 62
7
 10
-117.500000
 20
-69.000000
 11
-138.500000
 21
-69.000000
  0
LINE
  8
0
  6
CONTINUOUS
 62
7
 10
-111.000000
 20
-62.700001
 11
-117.500000
 21
-62.700001
  0
LINE
  8
0
  6
CONTINUOUS
 62
7
 10
-111.000000
 20
-89.300003
 11
-111.000000
 21
-62.700001
  0
LINE
  8
0
  6
CONTINUOUS
 62
7
 10
-111.000000
 20
-89.300003
 11
-117.500000
 21
-89.300003
  0
LINE
  8
0
  6
CONTINUOUS
 62
7
 10
-103.000000
 20
-62.000000
 11
-163.000000
 21
-62.000000
  0
LINE
  8
0
  6
CONTINUOUS
 62
7
 10
-103.000000
 20
-90.000000
 11
-163.000000
 21
-90.000000
  0
LINE
  8
0
  6
CONTINUOUS
 62
7
 10
-163.000000
 20
-62.000000
 11
-163.000000
 21
-90.000000
  0
LINE
  8
0
  6
CONTINUOUS
 62
7
 10
-103.000000
 20
-62.000000
 11
-103.000000
 21
-90.000000
  0
LINE
  8
0
  6
CENTER
 62
2
 10
-149.000000
 20
-81.464699
 11
-149.000000
 21
-91.000000
  0
LINE
  8
0
  6
CENTER
 62
2
 10
-149.000000
 20
-70.500000
 11
-149.000000
 21
-61.500000
  0
LINE
  8
0
  6
CENTER
 62
2
 10
-135.500000
 20
-69.500000
 11
-135.500000
 21
-62.500000
  0
LINE
  8
0
  6
CENTER
 62
2
 10
-152.500000
 20
-65.500000
 11
-144.582993
 21
-65.500000
  0
LINE
  8
0
  6
CENTER
 62
2
 10
-135.500000
 20
-82.500000
 11
-135.500000
 21
-89.500000
  0
LINE
  8
0
  6
CENTER
 62
2
 10
-152.500000
 20
-86.500000
 11
-144.582993
 21
-86.500000
  0
LINE
  8
0
  6
CONTINUOUS
 62
7
 10
-113.800003
 20
-119.500000
 11
-120.402000
 21
-119.500000
  0
LINE
  8
0
  6
CONTINUOUS
 62
7
 10
-163.000000
 20
-115.500000
 11
-154.347000
 21
-115.500000
  0
LINE
  8
0
  6
CONTINUOUS
 62
7
 10
-145.598007
 20
-119.500000
 11
-152.199997
 21
-119.500000
  0
LINE
  8
0
  6
CONTINUOUS
 62
7
 10
-145.000000
 20
-115.000000
 11
-111.000000
 21
-115.000000
  0
LINE
  8
0
  6
CENTER
 62
2
 10
-117.000000
 20
-70.500000
 11
-117.000000
 21
-61.500000
  0
LINE
  8
0
  6
CENTER
 62
2
 10
-113.500000
 20
-65.500000
 11
-121.400002
 21
-65.500000
  0
LINE
  8
0
  6
CENTER
 62
2
 10
-120.500000
 20
-69.500000
 11
-120.500000
 21
-62.500000
  0
LINE
  8
0
  6
CENTER
 62
2
 10
-113.500000
 20
-86.500000
 11
-120.822998
 21
-86.500000
  0
LINE
  8
0
  6
CENTER
 62
2
 10
-120.500000
 20
-82.500000
 11
-120.500000
 21
-89.500000
  0
LINE
  8
0
  6
CENTER
 62
2
 10
-117.000000
 20
-81.464699
 11
-117.000000
 21
-91.000000
  0
LINE
  8
0
  6
CONTINUOUS
 62
7
 10
-145.000000
 20
-46.500000
 11
-145.000000
 21
-37.000000
  0
LINE
  8
0
  6
CONTINUOUS
 62
7
 10
-138.500000
 20
-47.000000
 11
-117.500000
 21
-47.000000
  0
LINE
  8
0
  6
CONTINUOUS
 62
7
 10
-138.500000
 20
-47.000000
 11
-138.500000
 21
-37.000000
  0
LINE
  8
0
  6
CONTINUOUS
 62
7
 10
-145.000000
 20
-46.500000
 11
-138.500000
 21
-46.500000
  0
LINE
  8
0
  6
CONTINUOUS
 62
7
 10
-111.000000
 20
-46.500000
 11
-111.000000
 21
-37.000000
  0
LINE
  8
0
  6
CONTINUOUS
 62
7
 10
-117.500000
 20
-47.000000
 11
-117.500000
 21
-37.000000
  0
LINE
  8
0
  6
CONTINUOUS
 62
7
 10
-111.000000
 20
-46.500000
 11
-117.500000
 21
-46.500000
  0
LINE
  8
0
  6
CONTINUOUS
 62
7
 10
-163.000000
 20
-42.500000
 11
-145.000000
 21
-42.500000
  0
LINE
  8
0
  6
CONTINUOUS
 62
7
 10
-111.000000
 20
-42.500000
 11
-103.000000
 21
-42.500000
  0
LINE
  8
0
  6
CONTINUOUS
 62
7
 10
-163.000000
 20
-27.000000
 11
-163.000000
 21
-42.500000
  0
LINE
  8
0
  6
CONTINUOUS
 62
7
 10
-103.000000
 20
-27.000000
 11
-103.000000
 21
-42.500000
  0
LINE
  8
0
  6
CONTINUOUS
 62
7
 10
-163.000000
 20
-27.000000
 11
-103.000000
 21
-27.000000
  0
LINE
  8
0
  6
CONTINUOUS
 62
7
 10
-113.800003
 20
-32.500000
 11
-120.402000
 21
-32.500000
  0
LINE
  8
0
  6
CONTINUOUS
 62
7
 10
-145.598007
 20
-32.500000
 11
-152.199997
 21
-32.500000
  0
LINE
  8
0
  6
CONTINUOUS
 62
7
 10
-163.000000
 20
-36.500000
 11
-154.347000
 21
-36.500000
  0
LINE
  8
0
  6
CONTINUOUS
 62
7
 10
-145.000000
 20
-37.000000
 11
-111.000000
 21
-37.000000
  0
LINE
  8
0
  6
CENTER
 62
2
 10
-138.500000
 20
-86.000000
 11
-132.000000
 21
-86.000000
  0
LINE
  8
0
  6
CENTER
 62
2
 10
-138.500000
 20
-66.000000
 11
-132.000000
 21
-66.000000
  0
LINE
  8
0
  6
CENTER
 62
2
 10
-117.500000
 20
-66.000000
 11
-124.000000
 21
-66.000000
  0
LINE
  8
0
  6
CENTER
 62
2
 10
-117.500000
 20
-86.000000
 11
-124.000000
 21
-86.000000
  0
LINE
  8
0
  6
CONTINUOUS
 62
7
 10
-126.000000
 20
-121.000000
 11
-140.000000
 21
-121.000000
  0
LINE
  8
0
  6
CONTINUOUS
 62
7
 10
-145.000000
 20
-89.300003
 11
-145.000000
 21
-62.700001
  0
LINE
  8
0
  6
CONTINUOUS
 62
7
 10
-145.000000
 20
-62.700001
 11
-138.500000
 21
-62.700001
  0
LINE
  8
0
  6
CONTINUOUS
 62
7
 10
-145.000000
 20
-89.300003
 11
-138.500000
 21
-89.300003
  0
LINE
  8
0
  6
CONTINUOUS
 62
7
 10
-111.653000
 20
-115.500000
 11
-103.000000
 21
-115.500000
  0
LINE
  8
0
  6
CONTINUOUS
 62
7
 10
-111.653000
 20
-36.500000
 11
-103.000000
 21
-36.500000
  0
LINE
  8
0
  6
CENTER
 62
2
 10
-123.000000
 20
-27.500000
 11
-123.000000
 21
-34.500000
  0
LINE
  8
0
  6
CENTER
 62
2
 10
-126.500000
 20
-31.000000
 11
-119.500000
 21
-31.000000
  0
LINE
  8
0
  6
CENTER
 62
2
 10
-143.000000
 20
-27.500000
 11
-143.000000
 21
-34.500000
  0
LINE
  8
0
  6
CENTER
 62
2
 10
-146.500000
 20
-31.000000
 11
-139.500000
 21
-31.000000
  0
LINE
  8
0
  6
CENTER
 62
2
 10
-132.000000
 20
-112.500000
 11
-132.000000
 21
-105.500000
  0
LINE
  8
0
  6
CENTER
 62
2
 10
-135.500000
 20
-109.000000
 11
-128.500000
 21
-109.000000
  0
LINE
  8
0
  6
CENTER
 62
2
 10
-124.000000
 20
-112.500000
 11
-124.000000
 21
-105.500000
  0
LINE
  8
0
  6
CENTER
 62
2
 10
-127.500000
 20
-109.000000
 11
-120.500000
 21
-109.000000
  0
LINE
  8
0
  6
CENTER
 62
2
 10
-157.000000
 20
-115.000000
 11
-157.000000
 21
-124.000000
  0
LINE
  8
0
  6
CENTER
 62
2
 10
-161.500000
 20
-119.500000
 11
-152.500000
 21
-119.500000
  0
LINE
  8
0
  6
CENTER
 62
2
 10
-143.000000
 20
-117.500000
 11
-143.000000
 21
-124.500000
  0
LINE
  8
0
  6
CENTER
 62
2
 10
-146.500000
 20
-121.000000
 11
-139.500000
 21
-121.000000
  0
LINE
  8
0
  6
CENTER
 62
2
 10
-123.000000
 20
-117.500000
 11
-123.000000
 21
-124.500000
  0
LINE
  8
0
  6
CENTER
 62
2
 10
-126.500000
 20
-121.000000
 11
-119.500000
 21
-121.000000
  0
LINE
  8
0
  6
CENTER
 62
2
 10
-109.000000
 20
-115.000000
 11
-109.000000
 21
-124.000000
  0
LINE
  8
0
  6
CENTER
 62
2
 10
-113.500000
 20
-119.500000
 11
-104.500000
 21
-119.500000
  0
LINE
  8
0
  6
CENTER
 62
2
 10
-133.000000
 20
-46.000000
 11
-133.000000
 21
-40.000000
  0
LINE
  8
0
  6
CENTER
 62
2
 10
-136.000000
 20
-43.000000
 11
-130.000000
 21
-43.000000
  0
LINE
  8
0
  6
CENTER
 62
2
 10
-123.000000
 20
-46.000000
 11
-123.000000
 21
-40.000000
  0
LINE
  8
0
  6
CENTER
 62
2
 10
-126.000000
 20
-43.000000
 11
-120.000000
 21
-43.000000
  0
LINE
  8
0
  6
CENTER
 62
2
 10
-196.000000
 20
-117.500000
 11
-196.000000
 21
-124.500000
  0
LINE
  8
0
  6
CENTER
 62
2
 10
-199.500000
 20
-121.000000
 11
-192.500000
 21
-121.000000
  0
LINE
  8
0
  6
CENTER
 62
2
 10
-187.000000
 20
-103.000000
 11
-187.000000
 21
-127.000000
  0
LINE
  8
0
  6
CENTER
 62
2
 10
-194.399994
 20
-118.000000
 11
-179.600006
 21
-118.000000
  0
LINE
  8
0
  6
DASHED
 62
2
 10
-120.000000
 20
-120.000000
 11
-114.000000
 21
-120.000000
  0
LINE
  8
0
  6
CENTER
 62
2
 10
-117.000000
 20
-117.500000
 11
-117.000000
 21
-127.000000
  0
LINE
  8
0
  6
DASHED
 62
2
 10
-120.000000
 20
-119.500000
 11
-120.000000
 21
-120.000000
  0
LINE
  8
0
  6
DASHED
 62
2
 10
-146.000000
 20
-119.500000
 11
-146.000000
 21
-120.000000
  0
LINE
  8
0
  6
DASHED
 62
2
 10
-119.000000
 20
-120.000000
 11
-119.000000
 21
-125.000000
  0
LINE
  8
0
  6
DASHED
 62
2
 10
-115.000000
 20
-120.000000
 11
-115.000000
 21
-125.000000
  0
LINE
  8
0
  6
DASHED
 62
2
 10
-115.349998
 20
-120.000000
 11
-115.349998
 21
-125.000000
  0
LINE
  8
0
  6
DASHED
 62
2
 10
-118.650002
 20
-120.000000
 11
-118.650002
 21
-125.000000
  0
LINE
  8
0
  6
DASHED
 62
2
 10
-152.000000
 20
-120.000000
 11
-146.000000
 21
-120.000000
  0
LINE
  8
0
  6
CENTER
 62
2
 10
-149.000000
 20
-117.500000
 11
-149.000000
 21
-127.000000
  0
LINE
  8
0
  6
DASHED
 62
2
 10
-152.000000
 20
-119.500000
 11
-152.000000
 21
-120.000000
  0
LINE
  8
0
  6
DASHED
 62
2
 10
-151.000000
 20
-120.000000
 11
-151.000000
 21
-125.000000
  0
LINE
  8
0
  6
DASHED
 62
2
 10
-147.000000
 20
-120.000000
 11
-147.000000
 21
-125.000000
  0
LINE
  8
0
  6
DASHED
 62
2
 10
-147.350006
 20
-120.000000
 11
-147.350006
 21
-125.000000
  0
LINE
  8
0
  6
DASHED
 62
2
 10
-150.649994
 20
-120.000000
 11
-150.649994
 21
-125.000000
  0
LINE
  8
0
  6
DASHED
 62
2
 10
-152.000000
 20
-32.000000
 11
-146.000000
 21
-32.000000
  0
LINE
  8
0
  6
CENTER
 62
2
 10
-149.000000
 20
-34.500000
 11
-149.000000
 21
-25.000000
  0
LINE
  8
0
  6
DASHED
 62
2
 10
-152.000000
 20
-32.500000
 11
-152.000000
 21
-32.000000
  0
LINE
  8
0
  6
DASHED
 62
2
 10
-151.000000
 20
-32.000000
 11
-151.000000
 21
-27.000000
  0
LINE
  8
0
  6
DASHED
 62
2
 10
-147.000000
 20
-32.000000
 11
-147.000000
 21
-27.000000
  0
LINE
  8
0
  6
DASHED
 62
2
 10
-147.350006
 20
-32.000000
 11
-147.350006
 21
-27.000000
  0
LINE
  8
0
  6
DASHED
 62
2
 10
-150.649994
 20
-32.000000
 11
-150.649994
 21
-27.000000
  0
LINE
  8
0
  6
DASHED
 62
2
 10
-120.000000
 20
-32.000000
 11
-114.000000
 21
-32.000000
  0
LINE
  8
0
  6
CENTER
 62
2
 10
-117.000000
 20
-34.500000
 11
-117.000000
 21
-25.000000
  0
LINE
  8
0
  6
DASHED
 62
2
 10
-119.000000
 20
-32.000000
 11
-119.000000
 21
-27.000000
  0
LINE
  8
0
  6
DASHED
 62
2
 10
-115.000000
 20
-32.000000
 11
-115.000000
 21
-27.000000
  0
LINE
  8
0
  6
DASHED
 62
2
 10
-115.349998
 20
-32.000000
 11
-115.349998
 21
-27.000000
  0
LINE
  8
0
  6
DASHED
 62
2
 10
-118.650002
 20
-32.000000
 11
-118.650002
 21
-27.000000
  0
LINE
  8
0
  6
DASHED
 62
2
 10
-120.000000
 20
-32.500000
 11
-120.000000
 21
-32.000000
  0
LINE
  8
0
  6
DASHED
 62
2
 10
-146.000000
 20
-32.500000
 11
-146.000000
 21
-32.000000
  0
LINE
  8
0
  6
DASHED
 62
2
 10
-114.000000
 20
-119.500000
 11
-114.000000
 21
-120.000000
  0
LINE
  8
0
  6
DASHED
 62
2
 10
-114.000000
 20
-32.500000
 11
-114.000000
 21
-32.000000
  0
LINE
  8
0
  6
CONTINUOUS
 62
7
 10
-140.000000
 20
-31.000000
 11
-126.000000
 21
-31.000000
  0
LINE
  8
0
  6
CENTER
 62
2
 10
-135.500000
 20
-103.000000
 11
-135.500000
 21
-107.000000
  0
LINE
  8
0
  6
CONTINUOUS
 62
7
 10
-73.000000
 20
-109.500000
 11
-85.000000
 21
-109.500000
  0
LINE
  8
0
  6
CONTINUOUS
 62
7
 10
-73.000000
 20
-112.709000
 11
-73.000000
 21
-115.500000
  0
LINE
  8
0
  6
CONTINUOUS
 62
7
 10
-73.000000
 20
-109.500000
 11
-73.000000
 21
-110.291000
  0
LINE
  8
0
  6
CONTINUOUS
 62
7
 10
-65.500000
 20
-105.000000
 11
-72.000000
 21
-105.000000
  0
LINE
  8
0
  6
CONTINUOUS
 62
7
 10
-65.500000
 20
-115.000000
 11
-73.000000
 21
-115.000000
  0
LINE
  8
0
  6
CONTINUOUS
 62
7
 10
-72.300003
 20
-105.300003
 11
-85.699997
 21
-105.300003
  0
LINE
  8
0
  6
CONTINUOUS
 62
7
 10
-85.000000
 20
-112.709000
 11
-85.000000
 21
-115.500000
  0
LINE
  8
0
  6
CONTINUOUS
 62
7
 10
-85.000000
 20
-109.500000
 11
-85.000000
 21
-110.291000
  0
LINE
  8
0
  6
CONTINUOUS
 62
7
 10
-92.500000
 20
-105.000000
 11
-86.000000
 21
-105.000000
  0
LINE
  8
0
  6
CONTINUOUS
 62
7
 10
-92.500000
 20
-105.000000
 11
-92.500000
 21
-115.000000
  0
LINE
  8
0
  6
CONTINUOUS
 62
7
 10
-92.500000
 20
-115.000000
 11
-85.000000
 21
-115.000000
  0
LINE
  8
0
  6
CONTINUOUS
 62
7
 10
-65.500000
 20
-105.000000
 11
-65.500000
 21
-115.000000
  0
LINE
  8
0
  6
CONTINUOUS
 62
7
 10
-72.000000
 20
-105.000000
 11
-72.300003
 21
-105.300003
  0
LINE
  8
0
  6
CONTINUOUS
 62
7
 10
-86.000000
 20
-105.000000
 11
-85.699997
 21
-105.300003
  0
LINE
  8
0
  6
CONTINUOUS
 62
7
 10
-93.000000
 20
-115.500000
 11
-85.000000
 21
-115.500000
  0
LINE
  8
0
  6
CONTINUOUS
 62
7
 10
-93.000000
 20
-125.000000
 11
-65.000000
 21
-125.000000
  0
LINE
  8
0
  6
CONTINUOUS
 62
7
 10
-65.000000
 20
-115.500000
 11
-73.000000
 21
-115.500000
  0
LINE
  8
0
  6
CONTINUOUS
 62
7
 10
-65.000000
 20
-115.500000
 11
-65.000000
 21
-125.000000
  0
LINE
  8
0
  6
CONTINUOUS
 62
7
 10
-93.000000
 20
-115.500000
 11
-93.000000
 21
-125.000000
  0
LINE
  8
0
  6
CENTER
 62
2
 10
-70.000000
 20
-117.500000
 11
-70.000000
 21
-124.500000
  0
LINE
  8
0
  6
CENTER
 62
2
 10
-66.500000
 20
-121.000000
 11
-73.500000
 21
-121.000000
  0
LINE
  8
0
  6
CENTER
 62
2
 10
-79.000000
 20
-103.000000
 11
-79.000000
 21
-127.000000
  0
LINE
  8
0
  6
CENTER
 62
2
 10
-71.599998
 20
-118.000000
 11
-86.400002
 21
-118.000000
  0
LINE
  8
0
  6
CENTER
 62
2
 10
-120.500000
 20
-103.000000
 11
-120.500000
 21
-107.000000
  0
LINE
  8
0
  6
CENTER
 62
2
 10
-197.000000
 20
-103.000000
 11
-197.000000
 21
-107.000000
  0
LINE
  8
0
  6
CENTER
 62
2
 10
-177.000000
 20
-103.000000
 11
-177.000000
 21
-107.000000
  0
LINE
  8
0
  6
CENTER
 62
2
 10
-89.000000
 20
-103.000000
 11
-89.000000
 21
-107.000000
  0
LINE
  8
0
  6
CENTER
 62
2
 10
-69.000000
 20
-103.000000
 11
-69.000000
 21
-107.000000
  0
LINE
  8
0
  6
CONTINUOUS
 62
7
 10
-103.000000
 20
-168.000000
 11
-163.000000
 21
-168.000000
  0
LINE
  8
0
  6
CONTINUOUS
 62
7
 10
-163.000000
 20
-168.000000
 11
-163.000000
 21
-140.000000
  0
LINE
  8
0
  6
CONTINUOUS
 62
7
 10
-103.000000
 20
-140.000000
 11
-163.000000
 21
-140.000000
  0
LINE
  8
0
  6
CONTINUOUS
 62
7
 10
-103.000000
 20
-168.000000
 11
-103.000000
 21
-140.000000
  0
LINE
  8
0
  6
CENTER
 62
2
 10
-100.366997
 20
-154.000000
 11
-167.000000
 21
-154.000000
  0
LINE
  8
0
  6
CENTER
 62
2
 10
-155.500000
 20
-142.600006
 11
-155.500000
 21
-158.399994
  0
LINE
  8
0
  6
CENTER
 62
2
 10
-163.399994
 20
-150.500000
 11
-147.600006
 21
-150.500000
  0
LINE
  8
0
  6
CENTER
 62
2
 10
-149.000000
 20
-139.500000
 11
-149.000000
 21
-147.500000
  0
LINE
  8
0
  6
CENTER
 62
2
 10
-153.000000
 20
-143.500000
 11
-145.000000
 21
-143.500000
  0
LINE
  8
0
  6
CENTER
 62
2
 10
-117.000000
 20
-139.500000
 11
-117.000000
 21
-147.500000
  0
LINE
  8
0
  6
CENTER
 62
2
 10
-121.000000
 20
-143.500000
 11
-113.000000
 21
-143.500000
  0
LINE
  8
0
  6
CENTER
 62
2
 10
-110.500000
 20
-142.600006
 11
-110.500000
 21
-158.399994
  0
LINE
  8
0
  6
CENTER
 62
2
 10
-118.400002
 20
-150.500000
 11
-102.599998
 21
-150.500000
  0
LINE
  8
0
  6
CENTER
 62
2
 10
-117.000000
 20
-160.500000
 11
-117.000000
 21
-168.500000
  0
LINE
  8
0
  6
CENTER
 62
2
 10
-121.000000
 20
-164.500000
 11
-113.000000
 21
-164.500000
  0
LINE
  8
0
  6
CENTER
 62
2
 10
-149.000000
 20
-160.500000
 11
-149.000000
 21
-168.500000
  0
LINE
  8
0
  6
CENTER
 62
2
 10
-153.000000
 20
-164.500000
 11
-145.000000
 21
-164.500000
  0
LINE
  8
0
  6
CONTINUOUS
 62
7
 10
188.000000
 20
-168.000000
 11
98.000000
 21
-168.000000
  0
LINE
  8
0
  6
CONTINUOUS
 62
7
 10
98.000000
 20
-168.000000
 11
98.000000
 21
-140.000000
  0
LINE
  8
0
  6
CONTINUOUS
 62
7
 10
188.000000
 20
-140.000000
 11
98.000000
 21
-140.000000
  0
LINE
  8
0
  6
CONTINUOUS
 62
7
 10
188.000000
 20
-168.000000
 11
188.000000
 21
-140.000000
  0
LINE
  8
0
  6
CENTER
 62
2
 10
112.000000
 20
-139.500000
 11
112.000000
 21
-147.500000
  0
LINE
  8
0
  6
CENTER
 62
2
 10
108.000000
 20
-143.500000
 11
116.000000
 21
-143.500000
  0
LINE
  8
0
  6
CENTER
 62
2
 10
105.500000
 20
-142.600006
 11
105.500000
 21
-158.399994
  0
LINE
  8
0
  6
CENTER
 62
2
 10
97.599998
 20
-150.500000
 11
113.400002
 21
-150.500000
  0
LINE
  8
0
  6
CENTER
 62
2
 10
112.000000
 20
-160.500000
 11
112.000000
 21
-168.500000
  0
LINE
  8
0
  6
CENTER
 62
2
 10
108.000000
 20
-164.500000
 11
116.000000
 21
-164.500000
  0
LINE
  8
0
  6
CENTER
 62
2
 10
174.000000
 20
-160.500000
 11
174.000000
 21
-168.500000
  0
LINE
  8
0
  6
CENTER
 62
2
 10
170.000000
 20
-164.500000
 11
178.000000
 21
-164.500000
  0
LINE
  8
0
  6
CENTER
 62
2
 10
174.000000
 20
-139.500000
 11
174.000000
 21
-147.500000
  0
LINE
  8
0
  6
CENTER
 62
2
 10
170.000000
 20
-143.500000
 11
178.000000
 21
-143.500000
  0
LINE
  8
0
  6
CENTER
 62
2
 10
180.500000
 20
-142.600006
 11
180.500000
 21
-158.399994
  0
LINE
  8
0
  6
CENTER
 62
2
 10
172.600006
 20
-150.500000
 11
188.399994
 21
-150.500000
  0
LINE
  8
0
  6
CENTER
 62
2
 10
96.000000
 20
-154.000000
 11
190.000000
 21
-154.000000
  0
LINE
  8
0
  6
CENTER
 62
2
 10
-176.500000
 20
-123.000000
 11
-176.500000
 21
-127.000000
  0
LINE
  8
0
  6
CENTER
 62
2
 10
-197.500000
 20
-123.000000
 11
-197.500000
 21
-127.000000
  0
LINE
  8
0
  6
CENTER
 62
2
 10
-68.500000
 20
-123.000000
 11
-68.500000
 21
-127.000000
  0
LINE
  8
0
  6
CENTER
 62
2
 10
-89.500000
 20
-123.000000
 11
-89.500000
 21
-127.000000
  0
LINE
  8
0
  6
CENTER
 62
2
 10
-135.500000
 20
-45.000000
 11
-135.500000
 21
-49.000000
  0
LINE
  8
0
  6
CENTER
 62
2
 10
-120.500000
 20
-45.000000
 11
-120.500000
 21
-49.000000
  0
LINE
  8
0
  6
CENTER
 62
2
 10
84.500000
 20
-123.000000
 11
84.500000
 21
-127.000000
  0
LINE
  8
0
  6
CENTER
 62
2
 10
63.500000
 20
-123.000000
 11
63.500000
 21
-127.000000
  0
LINE
  8
0
  6
CENTER
 62
2
 10
222.500000
 20
-123.000000
 11
222.500000
 21
-127.000000
  0
LINE
  8
0
  6
CENTER
 62
2
 10
201.500000
 20
-123.000000
 11
201.500000
 21
-127.000000
  0
LINE
  8
0
  6
CONTINUOUS
 62
7
 10
68.000000
 20
66.500000
 11
80.000000
 21
66.500000
  0
LINE
  8
0
  6
CONTINUOUS
 62
7
 10
68.000000
 20
63.290699
 11
68.000000
 21
60.500000
  0
LINE
  8
0
  6
CONTINUOUS
 62
7
 10
68.000000
 20
66.500000
 11
68.000000
 21
65.709297
  0
LINE
  8
0
  6
CONTINUOUS
 62
7
 10
60.500000
 20
71.000000
 11
67.000000
 21
71.000000
  0
LINE
  8
0
  6
CONTINUOUS
 62
7
 10
60.500000
 20
61.000000
 11
68.000000
 21
61.000000
  0
LINE
  8
0
  6
CONTINUOUS
 62
7
 10
67.300003
 20
70.699997
 11
80.699997
 21
70.699997
  0
LINE
  8
0
  6
CONTINUOUS
 62
7
 10
80.000000
 20
63.290699
 11
80.000000
 21
60.500000
  0
LINE
  8
0
  6
CONTINUOUS
 62
7
 10
80.000000
 20
66.500000
 11
80.000000
 21
65.709297
  0
LINE
  8
0
  6
CONTINUOUS
 62
7
 10
87.500000
 20
71.000000
 11
81.000000
 21
71.000000
  0
LINE
  8
0
  6
CONTINUOUS
 62
7
 10
87.500000
 20
71.000000
 11
87.500000
 21
61.000000
  0
LINE
  8
0
  6
CONTINUOUS
 62
7
 10
87.500000
 20
61.000000
 11
80.000000
 21
61.000000
  0
LINE
  8
0
  6
CONTINUOUS
 62
7
 10
60.500000
 20
71.000000
 11
60.500000
 21
61.000000
  0
LINE
  8
0
  6
CONTINUOUS
 62
7
 10
67.000000
 20
71.000000
 11
67.300003
 21
70.699997
  0
LINE
  8
0
  6
CONTINUOUS
 62
7
 10
81.000000
 20
71.000000
 11
80.699997
 21
70.699997
  0
LINE
  8
0
  6
CONTINUOUS
 62
7
 10
88.000000
 20
60.500000
 11
80.000000
 21
60.500000
  0
LINE
  8
0
  6
CONTINUOUS
 62
7
 10
88.000000
 20
51.000000
 11
60.000000
 21
51.000000
  0
LINE
  8
0
  6
CONTINUOUS
 62
7
 10
60.000000
 20
60.500000
 11
68.000000
 21
60.500000
  0
LINE
  8
0
  6
CONTINUOUS
 62
7
 10
60.000000
 20
60.500000
 11
60.000000
 21
51.000000
  0
LINE
  8
0
  6
CONTINUOUS
 62
7
 10
88.000000
 20
60.500000
 11
88.000000
 21
51.000000
  0
LINE
  8
0
  6
CONTINUOUS
 62
7
 10
128.500000
 20
70.500000
 11
128.500000
 21
61.000000
  0
LINE
  8
0
  6
CONTINUOUS
 62
7
 10
135.000000
 20
71.000000
 11
171.000000
 21
71.000000
  0
LINE
  8
0
  6
CONTINUOUS
 62
7
 10
135.000000
 20
71.000000
 11
135.000000
 21
61.000000
  0
LINE
  8
0
  6
CONTINUOUS
 62
7
 10
128.500000
 20
70.500000
 11
135.000000
 21
70.500000
  0
LINE
  8
0
  6
CONTINUOUS
 62
7
 10
177.500000
 20
70.500000
 11
177.500000
 21
61.000000
  0
LINE
  8
0
  6
CONTINUOUS
 62
7
 10
171.000000
 20
71.000000
 11
171.000000
 21
61.000000
  0
LINE
  8
0
  6
CONTINUOUS
 62
7
 10
177.500000
 20
70.500000
 11
171.000000
 21
70.500000
  0
LINE
  8
0
  6
CONTINUOUS
 62
7
 10
98.000000
 20
66.500000
 11
128.500000
 21
66.500000
  0
LINE
  8
0
  6
CONTINUOUS
 62
7
 10
177.500000
 20
66.500000
 11
188.000000
 21
66.500000
  0
LINE
  8
0
  6
CONTINUOUS
 62
7
 10
98.000000
 20
51.000000
 11
98.000000
 21
66.500000
  0
LINE
  8
0
  6
CONTINUOUS
 62
7
 10
188.000000
 20
51.000000
 11
188.000000
 21
66.500000
  0
LINE
  8
0
  6
CONTINUOUS
 62
7
 10
98.000000
 20
51.000000
 11
188.000000
 21
51.000000
  0
LINE
  8
0
  6
CONTINUOUS
 62
7
 10
171.000000
 20
113.500000
 11
135.000000
 21
113.500000
  0
LINE
  8
0
  6
CONTINUOUS
 62
7
 10
135.000000
 20
113.500000
 11
135.000000
 21
86.500000
  0
LINE
  8
0
  6
CONTINUOUS
 62
7
 10
171.000000
 20
86.500000
 11
135.000000
 21
86.500000
  0
LINE
  8
0
  6
CONTINUOUS
 62
7
 10
171.000000
 20
113.500000
 11
171.000000
 21
86.500000
  0
LINE
  8
0
  6
CONTINUOUS
 62
7
 10
98.000000
 20
106.000000
 11
128.500000
 21
106.000000
  0
LINE
  8
0
  6
CONTINUOUS
 62
7
 10
177.500000
 20
106.000000
 11
188.000000
 21
106.000000
  0
LINE
  8
0
  6
CONTINUOUS
 62
7
 10
98.000000
 20
94.000000
 11
128.500000
 21
94.000000
  0
LINE
  8
0
  6
CONTINUOUS
 62
7
 10
177.500000
 20
94.000000
 11
188.000000
 21
94.000000
  0
LINE
  8
0
  6
CONTINUOUS
 62
7
 10
171.000000
 20
93.000000
 11
135.000000
 21
93.000000
  0
LINE
  8
0
  6
CONTINUOUS
 62
7
 10
171.000000
 20
107.000000
 11
135.000000
 21
107.000000
  0
LINE
  8
0
  6
CONTINUOUS
 62
7
 10
177.500000
 20
113.300003
 11
171.000000
 21
113.300003
  0
LINE
  8
0
  6
CONTINUOUS
 62
7
 10
177.500000
 20
86.699997
 11
177.500000
 21
113.300003
  0
LINE
  8
0
  6
CONTINUOUS
 62
7
 10
177.500000
 20
86.699997
 11
171.000000
 21
86.699997
  0
LINE
  8
0
  6
CONTINUOUS
 62
7
 10
188.000000
 20
114.000000
 11
98.000000
 21
114.000000
  0
LINE
  8
0
  6
CONTINUOUS
 62
7
 10
188.000000
 20
86.000000
 11
98.000000
 21
86.000000
  0
LINE
  8
0
  6
CONTINUOUS
 62
7
 10
98.000000
 20
114.000000
 11
98.000000
 21
86.000000
  0
LINE
  8
0
  6
CONTINUOUS
 62
7
 10
188.000000
 20
114.000000
 11
188.000000
 21
86.000000
  0
LINE
  8
0
  6
CONTINUOUS
 62
7
 10
177.199997
 20
56.500000
 11
170.598007
 21
56.500000
  0
LINE
  8
0
  6
CONTINUOUS
 62
7
 10
98.000000
 20
60.500000
 11
106.653000
 21
60.500000
  0
LINE
  8
0
  6
CONTINUOUS
 62
7
 10
115.402000
 20
56.500000
 11
108.800003
 21
56.500000
  0
LINE
  8
0
  6
CONTINUOUS
 62
7
 10
128.500000
 20
61.000000
 11
177.500000
 21
61.000000
  0
LINE
  8
0
  6
CONTINUOUS
 62
7
 10
128.500000
 20
129.500000
 11
128.500000
 21
139.000000
  0
LINE
  8
0
  6
CONTINUOUS
 62
7
 10
135.000000
 20
129.000000
 11
171.000000
 21
129.000000
  0
LINE
  8
0
  6
CONTINUOUS
 62
7
 10
135.000000
 20
129.000000
 11
135.000000
 21
139.000000
  0
LINE
  8
0
  6
CONTINUOUS
 62
7
 10
128.500000
 20
129.500000
 11
135.000000
 21
129.500000
  0
LINE
  8
0
  6
CONTINUOUS
 62
7
 10
177.500000
 20
129.500000
 11
177.500000
 21
139.000000
  0
LINE
  8
0
  6
CONTINUOUS
 62
7
 10
171.000000
 20
129.000000
 11
171.000000
 21
139.000000
  0
LINE
  8
0
  6
CONTINUOUS
 62
7
 10
177.500000
 20
129.500000
 11
171.000000
 21
129.500000
  0
LINE
  8
0
  6
CONTINUOUS
 62
7
 10
98.000000
 20
133.500000
 11
128.500000
 21
133.500000
  0
LINE
  8
0
  6
CONTINUOUS
 62
7
 10
177.500000
 20
133.500000
 11
188.000000
 21
133.500000
  0
LINE
  8
0
  6
CONTINUOUS
 62
7
 10
98.000000
 20
149.000000
 11
98.000000
 21
133.500000
  0
LINE
  8
0
  6
CONTINUOUS
 62
7
 10
188.000000
 20
149.000000
 11
188.000000
 21
133.500000
  0
LINE
  8
0
  6
CONTINUOUS
 62
7
 10
98.000000
 20
149.000000
 11
188.000000
 21
149.000000
  0
LINE
  8
0
  6
CONTINUOUS
 62
7
 10
177.199997
 20
143.500000
 11
170.598007
 21
143.500000
  0
LINE
  8
0
  6
CONTINUOUS
 62
7
 10
98.000000
 20
139.500000
 11
106.653000
 21
139.500000
  0
LINE
  8
0
  6
CONTINUOUS
 62
7
 10
115.402000
 20
143.500000
 11
108.800003
 21
143.500000
  0
LINE
  8
0
  6
CONTINUOUS
 62
7
 10
128.500000
 20
139.000000
 11
177.500000
 21
139.000000
  0
LINE
  8
0
  6
CONTINUOUS
 62
7
 10
165.000000
 20
55.000000
 11
121.000000
 21
55.000000
  0
LINE
  8
0
  6
CONTINUOUS
 62
7
 10
165.000000
 20
145.000000
 11
121.000000
 21
145.000000
  0
LINE
  8
0
  6
CONTINUOUS
 62
7
 10
128.500000
 20
86.699997
 11
128.500000
 21
113.300003
  0
LINE
  8
0
  6
CONTINUOUS
 62
7
 10
128.500000
 20
86.699997
 11
135.000000
 21
86.699997
  0
LINE
  8
0
  6
CONTINUOUS
 62
7
 10
128.500000
 20
113.300003
 11
135.000000
 21
113.300003
  0
LINE
  8
0
  6
CONTINUOUS
 62
7
 10
179.347000
 20
139.500000
 11
188.000000
 21
139.500000
  0
LINE
  8
0
  6
CONTINUOUS
 62
7
 10
179.347000
 20
60.500000
 11
188.000000
 21
60.500000
  0
LINE
  8
0
  6
CENTER
 62
2
 10
118.000000
 20
148.500000
 11
118.000000
 21
141.500000
  0
LINE
  8
0
  6
CENTER
 62
2
 10
114.500000
 20
145.000000
 11
121.500000
 21
145.000000
  0
LINE
  8
0
  6
CENTER
 62
2
 10
168.000000
 20
148.500000
 11
168.000000
 21
141.500000
  0
LINE
  8
0
  6
CENTER
 62
2
 10
164.500000
 20
145.000000
 11
171.500000
 21
145.000000
  0
LINE
  8
0
  6
CENTER
 62
2
 10
157.000000
 20
136.500000
 11
157.000000
 21
129.500000
  0
LINE
  8
0
  6
CENTER
 62
2
 10
153.500000
 20
133.000000
 11
160.500000
 21
133.000000
  0
LINE
  8
0
  6
CENTER
 62
2
 10
149.000000
 20
136.500000
 11
149.000000
 21
129.500000
  0
LINE
  8
0
  6
CENTER
 62
2
 10
145.500000
 20
133.000000
 11
152.500000
 21
133.000000
  0
LINE
  8
0
  6
CENTER
 62
2
 10
112.000000
 20
115.500000
 11
112.000000
 21
105.500000
  0
LINE
  8
0
  6
CENTER
 62
2
 10
107.000000
 20
110.500000
 11
117.000000
 21
110.500000
  0
LINE
  8
0
  6
CENTER
 62
2
 10
112.000000
 20
94.500000
 11
112.000000
 21
84.500000
  0
LINE
  8
0
  6
CENTER
 62
2
 10
107.000000
 20
89.500000
 11
117.000000
 21
89.500000
  0
LINE
  8
0
  6
CENTER
 62
2
 10
138.000000
 20
113.500000
 11
138.000000
 21
106.500000
  0
LINE
  8
0
  6
CENTER
 62
2
 10
134.500000
 20
110.000000
 11
141.500000
 21
110.000000
  0
LINE
  8
0
  6
CENTER
 62
2
 10
153.000000
 20
113.500000
 11
153.000000
 21
106.500000
  0
LINE
  8
0
  6
CENTER
 62
2
 10
149.500000
 20
110.000000
 11
156.500000
 21
110.000000
  0
LINE
  8
0
  6
CENTER
 62
2
 10
168.000000
 20
113.500000
 11
168.000000
 21
106.500000
  0
LINE
  8
0
  6
CENTER
 62
2
 10
164.500000
 20
110.000000
 11
171.500000
 21
110.000000
  0
LINE
  8
0
  6
CENTER
 62
2
 10
174.000000
 20
115.500000
 11
174.000000
 21
105.500000
  0
LINE
  8
0
  6
CENTER
 62
2
 10
169.000000
 20
110.500000
 11
179.000000
 21
110.500000
  0
LINE
  8
0
  6
CENTER
 62
2
 10
174.000000
 20
94.500000
 11
174.000000
 21
84.500000
  0
LINE
  8
0
  6
CENTER
 62
2
 10
169.000000
 20
89.500000
 11
179.000000
 21
89.500000
  0
LINE
  8
0
  6
CENTER
 62
2
 10
168.000000
 20
93.500000
 11
168.000000
 21
86.500000
  0
LINE
  8
0
  6
CENTER
 62
2
 10
164.500000
 20
90.000000
 11
171.500000
 21
90.000000
  0
LINE
  8
0
  6
CENTER
 62
2
 10
96.000000
 20
100.000000
 11
190.000000
 21
100.000000
  0
LINE
  8
0
  6
CENTER
 62
2
 10
153.000000
 20
93.500000
 11
153.000000
 21
86.500000
  0
LINE
  8
0
  6
CENTER
 62
2
 10
149.500000
 20
90.000000
 11
156.500000
 21
90.000000
  0
LINE
  8
0
  6
CENTER
 62
2
 10
138.000000
 20
93.500000
 11
138.000000
 21
86.500000
  0
LINE
  8
0
  6
CENTER
 62
2
 10
134.500000
 20
90.000000
 11
141.500000
 21
90.000000
  0
LINE
  8
0
  6
CENTER
 62
2
 10
104.000000
 20
61.000000
 11
104.000000
 21
52.000000
  0
LINE
  8
0
  6
CENTER
 62
2
 10
99.500000
 20
56.500000
 11
108.500000
 21
56.500000
  0
LINE
  8
0
  6
CENTER
 62
2
 10
118.000000
 20
58.500000
 11
118.000000
 21
51.500000
  0
LINE
  8
0
  6
CENTER
 62
2
 10
114.500000
 20
55.000000
 11
121.500000
 21
55.000000
  0
LINE
  8
0
  6
CENTER
 62
2
 10
148.000000
 20
70.000000
 11
148.000000
 21
64.000000
  0
LINE
  8
0
  6
CENTER
 62
2
 10
145.000000
 20
67.000000
 11
151.000000
 21
67.000000
  0
LINE
  8
0
  6
CENTER
 62
2
 10
158.000000
 20
70.000000
 11
158.000000
 21
64.000000
  0
LINE
  8
0
  6
CENTER
 62
2
 10
155.000000
 20
67.000000
 11
161.000000
 21
67.000000
  0
LINE
  8
0
  6
CENTER
 62
2
 10
168.000000
 20
58.500000
 11
168.000000
 21
51.500000
  0
LINE
  8
0
  6
CENTER
 62
2
 10
164.500000
 20
55.000000
 11
171.500000
 21
55.000000
  0
LINE
  8
0
  6
CENTER
 62
2
 10
182.000000
 20
61.000000
 11
182.000000
 21
52.000000
  0
LINE
  8
0
  6
CENTER
 62
2
 10
177.500000
 20
56.500000
 11
186.500000
 21
56.500000
  0
LINE
  8
0
  6
CENTER
 62
2
 10
65.000000
 20
58.500000
 11
65.000000
 21
51.500000
  0
LINE
  8
0
  6
CENTER
 62
2
 10
61.500000
 20
55.000000
 11
68.500000
 21
55.000000
  0
LINE
  8
0
  6
DASHED
 62
2
 10
110.000000
 20
56.000000
 11
110.000000
 21
51.000000
  0
LINE
  8
0
  6
DASHED
 62
2
 10
110.349998
 20
56.000000
 11
110.349998
 21
51.000000
  0
LINE
  8
0
  6
DASHED
 62
2
 10
109.000000
 20
56.000000
 11
115.000000
 21
56.000000
  0
LINE
  8
0
  6
CENTER
 62
2
 10
112.000000
 20
58.500000
 11
112.000000
 21
49.000000
  0
LINE
  8
0
  6
DASHED
 62
2
 10
113.650002
 20
56.000000
 11
113.650002
 21
51.000000
  0
LINE
  8
0
  6
DASHED
 62
2
 10
114.000000
 20
56.000000
 11
114.000000
 21
51.000000
  0
LINE
  8
0
  6
DASHED
 62
2
 10
115.000000
 20
56.500000
 11
115.000000
 21
56.000000
  0
LINE
  8
0
  6
DASHED
 62
2
 10
109.000000
 20
56.500000
 11
109.000000
 21
56.000000
  0
LINE
  8
0
  6
DASHED
 62
2
 10
172.000000
 20
56.000000
 11
172.000000
 21
51.000000
  0
LINE
  8
0
  6
DASHED
 62
2
 10
172.350006
 20
56.000000
 11
172.350006
 21
51.000000
  0
LINE
  8
0
  6
DASHED
 62
2
 10
171.000000
 20
56.000000
 11
177.000000
 21
56.000000
  0
LINE
  8
0
  6
CENTER
 62
2
 10
174.000000
 20
58.500000
 11
174.000000
 21
49.000000
  0
LINE
  8
0
  6
DASHED
 62
2
 10
175.649994
 20
56.000000
 11
175.649994
 21
51.000000
  0
LINE
  8
0
  6
DASHED
 62
2
 10
176.000000
 20
56.000000
 11
176.000000
 21
51.000000
  0
LINE
  8
0
  6
DASHED
 62
2
 10
177.000000
 20
56.500000
 11
177.000000
 21
56.000000
  0
LINE
  8
0
  6
DASHED
 62
2
 10
171.000000
 20
56.500000
 11
171.000000
 21
56.000000
  0
LINE
  8
0
  6
DASHED
 62
2
 10
114.000000
 20
144.000000
 11
114.000000
 21
149.000000
  0
LINE
  8
0
  6
DASHED
 62
2
 10
113.650002
 20
144.000000
 11
113.650002
 21
149.000000
  0
LINE
  8
0
  6
DASHED
 62
2
 10
115.000000
 20
144.000000
 11
109.000000
 21
144.000000
  0
LINE
  8
0
  6
CENTER
 62
2
 10
112.000000
 20
141.500000
 11
112.000000
 21
151.000000
  0
LINE
  8
0
  6
DASHED
 62
2
 10
110.349998
 20
144.000000
 11
110.349998
 21
149.000000
  0
LINE
  8
0
  6
DASHED
 62
2
 10
110.000000
 20
144.000000
 11
110.000000
 21
149.000000
  0
LINE
  8
0
  6
DASHED
 62
2
 10
109.000000
 20
143.500000
 11
109.000000
 21
144.000000
  0
LINE
  8
0
  6
DASHED
 62
2
 10
115.000000
 20
143.500000
 11
115.000000
 21
144.000000
  0
LINE
  8
0
  6
DASHED
 62
2
 10
176.000000
 20
144.000000
 11
176.000000
 21
149.000000
  0
LINE
  8
0
  6
DASHED
 62
2
 10
175.649994
 20
144.000000
 11
175.649994
 21
149.000000
  0
LINE
  8
0
  6
DASHED
 62
2
 10
177.000000
 20
144.000000
 11
171.000000
 21
144.000000
  0
LINE
  8
0
  6
CENTER
 62
2
 10
174.000000
 20
141.500000
 11
174.000000
 21
151.000000
  0
LINE
  8
0
  6
DASHED
 62
2
 10
172.350006
 20
144.000000
 11
172.350006
 21
149.000000
  0
LINE
  8
0
  6
DASHED
 62
2
 10
172.000000
 20
144.000000
 11
172.000000
 21
149.000000
  0
LINE
  8
0
  6
DASHED
 62
2
 10
171.000000
 20
143.500000
 11
171.000000
 21
144.000000
  0
LINE
  8
0
  6
DASHED
 62
2
 10
177.000000
 20
143.500000
 11
177.000000
 21
144.000000
  0
LINE
  8
0
  6
CENTER
 62
2
 10
74.000000
 20
73.000000
 11
74.000000
 21
49.000000
  0
LINE
  8
0
  6
CENTER
 62
2
 10
66.599998
 20
58.000000
 11
81.400002
 21
58.000000
  0
LINE
  8
0
  6
CENTER
 62
2
 10
64.000000
 20
73.000000
 11
64.000000
 21
69.000000
  0
LINE
  8
0
  6
CENTER
 62
2
 10
84.000000
 20
73.000000
 11
84.000000
 21
69.000000
  0
LINE
  8
0
  6
CENTER
 62
2
 10
138.000000
 20
73.000000
 11
138.000000
 21
69.000000
  0
LINE
  8
0
  6
CENTER
 62
2
 10
153.000000
 20
73.000000
 11
153.000000
 21
69.000000
  0
LINE
  8
0
  6
CENTER
 62
2
 10
168.000000
 20
73.000000
 11
168.000000
 21
69.000000
  0
LINE
  8
0
  6
CENTER
 62
2
 10
138.000000
 20
127.000000
 11
138.000000
 21
131.000000
  0
LINE
  8
0
  6
CENTER
 62
2
 10
153.000000
 20
127.000000
 11
153.000000
 21
131.000000
  0
LINE
  8
0
  6
CENTER
 62
2
 10
168.000000
 20
127.000000
 11
168.000000
 21
131.000000
  0
LINE
  8
0
  6
CONTINUOUS
 62
7
 10
218.000000
 20
66.500000
 11
206.000000
 21
66.500000
  0
LINE
  8
0
  6
CONTINUOUS
 62
7
 10
218.000000
 20
63.290699
 11
218.000000
 21
60.500000
  0
LINE
  8
0
  6
CONTINUOUS
 62
7
 10
218.000000
 20
66.500000
 11
218.000000
 21
65.709297
  0
LINE
  8
0
  6
CONTINUOUS
 62
7
 10
225.500000
 20
71.000000
 11
219.000000
 21
71.000000
  0
LINE
  8
0
  6
CONTINUOUS
 62
7
 10
225.500000
 20
61.000000
 11
218.000000
 21
61.000000
  0
LINE
  8
0
  6
CONTINUOUS
 62
7
 10
218.699997
 20
70.699997
 11
205.300003
 21
70.699997
  0
LINE
  8
0
  6
CONTINUOUS
 62
7
 10
206.000000
 20
63.290699
 11
206.000000
 21
60.500000
  0
LINE
  8
0
  6
CONTINUOUS
 62
7
 10
206.000000
 20
66.500000
 11
206.000000
 21
65.709297
  0
LINE
  8
0
  6
CONTINUOUS
 62
7
 10
198.500000
 20
71.000000
 11
205.000000
 21
71.000000
  0
LINE
  8
0
  6
CONTINUOUS
 62
7
 10
198.500000
 20
71.000000
 11
198.500000
 21
61.000000
  0
LINE
  8
0
  6
CONTINUOUS
 62
7
 10
198.500000
 20
61.000000
 11
206.000000
 21
61.000000
  0
LINE
  8
0
  6
CONTINUOUS
 62
7
 10
225.500000
 20
71.000000
 11
225.500000
 21
61.000000
  0
LINE
  8
0
  6
CONTINUOUS
 62
7
 10
219.000000
 20
71.000000
 11
218.699997
 21
70.699997
  0
LINE
  8
0
  6
CONTINUOUS
 62
7
 10
205.000000
 20
70.999901
 11
205.300003
 21
70.699898
  0
LINE
  8
0
  6
CONTINUOUS
 62
7
 10
198.000000
 20
60.500000
 11
206.000000
 21
60.500000
  0
LINE
  8
0
  6
CONTINUOUS
 62
7
 10
198.000000
 20
51.000000
 11
226.000000
 21
51.000000
  0
LINE
  8
0
  6
CONTINUOUS
 62
7
 10
226.000000
 20
60.500000
 11
218.000000
 21
60.500000
  0
LINE
  8
0
  6
CONTINUOUS
 62
7
 10
226.000000
 20
60.500000
 11
226.000000
 21
51.000000
  0
LINE
  8
0
  6
CONTINUOUS
 62
7
 10
198.000000
 20
60.500000
 11
198.000000
 21
51.000000
  0
LINE
  8
0
  6
CENTER
 62
2
 10
221.000000
 20
58.500000
 11
221.000000
 21
51.500000
  0
LINE
  8
0
  6
CENTER
 62
2
 10
224.500000
 20
55.000000
 11
217.500000
 21
55.000000
  0
LINE
  8
0
  6
CENTER
 62
2
 10
212.000000
 20
73.000000
 11
212.000000
 21
49.000000
  0
LINE
  8
0
  6
CENTER
 62
2
 10
219.399994
 20
58.000000
 11
204.600006
 21
58.000000
  0
LINE
  8
0
  6
CENTER
 62
2
 10
222.000000
 20
73.000000
 11
222.000000
 21
69.000000
  0
LINE
  8
0
  6
CENTER
 62
2
 10
202.000000
 20
73.000000
 11
202.000000
 21
69.000000
  0
LINE
  8
0
  6
CONTINUOUS
 62
7
 10
-193.000000
 20
66.500000
 11
-181.000000
 21
66.500000
  0
LINE
  8
0
  6
CONTINUOUS
 62
7
 10
-193.000000
 20
63.290699
 11
-193.000000
 21
60.500000
  0
LINE
  8
0
  6
CONTINUOUS
 62
7
 10
-193.000000
 20
66.500000
 11
-193.000000
 21
65.709297
  0
LINE
  8
0
  6
CONTINUOUS
 62
7
 10
-200.500000
 20
71.000000
 11
-194.000000
 21
71.000000
  0
LINE
  8
0
  6
CONTINUOUS
 62
7
 10
-200.500000
 20
61.000000
 11
-193.000000
 21
61.000000
  0
LINE
  8
0
  6
CONTINUOUS
 62
7
 10
-193.699997
 20
70.699997
 11
-180.300003
 21
70.699997
  0
LINE
  8
0
  6
CONTINUOUS
 62
7
 10
-181.000000
 20
63.290699
 11
-181.000000
 21
60.500000
  0
LINE
  8
0
  6
CONTINUOUS
 62
7
 10
-181.000000
 20
66.500000
 11
-181.000000
 21
65.709297
  0
LINE
  8
0
  6
CONTINUOUS
 62
7
 10
-173.500000
 20
71.000000
 11
-180.000000
 21
71.000000
  0
LINE
  8
0
  6
CONTINUOUS
 62
7
 10
-173.500000
 20
71.000000
 11
-173.500000
 21
61.000000
  0
LINE
  8
0
  6
CONTINUOUS
 62
7
 10
-173.500000
 20
61.000000
 11
-181.000000
 21
61.000000
  0
LINE
  8
0
  6
CONTINUOUS
 62
7
 10
-200.500000
 20
71.000000
 11
-200.500000
 21
61.000000
  0
LINE
  8
0
  6
CONTINUOUS
 62
7
 10
-194.000000
 20
71.000000
 11
-193.699997
 21
70.699997
  0
LINE
  8
0
  6
CONTINUOUS
 62
7
 10
-180.000000
 20
71.000000
 11
-180.300003
 21
70.699997
  0
LINE
  8
0
  6
CONTINUOUS
 62
7
 10
-173.000000
 20
60.500000
 11
-181.000000
 21
60.500000
  0
LINE
  8
0
  6
CONTINUOUS
 62
7
 10
-173.000000
 20
51.000000
 11
-201.000000
 21
51.000000
  0
LINE
  8
0
  6
CONTINUOUS
 62
7
 10
-201.000000
 20
60.500000
 11
-193.000000
 21
60.500000
  0
LINE
  8
0
  6
CONTINUOUS
 62
7
 10
-201.000000
 20
60.500000
 11
-201.000000
 21
51.000000
  0
LINE
  8
0
  6
CONTINUOUS
 62
7
 10
-173.000000
 20
60.500000
 11
-173.000000
 21
51.000000
  0
LINE
  8
0
  6
CONTINUOUS
 62
7
 10
-145.000000
 20
70.500000
 11
-145.000000
 21
61.000000
  0
LINE
  8
0
  6
CONTINUOUS
 62
7
 10
-138.500000
 20
71.000000
 11
-117.500000
 21
71.000000
  0
LINE
  8
0
  6
CONTINUOUS
 62
7
 10
-138.500000
 20
71.000000
 11
-138.500000
 21
61.000000
  0
LINE
  8
0
  6
CONTINUOUS
 62
7
 10
-145.000000
 20
70.500000
 11
-138.500000
 21
70.500000
  0
LINE
  8
0
  6
CONTINUOUS
 62
7
 10
-111.000000
 20
70.500000
 11
-111.000000
 21
61.000000
  0
LINE
  8
0
  6
CONTINUOUS
 62
7
 10
-117.500000
 20
71.000000
 11
-117.500000
 21
61.000000
  0
LINE
  8
0
  6
CONTINUOUS
 62
7
 10
-111.000000
 20
70.500000
 11
-117.500000
 21
70.500000
  0
LINE
  8
0
  6
CONTINUOUS
 62
7
 10
-163.000000
 20
66.500000
 11
-145.000000
 21
66.500000
  0
LINE
  8
0
  6
CONTINUOUS
 62
7
 10
-111.000000
 20
66.500000
 11
-103.000000
 21
66.500000
  0
LINE
  8
0
  6
CONTINUOUS
 62
7
 10
-163.000000
 20
51.000000
 11
-163.000000
 21
66.500000
  0
LINE
  8
0
  6
CONTINUOUS
 62
7
 10
-103.000000
 20
51.000000
 11
-103.000000
 21
66.500000
  0
LINE
  8
0
  6
CONTINUOUS
 62
7
 10
-163.000000
 20
51.000000
 11
-103.000000
 21
51.000000
  0
LINE
  8
0
  6
CENTER
 62
2
 10
-100.702003
 20
100.000000
 11
-166.587006
 21
100.000000
  0
LINE
  8
0
  6
CONTINUOUS
 62
7
 10
-117.500000
 20
113.500000
 11
-138.500000
 21
113.500000
  0
LINE
  8
0
  6
CONTINUOUS
 62
7
 10
-138.500000
 20
113.500000
 11
-138.500000
 21
86.500000
  0
LINE
  8
0
  6
CONTINUOUS
 62
7
 10
-117.500000
 20
86.500000
 11
-138.500000
 21
86.500000
  0
LINE
  8
0
  6
CONTINUOUS
 62
7
 10
-117.500000
 20
113.500000
 11
-117.500000
 21
86.500000
  0
LINE
  8
0
  6
CONTINUOUS
 62
7
 10
-163.000000
 20
106.000000
 11
-145.000000
 21
106.000000
  0
LINE
  8
0
  6
CONTINUOUS
 62
7
 10
-111.000000
 20
106.000000
 11
-103.000000
 21
106.000000
  0
LINE
  8
0
  6
CONTINUOUS
 62
7
 10
-163.000000
 20
94.000000
 11
-145.000000
 21
94.000000
  0
LINE
  8
0
  6
CONTINUOUS
 62
7
 10
-111.000000
 20
94.000000
 11
-103.000000
 21
94.000000
  0
LINE
  8
0
  6
CONTINUOUS
 62
7
 10
-117.500000
 20
93.000000
 11
-138.500000
 21
93.000000
  0
LINE
  8
0
  6
CONTINUOUS
 62
7
 10
-117.500000
 20
107.000000
 11
-138.500000
 21
107.000000
  0
LINE
  8
0
  6
CONTINUOUS
 62
7
 10
-111.000000
 20
113.300003
 11
-117.500000
 21
113.300003
  0
LINE
  8
0
  6
CONTINUOUS
 62
7
 10
-111.000000
 20
86.699997
 11
-111.000000
 21
113.300003
  0
LINE
  8
0
  6
CONTINUOUS
 62
7
 10
-111.000000
 20
86.699997
 11
-117.500000
 21
86.699997
  0
LINE
  8
0
  6
CONTINUOUS
 62
7
 10
-103.000000
 20
114.000000
 11
-163.000000
 21
114.000000
  0
LINE
  8
0
  6
CONTINUOUS
 62
7
 10
-103.000000
 20
86.000000
 11
-163.000000
 21
86.000000
  0
LINE
  8
0
  6
CONTINUOUS
 62
7
 10
-163.000000
 20
114.000000
 11
-163.000000
 21
86.000000
  0
LINE
  8
0
  6
CONTINUOUS
 62
7
 10
-103.000000
 20
114.000000
 11
-103.000000
 21
86.000000
  0
LINE
  8
0
  6
CENTER
 62
2
 10
-149.000000
 20
94.535301
 11
-149.000000
 21
85.000000
  0
LINE
  8
0
  6
CENTER
 62
2
 10
-149.000000
 20
105.500000
 11
-149.000000
 21
114.500000
  0
LINE
  8
0
  6
CENTER
 62
2
 10
-135.500000
 20
106.500000
 11
-135.500000
 21
113.500000
  0
LINE
  8
0
  6
CENTER
 62
2
 10
-152.500000
 20
110.500000
 11
-144.582993
 21
110.500000
  0
LINE
  8
0
  6
CENTER
 62
2
 10
-135.500000
 20
93.500000
 11
-135.500000
 21
86.500000
  0
LINE
  8
0
  6
CENTER
 62
2
 10
-152.500000
 20
89.500000
 11
-144.582993
 21
89.500000
  0
LINE
  8
0
  6
CONTINUOUS
 62
7
 10
-113.800003
 20
56.500000
 11
-120.402000
 21
56.500000
  0
LINE
  8
0
  6
CONTINUOUS
 62
7
 10
-163.000000
 20
60.500000
 11
-154.347000
 21
60.500000
  0
LINE
  8
0
  6
CONTINUOUS
 62
7
 10
-145.598007
 20
56.500000
 11
-152.199997
 21
56.500000
  0
LINE
  8
0
  6
CONTINUOUS
 62
7
 10
-145.000000
 20
61.000000
 11
-111.000000
 21
61.000000
  0
LINE
  8
0
  6
CENTER
 62
2
 10
-117.000000
 20
105.500000
 11
-117.000000
 21
114.500000
  0
LINE
  8
0
  6
CENTER
 62
2
 10
-113.500000
 20
110.500000
 11
-121.400002
 21
110.500000
  0
LINE
  8
0
  6
CENTER
 62
2
 10
-120.500000
 20
106.500000
 11
-120.500000
 21
113.500000
  0
LINE
  8
0
  6
CENTER
 62
2
 10
-113.500000
 20
89.500000
 11
-120.822998
 21
89.500000
  0
LINE
  8
0
  6
CENTER
 62
2
 10
-120.500000
 20
93.500000
 11
-120.500000
 21
86.500000
  0
LINE
  8
0
  6
CENTER
 62
2
 10
-117.000000
 20
94.535301
 11
-117.000000
 21
85.000000
  0
LINE
  8
0
  6
CONTINUOUS
 62
7
 10
-145.000000
 20
129.500000
 11
-145.000000
 21
139.000000
  0
LINE
  8
0
  6
CONTINUOUS
 62
7
 10
-138.500000
 20
129.000000
 11
-117.500000
 21
129.000000
  0
LINE
  8
0
  6
CONTINUOUS
 62
7
 10
-138.500000
 20
129.000000
 11
-138.500000
 21
139.000000
  0
LINE
  8
0
  6
CONTINUOUS
 62
7
 10
-145.000000
 20
129.500000
 11
-138.500000
 21
129.500000
  0
LINE
  8
0
  6
CONTINUOUS
 62
7
 10
-111.000000
 20
129.500000
 11
-111.000000
 21
139.000000
  0
LINE
  8
0
  6
CONTINUOUS
 62
7
 10
-117.500000
 20
129.000000
 11
-117.500000
 21
139.000000
  0
LINE
  8
0
  6
CONTINUOUS
 62
7
 10
-111.000000
 20
129.500000
 11
-117.500000
 21
129.500000
  0
LINE
  8
0
  6
CONTINUOUS
 62
7
 10
-163.000000
 20
133.500000
 11
-145.000000
 21
133.500000
  0
LINE
  8
0
  6
CONTINUOUS
 62
7
 10
-111.000000
 20
133.500000
 11
-103.000000
 21
133.500000
  0
LINE
  8
0
  6
CONTINUOUS
 62
7
 10
-163.000000
 20
149.000000
 11
-163.000000
 21
133.500000
  0
LINE
  8
0
  6
CONTINUOUS
 62
7
 10
-103.000000
 20
149.000000
 11
-103.000000
 21
133.500000
  0
LINE
  8
0
  6
CONTINUOUS
 62
7
 10
-163.000000
 20
149.000000
 11
-103.000000
 21
149.000000
  0
LINE
  8
0
  6
CONTINUOUS
 62
7
 10
-113.800003
 20
143.500000
 11
-120.402000
 21
143.500000
  0
LINE
  8
0
  6
CONTINUOUS
 62
7
 10
-145.598007
 20
143.500000
 11
-152.199997
 21
143.500000
  0
LINE
  8
0
  6
CONTINUOUS
 62
7
 10
-163.000000
 20
139.500000
 11
-154.347000
 21
139.500000
  0
LINE
  8
0
  6
CONTINUOUS
 62
7
 10
-145.000000
 20
139.000000
 11
-111.000000
 21
139.000000
  0
LINE
  8
0
  6
CENTER
 62
2
 10
-138.500000
 20
90.000000
 11
-132.000000
 21
90.000000
  0
LINE
  8
0
  6
CENTER
 62
2
 10
-138.500000
 20
110.000000
 11
-132.000000
 21
110.000000
  0
LINE
  8
0
  6
CENTER
 62
2
 10
-117.500000
 20
110.000000
 11
-124.000000
 21
110.000000
  0
LINE
  8
0
  6
CENTER
 62
2
 10
-117.500000
 20
90.000000
 11
-124.000000
 21
90.000000
  0
LINE
  8
0
  6
CONTINUOUS
 62
7
 10
-126.000000
 20
55.000000
 11
-140.000000
 21
55.000000
  0
LINE
  8
0
  6
CONTINUOUS
 62
7
 10
-145.000000
 20
86.699997
 11
-145.000000
 21
113.300003
  0
LINE
  8
0
  6
CONTINUOUS
 62
7
 10
-145.000000
 20
113.300003
 11
-138.500000
 21
113.300003
  0
LINE
  8
0
  6
CONTINUOUS
 62
7
 10
-145.000000
 20
86.699997
 11
-138.500000
 21
86.699997
  0
LINE
  8
0
  6
CONTINUOUS
 62
7
 10
-111.653000
 20
60.500000
 11
-103.000000
 21
60.500000
  0
LINE
  8
0
  6
CONTINUOUS
 62
7
 10
-111.653000
 20
139.500000
 11
-103.000000
 21
139.500000
  0
LINE
  8
0
  6
CENTER
 62
2
 10
-123.000000
 20
148.500000
 11
-123.000000
 21
141.500000
  0
LINE
  8
0
  6
CENTER
 62
2
 10
-126.500000
 20
145.000000
 11
-119.500000
 21
145.000000
  0
LINE
  8
0
  6
CENTER
 62
2
 10
-143.000000
 20
148.500000
 11
-143.000000
 21
141.500000
  0
LINE
  8
0
  6
CENTER
 62
2
 10
-146.500000
 20
145.000000
 11
-139.500000
 21
145.000000
  0
LINE
  8
0
  6
CENTER
 62
2
 10
-132.000000
 20
136.500000
 11
-132.000000
 21
129.500000
  0
LINE
  8
0
  6
CENTER
 62
2
 10
-135.500000
 20
133.000000
 11
-128.500000
 21
133.000000
  0
LINE
  8
0
  6
CENTER
 62
2
 10
-124.000000
 20
136.500000
 11
-124.000000
 21
129.500000
  0
LINE
  8
0
  6
CENTER
 62
2
 10
-127.500000
 20
133.000000
 11
-120.500000
 21
133.000000
  0
LINE
  8
0
  6
CENTER
 62
2
 10
-157.000000
 20
61.000000
 11
-157.000000
 21
52.000000
  0
LINE
  8
0
  6
CENTER
 62
2
 10
-161.500000
 20
56.500000
 11
-152.500000
 21
56.500000
  0
LINE
  8
0
  6
CENTER
 62
2
 10
-143.000000
 20
58.500000
 11
-143.000000
 21
51.500000
  0
LINE
  8
0
  6
CENTER
 62
2
 10
-146.500000
 20
55.000000
 11
-139.500000
 21
55.000000
  0
LINE
  8
0
  6
CENTER
 62
2
 10
-123.000000
 20
58.500000
 11
-123.000000
 21
51.500000
  0
LINE
  8
0
  6
CENTER
 62
2
 10
-126.500000
 20
55.000000
 11
-119.500000
 21
55.000000
  0
LINE
  8
0
  6
CENTER
 62
2
 10
-109.000000
 20
61.000000
 11
-109.000000
 21
52.000000
  0
LINE
  8
0
  6
CENTER
 62
2
 10
-113.500000
 20
56.500000
 11
-104.500000
 21
56.500000
  0
LINE
  8
0
  6
CENTER
 62
2
 10
-133.000000
 20
70.000000
 11
-133.000000
 21
64.000000
  0
LINE
  8
0
  6
CENTER
 62
2
 10
-136.000000
 20
67.000000
 11
-130.000000
 21
67.000000
  0
LINE
  8
0
  6
CENTER
 62
2
 10
-123.000000
 20
70.000000
 11
-123.000000
 21
64.000000
  0
LINE
  8
0
  6
CENTER
 62
2
 10
-126.000000
 20
67.000000
 11
-120.000000
 21
67.000000
  0
LINE
  8
0
  6
CENTER
 62
2
 10
-196.000000
 20
58.500000
 11
-196.000000
 21
51.500000
  0
LINE
  8
0
  6
CENTER
 62
2
 10
-199.500000
 20
55.000000
 11
-192.500000
 21
55.000000
  0
LINE
  8
0
  6
CENTER
 62
2
 10
-187.000000
 20
73.000000
 11
-187.000000
 21
49.000000
  0
LINE
  8
0
  6
CENTER
 62
2
 10
-194.399994
 20
58.000000
 11
-179.600006
 21
58.000000
  0
LINE
  8
0
  6
DASHED
 62
2
 10
-120.000000
 20
56.000000
 11
-114.000000
 21
56.000000
  0
LINE
  8
0
  6
CENTER
 62
2
 10
-117.000000
 20
58.500000
 11
-117.000000
 21
49.000000
  0
LINE
  8
0
  6
DASHED
 62
2
 10
-120.000000
 20
56.500000
 11
-120.000000
 21
56.000000
  0
LINE
  8
0
  6
DASHED
 62
2
 10
-146.000000
 20
56.500000
 11
-146.000000
 21
56.000000
  0
LINE
  8
0
  6
DASHED
 62
2
 10
-119.000000
 20
56.000000
 11
-119.000000
 21
51.000000
  0
LINE
  8
0
  6
DASHED
 62
2
 10
-115.000000
 20
56.000000
 11
-115.000000
 21
51.000000
  0
LINE
  8
0
  6
DASHED
 62
2
 10
-115.349998
 20
56.000000
 11
-115.349998
 21
51.000000
  0
LINE
  8
0
  6
DASHED
 62
2
 10
-118.650002
 20
56.000000
 11
-118.650002
 21
51.000000
  0
LINE
  8
0
  6
DASHED
 62
2
 10
-152.000000
 20
56.000000
 11
-146.000000
 21
56.000000
  0
LINE
  8
0
  6
CENTER
 62
2
 10
-149.000000
 20
58.500000
 11
-149.000000
 21
49.000000
  0
LINE
  8
0
  6
DASHED
 62
2
 10
-152.000000
 20
56.500000
 11
-152.000000
 21
56.000000
  0
LINE
  8
0
  6
DASHED
 62
2
 10
-151.000000
 20
56.000000
 11
-151.000000
 21
51.000000
  0
LINE
  8
0
  6
DASHED
 62
2
 10
-147.000000
 20
56.000000
 11
-147.000000
 21
51.000000
  0
LINE
  8
0
  6
DASHED
 62
2
 10
-147.350006
 20
56.000000
 11
-147.350006
 21
51.000000
  0
LINE
  8
0
  6
DASHED
 62
2
 10
-150.649994
 20
56.000000
 11
-150.649994
 21
51.000000
  0
LINE
  8
0
  6
DASHED
 62
2
 10
-152.000000
 20
144.000000
 11
-146.000000
 21
144.000000
  0
LINE
  8
0
  6
CENTER
 62
2
 10
-149.000000
 20
141.500000
 11
-149.000000
 21
151.000000
  0
LINE
  8
0
  6
DASHED
 62
2
 10
-152.000000
 20
143.500000
 11
-152.000000
 21
144.000000
  0
LINE
  8
0
  6
DASHED
 62
2
 10
-151.000000
 20
144.000000
 11
-151.000000
 21
149.000000
  0
LINE
  8
0
  6
DASHED
 62
2
 10
-147.000000
 20
144.000000
 11
-147.000000
 21
149.000000
  0
LINE
  8
0
  6
DASHED
 62
2
 10
-147.350006
 20
144.000000
 11
-147.350006
 21
149.000000
  0
LINE
  8
0
  6
DASHED
 62
2
 10
-150.649994
 20
144.000000
 11
-150.649994
 21
149.000000
  0
LINE
  8
0
  6
DASHED
 62
2
 10
-120.000000
 20
144.000000
 11
-114.000000
 21
144.000000
  0
LINE
  8
0
  6
CENTER
 62
2
 10
-117.000000
 20
141.500000
 11
-117.000000
 21
151.000000
  0
LINE
  8
0
  6
DASHED
 62
2
 10
-119.000000
 20
144.000000
 11
-119.000000
 21
149.000000
  0
LINE
  8
0
  6
DASHED
 62
2
 10
-115.000000
 20
144.000000
 11
-115.000000
 21
149.000000
  0
LINE
  8
0
  6
DASHED
 62
2
 10
-115.349998
 20
144.000000
 11
-115.349998
 21
149.000000
  0
LINE
  8
0
  6
DASHED
 62
2
 10
-118.650002
 20
144.000000
 11
-118.650002
 21
149.000000
  0
LINE
  8
0
  6
DASHED
 62
2
 10
-120.000000
 20
143.500000
 11
-120.000000
 21
144.000000
  0
LINE
  8
0
  6
DASHED
 62
2
 10
-146.000000
 20
143.500000
 11
-146.000000
 21
144.000000
  0
LINE
  8
0
  6
DASHED
 62
2
 10
-114.000000
 20
56.500000
 11
-114.000000
 21
56.000000
  0
LINE
  8
0
  6
DASHED
 62
2
 10
-114.000000
 20
143.500000
 11
-114.000000
 21
144.000000
  0
LINE
  8
0
  6
CONTINUOUS
 62
7
 10
-140.000000
 20
145.000000
 11
-126.000000
 21
145.000000
  0
LINE
  8
0
  6
CENTER
 62
2
 10
-135.500000
 20
73.000000
 11
-135.500000
 21
69.000000
  0
LINE
  8
0
  6
CONTINUOUS
 62
7
 10
-73.000000
 20
66.500000
 11
-85.000000
 21
66.500000
  0
LINE
  8
0
  6
CONTINUOUS
 62
7
 10
-73.000000
 20
63.290699
 11
-73.000000
 21
60.500000
  0
LINE
  8
0
  6
CONTINUOUS
 62
7
 10
-73.000000
 20
66.500000
 11
-73.000000
 21
65.709297
  0
LINE
  8
0
  6
CONTINUOUS
 62
7
 10
-65.500000
 20
71.000000
 11
-72.000000
 21
71.000000
  0
LINE
  8
0
  6
CONTINUOUS
 62
7
 10
-65.500000
 20
61.000000
 11
-73.000000
 21
61.000000
  0
LINE
  8
0
  6
CONTINUOUS
 62
7
 10
-72.300003
 20
70.699997
 11
-85.699997
 21
70.699997
  0
LINE
  8
0
  6
CONTINUOUS
 62
7
 10
-85.000000
 20
63.290699
 11
-85.000000
 21
60.500000
  0
LINE
  8
0
  6
CONTINUOUS
 62
7
 10
-85.000000
 20
66.500000
 11
-85.000000
 21
65.709297
  0
LINE
  8
0
  6
CONTINUOUS
 62
7
 10
-92.500000
 20
71.000000
 11
-86.000000
 21
71.000000
  0
LINE
  8
0
  6
CONTINUOUS
 62
7
 10
-92.500000
 20
71.000000
 11
-92.500000
 21
61.000000
  0
LINE
  8
0
  6
CONTINUOUS
 62
7
 10
-92.500000
 20
61.000000
 11
-85.000000
 21
61.000000
  0
LINE
  8
0
  6
CONTINUOUS
 62
7
 10
-65.500000
 20
71.000000
 11
-65.500000
 21
61.000000
  0
LINE
  8
0
  6
CONTINUOUS
 62
7
 10
-72.000000
 20
71.000000
 11
-72.300003
 21
70.699997
  0
LINE
  8
0
  6
CONTINUOUS
 62
7
 10
-86.000000
 20
71.000000
 11
-85.699997
 21
70.699997
  0
LINE
  8
0
  6
CONTINUOUS
 62
7
 10
-93.000000
 20
60.500000
 11
-85.000000
 21
60.500000
  0
LINE
  8
0
  6
CONTINUOUS
 62
7
 10
-93.000000
 20
51.000000
 11
-65.000000
 21
51.000000
  0
LINE
  8
0
  6
CONTINUOUS
 62
7
 10
-65.000000
 20
60.500000
 11
-73.000000
 21
60.500000
  0
LINE
  8
0
  6
CONTINUOUS
 62
7
 10
-65.000000
 20
60.500000
 11
-65.000000
 21
51.000000
  0
LINE
  8
0
  6
CONTINUOUS
 62
7
 10
-93.000000
 20
60.500000
 11
-93.000000
 21
51.000000
  0
LINE
  8
0
  6
CENTER
 62
2
 10
-70.000000
 20
58.500000
 11
-70.000000
 21
51.500000
  0
LINE
  8
0
  6
CENTER
 62
2
 10
-66.500000
 20
55.000000
 11
-73.500000
 21
55.000000
  0
LINE
  8
0
  6
CENTER
 62
2
 10
-79.000000
 20
73.000000
 11
-79.000000
 21
49.000000
  0
LINE
  8
0
  6
CENTER
 62
2
 10
-71.599998
 20
58.000000
 11
-86.400002
 21
58.000000
  0
LINE
  8
0
  6
CENTER
 62
2
 10
-120.500000
 20
73.000000
 11
-120.500000
 21
69.000000
  0
LINE
  8
0
  6
CENTER
 62
2
 10
-197.000000
 20
73.000000
 11
-197.000000
 21
69.000000
  0
LINE
  8
0
  6
CENTER
 62
2
 10
-177.000000
 20
73.000000
 11
-177.000000
 21
69.000000
  0
LINE
  8
0
  6
CENTER
 62
2
 10
-89.000000
 20
73.000000
 11
-89.000000
 21
69.000000
  0
LINE
  8
0
  6
CENTER
 62
2
 10
-69.000000
 20
73.000000
 11
-69.000000
 21
69.000000
  0
LINE
  8
0
  6
CONTINUOUS
 62
7
 10
-103.000000
 20
8.000000
 11
-163.000000
 21
8.000000
  0
LINE
  8
0
  6
CONTINUOUS
 62
7
 10
-163.000000
 20
8.000000
 11
-163.000000
 21
36.000000
  0
LINE
  8
0
  6
CONTINUOUS
 62
7
 10
-103.000000
 20
36.000000
 11
-163.000000
 21
36.000000
  0
LINE
  8
0
  6
CONTINUOUS
 62
7
 10
-103.000000
 20
8.000000
 11
-103.000000
 21
36.000000
  0
LINE
  8
0
  6
CENTER
 62
2
 10
-100.366997
 20
22.000000
 11
-167.000000
 21
22.000000
  0
LINE
  8
0
  6
CENTER
 62
2
 10
-155.500000
 20
33.400002
 11
-155.500000
 21
17.600000
  0
LINE
  8
0
  6
CENTER
 62
2
 10
-163.399994
 20
25.500000
 11
-147.600006
 21
25.500000
  0
LINE
  8
0
  6
CENTER
 62
2
 10
-149.000000
 20
36.500000
 11
-149.000000
 21
28.500000
  0
LINE
  8
0
  6
CENTER
 62
2
 10
-153.000000
 20
32.500000
 11
-145.000000
 21
32.500000
  0
LINE
  8
0
  6
CENTER
 62
2
 10
-117.000000
 20
36.500000
 11
-117.000000
 21
28.500000
  0
LINE
  8
0
  6
CENTER
 62
2
 10
-121.000000
 20
32.500000
 11
-113.000000
 21
32.500000
  0
LINE
  8
0
  6
CENTER
 62
2
 10
-110.500000
 20
33.400002
 11
-110.500000
 21
17.600000
  0
LINE
  8
0
  6
CENTER
 62
2
 10
-118.400002
 20
25.500000
 11
-102.599998
 21
25.500000
  0
LINE
  8
0
  6
CENTER
 62
2
 10
-117.000000
 20
15.500000
 11
-117.000000
 21
7.500000
  0
LINE
  8
0
  6
CENTER
 62
2
 10
-121.000000
 20
11.500000
 11
-113.000000
 21
11.500000
  0
LINE
  8
0
  6
CENTER
 62
2
 10
-149.000000
 20
15.500000
 11
-149.000000
 21
7.500000
  0
LINE
  8
0
  6
CENTER
 62
2
 10
-153.000000
 20
11.500000
 11
-145.000000
 21
11.500000
  0
LINE
  8
0
  6
CONTINUOUS
 62
7
 10
188.000000
 20
8.000000
 11
98.000000
 21
8.000000
  0
LINE
  8
0
  6
CONTINUOUS
 62
7
 10
98.000000
 20
8.000000
 11
98.000000
 21
36.000000
  0
LINE
  8
0
  6
CONTINUOUS
 62
7
 10
188.000000
 20
36.000000
 11
98.000000
 21
36.000000
  0
LINE
  8
0
  6
CONTINUOUS
 62
7
 10
188.000000
 20
8.000000
 11
188.000000
 21
36.000000
  0
LINE
  8
0
  6
CENTER
 62
2
 10
112.000000
 20
36.500000
 11
112.000000
 21
28.500000
  0
LINE
  8
0
  6
CENTER
 62
2
 10
108.000000
 20
32.500000
 11
116.000000
 21
32.500000
  0
LINE
  8
0
  6
CENTER
 62
2
 10
105.500000
 20
33.400002
 11
105.500000
 21
17.600000
  0
LINE
  8
0
  6
CENTER
 62
2
 10
97.599998
 20
25.500000
 11
113.400002
 21
25.500000
  0
LINE
  8
0
  6
CENTER
 62
2
 10
112.000000
 20
15.500000
 11
112.000000
 21
7.500000
  0
LINE
  8
0
  6
CENTER
 62
2
 10
108.000000
 20
11.500000
 11
116.000000
 21
11.500000
  0
LINE
  8
0
  6
CENTER
 62
2
 10
174.000000
 20
15.500000
 11
174.000000
 21
7.500000
  0
LINE
  8
0
  6
CENTER
 62
2
 10
170.000000
 20
11.500000
 11
178.000000
 21
11.500000
  0
LINE
  8
0
  6
CENTER
 62
2
 10
174.000000
 20
36.500000
 11
174.000000
 21
28.500000
  0
LINE
  8
0
  6
CENTER
 62
2
 10
170.000000
 20
32.500000
 11
178.000000
 21
32.500000
  0
LINE
  8
0
  6
CENTER
 62
2
 10
180.500000
 20
33.400002
 11
180.500000
 21
17.600000
  0
LINE
  8
0
  6
CENTER
 62
2
 10
172.600006
 20
25.500000
 11
188.399994
 21
25.500000
  0
LINE
  8
0
  6
CENTER
 62
2
 10
96.000000
 20
22.000000
 11
190.000000
 21
22.000000
  0
LINE
  8
0
  6
CENTER
 62
2
 10
-176.500000
 20
53.000000
 11
-176.500000
 21
49.000000
  0
LINE
  8
0
  6
CENTER
 62
2
 10
-197.500000
 20
53.000000
 11
-197.500000
 21
49.000000
  0
LINE
  8
0
  6
CENTER
 62
2
 10
-68.500000
 20
53.000000
 11
-68.500000
 21
49.000000
  0
LINE
  8
0
  6
CENTER
 62
2
 10
-89.500000
 20
53.000000
 11
-89.500000
 21
49.000000
  0
LINE
  8
0
  6
CENTER
 62
2
 10
-135.500000
 20
131.000000
 11
-135.500000
 21
127.000000
  0
LINE
  8
0
  6
CENTER
 62
2
 10
-120.500000
 20
131.000000
 11
-120.500000
 21
127.000000
  0
LINE
  8
0
  6
CENTER
 62
2
 10
84.500000
 20
53.000000
 11
84.500000
 21
49.000000
  0
LINE
  8
0
  6
CENTER
 62
2
 10
63.500000
 20
53.000000
 11
63.500000
 21
49.000000
  0
LINE
  8
0
  6
CENTER
 62
2
 10
222.500000
 20
53.000000
 11
222.500000
 21
49.000000
  0
LINE
  8
0
  6
CENTER
 62
2
 10
201.500000
 20
53.000000
 11
201.500000
 21
49.000000
  0
LINE
  8
0
  6
CONTINUOUS
 62
7
 10
0.424988
 20
195.500000
 11
0.424988
 21
-195.000000
  0
LINE
  8
0
  6
CONTINUOUS
 62
7
 10
-281.250000
 20
0.250000
 11
282.100006
 21
0.250000
  0
CIRCLE
  8
0
  6
CONTINUOUS
 62
7
 10
74.000000
 20
-118.000000
 40
5.400000
  0
ARC
  8
0
  6
CONTINUOUS
 62
7
 10
80.599998
 20
-111.500000
 40
1.350000
 50
116.387001
 51
243.610992
  0
ARC
  8
0
  6
CONTINUOUS
 62
7
 10
67.400002
 20
-111.500000
 40
1.350000
 50
296.385986
 51
63.610199
  0
CIRCLE
  8
0
  6
CONTINUOUS
 62
2
 10
65.000000
 20
-121.000000
 40
1.500000
  0
CIRCLE
  8
0
  6
CONTINUOUS
 62
7
 10
65.000000
 20
-121.000000
 40
1.250000
  0
CIRCLE
  8
0
  6
CONTINUOUS
 62
2
 10
104.000000
 20
-119.500000
 40
2.500000
  0
CIRCLE
  8
0
  6
CONTINUOUS
 62
7
 10
104.000000
 20
-119.500000
 40
2.100000
  0
CIRCLE
  8
0
  6
CONTINUOUS
 62
2
 10
182.000000
 20
-119.500000
 40
2.500000
  0
CIRCLE
  8
0
  6
CONTINUOUS
 62
7
 10
182.000000
 20
-119.500000
 40
2.100000
  0
CIRCLE
  8
0
  6
CONTINUOUS
 62
7
 10
112.000000
 20
-86.500000
 40
1.650000
  0
CIRCLE
  8
0
  6
CONTINUOUS
 62
2
 10
112.000000
 20
-86.500000
 40
2.000000
  0
CIRCLE
  8
0
  6
CONTINUOUS
 62
2
 10
112.000000
 20
-65.500000
 40
2.000000
  0
CIRCLE
  8
0
  6
CONTINUOUS
 62
7
 10
112.000000
 20
-65.500000
 40
1.650000
  0
CIRCLE
  8
0
  6
CONTINUOUS
 62
2
 10
118.000000
 20
-121.000000
 40
1.500000
  0
CIRCLE
  8
0
  6
CONTINUOUS
 62
7
 10
118.000000
 20
-121.000000
 40
1.250000
  0
CIRCLE
  8
0
  6
CONTINUOUS
 62
7
 10
168.000000
 20
-121.000000
 40
1.250000
  0
CIRCLE
  8
0
  6
CONTINUOUS
 62
2
 10
168.000000
 20
-121.000000
 40
1.500000
  0
CIRCLE
  8
0
  6
CONTINUOUS
 62
7
 10
153.000000
 20
-66.000000
 40
1.250000
  0
CIRCLE
  8
0
  6
CONTINUOUS
 62
2
 10
153.000000
 20
-66.000000
 40
1.500000
  0
CIRCLE
  8
0
  6
CONTINUOUS
 62
7
 10
153.000000
 20
-86.000000
 40
1.250000
  0
CIRCLE
  8
0
  6
CONTINUOUS
 62
2
 10
153.000000
 20
-86.000000
 40
1.500000
  0
ARC
  8
0
  6
CONTINUOUS
 62
7
 10
118.000000
 20
-121.000000
 40
3.000000
 50
0.000000
 51
150.000000
  0
ARC
  8
0
  6
CONTINUOUS
 62
7
 10
168.000000
 20
-121.000000
 40
3.000010
 50
29.999901
 51
180.000000
  0
CIRCLE
  8
0
  6
CONTINUOUS
 62
2
 10
148.000000
 20
-43.000000
 40
1.000000
  0
CIRCLE
  8
0
  6
CONTINUOUS
 62
2
 10
158.000000
 20
-43.000000
 40
1.000000
  0
CIRCLE
  8
0
  6
CONTINUOUS
 62
7
 10
148.000000
 20
-43.000000
 40
0.800000
  0
CIRCLE
  8
0
  6
CONTINUOUS
 62
7
 10
158.000000
 20
-43.000000
 40
0.800000
  0
CIRCLE
  8
0
  6
DASHED
 62
2
 10
174.000000
 20
-65.500000
 40
1.650000
  0
CIRCLE
  8
0
  6
DASHED
 62
2
 10
174.000000
 20
-65.500000
 40
2.000000
  0
CIRCLE
  8
0
  6
CONTINUOUS
 62
7
 10
168.000000
 20
-66.000000
 40
1.250000
  0
CIRCLE
  8
0
  6
CONTINUOUS
 62
2
 10
168.000000
 20
-66.000000
 40
1.500000
  0
CIRCLE
  8
0
  6
CONTINUOUS
 62
7
 10
168.000000
 20
-86.000000
 40
1.250000
  0
CIRCLE
  8
0
  6
CONTINUOUS
 62
2
 10
168.000000
 20
-86.000000
 40
1.500000
  0
CIRCLE
  8
0
  6
DASHED
 62
2
 10
174.000000
 20
-86.500000
 40
1.650000
  0
CIRCLE
  8
0
  6
DASHED
 62
2
 10
174.000000
 20
-86.500000
 40
2.000000
  0
CIRCLE
  8
0
  6
CONTINUOUS
 62
2
 10
118.000000
 20
-31.000000
 40
1.500000
  0
CIRCLE
  8
0
  6
CONTINUOUS
 62
7
 10
118.000000
 20
-31.000000
 40
1.250000
  0
CIRCLE
  8
0
  6
CONTINUOUS
 62
7
 10
168.000000
 20
-31.000000
 40
1.250000
  0
CIRCLE
  8
0
  6
CONTINUOUS
 62
2
 10
168.000000
 20
-31.000000
 40
1.500000
  0
ARC
  8
0
  6
CONTINUOUS
 62
7
 10
118.000000
 20
-31.000000
 40
3.000000
 50
210.000000
 51
0.000000
  0
ARC
  8
0
  6
CONTINUOUS
 62
7
 10
168.000000
 20
-31.000000
 40
3.000000
 50
180.000000
 51
330.000000
  0
CIRCLE
  8
0
  6
CONTINUOUS
 62
2
 10
149.000000
 20
-109.000000
 40
1.500000
  0
CIRCLE
  8
0
  6
CONTINUOUS
 62
2
 10
157.000000
 20
-109.000000
 40
1.500000
  0
CIRCLE
  8
0
  6
CONTINUOUS
 62
7
 10
149.000000
 20
-109.000000
 40
1.250000
  0
CIRCLE
  8
0
  6
CONTINUOUS
 62
7
 10
157.000000
 20
-109.000000
 40
1.250000
  0
CIRCLE
  8
0
  6
CONTINUOUS
 62
7
 10
138.000000
 20
-66.000000
 40
1.250000
  0
CIRCLE
  8
0
  6
CONTINUOUS
 62
2
 10
138.000000
 20
-66.000000
 40
1.500000
  0
CIRCLE
  8
0
  6
CONTINUOUS
 62
7
 10
138.000000
 20
-86.000000
 40
1.250000
  0
CIRCLE
  8
0
  6
CONTINUOUS
 62
2
 10
138.000000
 20
-86.000000
 40
1.500000
  0
ARC
  8
0
  6
CONTINUOUS
 62
7
 10
104.000000
 20
-119.500000
 40
4.800000
 50
0.000000
 51
56.442699
  0
ARC
  8
0
  6
CONTINUOUS
 62
7
 10
182.000000
 20
-119.500000
 40
4.800000
 50
123.556999
 51
180.000000
  0
ARC
  8
0
  6
CONTINUOUS
 62
7
 10
104.000000
 20
-32.500000
 40
4.800000
 50
303.557007
 51
0.000000
  0
ARC
  8
0
  6
CONTINUOUS
 62
7
 10
182.000000
 20
-32.500000
 40
4.800000
 50
180.000000
 51
236.442993
  0
CIRCLE
  8
0
  6
CONTINUOUS
 62
7
 10
112.000000
 20
-65.500000
 40
3.000000
  0
CIRCLE
  8
0
  6
CONTINUOUS
 62
7
 10
112.000000
 20
-86.500000
 40
3.000000
  0
CIRCLE
  8
0
  6
DASHED
 62
2
 10
174.000000
 20
-86.500000
 40
3.000000
  0
CIRCLE
  8
0
  6
DASHED
 62
2
 10
174.000000
 20
-65.500000
 40
3.000000
  0
CIRCLE
  8
0
  6
CONTINUOUS
 62
7
 10
212.000000
 20
-118.000000
 40
5.400000
  0
ARC
  8
0
  6
CONTINUOUS
 62
7
 10
205.399994
 20
-111.500000
 40
1.350000
 50
296.389008
 51
63.612598
  0
ARC
  8
0
  6
CONTINUOUS
 62
7
 10
218.600006
 20
-111.500000
 40
1.350010
 50
116.389999
 51
243.613007
  0
CIRCLE
  8
0
  6
CONTINUOUS
 62
2
 10
221.000000
 20
-121.000000
 40
1.500000
  0
CIRCLE
  8
0
  6
CONTINUOUS
 62
7
 10
221.000000
 20
-121.000000
 40
1.250000
  0
CIRCLE
  8
0
  6
CONTINUOUS
 62
7
 10
-187.000000
 20
-118.000000
 40
5.400000
  0
ARC
  8
0
  6
CONTINUOUS
 62
7
 10
-180.399994
 20
-111.500000
 40
1.350000
 50
116.387001
 51
243.610992
  0
ARC
  8
0
  6
CONTINUOUS
 62
7
 10
-193.600006
 20
-111.500000
 40
1.350010
 50
296.386993
 51
63.609901
  0
CIRCLE
  8
0
  6
CONTINUOUS
 62
2
 10
-196.000000
 20
-121.000000
 40
1.500000
  0
CIRCLE
  8
0
  6
CONTINUOUS
 62
7
 10
-196.000000
 20
-121.000000
 40
1.250000
  0
CIRCLE
  8
0
  6
CONTINUOUS
 62
2
 10
-157.000000
 20
-119.500000
 40
2.500000
  0
CIRCLE
  8
0
  6
CONTINUOUS
 62
7
 10
-157.000000
 20
-119.500000
 40
2.100000
  0
CIRCLE
  8
0
  6
CONTINUOUS
 62
2
 10
-109.000000
 20
-119.500000
 40
2.500000
  0
CIRCLE
  8
0
  6
CONTINUOUS
 62
7
 10
-109.000000
 20
-119.500000
 40
2.100000
  0
CIRCLE
  8
0
  6
CONTINUOUS
 62
7
 10
-149.000000
 20
-86.500000
 40
1.650000
  0
CIRCLE
  8
0
  6
CONTINUOUS
 62
2
 10
-149.000000
 20
-86.500000
 40
2.000000
  0
CIRCLE
  8
0
  6
CONTINUOUS
 62
2
 10
-149.000000
 20
-65.500000
 40
2.000000
  0
CIRCLE
  8
0
  6
CONTINUOUS
 62
7
 10
-149.000000
 20
-65.500000
 40
1.650000
  0
CIRCLE
  8
0
  6
CONTINUOUS
 62
2
 10
-143.000000
 20
-121.000000
 40
1.500000
  0
CIRCLE
  8
0
  6
CONTINUOUS
 62
7
 10
-143.000000
 20
-121.000000
 40
1.250000
  0
CIRCLE
  8
0
  6
CONTINUOUS
 62
7
 10
-123.000000
 20
-121.000000
 40
1.250000
  0
CIRCLE
  8
0
  6
CONTINUOUS
 62
2
 10
-123.000000
 20
-121.000000
 40
1.500000
  0
CIRCLE
  8
0
  6
CONTINUOUS
 62
7
 10
-135.500000
 20
-66.000000
 40
1.250000
  0
CIRCLE
  8
0
  6
CONTINUOUS
 62
2
 10
-135.500000
 20
-66.000000
 40
1.500000
  0
CIRCLE
  8
0
  6
CONTINUOUS
 62
7
 10
-135.500000
 20
-86.000000
 40
1.250000
  0
CIRCLE
  8
0
  6
CONTINUOUS
 62
2
 10
-135.500000
 20
-86.000000
 40
1.500000
  0
ARC
  8
0
  6
CONTINUOUS
 62
7
 10
-143.000000
 20
-121.000000
 40
3.000000
 50
0.000000
 51
150.000000
  0
ARC
  8
0
  6
CONTINUOUS
 62
7
 10
-123.000000
 20
-121.000000
 40
3.000000
 50
30.000000
 51
180.000000
  0
CIRCLE
  8
0
  6
CONTINUOUS
 62
2
 10
-133.000000
 20
-43.000000
 40
1.000000
  0
CIRCLE
  8
0
  6
CONTINUOUS
 62
2
 10
-123.000000
 20
-43.000000
 40
1.000000
  0
CIRCLE
  8
0
  6
CONTINUOUS
 62
7
 10
-133.000000
 20
-43.000000
 40
0.800000
  0
CIRCLE
  8
0
  6
CONTINUOUS
 62
7
 10
-123.000000
 20
-43.000000
 40
0.800000
  0
CIRCLE
  8
0
  6
CONTINUOUS
 62
7
 10
-120.500000
 20
-66.000000
 40
1.250000
  0
CIRCLE
  8
0
  6
CONTINUOUS
 62
2
 10
-120.500000
 20
-66.000000
 40
1.500000
  0
CIRCLE
  8
0
  6
CONTINUOUS
 62
7
 10
-120.500000
 20
-86.000000
 40
1.250000
  0
CIRCLE
  8
0
  6
CONTINUOUS
 62
2
 10
-120.500000
 20
-86.000000
 40
1.500000
  0
CIRCLE
  8
0
  6
CONTINUOUS
 62
7
 10
-149.000000
 20
-86.500000
 40
3.000000
  0
CIRCLE
  8
0
  6
CONTINUOUS
 62
7
 10
-149.000000
 20
-65.500000
 40
3.000000
  0
CIRCLE
  8
0
  6
DASHED
 62
2
 10
-117.000000
 20
-65.500000
 40
3.000000
  0
CIRCLE
  8
0
  6
DASHED
 62
2
 10
-117.000000
 20
-86.500000
 40
3.000000
  0
CIRCLE
  8
0
  6
CONTINUOUS
 62
2
 10
-143.000000
 20
-31.000000
 40
1.500000
  0
CIRCLE
  8
0
  6
CONTINUOUS
 62
7
 10
-143.000000
 20
-31.000000
 40
1.250000
  0
CIRCLE
  8
0
  6
CONTINUOUS
 62
7
 10
-123.000000
 20
-31.000000
 40
1.250000
  0
CIRCLE
  8
0
  6
CONTINUOUS
 62
2
 10
-123.000000
 20
-31.000000
 40
1.500000
  0
ARC
  8
0
  6
CONTINUOUS
 62
7
 10
-143.000000
 20
-31.000000
 40
3.000010
 50
210.000000
 51
0.000000
  0
ARC
  8
0
  6
CONTINUOUS
 62
7
 10
-123.000000
 20
-31.000000
 40
3.000000
 50
180.000000
 51
330.000000
  0
CIRCLE
  8
0
  6
CONTINUOUS
 62
2
 10
-132.000000
 20
-109.000000
 40
1.500000
  0
CIRCLE
  8
0
  6
CONTINUOUS
 62
2
 10
-124.000000
 20
-109.000000
 40
1.500000
  0
CIRCLE
  8
0
  6
CONTINUOUS
 62
7
 10
-132.000000
 20
-109.000000
 40
1.250000
  0
CIRCLE
  8
0
  6
CONTINUOUS
 62
7
 10
-124.000000
 20
-109.000000
 40
1.250000
  0
ARC
  8
0
  6
CONTINUOUS
 62
7
 10
-157.000000
 20
-119.500000
 40
4.800000
 50
0.000000
 51
56.442600
  0
ARC
  8
0
  6
CONTINUOUS
 62
7
 10
-109.000000
 20
-119.500000
 40
4.800000
 50
123.556999
 51
180.000000
  0
ARC
  8
0
  6
CONTINUOUS
 62
7
 10
-157.000000
 20
-32.500000
 40
4.800000
 50
303.557007
 51
0.000000
  0
ARC
  8
0
  6
CONTINUOUS
 62
7
 10
-109.000000
 20
-32.500000
 40
4.800000
 50
180.000000
 51
236.442993
  0
CIRCLE
  8
0
  6
DASHED
 62
2
 10
-117.000000
 20
-65.500000
 40
1.650000
  0
CIRCLE
  8
0
  6
DASHED
 62
2
 10
-117.000000
 20
-65.500000
 40
2.000000
  0
CIRCLE
  8
0
  6
DASHED
 62
2
 10
-117.000000
 20
-86.500000
 40
2.000000
  0
CIRCLE
  8
0
  6
DASHED
 62
2
 10
-117.000000
 20
-86.500000
 40
1.650000
  0
CIRCLE
  8
0
  6
CONTINUOUS
 62
7
 10
-79.000000
 20
-118.000000
 40
5.400000
  0
ARC
  8
0
  6
CONTINUOUS
 62
7
 10
-85.599998
 20
-111.500000
 40
1.350000
 50
296.389008
 51
63.612598
  0
ARC
  8
0
  6
CONTINUOUS
 62
7
 10
-72.400002
 20
-111.500000
 40
1.350000
 50
116.389999
 51
243.613998
  0
CIRCLE
  8
0
  6
CONTINUOUS
 62
2
 10
-70.000000
 20
-121.000000
 40
1.500000
  0
CIRCLE
  8
0
  6
CONTINUOUS
 62
7
 10
-70.000000
 20
-121.000000
 40
1.250000
  0
CIRCLE
  8
0
  6
CONTINUOUS
 62
2
 10
-149.000000
 20
-143.500000
 40
2.000000
  0
CIRCLE
  8
0
  6
CONTINUOUS
 62
7
 10
-149.000000
 20
-164.500000
 40
1.650000
  0
CIRCLE
  8
0
  6
CONTINUOUS
 62
2
 10
-149.000000
 20
-164.500000
 40
2.000000
  0
CIRCLE
  8
0
  6
CONTINUOUS
 62
7
 10
-149.000000
 20
-143.500000
 40
1.650000
  0
CIRCLE
  8
0
  6
CONTINUOUS
 62
7
 10
-117.000000
 20
-164.500000
 40
1.650000
  0
CIRCLE
  8
0
  6
CONTINUOUS
 62
2
 10
-117.000000
 20
-164.500000
 40
2.000000
  0
CIRCLE
  8
0
  6
CONTINUOUS
 62
7
 10
-117.000000
 20
-143.500000
 40
1.650000
  0
CIRCLE
  8
0
  6
CONTINUOUS
 62
2
 10
-117.000000
 20
-143.500000
 40
2.000000
  0
CIRCLE
  8
0
  6
CONTINUOUS
 62
7
 10
-110.500000
 20
-150.500000
 40
5.900000
  0
CIRCLE
  8
0
  6
CONTINUOUS
 62
7
 10
-155.500000
 20
-150.500000
 40
5.900000
  0
CIRCLE
  8
0
  6
CONTINUOUS
 62
2
 10
112.000000
 20
-143.500000
 40
2.000000
  0
CIRCLE
  8
0
  6
CONTINUOUS
 62
7
 10
112.000000
 20
-164.500000
 40
1.650000
  0
CIRCLE
  8
0
  6
CONTINUOUS
 62
2
 10
112.000000
 20
-164.500000
 40
2.000000
  0
CIRCLE
  8
0
  6
CONTINUOUS
 62
7
 10
112.000000
 20
-143.500000
 40
1.650000
  0
CIRCLE
  8
0
  6
CONTINUOUS
 62
7
 10
174.000000
 20
-164.500000
 40
1.650000
  0
CIRCLE
  8
0
  6
CONTINUOUS
 62
2
 10
174.000000
 20
-164.500000
 40
2.000000
  0
CIRCLE
  8
0
  6
CONTINUOUS
 62
7
 10
174.000000
 20
-143.500000
 40
1.650000
  0
CIRCLE
  8
0
  6
CONTINUOUS
 62
2
 10
174.000000
 20
-143.500000
 40
2.000000
  0
CIRCLE
  8
0
  6
CONTINUOUS
 62
7
 10
180.500000
 20
-150.500000
 40
5.900000
  0
CIRCLE
  8
0
  6
CONTINUOUS
 62
7
 10
105.500000
 20
-150.500000
 40
5.900000
  0
CIRCLE
  8
0
  6
CONTINUOUS
 62
7
 10
74.000000
 20
58.000000
 40
5.400000
  0
ARC
  8
0
  6
CONTINUOUS
 62
7
 10
80.599998
 20
64.500000
 40
1.350000
 50
116.387001
 51
243.610992
  0
ARC
  8
0
  6
CONTINUOUS
 62
7
 10
67.400002
 20
64.500000
 40
1.350000
 50
296.385986
 51
63.610199
  0
CIRCLE
  8
0
  6
CONTINUOUS
 62
2
 10
65.000000
 20
55.000000
 40
1.500000
  0
CIRCLE
  8
0
  6
CONTINUOUS
 62
7
 10
65.000000
 20
55.000000
 40
1.250000
  0
CIRCLE
  8
0
  6
CONTINUOUS
 62
2
 10
104.000000
 20
56.500000
 40
2.500000
  0
CIRCLE
  8
0
  6
CONTINUOUS
 62
7
 10
104.000000
 20
56.500000
 40
2.100000
  0
CIRCLE
  8
0
  6
CONTINUOUS
 62
2
 10
182.000000
 20
56.500000
 40
2.500000
  0
CIRCLE
  8
0
  6
CONTINUOUS
 62
7
 10
182.000000
 20
56.500000
 40
2.100000
  0
CIRCLE
  8
0
  6
CONTINUOUS
 62
7
 10
112.000000
 20
89.500000
 40
1.650000
  0
CIRCLE
  8
0
  6
CONTINUOUS
 62
2
 10
112.000000
 20
89.500000
 40
2.000000
  0
CIRCLE
  8
0
  6
CONTINUOUS
 62
2
 10
112.000000
 20
110.500000
 40
2.000000
  0
CIRCLE
  8
0
  6
CONTINUOUS
 62
7
 10
112.000000
 20
110.500000
 40
1.650000
  0
CIRCLE
  8
0
  6
CONTINUOUS
 62
2
 10
118.000000
 20
55.000000
 40
1.500000
  0
CIRCLE
  8
0
  6
CONTINUOUS
 62
7
 10
118.000000
 20
55.000000
 40
1.250000
  0
CIRCLE
  8
0
  6
CONTINUOUS
 62
7
 10
168.000000
 20
55.000000
 40
1.250000
  0
CIRCLE
  8
0
  6
CONTINUOUS
 62
2
 10
168.000000
 20
55.000000
 40
1.500000
  0
CIRCLE
  8
0
  6
CONTINUOUS
 62
7
 10
153.000000
 20
110.000000
 40
1.250000
  0
CIRCLE
  8
0
  6
CONTINUOUS
 62
2
 10
153.000000
 20
110.000000
 40
1.500000
  0
CIRCLE
  8
0
  6
CONTINUOUS
 62
7
 10
153.000000
 20
90.000000
 40
1.250000
  0
CIRCLE
  8
0
  6
CONTINUOUS
 62
2
 10
153.000000
 20
90.000000
 40
1.500000
  0
ARC
  8
0
  6
CONTINUOUS
 62
7
 10
118.000000
 20
55.000000
 40
3.000000
 50
0.000000
 51
150.000000
  0
ARC
  8
0
  6
CONTINUOUS
 62
7
 10
168.000000
 20
55.000000
 40
3.000010
 50
29.999901
 51
180.000000
  0
CIRCLE
  8
0
  6
CONTINUOUS
 62
2
 10
148.000000
 20
67.000000
 40
1.000000
  0
CIRCLE
  8
0
  6
CONTINUOUS
 62
2
 10
158.000000
 20
67.000000
 40
1.000000
  0
CIRCLE
  8
0
  6
CONTINUOUS
 62
7
 10
148.000000
 20
67.000000
 40
0.800000
  0
CIRCLE
  8
0
  6
CONTINUOUS
 62
7
 10
158.000000
 20
67.000000
 40
0.800000
  0
CIRCLE
  8
0
  6
DASHED
 62
2
 10
174.000000
 20
110.500000
 40
1.650000
  0
CIRCLE
  8
0
  6
DASHED
 62
2
 10
174.000000
 20
110.500000
 40
2.000000
  0
CIRCLE
  8
0
  6
CONTINUOUS
 62
7
 10
168.000000
 20
110.000000
 40
1.250000
  0
CIRCLE
  8
0
  6
CONTINUOUS
 62
2
 10
168.000000
 20
110.000000
 40
1.500000
  0
CIRCLE
  8
0
  6
CONTINUOUS
 62
7
 10
168.000000
 20
90.000000
 40
1.250000
  0
CIRCLE
  8
0
  6
CONTINUOUS
 62
2
 10
168.000000
 20
90.000000
 40
1.500000
  0
CIRCLE
  8
0
  6
DASHED
 62
2
 10
174.000000
 20
89.500000
 40
1.650000
  0
CIRCLE
  8
0
  6
DASHED
 62
2
 10
174.000000
 20
89.500000
 40
2.000000
  0
CIRCLE
  8
0
  6
CONTINUOUS
 62
2
 10
118.000000
 20
145.000000
 40
1.500000
  0
CIRCLE
  8
0
  6
CONTINUOUS
 62
7
 10
118.000000
 20
145.000000
 40
1.250000
  0
CIRCLE
  8
0
  6
CONTINUOUS
 62
7
 10
168.000000
 20
145.000000
 40
1.250000
  0
CIRCLE
  8
0
  6
CONTINUOUS
 62
2
 10
168.000000
 20
145.000000
 40
1.500000
  0
ARC
  8
0
  6
CONTINUOUS
 62
7
 10
118.000000
 20
145.000000
 40
3.000000
 50
210.000000
 51
0.000000
  0
ARC
  8
0
  6
CONTINUOUS
 62
7
 10
168.000000
 20
145.000000
 40
3.000000
 50
180.000000
 51
330.000000
  0
CIRCLE
  8
0
  6
CONTINUOUS
 62
2
 10
149.000000
 20
133.000000
 40
1.500000
  0
CIRCLE
  8
0
  6
CONTINUOUS
 62
2
 10
157.000000
 20
133.000000
 40
1.500000
  0
CIRCLE
  8
0
  6
CONTINUOUS
 62
7
 10
149.000000
 20
133.000000
 40
1.250000
  0
CIRCLE
  8
0
  6
CONTINUOUS
 62
7
 10
157.000000
 20
133.000000
 40
1.250000
  0
CIRCLE
  8
0
  6
CONTINUOUS
 62
7
 10
138.000000
 20
110.000000
 40
1.250000
  0
CIRCLE
  8
0
  6
CONTINUOUS
 62
2
 10
138.000000
 20
110.000000
 40
1.500000
  0
CIRCLE
  8
0
  6
CONTINUOUS
 62
7
 10
138.000000
 20
90.000000
 40
1.250000
  0
CIRCLE
  8
0
  6
CONTINUOUS
 62
2
 10
138.000000
 20
90.000000
 40
1.500000
  0
ARC
  8
0
  6
CONTINUOUS
 62
7
 10
104.000000
 20
56.500000
 40
4.800000
 50
0.000000
 51
56.442699
  0
ARC
  8
0
  6
CONTINUOUS
 62
7
 10
182.000000
 20
56.500000
 40
4.800000
 50
123.556999
 51
180.000000
  0
ARC
  8
0
  6
CONTINUOUS
 62
7
 10
104.000000
 20
143.500000
 40
4.800000
 50
303.557007
 51
0.000000
  0
ARC
  8
0
  6
CONTINUOUS
 62
7
 10
182.000000
 20
143.500000
 40
4.800000
 50
180.000000
 51
236.442993
  0
CIRCLE
  8
0
  6
CONTINUOUS
 62
7
 10
112.000000
 20
110.500000
 40
3.000000
  0
CIRCLE
  8
0
  6
CONTINUOUS
 62
7
 10
112.000000
 20
89.500000
 40
3.000000
  0
CIRCLE
  8
0
  6
DASHED
 62
2
 10
174.000000
 20
89.500000
 40
3.000000
  0
CIRCLE
  8
0
  6
DASHED
 62
2
 10
174.000000
 20
110.500000
 40
3.000000
  0
CIRCLE
  8
0
  6
CONTINUOUS
 62
7
 10
212.000000
 20
58.000000
 40
5.400000
  0
ARC
  8
0
  6
CONTINUOUS
 62
7
 10
205.399994
 20
64.500000
 40
1.350000
 50
296.389008
 51
63.612598
  0
ARC
  8
0
  6
CONTINUOUS
 62
7
 10
218.600006
 20
64.500000
 40
1.350010
 50
116.389999
 51
243.613007
  0
CIRCLE
  8
0
  6
CONTINUOUS
 62
2
 10
221.000000
 20
55.000000
 40
1.500000
  0
CIRCLE
  8
0
  6
CONTINUOUS
 62
7
 10
221.000000
 20
55.000000
 40
1.250000
  0
CIRCLE
  8
0
  6
CONTINUOUS
 62
7
 10
-187.000000
 20
58.000000
 40
5.400000
  0
ARC
  8
0
  6
CONTINUOUS
 62
7
 10
-180.399994
 20
64.500000
 40
1.350000
 50
116.387001
 51
243.610992
  0
ARC
  8
0
  6
CONTINUOUS
 62
7
 10
-193.600006
 20
64.500000
 40
1.350010
 50
296.386993
 51
63.609901
  0
CIRCLE
  8
0
  6
CONTINUOUS
 62
2
 10
-196.000000
 20
55.000000
 40
1.500000
  0
CIRCLE
  8
0
  6
CONTINUOUS
 62
7
 10
-196.000000
 20
55.000000
 40
1.250000
  0
CIRCLE
  8
0
  6
CONTINUOUS
 62
2
 10
-157.000000
 20
56.500000
 40
2.500000
  0
CIRCLE
  8
0
  6
CONTINUOUS
 62
7
 10
-157.000000
 20
56.500000
 40
2.100000
  0
CIRCLE
  8
0
  6
CONTINUOUS
 62
2
 10
-109.000000
 20
56.500000
 40
2.500000
  0
CIRCLE
  8
0
  6
CONTINUOUS
 62
7
 10
-109.000000
 20
56.500000
 40
2.100000
  0
CIRCLE
  8
0
  6
CONTINUOUS
 62
7
 10
-149.000000
 20
89.500000
 40
1.650000
  0
CIRCLE
  8
0
  6
CONTINUOUS
 62
2
 10
-149.000000
 20
89.500000
 40
2.000000
  0
CIRCLE
  8
0
  6
CONTINUOUS
 62
2
 10
-149.000000
 20
110.500000
 40
2.000000
  0
CIRCLE
  8
0
  6
CONTINUOUS
 62
7
 10
-149.000000
 20
110.500000
 40
1.650000
  0
CIRCLE
  8
0
  6
CONTINUOUS
 62
2
 10
-143.000000
 20
55.000000
 40
1.500000
  0
CIRCLE
  8
0
  6
CONTINUOUS
 62
7
 10
-143.000000
 20
55.000000
 40
1.250000
  0
CIRCLE
  8
0
  6
CONTINUOUS
 62
7
 10
-123.000000
 20
55.000000
 40
1.250000
  0
CIRCLE
  8
0
  6
CONTINUOUS
 62
2
 10
-123.000000
 20
55.000000
 40
1.500000
  0
CIRCLE
  8
0
  6
CONTINUOUS
 62
7
 10
-135.500000
 20
110.000000
 40
1.250000
  0
CIRCLE
  8
0
  6
CONTINUOUS
 62
2
 10
-135.500000
 20
110.000000
 40
1.500000
  0
CIRCLE
  8
0
  6
CONTINUOUS
 62
7
 10
-135.500000
 20
90.000000
 40
1.250000
  0
CIRCLE
  8
0
  6
CONTINUOUS
 62
2
 10
-135.500000
 20
90.000000
 40
1.500000
  0
ARC
  8
0
  6
CONTINUOUS
 62
7
 10
-143.000000
 20
55.000000
 40
3.000000
 50
0.000000
 51
150.000000
  0
ARC
  8
0
  6
CONTINUOUS
 62
7
 10
-123.000000
 20
55.000000
 40
3.000000
 50
30.000000
 51
180.000000
  0
CIRCLE
  8
0
  6
CONTINUOUS
 62
2
 10
-133.000000
 20
67.000000
 40
1.000000
  0
CIRCLE
  8
0
  6
CONTINUOUS
 62
2
 10
-123.000000
 20
67.000000
 40
1.000000
  0
CIRCLE
  8
0
  6
CONTINUOUS
 62
7
 10
-133.000000
 20
67.000000
 40
0.800000
  0
CIRCLE
  8
0
  6
CONTINUOUS
 62
7
 10
-123.000000
 20
67.000000
 40
0.800000
  0
CIRCLE
  8
0
  6
CONTINUOUS
 62
7
 10
-120.500000
 20
110.000000
 40
1.250000
  0
CIRCLE
  8
0
  6
CONTINUOUS
 62
2
 10
-120.500000
 20
110.000000
 40
1.500000
  0
CIRCLE
  8
0
  6
CONTINUOUS
 62
7
 10
-120.500000
 20
90.000000
 40
1.250000
  0
CIRCLE
  8
0
  6
CONTINUOUS
 62
2
 10
-120.500000
 20
90.000000
 40
1.500000
  0
CIRCLE
  8
0
  6
CONTINUOUS
 62
7
 10
-149.000000
 20
89.500000
 40
3.000000
  0
CIRCLE
  8
0
  6
CONTINUOUS
 62
7
 10
-149.000000
 20
110.500000
 40
3.000000
  0
CIRCLE
  8
0
  6
DASHED
 62
2
 10
-117.000000
 20
110.500000
 40
3.000000
  0
CIRCLE
  8
0
  6
DASHED
 62
2
 10
-117.000000
 20
89.500000
 40
3.000000
  0
CIRCLE
  8
0
  6
CONTINUOUS
 62
2
 10
-143.000000
 20
145.000000
 40
1.500000
  0
CIRCLE
  8
0
  6
CONTINUOUS
 62
7
 10
-143.000000
 20
145.000000
 40
1.250000
  0
CIRCLE
  8
0
  6
CONTINUOUS
 62
7
 10
-123.000000
 20
145.000000
 40
1.250000
  0
CIRCLE
  8
0
  6
CONTINUOUS
 62
2
 10
-123.000000
 20
145.000000
 40
1.500000
  0
ARC
  8
0
  6
CONTINUOUS
 62
7
 10
-143.000000
 20
145.000000
 40
3.000010
 50
210.000000
 51
0.000000
  0
ARC
  8
0
  6
CONTINUOUS
 62
7
 10
-123.000000
 20
145.000000
 40
3.000000
 50
180.000000
 51
330.000000
  0
CIRCLE
  8
0
  6
CONTINUOUS
 62
2
 10
-132.000000
 20
133.000000
 40
1.500000
  0
CIRCLE
  8
0
  6
CONTINUOUS
 62
2
 10
-124.000000
 20
133.000000
 40
1.500000
  0
CIRCLE
  8
0
  6
CONTINUOUS
 62
7
 10
-132.000000
 20
133.000000
 40
1.250000
  0
CIRCLE
  8
0
  6
CONTINUOUS
 62
7
 10
-124.000000
 20
133.000000
 40
1.250000
  0
ARC
  8
0
  6
CONTINUOUS
 62
7
 10
-157.000000
 20
56.500000
 40
4.800000
 50
0.000000
 51
56.442600
  0
ARC
  8
0
  6
CONTINUOUS
 62
7
 10
-109.000000
 20
56.500000
 40
4.800000
 50
123.556999
 51
180.000000
  0
ARC
  8
0
  6
CONTINUOUS
 62
7
 10
-157.000000
 20
143.500000
 40
4.800000
 50
303.557007
 51
0.000000
  0
ARC
  8
0
  6
CONTINUOUS
 62
7
 10
-109.000000
 20
143.500000
 40
4.800000
 50
180.000000
 51
236.442993
  0
CIRCLE
  8
0
  6
DASHED
 62
2
 10
-117.000000
 20
110.500000
 40
1.650000
  0
CIRCLE
  8
0
  6
DASHED
 62
2
 10
-117.000000
 20
110.500000
 40
2.000000
  0
CIRCLE
  8
0
  6
DASHED
 62
2
 10
-117.000000
 20
89.500000
 40
2.000000
  0
CIRCLE
  8
0
  6
DASHED
 62
2
 10
-117.000000
 20
89.500000
 40
1.650000
  0
CIRCLE
  8
0
  6
CONTINUOUS
 62
7
 10
-79.000000
 20
58.000000
 40
5.400000
  0
ARC
  8
0
  6
CONTINUOUS
 62
7
 10
-85.599998
 20
64.500000
 40
1.350000
 50
296.389008
 51
63.612598
  0
ARC
  8
0
  6
CONTINUOUS
 62
7
 10
-72.400002
 20
64.500000
 40
1.350000
 50
116.389999
 51
243.613998
  0
CIRCLE
  8
0
  6
CONTINUOUS
 62
2
 10
-70.000000
 20
55.000000
 40
1.500000
  0
CIRCLE
  8
0
  6
CONTINUOUS
 62
7
 10
-70.000000
 20
55.000000
 40
1.250000
  0
CIRCLE
  8
0
  6
CONTINUOUS
 62
2
 10
-149.000000
 20
32.500000
 40
2.000000
  0
CIRCLE
  8
0
  6
CONTINUOUS
 62
7
 10
-149.000000
 20
11.500000
 40
1.650000
  0
CIRCLE
  8
0
  6
CONTINUOUS
 62
2
 10
-149.000000
 20
11.500000
 40
2.000000
  0
CIRCLE
  8
0
  6
CONTINUOUS
 62
7
 10
-149.000000
 20
32.500000
 40
1.650000
  0
CIRCLE
  8
0
  6
CONTINUOUS
 62
7
 10
-117.000000
 20
11.500000
 40
1.650000
  0
CIRCLE
  8
0
  6
CONTINUOUS
 62
2
 10
-117.000000
 20
11.500000
 40
2.000000
  0
CIRCLE
  8
0
  6
CONTINUOUS
 62
7
 10
-117.000000
 20
32.500000
 40
1.650000
  0
CIRCLE
  8
0
  6
CONTINUOUS
 62
2
 10
-117.000000
 20
32.500000
 40
2.000000
  0
CIRCLE
  8
0
  6
CONTINUOUS
 62
7
 10
-110.500000
 20
25.500000
 40
5.900000
  0
CIRCLE
  8
0
  6
CONTINUOUS
 62
7
 10
-155.500000
 20
25.500000
 40
5.900000
  0
CIRCLE
  8
0
  6
CONTINUOUS
 62
2
 10
112.000000
 20
32.500000
 40
2.000000
  0
CIRCLE
  8
0
  6
CONTINUOUS
 62
7
 10
112.000000
 20
11.500000
 40
1.650000
  0
CIRCLE
  8
0
  6
CONTINUOUS
 62
2
 10
112.000000
 20
11.500000
 40
2.000000
  0
CIRCLE
  8
0
  6
CONTINUOUS
 62
7
 10
112.000000
 20
32.500000
 40
1.650000
  0
CIRCLE
  8
0
  6
CONTINUOUS
 62
7
 10
174.000000
 20
11.500000
 40
1.650000
  0
CIRCLE
  8
0
  6
CONTINUOUS
 62
2
 10
174.000000
 20
11.500000
 40
2.000000
  0
CIRCLE
  8
0
  6
CONTINUOUS
 62
7
 10
174.000000
 20
32.500000
 40
1.650000
  0
CIRCLE
  8
0
  6
CONTINUOUS
 62
2
 10
174.000000
 20
32.500000
 40
2.000000
  0
CIRCLE
  8
0
  6
CONTINUOUS
 62
7
 10
180.500000
 20
25.500000
 40
5.900000
  0
CIRCLE
  8
0
  6
CONTINUOUS
 62
7
 10
105.500000
 20
25.500000
 40
5.900000
  0
TEXT
  8
0
 62
7
 10
202.930283
 20
183.925003
 40
6.300000
  1
Ver.1.0
 50
0.000000
 41
1.010330
 51
0.000000
  7
STANDARD
  0
TEXT
  8
0
 62
7
 10
172.714691
 20
-187.250000
 40
9.000000
  1
KOGANEI CORP.
 50
0.000000
 41
0.771524
 51
0.000000
  7
STANDARD
  0
TEXT
  8
0
 62
7
 10
-243.569717
 20
183.925003
 40
6.300000
  1
AP TABLE
 50
0.000000
 41
0.775607
 51
0.000000
  7
STANDARD
  0
TEXT
  8
0
 62
7
 10
12.274609
 20
158.925003
 40
6.300000
  1
MODEL:APT-SD10-20-TP
 50
0.000000
 41
0.792551
 51
0.000000
  7
STANDARD
  0
TEXT
  8
0
 62
7
 10
12.274609
 20
-16.325001
 40
6.300000
  1
MODEL:APT-GT10-20-TP
 50
0.000000
 41
0.792551
 51
0.000000
  7
STANDARD
  0
TEXT
  8
0
 62
7
 10
-269.400391
 20
158.925003
 40
6.300000
  1
MODEL:APT-SD10-10-TP
 50
0.000000
 41
0.807793
 51
0.000000
  7
STANDARD
  0
TEXT
  8
0
 62
7
 10
-269.400391
 20
-16.325001
 40
6.300000
  1
MODEL:APT-GT10-10-TP
 50
0.000000
 41
0.807793
 51
0.000000
  7
STANDARD
  0
ENDSEC
  0
EOF
