  0
SECTION
  2
HEADER
  0
ENDSEC
  0
SECTION
  2
TABLES
  0
TABLE
  2
LTYPE
 70
     4
  0
LTYPE
  2
CONTINUOUS
 70
    64
  3
Solid line
 72
    65
 73
     0
 40
0.000000
  0
LTYPE
  2
DASHED
 70
    64
  3
__ __ __ __ __ __ __ __ __ __ __ __ __ __ __
 72
    65
 73
     2
 40
3.500000
 49
2.000000
 49
-1.500000
  0
LTYPE
  2
CENTER
 70
    64
  3
____ _ ____ _ ____ _ ____ _ ____ _ ____ _ ____
 72
    65
 73
     4
 40
17.500000
 49
13.000000
 49
-1.500000
 49
1.500000
 49
-1.500000
  0
LTYPE
  2
PHANTOM
 70
    64
  3
_____ _ _ _____ _ _ _____ _ _ _____ _ _ ____  
 72
    65
 73
     6
 40
15.500000
 49
8.000000
 49
-1.500000
 49
1.500000
 49
-1.500000
 49
1.500000
 49
-1.500000
  0
ENDTAB
  0
TABLE
  2
LAYER
 70
     1
  0
LAYER
  2
0
 70
     0
 62
     7
  6
CONTINUOUS
  0
ENDTAB
  0
TABLE
  2
STYLE
 70
     1
  0
STYLE
  2
STANDARD
 70
     0
 40
0.000000
 41
1.000000
 50
0.000000
 71
     0
 42
0.200000
  3
txt
  4
BIGFONT
  0
ENDTAB
  0
TABLE
  2
VIEW
 70
     0
  0
ENDTAB
  0
ENDSEC
  0
SECTION
  2
BLOCKS
  0
ENDSEC
  0
SECTION
  2
ENTITIES
  0
LINE
  8
0
  6
CONTINUOUS
 62
7
 10
-281.250000
 20
195.500000
 11
282.100006
 21
195.500000
  0
LINE
  8
0
  6
CONTINUOUS
 62
7
 10
-281.250000
 20
195.500000
 11
-281.250000
 21
-195.000000
  0
LINE
  8
0
  6
CONTINUOUS
 62
7
 10
282.100006
 20
195.500000
 11
282.100006
 21
-195.000000
  0
LINE
  8
0
  6
CONTINUOUS
 62
7
 10
-281.250000
 20
-195.000000
 11
282.100006
 21
-195.000000
  0
LINE
  8
0
  6
CONTINUOUS
 62
7
 10
162.100006
 20
-175.000000
 11
162.100006
 21
-195.000000
  0
LINE
  8
0
  6
CONTINUOUS
 62
7
 10
162.100006
 20
-175.000000
 11
282.100006
 21
-175.000000
  0
LINE
  8
0
  6
CONTINUOUS
 62
7
 10
162.100006
 20
175.500000
 11
282.100006
 21
175.500000
  0
LINE
  8
0
  6
CONTINUOUS
 62
7
 10
-281.250000
 20
175.500000
 11
-161.250000
 21
175.500000
  0
LINE
  8
0
  6
CONTINUOUS
 62
7
 10
162.100006
 20
195.500000
 11
162.100006
 21
175.500000
  0
LINE
  8
0
  6
CONTINUOUS
 62
7
 10
-161.250000
 20
195.500000
 11
-161.250000
 21
175.500000
  0
LINE
  8
0
  6
CONTINUOUS
 62
7
 10
123.500000
 20
-46.500000
 11
123.500000
 21
-37.000000
  0
LINE
  8
0
  6
CONTINUOUS
 62
7
 10
130.000000
 20
-47.000000
 11
166.000000
 21
-47.000000
  0
LINE
  8
0
  6
CONTINUOUS
 62
7
 10
130.000000
 20
-47.000000
 11
130.000000
 21
-37.000000
  0
LINE
  8
0
  6
CONTINUOUS
 62
7
 10
123.500000
 20
-46.500000
 11
130.000000
 21
-46.500000
  0
LINE
  8
0
  6
CONTINUOUS
 62
7
 10
172.500000
 20
-46.500000
 11
172.500000
 21
-37.000000
  0
LINE
  8
0
  6
CONTINUOUS
 62
7
 10
166.000000
 20
-47.000000
 11
166.000000
 21
-37.000000
  0
LINE
  8
0
  6
CONTINUOUS
 62
7
 10
172.500000
 20
-46.500000
 11
166.000000
 21
-46.500000
  0
LINE
  8
0
  6
CONTINUOUS
 62
7
 10
93.000000
 20
-42.500000
 11
123.500000
 21
-42.500000
  0
LINE
  8
0
  6
CONTINUOUS
 62
7
 10
172.500000
 20
-42.500000
 11
183.000000
 21
-42.500000
  0
LINE
  8
0
  6
CONTINUOUS
 62
7
 10
93.000000
 20
-27.000000
 11
93.000000
 21
-42.500000
  0
LINE
  8
0
  6
CONTINUOUS
 62
7
 10
183.000000
 20
-27.000000
 11
183.000000
 21
-42.500000
  0
LINE
  8
0
  6
CONTINUOUS
 62
7
 10
93.000000
 20
-27.000000
 11
183.000000
 21
-27.000000
  0
LINE
  8
0
  6
CONTINUOUS
 62
7
 10
166.000000
 20
-83.500000
 11
130.000000
 21
-83.500000
  0
LINE
  8
0
  6
CONTINUOUS
 62
7
 10
130.000000
 20
-56.500000
 11
130.000000
 21
-83.500000
  0
LINE
  8
0
  6
CONTINUOUS
 62
7
 10
166.000000
 20
-83.500000
 11
130.000000
 21
-83.500000
  0
LINE
  8
0
  6
CONTINUOUS
 62
7
 10
166.000000
 20
-56.500000
 11
166.000000
 21
-83.500000
  0
LINE
  8
0
  6
CONTINUOUS
 62
7
 10
93.000000
 20
-64.000000
 11
123.500000
 21
-64.000000
  0
LINE
  8
0
  6
CONTINUOUS
 62
7
 10
172.500000
 20
-64.000000
 11
183.000000
 21
-64.000000
  0
LINE
  8
0
  6
CONTINUOUS
 62
7
 10
93.000000
 20
-76.000000
 11
123.500000
 21
-76.000000
  0
LINE
  8
0
  6
CONTINUOUS
 62
7
 10
172.500000
 20
-76.000000
 11
183.000000
 21
-76.000000
  0
LINE
  8
0
  6
CONTINUOUS
 62
7
 10
166.000000
 20
-77.000000
 11
130.000000
 21
-77.000000
  0
LINE
  8
0
  6
CONTINUOUS
 62
7
 10
166.000000
 20
-63.000000
 11
130.000000
 21
-63.000000
  0
LINE
  8
0
  6
CONTINUOUS
 62
7
 10
172.500000
 20
-56.700001
 11
166.000000
 21
-56.700001
  0
LINE
  8
0
  6
CONTINUOUS
 62
7
 10
172.500000
 20
-83.300003
 11
172.500000
 21
-56.700001
  0
LINE
  8
0
  6
CONTINUOUS
 62
7
 10
172.500000
 20
-83.300003
 11
166.000000
 21
-83.300003
  0
LINE
  8
0
  6
CONTINUOUS
 62
7
 10
183.000000
 20
-84.000000
 11
156.000000
 21
-84.000000
  0
LINE
  8
0
  6
CONTINUOUS
 62
7
 10
183.000000
 20
-56.000000
 11
93.000000
 21
-56.000000
  0
LINE
  8
0
  6
CONTINUOUS
 62
7
 10
93.000000
 20
-56.000000
 11
93.000000
 21
-84.000000
  0
LINE
  8
0
  6
CONTINUOUS
 62
7
 10
183.000000
 20
-56.000000
 11
183.000000
 21
-84.000000
  0
LINE
  8
0
  6
CONTINUOUS
 62
7
 10
172.199997
 20
-32.500000
 11
165.598007
 21
-32.500000
  0
LINE
  8
0
  6
CONTINUOUS
 62
7
 10
93.000000
 20
-36.500000
 11
101.653000
 21
-36.500000
  0
LINE
  8
0
  6
CONTINUOUS
 62
7
 10
110.402000
 20
-32.500000
 11
103.800003
 21
-32.500000
  0
LINE
  8
0
  6
CONTINUOUS
 62
7
 10
123.500000
 20
-37.000000
 11
172.500000
 21
-37.000000
  0
LINE
  8
0
  6
CONTINUOUS
 62
7
 10
123.500000
 20
-104.500000
 11
123.500000
 21
-114.000000
  0
LINE
  8
0
  6
CONTINUOUS
 62
7
 10
130.000000
 20
-104.000000
 11
166.000000
 21
-104.000000
  0
LINE
  8
0
  6
CONTINUOUS
 62
7
 10
130.000000
 20
-104.000000
 11
130.000000
 21
-114.000000
  0
LINE
  8
0
  6
CONTINUOUS
 62
7
 10
123.500000
 20
-104.500000
 11
130.000000
 21
-104.500000
  0
LINE
  8
0
  6
CONTINUOUS
 62
7
 10
172.500000
 20
-104.500000
 11
172.500000
 21
-106.500000
  0
LINE
  8
0
  6
CONTINUOUS
 62
7
 10
166.000000
 20
-104.000000
 11
166.000000
 21
-104.500000
  0
LINE
  8
0
  6
CONTINUOUS
 62
7
 10
93.000000
 20
-108.500000
 11
98.000000
 21
-108.500000
  0
LINE
  8
0
  6
CONTINUOUS
 62
7
 10
178.000000
 20
-108.500000
 11
183.000000
 21
-108.500000
  0
LINE
  8
0
  6
CONTINUOUS
 62
7
 10
93.000000
 20
-124.000000
 11
93.000000
 21
-108.500000
  0
LINE
  8
0
  6
CONTINUOUS
 62
7
 10
183.000000
 20
-124.000000
 11
183.000000
 21
-108.500000
  0
LINE
  8
0
  6
CONTINUOUS
 62
7
 10
93.000000
 20
-124.000000
 11
183.000000
 21
-124.000000
  0
LINE
  8
0
  6
CONTINUOUS
 62
7
 10
172.199997
 20
-118.500000
 11
167.000000
 21
-118.500000
  0
LINE
  8
0
  6
CONTINUOUS
 62
7
 10
93.000000
 20
-114.500000
 11
101.653000
 21
-114.500000
  0
LINE
  8
0
  6
CONTINUOUS
 62
7
 10
109.000000
 20
-118.500000
 11
103.800003
 21
-118.500000
  0
LINE
  8
0
  6
CONTINUOUS
 62
7
 10
160.000000
 20
-31.000000
 11
116.000000
 21
-31.000000
  0
LINE
  8
0
  6
CONTINUOUS
 62
7
 10
123.500000
 20
-83.300003
 11
123.500000
 21
-56.700001
  0
LINE
  8
0
  6
CONTINUOUS
 62
7
 10
123.500000
 20
-83.300003
 11
130.000000
 21
-83.300003
  0
LINE
  8
0
  6
CONTINUOUS
 62
7
 10
123.500000
 20
-56.700001
 11
130.000000
 21
-56.700001
  0
LINE
  8
0
  6
CONTINUOUS
 62
7
 10
174.347000
 20
-114.500000
 11
183.000000
 21
-114.500000
  0
LINE
  8
0
  6
CONTINUOUS
 62
7
 10
174.347000
 20
-36.500000
 11
183.000000
 21
-36.500000
  0
LINE
  8
0
  6
CENTER
 62
2
 10
107.000000
 20
-54.500000
 11
107.000000
 21
-64.500000
  0
LINE
  8
0
  6
CENTER
 62
2
 10
102.000000
 20
-59.500000
 11
112.000000
 21
-59.500000
  0
LINE
  8
0
  6
CENTER
 62
2
 10
107.000000
 20
-75.500000
 11
107.000000
 21
-85.500000
  0
LINE
  8
0
  6
CENTER
 62
2
 10
102.000000
 20
-80.500000
 11
112.000000
 21
-80.500000
  0
LINE
  8
0
  6
CENTER
 62
2
 10
133.000000
 20
-56.500000
 11
133.000000
 21
-63.500000
  0
LINE
  8
0
  6
CENTER
 62
2
 10
129.500000
 20
-60.000000
 11
136.500000
 21
-60.000000
  0
LINE
  8
0
  6
CENTER
 62
2
 10
148.000000
 20
-56.500000
 11
148.000000
 21
-63.500000
  0
LINE
  8
0
  6
CENTER
 62
2
 10
144.500000
 20
-60.000000
 11
151.500000
 21
-60.000000
  0
LINE
  8
0
  6
CENTER
 62
2
 10
163.000000
 20
-56.500000
 11
163.000000
 21
-63.500000
  0
LINE
  8
0
  6
CENTER
 62
2
 10
159.500000
 20
-60.000000
 11
166.500000
 21
-60.000000
  0
LINE
  8
0
  6
CENTER
 62
2
 10
169.000000
 20
-54.500000
 11
169.000000
 21
-64.500000
  0
LINE
  8
0
  6
CENTER
 62
2
 10
164.000000
 20
-59.500000
 11
174.000000
 21
-59.500000
  0
LINE
  8
0
  6
CENTER
 62
2
 10
169.000000
 20
-75.500000
 11
169.000000
 21
-85.500000
  0
LINE
  8
0
  6
CENTER
 62
2
 10
164.000000
 20
-80.500000
 11
174.000000
 21
-80.500000
  0
LINE
  8
0
  6
CENTER
 62
2
 10
163.000000
 20
-76.500000
 11
163.000000
 21
-83.500000
  0
LINE
  8
0
  6
CENTER
 62
2
 10
159.500000
 20
-80.000000
 11
166.500000
 21
-80.000000
  0
LINE
  8
0
  6
CENTER
 62
2
 10
91.000000
 20
-70.000000
 11
185.000000
 21
-70.000000
  0
LINE
  8
0
  6
CENTER
 62
2
 10
148.000000
 20
-76.500000
 11
148.000000
 21
-83.500000
  0
LINE
  8
0
  6
CENTER
 62
2
 10
144.500000
 20
-80.000000
 11
151.500000
 21
-80.000000
  0
LINE
  8
0
  6
CENTER
 62
2
 10
133.000000
 20
-76.500000
 11
133.000000
 21
-83.500000
  0
LINE
  8
0
  6
CENTER
 62
2
 10
129.500000
 20
-80.000000
 11
136.500000
 21
-80.000000
  0
LINE
  8
0
  6
CENTER
 62
2
 10
113.000000
 20
-34.500000
 11
113.000000
 21
-27.500000
  0
LINE
  8
0
  6
CENTER
 62
2
 10
109.500000
 20
-31.000000
 11
116.500000
 21
-31.000000
  0
LINE
  8
0
  6
CENTER
 62
2
 10
143.000000
 20
-46.000000
 11
143.000000
 21
-40.000000
  0
LINE
  8
0
  6
CENTER
 62
2
 10
140.000000
 20
-43.000000
 11
146.000000
 21
-43.000000
  0
LINE
  8
0
  6
CENTER
 62
2
 10
153.000000
 20
-46.000000
 11
153.000000
 21
-40.000000
  0
LINE
  8
0
  6
CENTER
 62
2
 10
150.000000
 20
-43.000000
 11
156.000000
 21
-43.000000
  0
LINE
  8
0
  6
CENTER
 62
2
 10
163.000000
 20
-34.500000
 11
163.000000
 21
-27.500000
  0
LINE
  8
0
  6
CENTER
 62
2
 10
159.500000
 20
-31.000000
 11
166.500000
 21
-31.000000
  0
LINE
  8
0
  6
DASHED
 62
2
 10
105.000000
 20
-32.000000
 11
105.000000
 21
-27.000000
  0
LINE
  8
0
  6
DASHED
 62
2
 10
105.349998
 20
-32.000000
 11
105.349998
 21
-27.000000
  0
LINE
  8
0
  6
DASHED
 62
2
 10
104.000000
 20
-32.000000
 11
110.000000
 21
-32.000000
  0
LINE
  8
0
  6
CENTER
 62
2
 10
107.000000
 20
-34.500000
 11
107.000000
 21
-25.000000
  0
LINE
  8
0
  6
DASHED
 62
2
 10
108.650002
 20
-32.000000
 11
108.650002
 21
-27.000000
  0
LINE
  8
0
  6
DASHED
 62
2
 10
109.000000
 20
-32.000000
 11
109.000000
 21
-27.000000
  0
LINE
  8
0
  6
DASHED
 62
2
 10
110.000000
 20
-32.500000
 11
110.000000
 21
-32.000000
  0
LINE
  8
0
  6
DASHED
 62
2
 10
104.000000
 20
-32.500000
 11
104.000000
 21
-32.000000
  0
LINE
  8
0
  6
DASHED
 62
2
 10
167.000000
 20
-32.000000
 11
167.000000
 21
-27.000000
  0
LINE
  8
0
  6
DASHED
 62
2
 10
167.350006
 20
-32.000000
 11
167.350006
 21
-27.000000
  0
LINE
  8
0
  6
DASHED
 62
2
 10
166.000000
 20
-32.000000
 11
172.000000
 21
-32.000000
  0
LINE
  8
0
  6
CENTER
 62
2
 10
169.000000
 20
-34.500000
 11
169.000000
 21
-25.000000
  0
LINE
  8
0
  6
DASHED
 62
2
 10
170.649994
 20
-32.000000
 11
170.649994
 21
-27.000000
  0
LINE
  8
0
  6
DASHED
 62
2
 10
171.000000
 20
-32.000000
 11
171.000000
 21
-27.000000
  0
LINE
  8
0
  6
DASHED
 62
2
 10
172.000000
 20
-32.500000
 11
172.000000
 21
-32.000000
  0
LINE
  8
0
  6
DASHED
 62
2
 10
166.000000
 20
-32.500000
 11
166.000000
 21
-32.000000
  0
LINE
  8
0
  6
DASHED
 62
2
 10
108.650002
 20
-119.000000
 11
108.650002
 21
-124.000000
  0
LINE
  8
0
  6
DASHED
 62
2
 10
110.000000
 20
-119.000000
 11
104.000000
 21
-119.000000
  0
LINE
  8
0
  6
CENTER
 62
2
 10
107.000000
 20
-116.500000
 11
107.000000
 21
-126.000000
  0
LINE
  8
0
  6
DASHED
 62
2
 10
105.349998
 20
-119.000000
 11
105.349998
 21
-124.000000
  0
LINE
  8
0
  6
DASHED
 62
2
 10
105.000000
 20
-119.000000
 11
105.000000
 21
-124.000000
  0
LINE
  8
0
  6
DASHED
 62
2
 10
104.000000
 20
-118.500000
 11
104.000000
 21
-119.000000
  0
LINE
  8
0
  6
DASHED
 62
2
 10
110.000000
 20
-118.500000
 11
110.000000
 21
-119.000000
  0
LINE
  8
0
  6
DASHED
 62
2
 10
171.000000
 20
-119.000000
 11
171.000000
 21
-124.000000
  0
LINE
  8
0
  6
DASHED
 62
2
 10
170.649994
 20
-119.000000
 11
170.649994
 21
-124.000000
  0
LINE
  8
0
  6
DASHED
 62
2
 10
172.000000
 20
-119.000000
 11
166.000000
 21
-119.000000
  0
LINE
  8
0
  6
CENTER
 62
2
 10
169.000000
 20
-116.500000
 11
169.000000
 21
-126.000000
  0
LINE
  8
0
  6
DASHED
 62
2
 10
167.350006
 20
-119.000000
 11
167.350006
 21
-124.000000
  0
LINE
  8
0
  6
DASHED
 62
2
 10
166.000000
 20
-118.500000
 11
166.000000
 21
-119.000000
  0
LINE
  8
0
  6
DASHED
 62
2
 10
172.000000
 20
-118.500000
 11
172.000000
 21
-119.000000
  0
LINE
  8
0
  6
CENTER
 62
2
 10
133.000000
 20
-49.000000
 11
133.000000
 21
-45.000000
  0
LINE
  8
0
  6
CENTER
 62
2
 10
148.000000
 20
-49.000000
 11
148.000000
 21
-45.000000
  0
LINE
  8
0
  6
CENTER
 62
2
 10
163.000000
 20
-49.000000
 11
163.000000
 21
-45.000000
  0
LINE
  8
0
  6
CENTER
 62
2
 10
133.000000
 20
-102.000000
 11
133.000000
 21
-106.000000
  0
LINE
  8
0
  6
CENTER
 62
2
 10
148.000000
 20
-102.000000
 11
148.000000
 21
-106.000000
  0
LINE
  8
0
  6
CENTER
 62
2
 10
163.000000
 20
-102.000000
 11
163.000000
 21
-106.000000
  0
LINE
  8
0
  6
CONTINUOUS
 62
7
 10
60.000000
 20
-108.500000
 11
72.000000
 21
-108.500000
  0
LINE
  8
0
  6
CONTINUOUS
 62
7
 10
60.000000
 20
-111.709000
 11
60.000000
 21
-114.500000
  0
LINE
  8
0
  6
CONTINUOUS
 62
7
 10
60.000000
 20
-108.500000
 11
60.000000
 21
-109.291000
  0
LINE
  8
0
  6
CONTINUOUS
 62
7
 10
52.500000
 20
-104.000000
 11
59.000000
 21
-104.000000
  0
LINE
  8
0
  6
CONTINUOUS
 62
7
 10
52.500000
 20
-114.000000
 11
60.000000
 21
-114.000000
  0
LINE
  8
0
  6
CONTINUOUS
 62
7
 10
59.299999
 20
-104.300003
 11
72.699997
 21
-104.300003
  0
LINE
  8
0
  6
CONTINUOUS
 62
7
 10
72.000000
 20
-111.709000
 11
72.000000
 21
-114.500000
  0
LINE
  8
0
  6
CONTINUOUS
 62
7
 10
72.000000
 20
-108.500000
 11
72.000000
 21
-109.291000
  0
LINE
  8
0
  6
CONTINUOUS
 62
7
 10
79.500000
 20
-104.000000
 11
73.000000
 21
-104.000000
  0
LINE
  8
0
  6
CONTINUOUS
 62
7
 10
79.500000
 20
-104.000000
 11
79.500000
 21
-114.000000
  0
LINE
  8
0
  6
CONTINUOUS
 62
7
 10
79.500000
 20
-114.000000
 11
72.000000
 21
-114.000000
  0
LINE
  8
0
  6
CONTINUOUS
 62
7
 10
52.500000
 20
-104.000000
 11
52.500000
 21
-114.000000
  0
LINE
  8
0
  6
CONTINUOUS
 62
7
 10
59.000000
 20
-104.000000
 11
59.299999
 21
-104.300003
  0
LINE
  8
0
  6
CONTINUOUS
 62
7
 10
73.000000
 20
-104.000000
 11
72.699997
 21
-104.300003
  0
LINE
  8
0
  6
CONTINUOUS
 62
7
 10
80.000000
 20
-114.500000
 11
72.000000
 21
-114.500000
  0
LINE
  8
0
  6
CONTINUOUS
 62
7
 10
80.000000
 20
-124.000000
 11
52.000000
 21
-124.000000
  0
LINE
  8
0
  6
CONTINUOUS
 62
7
 10
52.000000
 20
-114.500000
 11
60.000000
 21
-114.500000
  0
LINE
  8
0
  6
CONTINUOUS
 62
7
 10
52.000000
 20
-114.500000
 11
52.000000
 21
-124.000000
  0
LINE
  8
0
  6
CONTINUOUS
 62
7
 10
-145.000000
 20
-46.500000
 11
-145.000000
 21
-37.000000
  0
LINE
  8
0
  6
CONTINUOUS
 62
7
 10
-138.500000
 20
-47.000000
 11
-117.500000
 21
-47.000000
  0
LINE
  8
0
  6
CONTINUOUS
 62
7
 10
-138.500000
 20
-47.000000
 11
-138.500000
 21
-37.000000
  0
LINE
  8
0
  6
CONTINUOUS
 62
7
 10
-145.000000
 20
-46.500000
 11
-138.500000
 21
-46.500000
  0
LINE
  8
0
  6
CONTINUOUS
 62
7
 10
-111.000000
 20
-46.500000
 11
-111.000000
 21
-37.000000
  0
LINE
  8
0
  6
CONTINUOUS
 62
7
 10
-117.500000
 20
-47.000000
 11
-117.500000
 21
-37.000000
  0
LINE
  8
0
  6
CONTINUOUS
 62
7
 10
-111.000000
 20
-46.500000
 11
-117.500000
 21
-46.500000
  0
LINE
  8
0
  6
CONTINUOUS
 62
7
 10
-163.000000
 20
-42.500000
 11
-145.000000
 21
-42.500000
  0
LINE
  8
0
  6
CONTINUOUS
 62
7
 10
-111.000000
 20
-42.500000
 11
-103.000000
 21
-42.500000
  0
LINE
  8
0
  6
CONTINUOUS
 62
7
 10
-163.000000
 20
-27.000000
 11
-163.000000
 21
-42.500000
  0
LINE
  8
0
  6
CONTINUOUS
 62
7
 10
-103.000000
 20
-27.000000
 11
-103.000000
 21
-42.500000
  0
LINE
  8
0
  6
CONTINUOUS
 62
7
 10
-163.000000
 20
-27.000000
 11
-103.000000
 21
-27.000000
  0
LINE
  8
0
  6
CENTER
 62
2
 10
-100.702003
 20
-70.000000
 11
-166.587006
 21
-70.000000
  0
LINE
  8
0
  6
CONTINUOUS
 62
7
 10
-117.500000
 20
-56.500000
 11
-138.500000
 21
-56.500000
  0
LINE
  8
0
  6
CONTINUOUS
 62
7
 10
-138.500000
 20
-56.500000
 11
-138.500000
 21
-83.500000
  0
LINE
  8
0
  6
CONTINUOUS
 62
7
 10
-117.500000
 20
-83.500000
 11
-138.500000
 21
-83.500000
  0
LINE
  8
0
  6
CONTINUOUS
 62
7
 10
-117.500000
 20
-56.500000
 11
-117.500000
 21
-83.500000
  0
LINE
  8
0
  6
CONTINUOUS
 62
7
 10
-163.000000
 20
-64.000000
 11
-145.000000
 21
-64.000000
  0
LINE
  8
0
  6
CONTINUOUS
 62
7
 10
-111.000000
 20
-64.000000
 11
-103.000000
 21
-64.000000
  0
LINE
  8
0
  6
CONTINUOUS
 62
7
 10
-163.000000
 20
-76.000000
 11
-145.000000
 21
-76.000000
  0
LINE
  8
0
  6
CONTINUOUS
 62
7
 10
-111.000000
 20
-76.000000
 11
-103.000000
 21
-76.000000
  0
LINE
  8
0
  6
CONTINUOUS
 62
7
 10
-117.500000
 20
-77.000000
 11
-138.500000
 21
-77.000000
  0
LINE
  8
0
  6
CONTINUOUS
 62
7
 10
-117.500000
 20
-63.000000
 11
-138.500000
 21
-63.000000
  0
LINE
  8
0
  6
CONTINUOUS
 62
7
 10
-111.000000
 20
-56.700001
 11
-117.500000
 21
-56.700001
  0
LINE
  8
0
  6
CONTINUOUS
 62
7
 10
-111.000000
 20
-83.300003
 11
-111.000000
 21
-56.700001
  0
LINE
  8
0
  6
CONTINUOUS
 62
7
 10
-111.000000
 20
-83.300003
 11
-117.500000
 21
-83.300003
  0
LINE
  8
0
  6
CONTINUOUS
 62
7
 10
-103.000000
 20
-56.000000
 11
-163.000000
 21
-56.000000
  0
LINE
  8
0
  6
CONTINUOUS
 62
7
 10
-163.000000
 20
-56.000000
 11
-163.000000
 21
-84.000000
  0
LINE
  8
0
  6
CONTINUOUS
 62
7
 10
-103.000000
 20
-56.000000
 11
-103.000000
 21
-84.000000
  0
LINE
  8
0
  6
CENTER
 62
2
 10
-149.000000
 20
-75.464699
 11
-149.000000
 21
-85.000000
  0
LINE
  8
0
  6
CENTER
 62
2
 10
-149.000000
 20
-64.500000
 11
-149.000000
 21
-55.500000
  0
LINE
  8
0
  6
CENTER
 62
2
 10
-135.500000
 20
-63.500000
 11
-135.500000
 21
-56.500000
  0
LINE
  8
0
  6
CENTER
 62
2
 10
-152.500000
 20
-59.500000
 11
-144.582993
 21
-59.500000
  0
LINE
  8
0
  6
CENTER
 62
2
 10
-135.500000
 20
-76.500000
 11
-135.500000
 21
-83.500000
  0
LINE
  8
0
  6
CENTER
 62
2
 10
-152.500000
 20
-80.500000
 11
-144.582993
 21
-80.500000
  0
LINE
  8
0
  6
CONTINUOUS
 62
7
 10
-113.800003
 20
-32.500000
 11
-120.402000
 21
-32.500000
  0
LINE
  8
0
  6
CONTINUOUS
 62
7
 10
-163.000000
 20
-36.500000
 11
-154.347000
 21
-36.500000
  0
LINE
  8
0
  6
CONTINUOUS
 62
7
 10
-145.598007
 20
-32.500000
 11
-152.199997
 21
-32.500000
  0
LINE
  8
0
  6
CONTINUOUS
 62
7
 10
-145.000000
 20
-37.000000
 11
-111.000000
 21
-37.000000
  0
LINE
  8
0
  6
CENTER
 62
2
 10
-117.000000
 20
-64.500000
 11
-117.000000
 21
-55.500000
  0
LINE
  8
0
  6
CENTER
 62
2
 10
-113.500000
 20
-59.500000
 11
-121.400002
 21
-59.500000
  0
LINE
  8
0
  6
CENTER
 62
2
 10
-120.500000
 20
-63.500000
 11
-120.500000
 21
-56.500000
  0
LINE
  8
0
  6
CENTER
 62
2
 10
-113.500000
 20
-80.500000
 11
-120.822998
 21
-80.500000
  0
LINE
  8
0
  6
CENTER
 62
2
 10
-120.500000
 20
-76.500000
 11
-120.500000
 21
-83.500000
  0
LINE
  8
0
  6
CENTER
 62
2
 10
-117.000000
 20
-75.464699
 11
-117.000000
 21
-85.000000
  0
LINE
  8
0
  6
CENTER
 62
2
 10
-138.500000
 20
-80.000000
 11
-132.000000
 21
-80.000000
  0
LINE
  8
0
  6
CENTER
 62
2
 10
-138.500000
 20
-60.000000
 11
-132.000000
 21
-60.000000
  0
LINE
  8
0
  6
CENTER
 62
2
 10
-117.500000
 20
-60.000000
 11
-124.000000
 21
-60.000000
  0
LINE
  8
0
  6
CENTER
 62
2
 10
-117.500000
 20
-80.000000
 11
-124.000000
 21
-80.000000
  0
LINE
  8
0
  6
CONTINUOUS
 62
7
 10
-126.000000
 20
-31.000000
 11
-140.000000
 21
-31.000000
  0
LINE
  8
0
  6
CONTINUOUS
 62
7
 10
-145.000000
 20
-83.300003
 11
-145.000000
 21
-56.700001
  0
LINE
  8
0
  6
CONTINUOUS
 62
7
 10
-145.000000
 20
-56.700001
 11
-138.500000
 21
-56.700001
  0
LINE
  8
0
  6
CONTINUOUS
 62
7
 10
-145.000000
 20
-83.300003
 11
-138.500000
 21
-83.300003
  0
LINE
  8
0
  6
CONTINUOUS
 62
7
 10
-111.653000
 20
-36.500000
 11
-103.000000
 21
-36.500000
  0
LINE
  8
0
  6
CENTER
 62
2
 10
-143.000000
 20
-34.500000
 11
-143.000000
 21
-27.500000
  0
LINE
  8
0
  6
CENTER
 62
2
 10
-146.500000
 20
-31.000000
 11
-139.500000
 21
-31.000000
  0
LINE
  8
0
  6
CENTER
 62
2
 10
-123.000000
 20
-34.500000
 11
-123.000000
 21
-27.500000
  0
LINE
  8
0
  6
CENTER
 62
2
 10
-126.500000
 20
-31.000000
 11
-119.500000
 21
-31.000000
  0
LINE
  8
0
  6
CENTER
 62
2
 10
-133.000000
 20
-46.000000
 11
-133.000000
 21
-40.000000
  0
LINE
  8
0
  6
CENTER
 62
2
 10
-136.000000
 20
-43.000000
 11
-130.000000
 21
-43.000000
  0
LINE
  8
0
  6
CENTER
 62
2
 10
-123.000000
 20
-46.000000
 11
-123.000000
 21
-40.000000
  0
LINE
  8
0
  6
CENTER
 62
2
 10
-126.000000
 20
-43.000000
 11
-120.000000
 21
-43.000000
  0
LINE
  8
0
  6
CENTER
 62
2
 10
57.000000
 20
-116.500000
 11
57.000000
 21
-123.500000
  0
LINE
  8
0
  6
CENTER
 62
2
 10
53.500000
 20
-120.000000
 11
60.500000
 21
-120.000000
  0
LINE
  8
0
  6
CENTER
 62
2
 10
66.000000
 20
-102.000000
 11
66.000000
 21
-126.000000
  0
LINE
  8
0
  6
CENTER
 62
2
 10
58.599998
 20
-117.000000
 11
73.400002
 21
-117.000000
  0
LINE
  8
0
  6
DASHED
 62
2
 10
-120.000000
 20
-32.000000
 11
-114.000000
 21
-32.000000
  0
LINE
  8
0
  6
CENTER
 62
2
 10
-117.000000
 20
-34.500000
 11
-117.000000
 21
-25.000000
  0
LINE
  8
0
  6
DASHED
 62
2
 10
-120.000000
 20
-32.500000
 11
-120.000000
 21
-32.000000
  0
LINE
  8
0
  6
DASHED
 62
2
 10
-146.000000
 20
-32.500000
 11
-146.000000
 21
-32.000000
  0
LINE
  8
0
  6
DASHED
 62
2
 10
-119.000000
 20
-32.000000
 11
-119.000000
 21
-27.000000
  0
LINE
  8
0
  6
DASHED
 62
2
 10
-115.000000
 20
-32.000000
 11
-115.000000
 21
-27.000000
  0
LINE
  8
0
  6
DASHED
 62
2
 10
-115.349998
 20
-32.000000
 11
-115.349998
 21
-27.000000
  0
LINE
  8
0
  6
DASHED
 62
2
 10
-118.650002
 20
-32.000000
 11
-118.650002
 21
-27.000000
  0
LINE
  8
0
  6
DASHED
 62
2
 10
-152.000000
 20
-32.000000
 11
-146.000000
 21
-32.000000
  0
LINE
  8
0
  6
CENTER
 62
2
 10
-149.000000
 20
-34.500000
 11
-149.000000
 21
-25.000000
  0
LINE
  8
0
  6
DASHED
 62
2
 10
-152.000000
 20
-32.500000
 11
-152.000000
 21
-32.000000
  0
LINE
  8
0
  6
DASHED
 62
2
 10
-151.000000
 20
-32.000000
 11
-151.000000
 21
-27.000000
  0
LINE
  8
0
  6
DASHED
 62
2
 10
-147.000000
 20
-32.000000
 11
-147.000000
 21
-27.000000
  0
LINE
  8
0
  6
DASHED
 62
2
 10
-147.350006
 20
-32.000000
 11
-147.350006
 21
-27.000000
  0
LINE
  8
0
  6
DASHED
 62
2
 10
-150.649994
 20
-32.000000
 11
-150.649994
 21
-27.000000
  0
LINE
  8
0
  6
DASHED
 62
2
 10
-152.000000
 20
-119.000000
 11
-146.000000
 21
-119.000000
  0
LINE
  8
0
  6
CENTER
 62
2
 10
-149.000000
 20
-116.500000
 11
-149.000000
 21
-126.000000
  0
LINE
  8
0
  6
DASHED
 62
2
 10
-151.000000
 20
-119.000000
 11
-151.000000
 21
-124.000000
  0
LINE
  8
0
  6
DASHED
 62
2
 10
-147.000000
 20
-119.000000
 11
-147.000000
 21
-124.000000
  0
LINE
  8
0
  6
DASHED
 62
2
 10
-147.350006
 20
-119.000000
 11
-147.350006
 21
-124.000000
  0
LINE
  8
0
  6
DASHED
 62
2
 10
-150.649994
 20
-119.000000
 11
-150.649994
 21
-124.000000
  0
LINE
  8
0
  6
DASHED
 62
2
 10
-120.000000
 20
-119.000000
 11
-114.000000
 21
-119.000000
  0
LINE
  8
0
  6
CENTER
 62
2
 10
-117.000000
 20
-116.500000
 11
-117.000000
 21
-126.000000
  0
LINE
  8
0
  6
DASHED
 62
2
 10
-119.000000
 20
-119.000000
 11
-119.000000
 21
-124.000000
  0
LINE
  8
0
  6
DASHED
 62
2
 10
-115.000000
 20
-119.000000
 11
-115.000000
 21
-124.000000
  0
LINE
  8
0
  6
DASHED
 62
2
 10
-115.349998
 20
-119.000000
 11
-115.349998
 21
-124.000000
  0
LINE
  8
0
  6
DASHED
 62
2
 10
-118.650002
 20
-119.000000
 11
-118.650002
 21
-124.000000
  0
LINE
  8
0
  6
DASHED
 62
2
 10
-120.000000
 20
-118.500000
 11
-120.000000
 21
-119.000000
  0
LINE
  8
0
  6
DASHED
 62
2
 10
-146.000000
 20
-118.500000
 11
-146.000000
 21
-119.000000
  0
LINE
  8
0
  6
DASHED
 62
2
 10
-114.000000
 20
-32.500000
 11
-114.000000
 21
-32.000000
  0
LINE
  8
0
  6
CENTER
 62
2
 10
-135.500000
 20
-49.000000
 11
-135.500000
 21
-45.000000
  0
LINE
  8
0
  6
CENTER
 62
2
 10
-120.500000
 20
-49.000000
 11
-120.500000
 21
-45.000000
  0
LINE
  8
0
  6
CENTER
 62
2
 10
56.000000
 20
-102.000000
 11
56.000000
 21
-106.000000
  0
LINE
  8
0
  6
CENTER
 62
2
 10
76.000000
 20
-102.000000
 11
76.000000
 21
-106.000000
  0
LINE
  8
0
  6
CONTINUOUS
 62
7
 10
-103.000000
 20
-171.000000
 11
-163.000000
 21
-171.000000
  0
LINE
  8
0
  6
CONTINUOUS
 62
7
 10
-163.000000
 20
-171.000000
 11
-163.000000
 21
-143.000000
  0
LINE
  8
0
  6
CONTINUOUS
 62
7
 10
-103.000000
 20
-143.000000
 11
-163.000000
 21
-143.000000
  0
LINE
  8
0
  6
CONTINUOUS
 62
7
 10
-103.000000
 20
-171.000000
 11
-103.000000
 21
-143.000000
  0
LINE
  8
0
  6
CENTER
 62
2
 10
-100.366997
 20
-157.000000
 11
-167.000000
 21
-157.000000
  0
LINE
  8
0
  6
CENTER
 62
2
 10
-155.500000
 20
-145.600006
 11
-155.500000
 21
-161.399994
  0
LINE
  8
0
  6
CENTER
 62
2
 10
-163.399994
 20
-153.500000
 11
-147.600006
 21
-153.500000
  0
LINE
  8
0
  6
CENTER
 62
2
 10
-149.000000
 20
-142.500000
 11
-149.000000
 21
-150.500000
  0
LINE
  8
0
  6
CENTER
 62
2
 10
-153.000000
 20
-146.500000
 11
-145.000000
 21
-146.500000
  0
LINE
  8
0
  6
CENTER
 62
2
 10
-117.000000
 20
-142.500000
 11
-117.000000
 21
-150.500000
  0
LINE
  8
0
  6
CENTER
 62
2
 10
-121.000000
 20
-146.500000
 11
-113.000000
 21
-146.500000
  0
LINE
  8
0
  6
CENTER
 62
2
 10
-110.500000
 20
-145.600006
 11
-110.500000
 21
-161.399994
  0
LINE
  8
0
  6
CENTER
 62
2
 10
-118.400002
 20
-153.500000
 11
-102.599998
 21
-153.500000
  0
LINE
  8
0
  6
CENTER
 62
2
 10
-117.000000
 20
-163.500000
 11
-117.000000
 21
-171.500000
  0
LINE
  8
0
  6
CENTER
 62
2
 10
-121.000000
 20
-167.500000
 11
-113.000000
 21
-167.500000
  0
LINE
  8
0
  6
CENTER
 62
2
 10
-149.000000
 20
-163.500000
 11
-149.000000
 21
-171.500000
  0
LINE
  8
0
  6
CENTER
 62
2
 10
-153.000000
 20
-167.500000
 11
-145.000000
 21
-167.500000
  0
LINE
  8
0
  6
CONTINUOUS
 62
7
 10
183.000000
 20
-171.000000
 11
93.000000
 21
-171.000000
  0
LINE
  8
0
  6
CONTINUOUS
 62
7
 10
93.000000
 20
-171.000000
 11
93.000000
 21
-143.000000
  0
LINE
  8
0
  6
CONTINUOUS
 62
7
 10
183.000000
 20
-143.000000
 11
93.000000
 21
-143.000000
  0
LINE
  8
0
  6
CONTINUOUS
 62
7
 10
183.000000
 20
-171.000000
 11
183.000000
 21
-143.000000
  0
LINE
  8
0
  6
CENTER
 62
2
 10
107.000000
 20
-142.500000
 11
107.000000
 21
-150.500000
  0
LINE
  8
0
  6
CENTER
 62
2
 10
103.000000
 20
-146.500000
 11
111.000000
 21
-146.500000
  0
LINE
  8
0
  6
CENTER
 62
2
 10
100.500000
 20
-145.600006
 11
100.500000
 21
-161.399994
  0
LINE
  8
0
  6
CENTER
 62
2
 10
92.599998
 20
-153.500000
 11
108.400002
 21
-153.500000
  0
LINE
  8
0
  6
CENTER
 62
2
 10
107.000000
 20
-163.500000
 11
107.000000
 21
-171.500000
  0
LINE
  8
0
  6
CENTER
 62
2
 10
103.000000
 20
-167.500000
 11
111.000000
 21
-167.500000
  0
LINE
  8
0
  6
CENTER
 62
2
 10
169.000000
 20
-163.500000
 11
169.000000
 21
-171.500000
  0
LINE
  8
0
  6
CENTER
 62
2
 10
165.000000
 20
-167.500000
 11
173.000000
 21
-167.500000
  0
LINE
  8
0
  6
CENTER
 62
2
 10
169.000000
 20
-142.500000
 11
169.000000
 21
-150.500000
  0
LINE
  8
0
  6
CENTER
 62
2
 10
165.000000
 20
-146.500000
 11
173.000000
 21
-146.500000
  0
LINE
  8
0
  6
CENTER
 62
2
 10
175.500000
 20
-145.600006
 11
175.500000
 21
-161.399994
  0
LINE
  8
0
  6
CENTER
 62
2
 10
167.600006
 20
-153.500000
 11
183.399994
 21
-153.500000
  0
LINE
  8
0
  6
CENTER
 62
2
 10
91.000000
 20
-157.000000
 11
185.000000
 21
-157.000000
  0
LINE
  8
0
  6
CENTER
 62
2
 10
76.500000
 20
-122.000000
 11
76.500000
 21
-126.000000
  0
LINE
  8
0
  6
CENTER
 62
2
 10
55.500000
 20
-122.000000
 11
55.500000
 21
-126.000000
  0
LINE
  8
0
  6
CENTER
 62
2
 10
120.693001
 20
-88.000000
 11
95.912201
 21
-88.000000
  0
LINE
  8
0
  6
CONTINUOUS
 62
7
 10
119.000000
 20
-104.500000
 11
109.000000
 21
-104.500000
  0
LINE
  8
0
  6
CONTINUOUS
 62
7
 10
154.000000
 20
-115.000000
 11
122.000000
 21
-115.000000
  0
LINE
  8
0
  6
CONTINUOUS
 62
7
 10
140.000000
 20
-104.500000
 11
156.000000
 21
-104.500000
  0
LINE
  8
0
  6
CONTINUOUS
 62
7
 10
98.000000
 20
-85.500000
 11
98.000000
 21
-90.500000
  0
LINE
  8
0
  6
CONTINUOUS
 62
7
 10
109.000000
 20
-123.500000
 11
167.000000
 21
-123.500000
  0
LINE
  8
0
  6
CONTINUOUS
 62
7
 10
178.000000
 20
-85.500000
 11
178.000000
 21
-90.500000
  0
LINE
  8
0
  6
CENTER
 62
2
 10
155.397003
 20
-109.000000
 11
178.587997
 21
-109.000000
  0
LINE
  8
0
  6
CONTINUOUS
 62
7
 10
156.000000
 20
-91.500000
 11
140.000000
 21
-91.500000
  0
LINE
  8
0
  6
CONTINUOUS
 62
7
 10
119.000000
 20
-46.500000
 11
109.000000
 21
-46.500000
  0
LINE
  8
0
  6
CONTINUOUS
 62
7
 10
140.000000
 20
-112.500000
 11
156.000000
 21
-112.500000
  0
LINE
  8
0
  6
CONTINUOUS
 62
7
 10
140.000000
 20
-112.500000
 11
140.000000
 21
-104.500000
  0
LINE
  8
0
  6
CONTINUOUS
 62
7
 10
156.000000
 20
-112.500000
 11
156.000000
 21
-104.500000
  0
LINE
  8
0
  6
CONTINUOUS
 62
7
 10
109.000000
 20
-123.500000
 11
109.000000
 21
-104.500000
  0
LINE
  8
0
  6
CONTINUOUS
 62
7
 10
167.000000
 20
-123.500000
 11
167.000000
 21
-104.500000
  0
LINE
  8
0
  6
CONTINUOUS
 62
7
 10
119.000000
 20
-112.000000
 11
119.000000
 21
-104.500000
  0
LINE
  8
0
  6
CONTINUOUS
 62
7
 10
157.000000
 20
-112.000000
 11
157.000000
 21
-104.500000
  0
LINE
  8
0
  6
CENTER
 62
2
 10
155.307007
 20
-88.000000
 11
180.087997
 21
-88.000000
  0
LINE
  8
0
  6
CONTINUOUS
 62
7
 10
167.000000
 20
-92.000000
 11
109.000000
 21
-92.000000
  0
LINE
  8
0
  6
CONTINUOUS
 62
7
 10
140.000000
 20
-83.500000
 11
140.000000
 21
-91.500000
  0
LINE
  8
0
  6
CONTINUOUS
 62
7
 10
156.000000
 20
-83.500000
 11
156.000000
 21
-91.500000
  0
LINE
  8
0
  6
CONTINUOUS
 62
7
 10
157.000000
 20
-84.000000
 11
157.000000
 21
-92.000000
  0
LINE
  8
0
  6
CONTINUOUS
 62
7
 10
119.000000
 20
-84.000000
 11
119.000000
 21
-92.000000
  0
LINE
  8
0
  6
CONTINUOUS
 62
7
 10
172.500000
 20
-104.500000
 11
157.000000
 21
-104.500000
  0
LINE
  8
0
  6
CONTINUOUS
 62
7
 10
109.000000
 20
-84.000000
 11
109.000000
 21
-92.000000
  0
LINE
  8
0
  6
CONTINUOUS
 62
7
 10
167.000000
 20
-84.000000
 11
167.000000
 21
-92.000000
  0
LINE
  8
0
  6
CONTINUOUS
 62
7
 10
119.000000
 20
-42.500000
 11
119.000000
 21
-46.500000
  0
LINE
  8
0
  6
CONTINUOUS
 62
7
 10
109.000000
 20
-42.500000
 11
109.000000
 21
-46.500000
  0
LINE
  8
0
  6
CONTINUOUS
 62
2
 10
105.000000
 20
-90.099998
 11
98.000000
 21
-90.099998
  0
LINE
  8
0
  6
CONTINUOUS
 62
7
 10
105.000000
 20
-90.500000
 11
98.000000
 21
-90.500000
  0
LINE
  8
0
  6
CONTINUOUS
 62
2
 10
105.000000
 20
-85.900002
 11
98.000000
 21
-85.900002
  0
LINE
  8
0
  6
CONTINUOUS
 62
7
 10
105.000000
 20
-85.500000
 11
98.000000
 21
-85.500000
  0
LINE
  8
0
  6
CONTINUOUS
 62
7
 10
171.000000
 20
-85.500000
 11
178.000000
 21
-85.500000
  0
LINE
  8
0
  6
CONTINUOUS
 62
2
 10
171.000000
 20
-85.900002
 11
178.000000
 21
-85.900002
  0
LINE
  8
0
  6
CONTINUOUS
 62
2
 10
171.000000
 20
-90.099998
 11
178.000000
 21
-90.099998
  0
LINE
  8
0
  6
CONTINUOUS
 62
7
 10
171.000000
 20
-90.500000
 11
178.000000
 21
-90.500000
  0
LINE
  8
0
  6
CONTINUOUS
 62
7
 10
105.000000
 20
-112.699997
 11
105.000000
 21
-105.300003
  0
LINE
  8
0
  6
CONTINUOUS
 62
7
 10
105.000000
 20
-112.699997
 11
109.000000
 21
-112.699997
  0
LINE
  8
0
  6
CONTINUOUS
 62
7
 10
105.000000
 20
-105.300003
 11
109.000000
 21
-105.300003
  0
LINE
  8
0
  6
CONTINUOUS
 62
7
 10
105.000000
 20
-111.021004
 11
109.000000
 21
-111.021004
  0
LINE
  8
0
  6
CONTINUOUS
 62
7
 10
109.000000
 20
-110.199997
 11
105.000000
 21
-110.199997
  0
LINE
  8
0
  6
CONTINUOUS
 62
7
 10
105.000000
 20
-107.800003
 11
109.000000
 21
-107.800003
  0
LINE
  8
0
  6
CONTINUOUS
 62
7
 10
109.000000
 20
-106.978996
 11
105.000000
 21
-106.978996
  0
LINE
  8
0
  6
CONTINUOUS
 62
7
 10
171.000000
 20
-112.699997
 11
171.000000
 21
-105.300003
  0
LINE
  8
0
  6
CONTINUOUS
 62
7
 10
171.000000
 20
-112.699997
 11
167.000000
 21
-112.699997
  0
LINE
  8
0
  6
CONTINUOUS
 62
7
 10
171.000000
 20
-111.021004
 11
167.000000
 21
-111.021004
  0
LINE
  8
0
  6
CONTINUOUS
 62
7
 10
167.000000
 20
-110.199997
 11
171.000000
 21
-110.199997
  0
LINE
  8
0
  6
CONTINUOUS
 62
7
 10
171.000000
 20
-107.800003
 11
167.000000
 21
-107.800003
  0
LINE
  8
0
  6
CONTINUOUS
 62
7
 10
167.000000
 20
-106.978996
 11
171.000000
 21
-106.978996
  0
LINE
  8
0
  6
CONTINUOUS
 62
7
 10
109.000000
 20
-84.500000
 11
105.000000
 21
-84.500000
  0
LINE
  8
0
  6
CONTINUOUS
 62
7
 10
109.000000
 20
-91.500000
 11
105.000000
 21
-91.500000
  0
LINE
  8
0
  6
CONTINUOUS
 62
7
 10
105.000000
 20
-84.500000
 11
105.000000
 21
-91.500000
  0
LINE
  8
0
  6
CONTINUOUS
 62
7
 10
105.000000
 20
-88.710800
 11
109.000000
 21
-88.710800
  0
LINE
  8
0
  6
CONTINUOUS
 62
7
 10
105.000000
 20
-87.289200
 11
109.000000
 21
-87.289200
  0
LINE
  8
0
  6
CONTINUOUS
 62
7
 10
105.000000
 20
-90.789200
 11
109.000000
 21
-90.789200
  0
LINE
  8
0
  6
CONTINUOUS
 62
7
 10
105.000000
 20
-85.210800
 11
109.000000
 21
-85.210800
  0
LINE
  8
0
  6
CONTINUOUS
 62
7
 10
171.000000
 20
-105.300003
 11
167.000000
 21
-105.300003
  0
LINE
  8
0
  6
CENTER
 62
2
 10
112.000000
 20
-139.000000
 11
95.912201
 21
-139.000000
  0
LINE
  8
0
  6
CONTINUOUS
 62
7
 10
98.000000
 20
-141.500000
 11
98.000000
 21
-136.500000
  0
LINE
  8
0
  6
CONTINUOUS
 62
2
 10
105.000000
 20
-136.899994
 11
98.000000
 21
-136.899994
  0
LINE
  8
0
  6
CONTINUOUS
 62
2
 10
105.000000
 20
-141.100006
 11
98.000000
 21
-141.100006
  0
LINE
  8
0
  6
CONTINUOUS
 62
7
 10
105.000000
 20
-141.500000
 11
98.000000
 21
-141.500000
  0
LINE
  8
0
  6
CONTINUOUS
 62
7
 10
105.000000
 20
-136.500000
 11
98.000000
 21
-136.500000
  0
LINE
  8
0
  6
CONTINUOUS
 62
2
 10
171.000000
 20
-141.100006
 11
178.000000
 21
-141.100006
  0
LINE
  8
0
  6
CONTINUOUS
 62
7
 10
171.000000
 20
-141.500000
 11
178.000000
 21
-141.500000
  0
LINE
  8
0
  6
CONTINUOUS
 62
7
 10
178.000000
 20
-141.500000
 11
178.000000
 21
-136.500000
  0
LINE
  8
0
  6
CONTINUOUS
 62
2
 10
171.000000
 20
-136.899994
 11
178.000000
 21
-136.899994
  0
LINE
  8
0
  6
CONTINUOUS
 62
7
 10
171.000000
 20
-136.500000
 11
178.000000
 21
-136.500000
  0
LINE
  8
0
  6
CONTINUOUS
 62
7
 10
167.000000
 20
-135.500000
 11
171.000000
 21
-135.500000
  0
LINE
  8
0
  6
CONTINUOUS
 62
7
 10
167.000000
 20
-142.500000
 11
171.000000
 21
-142.500000
  0
LINE
  8
0
  6
CONTINUOUS
 62
7
 10
171.000000
 20
-135.500000
 11
171.000000
 21
-142.500000
  0
LINE
  8
0
  6
CONTINUOUS
 62
7
 10
171.000000
 20
-139.710999
 11
167.000000
 21
-139.710999
  0
LINE
  8
0
  6
CONTINUOUS
 62
7
 10
171.000000
 20
-138.289001
 11
167.000000
 21
-138.289001
  0
LINE
  8
0
  6
CONTINUOUS
 62
7
 10
171.000000
 20
-136.210999
 11
167.000000
 21
-136.210999
  0
LINE
  8
0
  6
CENTER
 62
2
 10
164.000000
 20
-139.000000
 11
178.914001
 21
-139.000000
  0
LINE
  8
0
  6
CONTINUOUS
 62
7
 10
167.000000
 20
-135.000000
 11
109.000000
 21
-135.000000
  0
LINE
  8
0
  6
CONTINUOUS
 62
7
 10
109.000000
 20
-143.000000
 11
109.000000
 21
-135.000000
  0
LINE
  8
0
  6
CONTINUOUS
 62
7
 10
167.000000
 20
-143.000000
 11
167.000000
 21
-135.000000
  0
LINE
  8
0
  6
CONTINUOUS
 62
7
 10
109.000000
 20
-142.500000
 11
105.000000
 21
-142.500000
  0
LINE
  8
0
  6
CONTINUOUS
 62
7
 10
109.000000
 20
-135.500000
 11
105.000000
 21
-135.500000
  0
LINE
  8
0
  6
CONTINUOUS
 62
7
 10
105.000000
 20
-142.500000
 11
105.000000
 21
-135.500000
  0
LINE
  8
0
  6
CONTINUOUS
 62
7
 10
105.000000
 20
-138.289001
 11
109.000000
 21
-138.289001
  0
LINE
  8
0
  6
CONTINUOUS
 62
7
 10
105.000000
 20
-139.710999
 11
109.000000
 21
-139.710999
  0
LINE
  8
0
  6
CONTINUOUS
 62
7
 10
105.000000
 20
-136.210999
 11
109.000000
 21
-136.210999
  0
LINE
  8
0
  6
CONTINUOUS
 62
7
 10
105.000000
 20
-141.789001
 11
109.000000
 21
-141.789001
  0
LINE
  8
0
  6
CONTINUOUS
 62
7
 10
98.000000
 20
-106.500000
 11
98.000000
 21
-111.500000
  0
LINE
  8
0
  6
CONTINUOUS
 62
2
 10
105.000000
 20
-111.099998
 11
98.000000
 21
-111.099998
  0
LINE
  8
0
  6
CONTINUOUS
 62
7
 10
105.000000
 20
-111.500000
 11
98.000000
 21
-111.500000
  0
LINE
  8
0
  6
CONTINUOUS
 62
2
 10
105.000000
 20
-106.900002
 11
98.000000
 21
-106.900002
  0
LINE
  8
0
  6
CONTINUOUS
 62
7
 10
105.000000
 20
-106.500000
 11
98.000000
 21
-106.500000
  0
LINE
  8
0
  6
CONTINUOUS
 62
7
 10
171.000000
 20
-111.500000
 11
178.000000
 21
-111.500000
  0
LINE
  8
0
  6
CONTINUOUS
 62
2
 10
171.000000
 20
-111.099998
 11
178.000000
 21
-111.099998
  0
LINE
  8
0
  6
CONTINUOUS
 62
7
 10
178.000000
 20
-106.500000
 11
178.000000
 21
-111.500000
  0
LINE
  8
0
  6
CONTINUOUS
 62
2
 10
171.000000
 20
-106.900002
 11
178.000000
 21
-106.900002
  0
LINE
  8
0
  6
CONTINUOUS
 62
7
 10
171.000000
 20
-106.500000
 11
178.000000
 21
-106.500000
  0
LINE
  8
0
  6
CONTINUOUS
 62
7
 10
171.000000
 20
-84.500000
 11
171.000000
 21
-91.500000
  0
LINE
  8
0
  6
CONTINUOUS
 62
7
 10
171.000000
 20
-90.789200
 11
167.000000
 21
-90.789200
  0
LINE
  8
0
  6
CONTINUOUS
 62
7
 10
167.000000
 20
-91.500000
 11
171.000000
 21
-91.500000
  0
LINE
  8
0
  6
CONTINUOUS
 62
7
 10
171.000000
 20
-88.710800
 11
167.000000
 21
-88.710800
  0
LINE
  8
0
  6
CONTINUOUS
 62
7
 10
171.000000
 20
-87.289200
 11
167.000000
 21
-87.289200
  0
LINE
  8
0
  6
CONTINUOUS
 62
7
 10
171.000000
 20
-85.210800
 11
167.000000
 21
-85.210800
  0
LINE
  8
0
  6
CONTINUOUS
 62
7
 10
167.000000
 20
-84.500000
 11
171.000000
 21
-84.500000
  0
LINE
  8
0
  6
CONTINUOUS
 62
7
 10
98.000000
 20
-44.500000
 11
98.000000
 21
-42.500000
  0
LINE
  8
0
  6
CONTINUOUS
 62
7
 10
178.000000
 20
-44.500000
 11
178.000000
 21
-42.500000
  0
LINE
  8
0
  6
CONTINUOUS
 62
7
 10
172.500000
 20
-44.500000
 11
178.000000
 21
-44.500000
  0
LINE
  8
0
  6
CONTINUOUS
 62
7
 10
216.000000
 20
-108.500000
 11
204.000000
 21
-108.500000
  0
LINE
  8
0
  6
CONTINUOUS
 62
7
 10
216.000000
 20
-111.709000
 11
216.000000
 21
-114.500000
  0
LINE
  8
0
  6
CONTINUOUS
 62
7
 10
216.000000
 20
-108.500000
 11
216.000000
 21
-109.291000
  0
LINE
  8
0
  6
CONTINUOUS
 62
7
 10
223.500000
 20
-104.000000
 11
217.000000
 21
-104.000000
  0
LINE
  8
0
  6
CONTINUOUS
 62
7
 10
223.500000
 20
-114.000000
 11
216.000000
 21
-114.000000
  0
LINE
  8
0
  6
CONTINUOUS
 62
7
 10
216.699997
 20
-104.300003
 11
203.300003
 21
-104.300003
  0
LINE
  8
0
  6
CONTINUOUS
 62
7
 10
204.000000
 20
-111.709000
 11
204.000000
 21
-114.500000
  0
LINE
  8
0
  6
CONTINUOUS
 62
7
 10
204.000000
 20
-108.500000
 11
204.000000
 21
-109.291000
  0
LINE
  8
0
  6
CONTINUOUS
 62
7
 10
196.500000
 20
-104.000000
 11
203.000000
 21
-104.000000
  0
LINE
  8
0
  6
CONTINUOUS
 62
7
 10
196.500000
 20
-104.000000
 11
196.500000
 21
-114.000000
  0
LINE
  8
0
  6
CONTINUOUS
 62
7
 10
196.500000
 20
-114.000000
 11
204.000000
 21
-114.000000
  0
LINE
  8
0
  6
CONTINUOUS
 62
7
 10
223.500000
 20
-104.000000
 11
223.500000
 21
-114.000000
  0
LINE
  8
0
  6
CONTINUOUS
 62
7
 10
217.000000
 20
-104.000000
 11
216.699997
 21
-104.300003
  0
LINE
  8
0
  6
CONTINUOUS
 62
7
 10
203.000000
 20
-104.000000
 11
203.300003
 21
-104.300003
  0
LINE
  8
0
  6
CONTINUOUS
 62
7
 10
196.000000
 20
-114.500000
 11
204.000000
 21
-114.500000
  0
LINE
  8
0
  6
CONTINUOUS
 62
7
 10
196.000000
 20
-124.000000
 11
224.000000
 21
-124.000000
  0
LINE
  8
0
  6
CONTINUOUS
 62
7
 10
224.000000
 20
-114.500000
 11
216.000000
 21
-114.500000
  0
LINE
  8
0
  6
CONTINUOUS
 62
7
 10
224.000000
 20
-114.500000
 11
224.000000
 21
-124.000000
  0
LINE
  8
0
  6
CENTER
 62
2
 10
219.000000
 20
-116.500000
 11
219.000000
 21
-123.500000
  0
LINE
  8
0
  6
CENTER
 62
2
 10
222.500000
 20
-120.000000
 11
215.500000
 21
-120.000000
  0
LINE
  8
0
  6
CENTER
 62
2
 10
210.000000
 20
-102.000000
 11
210.000000
 21
-126.000000
  0
LINE
  8
0
  6
CENTER
 62
2
 10
217.399994
 20
-117.000000
 11
202.600006
 21
-117.000000
  0
LINE
  8
0
  6
CENTER
 62
2
 10
200.000000
 20
-102.000000
 11
200.000000
 21
-106.000000
  0
LINE
  8
0
  6
CENTER
 62
2
 10
220.000000
 20
-102.000000
 11
220.000000
 21
-106.000000
  0
LINE
  8
0
  6
CENTER
 62
2
 10
220.500000
 20
-122.000000
 11
220.500000
 21
-126.000000
  0
LINE
  8
0
  6
CENTER
 62
2
 10
199.500000
 20
-122.000000
 11
199.500000
 21
-126.000000
  0
LINE
  8
0
  6
CONTINUOUS
 62
7
 10
140.000000
 20
-84.000000
 11
93.000000
 21
-84.000000
  0
LINE
  8
0
  6
CONTINUOUS
 62
7
 10
-103.000000
 20
-84.000000
 11
-120.000000
 21
-84.000000
  0
LINE
  8
0
  6
CONTINUOUS
 62
7
 10
123.500000
 20
-114.000000
 11
156.235992
 21
-114.000000
  0
LINE
  8
0
  6
CONTINUOUS
 62
7
 10
120.000000
 20
-108.500000
 11
123.500000
 21
-108.500000
  0
LINE
  8
0
  6
CENTER
 62
2
 10
120.602997
 20
-109.000000
 11
97.412201
 21
-109.000000
  0
LINE
  8
0
  6
CENTER
 62
2
 10
-144.897003
 20
-109.000000
 11
-163.587997
 21
-109.000000
  0
LINE
  8
0
  6
CENTER
 62
2
 10
-120.602997
 20
-109.000000
 11
-103.412003
 21
-109.000000
  0
LINE
  8
0
  6
CONTINUOUS
 62
7
 10
-138.500000
 20
-104.000000
 11
-117.500000
 21
-104.000000
  0
LINE
  8
0
  6
CONTINUOUS
 62
7
 10
-103.000000
 20
-124.000000
 11
-103.000000
 21
-108.500000
  0
LINE
  8
0
  6
CONTINUOUS
 62
7
 10
-163.000000
 20
-124.000000
 11
-103.000000
 21
-124.000000
  0
LINE
  8
0
  6
CONTINUOUS
 62
7
 10
-163.000000
 20
-114.500000
 11
-154.347000
 21
-114.500000
  0
LINE
  8
0
  6
CONTINUOUS
 62
7
 10
-145.000000
 20
-114.000000
 11
-119.267998
 21
-114.000000
  0
LINE
  8
0
  6
CONTINUOUS
 62
7
 10
-163.000000
 20
-124.000000
 11
-163.000000
 21
-108.500000
  0
LINE
  8
0
  6
CONTINUOUS
 62
7
 10
-163.000000
 20
-114.500000
 11
-154.347000
 21
-114.500000
  0
LINE
  8
0
  6
CONTINUOUS
 62
7
 10
-111.653000
 20
-114.500000
 11
-103.000000
 21
-114.500000
  0
LINE
  8
0
  6
CONTINUOUS
 62
7
 10
-163.000000
 20
-108.500000
 11
-162.000000
 21
-108.500000
  0
LINE
  8
0
  6
CONTINUOUS
 62
7
 10
-104.000000
 20
-108.500000
 11
-103.000000
 21
-108.500000
  0
LINE
  8
0
  6
CONTINUOUS
 62
7
 10
-111.000000
 20
-114.000000
 11
-111.000000
 21
-112.699997
  0
LINE
  8
0
  6
CONTINUOUS
 62
7
 10
-145.000000
 20
-114.000000
 11
-145.000000
 21
-104.500000
  0
LINE
  8
0
  6
CONTINUOUS
 62
7
 10
-145.000000
 20
-104.500000
 11
-138.500000
 21
-104.500000
  0
LINE
  8
0
  6
CONTINUOUS
 62
7
 10
-138.500000
 20
-114.000000
 11
-138.500000
 21
-104.000000
  0
LINE
  8
0
  6
CONTINUOUS
 62
7
 10
-117.500000
 20
-104.500000
 11
-117.500000
 21
-104.000000
  0
LINE
  8
0
  6
CONTINUOUS
 62
7
 10
-119.000000
 20
-104.500000
 11
-111.000000
 21
-104.500000
  0
LINE
  8
0
  6
CONTINUOUS
 62
7
 10
-136.000000
 20
-112.500000
 11
-136.000000
 21
-104.500000
  0
LINE
  8
0
  6
CONTINUOUS
 62
7
 10
-120.000000
 20
-104.500000
 11
-136.000000
 21
-104.500000
  0
LINE
  8
0
  6
CONTINUOUS
 62
7
 10
-120.000000
 20
-112.500000
 11
-120.000000
 21
-104.500000
  0
LINE
  8
0
  6
CONTINUOUS
 62
7
 10
-151.500000
 20
-104.500000
 11
-147.000000
 21
-104.500000
  0
LINE
  8
0
  6
CONTINUOUS
 62
7
 10
-151.500000
 20
-123.500000
 11
-114.500000
 21
-123.500000
  0
LINE
  8
0
  6
CONTINUOUS
 62
7
 10
-119.000000
 20
-113.000000
 11
-119.000000
 21
-104.500000
  0
LINE
  8
0
  6
CONTINUOUS
 62
7
 10
-111.000000
 20
-105.300003
 11
-111.000000
 21
-104.500000
  0
LINE
  8
0
  6
CONTINUOUS
 62
7
 10
-114.500000
 20
-114.000000
 11
-111.000000
 21
-114.000000
  0
LINE
  8
0
  6
CONTINUOUS
 62
7
 10
-104.000000
 20
-111.500000
 11
-104.000000
 21
-106.500000
  0
LINE
  8
0
  6
CONTINUOUS
 62
7
 10
-147.000000
 20
-113.000000
 11
-147.000000
 21
-104.500000
  0
LINE
  8
0
  6
CONTINUOUS
 62
7
 10
-155.500000
 20
-112.699997
 11
-155.500000
 21
-105.300003
  0
LINE
  8
0
  6
CONTINUOUS
 62
7
 10
-151.500000
 20
-105.300003
 11
-155.500000
 21
-105.300003
  0
LINE
  8
0
  6
CONTINUOUS
 62
7
 10
-151.500000
 20
-112.699997
 11
-155.500000
 21
-112.699997
  0
LINE
  8
0
  6
CONTINUOUS
 62
7
 10
-151.500000
 20
-110.199997
 11
-155.500000
 21
-110.199997
  0
LINE
  8
0
  6
CONTINUOUS
 62
7
 10
-151.500000
 20
-111.431000
 11
-155.500000
 21
-111.431000
  0
LINE
  8
0
  6
CONTINUOUS
 62
7
 10
-151.500000
 20
-107.800003
 11
-155.500000
 21
-107.800003
  0
LINE
  8
0
  6
CONTINUOUS
 62
7
 10
-151.500000
 20
-106.569000
 11
-155.500000
 21
-106.569000
  0
LINE
  8
0
  6
CONTINUOUS
 62
7
 10
-162.000000
 20
-111.500000
 11
-155.500000
 21
-111.500000
  0
LINE
  8
0
  6
CONTINUOUS
 62
7
 10
-162.000000
 20
-106.500000
 11
-155.500000
 21
-106.500000
  0
LINE
  8
0
  6
CONTINUOUS
 62
2
 10
-162.000000
 20
-111.099998
 11
-155.500000
 21
-111.099998
  0
LINE
  8
0
  6
CONTINUOUS
 62
2
 10
-162.000000
 20
-106.900002
 11
-155.500000
 21
-106.900002
  0
LINE
  8
0
  6
CONTINUOUS
 62
7
 10
-162.000000
 20
-111.500000
 11
-162.000000
 21
-106.500000
  0
LINE
  8
0
  6
CONTINUOUS
 62
7
 10
-146.000000
 20
-108.500000
 11
-145.000000
 21
-108.500000
  0
LINE
  8
0
  6
CONTINUOUS
 62
7
 10
-114.500000
 20
-123.500000
 11
-114.500000
 21
-104.500000
  0
LINE
  8
0
  6
CONTINUOUS
 62
7
 10
-151.500000
 20
-123.500000
 11
-151.500000
 21
-104.500000
  0
LINE
  8
0
  6
CONTINUOUS
 62
7
 10
-121.000000
 20
-115.000000
 11
-145.000000
 21
-115.000000
  0
LINE
  8
0
  6
CONTINUOUS
 62
7
 10
-120.000000
 20
-112.500000
 11
-136.000000
 21
-112.500000
  0
LINE
  8
0
  6
CONTINUOUS
 62
7
 10
-110.500000
 20
-106.500000
 11
-104.000000
 21
-106.500000
  0
LINE
  8
0
  6
CONTINUOUS
 62
2
 10
-110.500000
 20
-106.900002
 11
-104.000000
 21
-106.900002
  0
LINE
  8
0
  6
CONTINUOUS
 62
2
 10
-110.500000
 20
-111.099998
 11
-104.000000
 21
-111.099998
  0
LINE
  8
0
  6
CONTINUOUS
 62
7
 10
-110.500000
 20
-111.500000
 11
-104.000000
 21
-111.500000
  0
LINE
  8
0
  6
CONTINUOUS
 62
7
 10
-114.500000
 20
-105.300003
 11
-110.500000
 21
-105.300003
  0
LINE
  8
0
  6
CONTINUOUS
 62
7
 10
-110.500000
 20
-105.300003
 11
-110.500000
 21
-112.699997
  0
LINE
  8
0
  6
CONTINUOUS
 62
7
 10
-114.500000
 20
-106.569000
 11
-110.500000
 21
-106.569000
  0
LINE
  8
0
  6
CONTINUOUS
 62
7
 10
-114.500000
 20
-107.800003
 11
-110.500000
 21
-107.800003
  0
LINE
  8
0
  6
CONTINUOUS
 62
7
 10
-114.500000
 20
-110.199997
 11
-110.500000
 21
-110.199997
  0
LINE
  8
0
  6
CONTINUOUS
 62
7
 10
-114.500000
 20
-111.431000
 11
-110.500000
 21
-111.431000
  0
LINE
  8
0
  6
CONTINUOUS
 62
7
 10
-114.500000
 20
-112.699997
 11
-110.500000
 21
-112.699997
  0
LINE
  8
0
  6
DASHED
 62
2
 10
-152.000000
 20
-118.500000
 11
-152.000000
 21
-119.000000
  0
LINE
  8
0
  6
DASHED
 62
2
 10
-114.000000
 20
-118.500000
 11
-114.000000
 21
-119.000000
  0
LINE
  8
0
  6
CONTINUOUS
 62
7
 10
-147.000000
 20
-46.500000
 11
-151.500000
 21
-46.500000
  0
LINE
  8
0
  6
CONTINUOUS
 62
7
 10
-147.000000
 20
-42.500000
 11
-147.000000
 21
-46.500000
  0
LINE
  8
0
  6
CONTINUOUS
 62
7
 10
-111.000000
 20
-44.431099
 11
-110.500000
 21
-44.431099
  0
LINE
  8
0
  6
CONTINUOUS
 62
7
 10
-151.500000
 20
-42.500000
 11
-151.500000
 21
-46.500000
  0
LINE
  8
0
  6
CONTINUOUS
 62
7
 10
-155.500000
 20
-45.700001
 11
-155.500000
 21
-42.500000
  0
LINE
  8
0
  6
CONTINUOUS
 62
7
 10
-151.500000
 20
-45.700001
 11
-155.500000
 21
-45.700001
  0
LINE
  8
0
  6
CONTINUOUS
 62
7
 10
-151.500000
 20
-43.200001
 11
-155.500000
 21
-43.200001
  0
LINE
  8
0
  6
CONTINUOUS
 62
7
 10
-151.500000
 20
-44.431099
 11
-155.500000
 21
-44.431099
  0
LINE
  8
0
  6
CONTINUOUS
 62
7
 10
-162.000000
 20
-44.500000
 11
-155.500000
 21
-44.500000
  0
LINE
  8
0
  6
CONTINUOUS
 62
2
 10
-162.000000
 20
-44.099998
 11
-155.500000
 21
-44.099998
  0
LINE
  8
0
  6
CONTINUOUS
 62
7
 10
-162.000000
 20
-44.500000
 11
-162.000000
 21
-42.500000
  0
LINE
  8
0
  6
CONTINUOUS
 62
7
 10
-104.000000
 20
-44.500000
 11
-110.500000
 21
-44.500000
  0
LINE
  8
0
  6
CONTINUOUS
 62
7
 10
-104.000000
 20
-42.500000
 11
-104.000000
 21
-44.500000
  0
LINE
  8
0
  6
CONTINUOUS
 62
2
 10
-104.000000
 20
-44.099998
 11
-110.500000
 21
-44.099998
  0
LINE
  8
0
  6
CONTINUOUS
 62
7
 10
-110.500000
 20
-42.500000
 11
-110.500000
 21
-45.700001
  0
LINE
  8
0
  6
CONTINUOUS
 62
7
 10
-111.000000
 20
-45.700001
 11
-110.500000
 21
-45.700001
  0
LINE
  8
0
  6
CONTINUOUS
 62
7
 10
-111.000000
 20
-43.200001
 11
-110.500000
 21
-43.200001
  0
LINE
  8
0
  6
CENTER
 62
2
 10
-149.000000
 20
-139.000000
 11
-164.087997
 21
-139.000000
  0
LINE
  8
0
  6
CENTER
 62
2
 10
-117.000000
 20
-139.000000
 11
-103.085999
 21
-139.000000
  0
LINE
  8
0
  6
CONTINUOUS
 62
7
 10
-114.500000
 20
-135.000000
 11
-151.500000
 21
-135.000000
  0
LINE
  8
0
  6
CONTINUOUS
 62
7
 10
-151.500000
 20
-143.000000
 11
-151.500000
 21
-135.000000
  0
LINE
  8
0
  6
CONTINUOUS
 62
7
 10
-114.500000
 20
-143.000000
 11
-114.500000
 21
-135.000000
  0
LINE
  8
0
  6
CONTINUOUS
 62
7
 10
-162.000000
 20
-141.500000
 11
-155.500000
 21
-141.500000
  0
LINE
  8
0
  6
CONTINUOUS
 62
7
 10
-162.000000
 20
-136.500000
 11
-155.500000
 21
-136.500000
  0
LINE
  8
0
  6
CONTINUOUS
 62
2
 10
-162.000000
 20
-141.100006
 11
-155.500000
 21
-141.100006
  0
LINE
  8
0
  6
CONTINUOUS
 62
2
 10
-162.000000
 20
-136.899994
 11
-155.500000
 21
-136.899994
  0
LINE
  8
0
  6
CONTINUOUS
 62
7
 10
-162.000000
 20
-141.500000
 11
-162.000000
 21
-136.500000
  0
LINE
  8
0
  6
CONTINUOUS
 62
7
 10
-104.000000
 20
-136.500000
 11
-110.500000
 21
-136.500000
  0
LINE
  8
0
  6
CONTINUOUS
 62
7
 10
-104.000000
 20
-141.500000
 11
-110.500000
 21
-141.500000
  0
LINE
  8
0
  6
CONTINUOUS
 62
2
 10
-104.000000
 20
-136.899994
 11
-110.500000
 21
-136.899994
  0
LINE
  8
0
  6
CONTINUOUS
 62
2
 10
-104.000000
 20
-141.100006
 11
-110.500000
 21
-141.100006
  0
LINE
  8
0
  6
CONTINUOUS
 62
7
 10
-104.000000
 20
-136.500000
 11
-104.000000
 21
-141.500000
  0
LINE
  8
0
  6
CONTINUOUS
 62
7
 10
-151.500000
 20
-135.500000
 11
-155.500000
 21
-135.500000
  0
LINE
  8
0
  6
CONTINUOUS
 62
7
 10
-155.500000
 20
-142.500000
 11
-155.500000
 21
-135.500000
  0
LINE
  8
0
  6
CONTINUOUS
 62
7
 10
-151.500000
 20
-142.500000
 11
-155.500000
 21
-142.500000
  0
LINE
  8
0
  6
CONTINUOUS
 62
7
 10
-151.500000
 20
-141.789001
 11
-155.500000
 21
-141.789001
  0
LINE
  8
0
  6
CONTINUOUS
 62
7
 10
-151.500000
 20
-139.710999
 11
-155.500000
 21
-139.710999
  0
LINE
  8
0
  6
CONTINUOUS
 62
7
 10
-151.500000
 20
-138.289001
 11
-155.500000
 21
-138.289001
  0
LINE
  8
0
  6
CONTINUOUS
 62
7
 10
-151.500000
 20
-136.210999
 11
-155.500000
 21
-136.210999
  0
LINE
  8
0
  6
CONTINUOUS
 62
7
 10
-114.500000
 20
-142.500000
 11
-110.500000
 21
-142.500000
  0
LINE
  8
0
  6
CONTINUOUS
 62
7
 10
-110.500000
 20
-135.500000
 11
-110.500000
 21
-142.500000
  0
LINE
  8
0
  6
CONTINUOUS
 62
7
 10
-114.500000
 20
-135.500000
 11
-110.500000
 21
-135.500000
  0
LINE
  8
0
  6
CONTINUOUS
 62
7
 10
-114.500000
 20
-136.210999
 11
-110.500000
 21
-136.210999
  0
LINE
  8
0
  6
CONTINUOUS
 62
7
 10
-114.500000
 20
-138.289001
 11
-110.500000
 21
-138.289001
  0
LINE
  8
0
  6
CONTINUOUS
 62
7
 10
-114.500000
 20
-139.710999
 11
-110.500000
 21
-139.710999
  0
LINE
  8
0
  6
CONTINUOUS
 62
7
 10
-114.500000
 20
-141.789001
 11
-110.500000
 21
-141.789001
  0
LINE
  8
0
  6
CONTINUOUS
 62
7
 10
88.000000
 20
-104.500000
 11
88.000000
 21
-123.500000
  0
LINE
  8
0
  6
CONTINUOUS
 62
7
 10
80.000000
 20
-123.500000
 11
88.000000
 21
-123.500000
  0
LINE
  8
0
  6
CONTINUOUS
 62
7
 10
79.500000
 20
-104.500000
 11
88.000000
 21
-104.500000
  0
LINE
  8
0
  6
CONTINUOUS
 62
7
 10
84.000000
 20
-107.556999
 11
85.250000
 21
-108.278000
  0
LINE
  8
0
  6
CONTINUOUS
 62
7
 10
85.250000
 20
-108.278000
 11
85.250000
 21
-109.722000
  0
LINE
  8
0
  6
CONTINUOUS
 62
7
 10
84.000000
 20
-110.443001
 11
85.250000
 21
-109.722000
  0
LINE
  8
0
  6
CONTINUOUS
 62
7
 10
82.750000
 20
-109.722000
 11
84.000000
 21
-110.443001
  0
LINE
  8
0
  6
CONTINUOUS
 62
7
 10
82.750000
 20
-108.278000
 11
82.750000
 21
-109.722000
  0
LINE
  8
0
  6
CONTINUOUS
 62
7
 10
84.000000
 20
-107.556999
 11
82.750000
 21
-108.278000
  0
LINE
  8
0
  6
CONTINUOUS
 62
7
 10
83.289200
 20
-105.369003
 11
81.210800
 21
-106.569000
  0
LINE
  8
0
  6
CENTER
 62
2
 10
84.000000
 20
-104.000000
 11
84.000000
 21
-114.000000
  0
LINE
  8
0
  6
CENTER
 62
2
 10
89.000000
 20
-109.000000
 11
79.000000
 21
-109.000000
  0
LINE
  8
0
  6
CONTINUOUS
 62
7
 10
84.710701
 20
-105.369003
 11
86.789200
 21
-106.569000
  0
LINE
  8
0
  6
CONTINUOUS
 62
7
 10
87.500000
 20
-107.800003
 11
87.500000
 21
-110.199997
  0
LINE
  8
0
  6
CONTINUOUS
 62
7
 10
84.710800
 20
-112.630997
 11
86.789200
 21
-111.431000
  0
LINE
  8
0
  6
CONTINUOUS
 62
7
 10
81.210800
 20
-111.431000
 11
83.289200
 21
-112.630997
  0
LINE
  8
0
  6
CONTINUOUS
 62
7
 10
80.500000
 20
-107.800003
 11
80.500000
 21
-110.199997
  0
LINE
  8
0
  6
CONTINUOUS
 62
7
 10
80.000000
 20
-104.500000
 11
80.000000
 21
-124.000000
  0
LINE
  8
0
  6
CONTINUOUS
 62
7
 10
188.000000
 20
-104.500000
 11
188.000000
 21
-123.500000
  0
LINE
  8
0
  6
CONTINUOUS
 62
7
 10
196.000000
 20
-123.500000
 11
188.000000
 21
-123.500000
  0
LINE
  8
0
  6
CONTINUOUS
 62
7
 10
196.500000
 20
-104.500000
 11
188.000000
 21
-104.500000
  0
LINE
  8
0
  6
CONTINUOUS
 62
7
 10
192.000000
 20
-107.556999
 11
190.750000
 21
-108.278000
  0
LINE
  8
0
  6
CONTINUOUS
 62
7
 10
190.750000
 20
-108.278000
 11
190.750000
 21
-109.722000
  0
LINE
  8
0
  6
CONTINUOUS
 62
7
 10
192.000000
 20
-110.443001
 11
190.750000
 21
-109.722000
  0
LINE
  8
0
  6
CONTINUOUS
 62
7
 10
193.250000
 20
-109.722000
 11
192.000000
 21
-110.443001
  0
LINE
  8
0
  6
CONTINUOUS
 62
7
 10
193.250000
 20
-108.278000
 11
193.250000
 21
-109.722000
  0
LINE
  8
0
  6
CONTINUOUS
 62
7
 10
192.000000
 20
-107.556999
 11
193.250000
 21
-108.278000
  0
LINE
  8
0
  6
CONTINUOUS
 62
7
 10
192.710999
 20
-105.369003
 11
194.789001
 21
-106.569000
  0
LINE
  8
0
  6
CENTER
 62
2
 10
192.000000
 20
-104.000000
 11
192.000000
 21
-114.000000
  0
LINE
  8
0
  6
CENTER
 62
2
 10
187.000000
 20
-109.000000
 11
197.000000
 21
-109.000000
  0
LINE
  8
0
  6
CONTINUOUS
 62
7
 10
191.289001
 20
-105.369003
 11
189.210999
 21
-106.569000
  0
LINE
  8
0
  6
CONTINUOUS
 62
7
 10
188.500000
 20
-107.800003
 11
188.500000
 21
-110.199997
  0
LINE
  8
0
  6
CONTINUOUS
 62
7
 10
191.289001
 20
-112.630997
 11
189.210999
 21
-111.431000
  0
LINE
  8
0
  6
CONTINUOUS
 62
7
 10
194.789001
 20
-111.431000
 11
192.710999
 21
-112.630997
  0
LINE
  8
0
  6
CONTINUOUS
 62
7
 10
195.500000
 20
-107.800003
 11
195.500000
 21
-110.199997
  0
LINE
  8
0
  6
CONTINUOUS
 62
7
 10
196.000000
 20
-104.500000
 11
196.000000
 21
-124.000000
  0
LINE
  8
0
  6
CONTINUOUS
 62
7
 10
-196.000000
 20
-108.500000
 11
-184.000000
 21
-108.500000
  0
LINE
  8
0
  6
CONTINUOUS
 62
7
 10
-196.000000
 20
-111.709000
 11
-196.000000
 21
-114.500000
  0
LINE
  8
0
  6
CONTINUOUS
 62
7
 10
-196.000000
 20
-108.500000
 11
-196.000000
 21
-109.291000
  0
LINE
  8
0
  6
CONTINUOUS
 62
7
 10
-203.500000
 20
-104.000000
 11
-197.000000
 21
-104.000000
  0
LINE
  8
0
  6
CONTINUOUS
 62
7
 10
-203.500000
 20
-114.000000
 11
-196.000000
 21
-114.000000
  0
LINE
  8
0
  6
CONTINUOUS
 62
7
 10
-196.699997
 20
-104.300003
 11
-183.300003
 21
-104.300003
  0
LINE
  8
0
  6
CONTINUOUS
 62
7
 10
-184.000000
 20
-111.709000
 11
-184.000000
 21
-114.500000
  0
LINE
  8
0
  6
CONTINUOUS
 62
7
 10
-184.000000
 20
-108.500000
 11
-184.000000
 21
-109.291000
  0
LINE
  8
0
  6
CONTINUOUS
 62
7
 10
-176.500000
 20
-104.000000
 11
-183.000000
 21
-104.000000
  0
LINE
  8
0
  6
CONTINUOUS
 62
7
 10
-176.500000
 20
-104.000000
 11
-176.500000
 21
-114.000000
  0
LINE
  8
0
  6
CONTINUOUS
 62
7
 10
-176.500000
 20
-114.000000
 11
-184.000000
 21
-114.000000
  0
LINE
  8
0
  6
CONTINUOUS
 62
7
 10
-203.500000
 20
-104.000000
 11
-203.500000
 21
-114.000000
  0
LINE
  8
0
  6
CONTINUOUS
 62
7
 10
-197.000000
 20
-104.000000
 11
-196.699997
 21
-104.300003
  0
LINE
  8
0
  6
CONTINUOUS
 62
7
 10
-183.000000
 20
-104.000000
 11
-183.300003
 21
-104.300003
  0
LINE
  8
0
  6
CONTINUOUS
 62
7
 10
-176.000000
 20
-114.500000
 11
-184.000000
 21
-114.500000
  0
LINE
  8
0
  6
CONTINUOUS
 62
7
 10
-176.000000
 20
-124.000000
 11
-204.000000
 21
-124.000000
  0
LINE
  8
0
  6
CONTINUOUS
 62
7
 10
-204.000000
 20
-114.500000
 11
-196.000000
 21
-114.500000
  0
LINE
  8
0
  6
CONTINUOUS
 62
7
 10
-204.000000
 20
-114.500000
 11
-204.000000
 21
-124.000000
  0
LINE
  8
0
  6
CENTER
 62
2
 10
-199.000000
 20
-116.500000
 11
-199.000000
 21
-123.500000
  0
LINE
  8
0
  6
CENTER
 62
2
 10
-202.500000
 20
-120.000000
 11
-195.500000
 21
-120.000000
  0
LINE
  8
0
  6
CENTER
 62
2
 10
-190.000000
 20
-102.000000
 11
-190.000000
 21
-126.000000
  0
LINE
  8
0
  6
CENTER
 62
2
 10
-197.399994
 20
-117.000000
 11
-182.600006
 21
-117.000000
  0
LINE
  8
0
  6
CENTER
 62
2
 10
-200.000000
 20
-102.000000
 11
-200.000000
 21
-106.000000
  0
LINE
  8
0
  6
CENTER
 62
2
 10
-180.000000
 20
-102.000000
 11
-180.000000
 21
-106.000000
  0
LINE
  8
0
  6
CENTER
 62
2
 10
-179.500000
 20
-122.000000
 11
-179.500000
 21
-126.000000
  0
LINE
  8
0
  6
CENTER
 62
2
 10
-200.500000
 20
-122.000000
 11
-200.500000
 21
-126.000000
  0
LINE
  8
0
  6
CONTINUOUS
 62
7
 10
-168.000000
 20
-104.500000
 11
-168.000000
 21
-123.500000
  0
LINE
  8
0
  6
CONTINUOUS
 62
7
 10
-176.000000
 20
-123.500000
 11
-168.000000
 21
-123.500000
  0
LINE
  8
0
  6
CONTINUOUS
 62
7
 10
-176.500000
 20
-104.500000
 11
-168.000000
 21
-104.500000
  0
LINE
  8
0
  6
CONTINUOUS
 62
7
 10
-172.000000
 20
-107.556999
 11
-170.750000
 21
-108.278000
  0
LINE
  8
0
  6
CONTINUOUS
 62
7
 10
-170.750000
 20
-108.278000
 11
-170.750000
 21
-109.722000
  0
LINE
  8
0
  6
CONTINUOUS
 62
7
 10
-172.000000
 20
-110.443001
 11
-170.750000
 21
-109.722000
  0
LINE
  8
0
  6
CONTINUOUS
 62
7
 10
-173.250000
 20
-109.722000
 11
-172.000000
 21
-110.443001
  0
LINE
  8
0
  6
CONTINUOUS
 62
7
 10
-173.250000
 20
-108.278000
 11
-173.250000
 21
-109.722000
  0
LINE
  8
0
  6
CONTINUOUS
 62
7
 10
-172.000000
 20
-107.556999
 11
-173.250000
 21
-108.278000
  0
LINE
  8
0
  6
CONTINUOUS
 62
7
 10
-172.710999
 20
-105.369003
 11
-174.789001
 21
-106.569000
  0
LINE
  8
0
  6
CENTER
 62
2
 10
-172.000000
 20
-104.000000
 11
-172.000000
 21
-114.000000
  0
LINE
  8
0
  6
CENTER
 62
2
 10
-167.000000
 20
-109.000000
 11
-177.000000
 21
-109.000000
  0
LINE
  8
0
  6
CONTINUOUS
 62
7
 10
-171.289001
 20
-105.369003
 11
-169.210999
 21
-106.569000
  0
LINE
  8
0
  6
CONTINUOUS
 62
7
 10
-168.500000
 20
-107.800003
 11
-168.500000
 21
-110.199997
  0
LINE
  8
0
  6
CONTINUOUS
 62
7
 10
-171.289001
 20
-112.630997
 11
-169.210999
 21
-111.431000
  0
LINE
  8
0
  6
CONTINUOUS
 62
7
 10
-174.789001
 20
-111.431000
 11
-172.710999
 21
-112.630997
  0
LINE
  8
0
  6
CONTINUOUS
 62
7
 10
-175.500000
 20
-107.800003
 11
-175.500000
 21
-110.199997
  0
LINE
  8
0
  6
CONTINUOUS
 62
7
 10
-176.000000
 20
-104.500000
 11
-176.000000
 21
-124.000000
  0
LINE
  8
0
  6
CONTINUOUS
 62
7
 10
-70.000000
 20
-108.500000
 11
-82.000000
 21
-108.500000
  0
LINE
  8
0
  6
CONTINUOUS
 62
7
 10
-70.000000
 20
-111.709000
 11
-70.000000
 21
-114.500000
  0
LINE
  8
0
  6
CONTINUOUS
 62
7
 10
-70.000000
 20
-108.500000
 11
-70.000000
 21
-109.291000
  0
LINE
  8
0
  6
CONTINUOUS
 62
7
 10
-62.500000
 20
-104.000000
 11
-69.000000
 21
-104.000000
  0
LINE
  8
0
  6
CONTINUOUS
 62
7
 10
-62.500000
 20
-114.000000
 11
-70.000000
 21
-114.000000
  0
LINE
  8
0
  6
CONTINUOUS
 62
7
 10
-69.300003
 20
-104.300003
 11
-82.699997
 21
-104.300003
  0
LINE
  8
0
  6
CONTINUOUS
 62
7
 10
-82.000000
 20
-111.709000
 11
-82.000000
 21
-114.500000
  0
LINE
  8
0
  6
CONTINUOUS
 62
7
 10
-82.000000
 20
-108.500000
 11
-82.000000
 21
-109.291000
  0
LINE
  8
0
  6
CONTINUOUS
 62
7
 10
-89.500000
 20
-104.000000
 11
-83.000000
 21
-104.000000
  0
LINE
  8
0
  6
CONTINUOUS
 62
7
 10
-89.500000
 20
-104.000000
 11
-89.500000
 21
-114.000000
  0
LINE
  8
0
  6
CONTINUOUS
 62
7
 10
-89.500000
 20
-114.000000
 11
-82.000000
 21
-114.000000
  0
LINE
  8
0
  6
CONTINUOUS
 62
7
 10
-62.500000
 20
-104.000000
 11
-62.500000
 21
-114.000000
  0
LINE
  8
0
  6
CONTINUOUS
 62
7
 10
-69.000000
 20
-104.000000
 11
-69.300003
 21
-104.300003
  0
LINE
  8
0
  6
CONTINUOUS
 62
7
 10
-83.000000
 20
-104.000000
 11
-82.699997
 21
-104.300003
  0
LINE
  8
0
  6
CONTINUOUS
 62
7
 10
-90.000000
 20
-114.500000
 11
-82.000000
 21
-114.500000
  0
LINE
  8
0
  6
CONTINUOUS
 62
7
 10
-90.000000
 20
-124.000000
 11
-62.000000
 21
-124.000000
  0
LINE
  8
0
  6
CONTINUOUS
 62
7
 10
-62.000000
 20
-114.500000
 11
-70.000000
 21
-114.500000
  0
LINE
  8
0
  6
CONTINUOUS
 62
7
 10
-62.000000
 20
-114.500000
 11
-62.000000
 21
-124.000000
  0
LINE
  8
0
  6
CENTER
 62
2
 10
-67.000000
 20
-116.500000
 11
-67.000000
 21
-123.500000
  0
LINE
  8
0
  6
CENTER
 62
2
 10
-63.500000
 20
-120.000000
 11
-70.500000
 21
-120.000000
  0
LINE
  8
0
  6
CENTER
 62
2
 10
-76.000000
 20
-102.000000
 11
-76.000000
 21
-126.000000
  0
LINE
  8
0
  6
CENTER
 62
2
 10
-68.599998
 20
-117.000000
 11
-83.400002
 21
-117.000000
  0
LINE
  8
0
  6
CENTER
 62
2
 10
-86.000000
 20
-102.000000
 11
-86.000000
 21
-106.000000
  0
LINE
  8
0
  6
CENTER
 62
2
 10
-66.000000
 20
-102.000000
 11
-66.000000
 21
-106.000000
  0
LINE
  8
0
  6
CENTER
 62
2
 10
-65.500000
 20
-122.000000
 11
-65.500000
 21
-126.000000
  0
LINE
  8
0
  6
CENTER
 62
2
 10
-86.500000
 20
-122.000000
 11
-86.500000
 21
-126.000000
  0
LINE
  8
0
  6
CONTINUOUS
 62
7
 10
-98.000000
 20
-104.500000
 11
-98.000000
 21
-123.500000
  0
LINE
  8
0
  6
CONTINUOUS
 62
7
 10
-90.000000
 20
-123.500000
 11
-98.000000
 21
-123.500000
  0
LINE
  8
0
  6
CONTINUOUS
 62
7
 10
-89.500000
 20
-104.500000
 11
-98.000000
 21
-104.500000
  0
LINE
  8
0
  6
CONTINUOUS
 62
7
 10
-94.000000
 20
-107.556999
 11
-95.250000
 21
-108.278000
  0
LINE
  8
0
  6
CONTINUOUS
 62
7
 10
-95.250000
 20
-108.278000
 11
-95.250000
 21
-109.722000
  0
LINE
  8
0
  6
CONTINUOUS
 62
7
 10
-94.000000
 20
-110.443001
 11
-95.250000
 21
-109.722000
  0
LINE
  8
0
  6
CONTINUOUS
 62
7
 10
-92.750000
 20
-109.722000
 11
-94.000000
 21
-110.443001
  0
LINE
  8
0
  6
CONTINUOUS
 62
7
 10
-92.750000
 20
-108.278000
 11
-92.750000
 21
-109.722000
  0
LINE
  8
0
  6
CONTINUOUS
 62
7
 10
-94.000000
 20
-107.556999
 11
-92.750000
 21
-108.278000
  0
LINE
  8
0
  6
CONTINUOUS
 62
7
 10
-93.289200
 20
-105.369003
 11
-91.210800
 21
-106.569000
  0
LINE
  8
0
  6
CENTER
 62
2
 10
-94.000000
 20
-104.000000
 11
-94.000000
 21
-114.000000
  0
LINE
  8
0
  6
CENTER
 62
2
 10
-99.000000
 20
-109.000000
 11
-89.000000
 21
-109.000000
  0
LINE
  8
0
  6
CONTINUOUS
 62
7
 10
-94.710701
 20
-105.369003
 11
-96.789200
 21
-106.569000
  0
LINE
  8
0
  6
CONTINUOUS
 62
7
 10
-97.500000
 20
-107.800003
 11
-97.500000
 21
-110.199997
  0
LINE
  8
0
  6
CONTINUOUS
 62
7
 10
-94.710701
 20
-112.630997
 11
-96.789200
 21
-111.431000
  0
LINE
  8
0
  6
CONTINUOUS
 62
7
 10
-91.210701
 20
-111.431000
 11
-93.289200
 21
-112.630997
  0
LINE
  8
0
  6
CONTINUOUS
 62
7
 10
-90.500000
 20
-107.800003
 11
-90.500000
 21
-110.199997
  0
LINE
  8
0
  6
CONTINUOUS
 62
7
 10
-90.000000
 20
-104.500000
 11
-90.000000
 21
-124.000000
  0
LINE
  8
0
  6
CENTER
 62
2
 10
-145.307007
 20
-88.000000
 11
-164.087997
 21
-88.000000
  0
LINE
  8
0
  6
CONTINUOUS
 62
7
 10
-120.000000
 20
-91.500000
 11
-136.000000
 21
-91.500000
  0
LINE
  8
0
  6
CENTER
 62
2
 10
-120.693001
 20
-88.000000
 11
-103.085999
 21
-88.000000
  0
LINE
  8
0
  6
CONTINUOUS
 62
7
 10
-114.500000
 20
-92.000000
 11
-151.500000
 21
-92.000000
  0
LINE
  8
0
  6
CONTINUOUS
 62
7
 10
-136.000000
 20
-83.500000
 11
-136.000000
 21
-91.500000
  0
LINE
  8
0
  6
CONTINUOUS
 62
7
 10
-120.000000
 20
-83.500000
 11
-120.000000
 21
-91.500000
  0
LINE
  8
0
  6
CONTINUOUS
 62
7
 10
-119.000000
 20
-84.000000
 11
-119.000000
 21
-92.000000
  0
LINE
  8
0
  6
CONTINUOUS
 62
7
 10
-147.000000
 20
-84.000000
 11
-147.000000
 21
-92.000000
  0
LINE
  8
0
  6
CONTINUOUS
 62
7
 10
-151.500000
 20
-84.000000
 11
-151.500000
 21
-92.000000
  0
LINE
  8
0
  6
CONTINUOUS
 62
7
 10
-162.000000
 20
-90.500000
 11
-155.500000
 21
-90.500000
  0
LINE
  8
0
  6
CONTINUOUS
 62
7
 10
-162.000000
 20
-85.500000
 11
-155.500000
 21
-85.500000
  0
LINE
  8
0
  6
CONTINUOUS
 62
2
 10
-162.000000
 20
-90.099998
 11
-155.500000
 21
-90.099998
  0
LINE
  8
0
  6
CONTINUOUS
 62
2
 10
-162.000000
 20
-85.900002
 11
-155.500000
 21
-85.900002
  0
LINE
  8
0
  6
CONTINUOUS
 62
7
 10
-162.000000
 20
-90.500000
 11
-162.000000
 21
-85.500000
  0
LINE
  8
0
  6
CONTINUOUS
 62
7
 10
-114.500000
 20
-84.000000
 11
-114.500000
 21
-92.000000
  0
LINE
  8
0
  6
CONTINUOUS
 62
7
 10
-104.000000
 20
-85.500000
 11
-110.500000
 21
-85.500000
  0
LINE
  8
0
  6
CONTINUOUS
 62
7
 10
-104.000000
 20
-90.500000
 11
-110.500000
 21
-90.500000
  0
LINE
  8
0
  6
CONTINUOUS
 62
2
 10
-104.000000
 20
-85.900002
 11
-110.500000
 21
-85.900002
  0
LINE
  8
0
  6
CONTINUOUS
 62
2
 10
-104.000000
 20
-90.099998
 11
-110.500000
 21
-90.099998
  0
LINE
  8
0
  6
CONTINUOUS
 62
7
 10
-104.000000
 20
-85.500000
 11
-104.000000
 21
-90.500000
  0
LINE
  8
0
  6
CONTINUOUS
 62
7
 10
-151.500000
 20
-84.500000
 11
-155.500000
 21
-84.500000
  0
LINE
  8
0
  6
CONTINUOUS
 62
7
 10
-155.500000
 20
-91.500000
 11
-155.500000
 21
-84.500000
  0
LINE
  8
0
  6
CONTINUOUS
 62
7
 10
-151.500000
 20
-91.500000
 11
-155.500000
 21
-91.500000
  0
LINE
  8
0
  6
CONTINUOUS
 62
7
 10
-151.500000
 20
-90.789200
 11
-155.500000
 21
-90.789200
  0
LINE
  8
0
  6
CONTINUOUS
 62
7
 10
-151.500000
 20
-88.710800
 11
-155.500000
 21
-88.710800
  0
LINE
  8
0
  6
CONTINUOUS
 62
7
 10
-151.500000
 20
-87.289200
 11
-155.500000
 21
-87.289200
  0
LINE
  8
0
  6
CONTINUOUS
 62
7
 10
-151.500000
 20
-85.210800
 11
-155.500000
 21
-85.210800
  0
LINE
  8
0
  6
CONTINUOUS
 62
7
 10
-114.500000
 20
-91.500000
 11
-110.500000
 21
-91.500000
  0
LINE
  8
0
  6
CONTINUOUS
 62
7
 10
-110.500000
 20
-84.500000
 11
-110.500000
 21
-91.500000
  0
LINE
  8
0
  6
CONTINUOUS
 62
7
 10
-114.500000
 20
-84.500000
 11
-110.500000
 21
-84.500000
  0
LINE
  8
0
  6
CONTINUOUS
 62
7
 10
-114.500000
 20
-85.210800
 11
-110.500000
 21
-85.210800
  0
LINE
  8
0
  6
CONTINUOUS
 62
7
 10
-114.500000
 20
-87.289200
 11
-110.500000
 21
-87.289200
  0
LINE
  8
0
  6
CONTINUOUS
 62
7
 10
-114.500000
 20
-88.710800
 11
-110.500000
 21
-88.710800
  0
LINE
  8
0
  6
CONTINUOUS
 62
7
 10
-114.500000
 20
-90.789200
 11
-110.500000
 21
-90.789200
  0
LINE
  8
0
  6
CONTINUOUS
 62
7
 10
-136.000000
 20
-84.000000
 11
-163.000000
 21
-84.000000
  0
LINE
  8
0
  6
CONTINUOUS
 62
7
 10
105.000000
 20
-45.700001
 11
105.000000
 21
-42.500000
  0
LINE
  8
0
  6
CONTINUOUS
 62
7
 10
109.000000
 20
-45.700001
 11
105.000000
 21
-45.700001
  0
LINE
  8
0
  6
CONTINUOUS
 62
7
 10
109.000000
 20
-43.200001
 11
105.000000
 21
-43.200001
  0
LINE
  8
0
  6
CONTINUOUS
 62
7
 10
109.000000
 20
-44.431099
 11
105.000000
 21
-44.431099
  0
LINE
  8
0
  6
CONTINUOUS
 62
7
 10
98.000000
 20
-44.500000
 11
105.000000
 21
-44.500000
  0
LINE
  8
0
  6
CONTINUOUS
 62
2
 10
98.000000
 20
-44.099998
 11
105.000000
 21
-44.099998
  0
LINE
  8
0
  6
CONTINUOUS
 62
2
 10
172.500000
 20
-44.099998
 11
178.000000
 21
-44.099998
  0
LINE
  8
0
  6
CONTINUOUS
 62
7
 10
123.500000
 20
71.500000
 11
123.500000
 21
62.000000
  0
LINE
  8
0
  6
CONTINUOUS
 62
7
 10
130.000000
 20
72.000000
 11
166.000000
 21
72.000000
  0
LINE
  8
0
  6
CONTINUOUS
 62
7
 10
130.000000
 20
72.000000
 11
130.000000
 21
62.000000
  0
LINE
  8
0
  6
CONTINUOUS
 62
7
 10
123.500000
 20
71.500000
 11
130.000000
 21
71.500000
  0
LINE
  8
0
  6
CONTINUOUS
 62
7
 10
172.500000
 20
71.500000
 11
172.500000
 21
62.000000
  0
LINE
  8
0
  6
CONTINUOUS
 62
7
 10
166.000000
 20
72.000000
 11
166.000000
 21
62.000000
  0
LINE
  8
0
  6
CONTINUOUS
 62
7
 10
172.500000
 20
71.500000
 11
166.000000
 21
71.500000
  0
LINE
  8
0
  6
CONTINUOUS
 62
7
 10
93.000000
 20
67.500000
 11
123.500000
 21
67.500000
  0
LINE
  8
0
  6
CONTINUOUS
 62
7
 10
172.500000
 20
67.500000
 11
183.000000
 21
67.500000
  0
LINE
  8
0
  6
CONTINUOUS
 62
7
 10
93.000000
 20
52.000000
 11
93.000000
 21
67.500000
  0
LINE
  8
0
  6
CONTINUOUS
 62
7
 10
183.000000
 20
52.000000
 11
183.000000
 21
67.500000
  0
LINE
  8
0
  6
CONTINUOUS
 62
7
 10
93.000000
 20
52.000000
 11
183.000000
 21
52.000000
  0
LINE
  8
0
  6
CONTINUOUS
 62
7
 10
166.000000
 20
110.500000
 11
130.000000
 21
110.500000
  0
LINE
  8
0
  6
CONTINUOUS
 62
7
 10
130.000000
 20
110.500000
 11
130.000000
 21
83.500000
  0
LINE
  8
0
  6
CONTINUOUS
 62
7
 10
166.000000
 20
83.500000
 11
130.000000
 21
83.500000
  0
LINE
  8
0
  6
CONTINUOUS
 62
7
 10
166.000000
 20
110.500000
 11
166.000000
 21
83.500000
  0
LINE
  8
0
  6
CONTINUOUS
 62
7
 10
93.000000
 20
103.000000
 11
123.500000
 21
103.000000
  0
LINE
  8
0
  6
CONTINUOUS
 62
7
 10
172.500000
 20
103.000000
 11
183.000000
 21
103.000000
  0
LINE
  8
0
  6
CONTINUOUS
 62
7
 10
93.000000
 20
91.000000
 11
123.500000
 21
91.000000
  0
LINE
  8
0
  6
CONTINUOUS
 62
7
 10
172.500000
 20
91.000000
 11
183.000000
 21
91.000000
  0
LINE
  8
0
  6
CONTINUOUS
 62
7
 10
166.000000
 20
90.000000
 11
130.000000
 21
90.000000
  0
LINE
  8
0
  6
CONTINUOUS
 62
7
 10
166.000000
 20
104.000000
 11
130.000000
 21
104.000000
  0
LINE
  8
0
  6
CONTINUOUS
 62
7
 10
172.500000
 20
110.300003
 11
166.000000
 21
110.300003
  0
LINE
  8
0
  6
CONTINUOUS
 62
7
 10
172.500000
 20
83.699997
 11
172.500000
 21
110.300003
  0
LINE
  8
0
  6
CONTINUOUS
 62
7
 10
172.500000
 20
83.699997
 11
166.000000
 21
83.699997
  0
LINE
  8
0
  6
CONTINUOUS
 62
7
 10
183.000000
 20
111.000000
 11
156.000000
 21
111.000000
  0
LINE
  8
0
  6
CONTINUOUS
 62
7
 10
183.000000
 20
83.000000
 11
93.000000
 21
83.000000
  0
LINE
  8
0
  6
CONTINUOUS
 62
7
 10
93.000000
 20
111.000000
 11
93.000000
 21
83.000000
  0
LINE
  8
0
  6
CONTINUOUS
 62
7
 10
183.000000
 20
111.000000
 11
183.000000
 21
83.000000
  0
LINE
  8
0
  6
CONTINUOUS
 62
7
 10
172.199997
 20
57.500000
 11
165.598007
 21
57.500000
  0
LINE
  8
0
  6
CONTINUOUS
 62
7
 10
93.000000
 20
61.500000
 11
101.653000
 21
61.500000
  0
LINE
  8
0
  6
CONTINUOUS
 62
7
 10
110.402000
 20
57.500000
 11
103.800003
 21
57.500000
  0
LINE
  8
0
  6
CONTINUOUS
 62
7
 10
123.500000
 20
62.000000
 11
172.500000
 21
62.000000
  0
LINE
  8
0
  6
CONTINUOUS
 62
7
 10
123.500000
 20
127.500000
 11
123.500000
 21
137.000000
  0
LINE
  8
0
  6
CONTINUOUS
 62
7
 10
130.000000
 20
127.000000
 11
166.000000
 21
127.000000
  0
LINE
  8
0
  6
CONTINUOUS
 62
7
 10
130.000000
 20
127.000000
 11
130.000000
 21
137.000000
  0
LINE
  8
0
  6
CONTINUOUS
 62
7
 10
123.500000
 20
127.500000
 11
130.000000
 21
127.500000
  0
LINE
  8
0
  6
CONTINUOUS
 62
7
 10
172.500000
 20
127.500000
 11
172.500000
 21
129.500000
  0
LINE
  8
0
  6
CONTINUOUS
 62
7
 10
166.000000
 20
127.000000
 11
166.000000
 21
127.500000
  0
LINE
  8
0
  6
CONTINUOUS
 62
7
 10
93.000000
 20
131.500000
 11
98.000000
 21
131.500000
  0
LINE
  8
0
  6
CONTINUOUS
 62
7
 10
178.000000
 20
131.500000
 11
183.000000
 21
131.500000
  0
LINE
  8
0
  6
CONTINUOUS
 62
7
 10
93.000000
 20
147.000000
 11
93.000000
 21
131.500000
  0
LINE
  8
0
  6
CONTINUOUS
 62
7
 10
183.000000
 20
147.000000
 11
183.000000
 21
131.500000
  0
LINE
  8
0
  6
CONTINUOUS
 62
7
 10
93.000000
 20
147.000000
 11
183.000000
 21
147.000000
  0
LINE
  8
0
  6
CONTINUOUS
 62
7
 10
172.199997
 20
141.500000
 11
167.000000
 21
141.500000
  0
LINE
  8
0
  6
CONTINUOUS
 62
7
 10
93.000000
 20
137.500000
 11
101.653000
 21
137.500000
  0
LINE
  8
0
  6
CONTINUOUS
 62
7
 10
109.000000
 20
141.500000
 11
103.800003
 21
141.500000
  0
LINE
  8
0
  6
CONTINUOUS
 62
7
 10
160.000000
 20
56.000000
 11
116.000000
 21
56.000000
  0
LINE
  8
0
  6
CONTINUOUS
 62
7
 10
123.500000
 20
83.699997
 11
123.500000
 21
110.300003
  0
LINE
  8
0
  6
CONTINUOUS
 62
7
 10
123.500000
 20
83.699997
 11
130.000000
 21
83.699997
  0
LINE
  8
0
  6
CONTINUOUS
 62
7
 10
123.500000
 20
110.300003
 11
130.000000
 21
110.300003
  0
LINE
  8
0
  6
CONTINUOUS
 62
7
 10
174.347000
 20
137.500000
 11
183.000000
 21
137.500000
  0
LINE
  8
0
  6
CONTINUOUS
 62
7
 10
174.347000
 20
61.500000
 11
183.000000
 21
61.500000
  0
LINE
  8
0
  6
CENTER
 62
2
 10
107.000000
 20
112.500000
 11
107.000000
 21
102.500000
  0
LINE
  8
0
  6
CENTER
 62
2
 10
102.000000
 20
107.500000
 11
112.000000
 21
107.500000
  0
LINE
  8
0
  6
CENTER
 62
2
 10
107.000000
 20
91.500000
 11
107.000000
 21
81.500000
  0
LINE
  8
0
  6
CENTER
 62
2
 10
102.000000
 20
86.500000
 11
112.000000
 21
86.500000
  0
LINE
  8
0
  6
CENTER
 62
2
 10
133.000000
 20
110.500000
 11
133.000000
 21
103.500000
  0
LINE
  8
0
  6
CENTER
 62
2
 10
129.500000
 20
107.000000
 11
136.500000
 21
107.000000
  0
LINE
  8
0
  6
CENTER
 62
2
 10
148.000000
 20
110.500000
 11
148.000000
 21
103.500000
  0
LINE
  8
0
  6
CENTER
 62
2
 10
144.500000
 20
107.000000
 11
151.500000
 21
107.000000
  0
LINE
  8
0
  6
CENTER
 62
2
 10
163.000000
 20
110.500000
 11
163.000000
 21
103.500000
  0
LINE
  8
0
  6
CENTER
 62
2
 10
159.500000
 20
107.000000
 11
166.500000
 21
107.000000
  0
LINE
  8
0
  6
CENTER
 62
2
 10
169.000000
 20
112.500000
 11
169.000000
 21
102.500000
  0
LINE
  8
0
  6
CENTER
 62
2
 10
164.000000
 20
107.500000
 11
174.000000
 21
107.500000
  0
LINE
  8
0
  6
CENTER
 62
2
 10
169.000000
 20
91.500000
 11
169.000000
 21
81.500000
  0
LINE
  8
0
  6
CENTER
 62
2
 10
164.000000
 20
86.500000
 11
174.000000
 21
86.500000
  0
LINE
  8
0
  6
CENTER
 62
2
 10
163.000000
 20
90.500000
 11
163.000000
 21
83.500000
  0
LINE
  8
0
  6
CENTER
 62
2
 10
159.500000
 20
87.000000
 11
166.500000
 21
87.000000
  0
LINE
  8
0
  6
CENTER
 62
2
 10
91.000000
 20
97.000000
 11
185.000000
 21
97.000000
  0
LINE
  8
0
  6
CENTER
 62
2
 10
148.000000
 20
90.500000
 11
148.000000
 21
83.500000
  0
LINE
  8
0
  6
CENTER
 62
2
 10
144.500000
 20
87.000000
 11
151.500000
 21
87.000000
  0
LINE
  8
0
  6
CENTER
 62
2
 10
133.000000
 20
90.500000
 11
133.000000
 21
83.500000
  0
LINE
  8
0
  6
CENTER
 62
2
 10
129.500000
 20
87.000000
 11
136.500000
 21
87.000000
  0
LINE
  8
0
  6
CENTER
 62
2
 10
113.000000
 20
59.500000
 11
113.000000
 21
52.500000
  0
LINE
  8
0
  6
CENTER
 62
2
 10
109.500000
 20
56.000000
 11
116.500000
 21
56.000000
  0
LINE
  8
0
  6
CENTER
 62
2
 10
143.000000
 20
71.000000
 11
143.000000
 21
65.000000
  0
LINE
  8
0
  6
CENTER
 62
2
 10
140.000000
 20
68.000000
 11
146.000000
 21
68.000000
  0
LINE
  8
0
  6
CENTER
 62
2
 10
153.000000
 20
71.000000
 11
153.000000
 21
65.000000
  0
LINE
  8
0
  6
CENTER
 62
2
 10
150.000000
 20
68.000000
 11
156.000000
 21
68.000000
  0
LINE
  8
0
  6
CENTER
 62
2
 10
163.000000
 20
59.500000
 11
163.000000
 21
52.500000
  0
LINE
  8
0
  6
CENTER
 62
2
 10
159.500000
 20
56.000000
 11
166.500000
 21
56.000000
  0
LINE
  8
0
  6
DASHED
 62
2
 10
105.000000
 20
57.000000
 11
105.000000
 21
52.000000
  0
LINE
  8
0
  6
DASHED
 62
2
 10
105.349998
 20
57.000000
 11
105.349998
 21
52.000000
  0
LINE
  8
0
  6
DASHED
 62
2
 10
104.000000
 20
57.000000
 11
110.000000
 21
57.000000
  0
LINE
  8
0
  6
CENTER
 62
2
 10
107.000000
 20
59.500000
 11
107.000000
 21
50.000000
  0
LINE
  8
0
  6
DASHED
 62
2
 10
108.650002
 20
57.000000
 11
108.650002
 21
52.000000
  0
LINE
  8
0
  6
DASHED
 62
2
 10
109.000000
 20
57.000000
 11
109.000000
 21
52.000000
  0
LINE
  8
0
  6
DASHED
 62
2
 10
110.000000
 20
57.500000
 11
110.000000
 21
57.000000
  0
LINE
  8
0
  6
DASHED
 62
2
 10
104.000000
 20
57.500000
 11
104.000000
 21
57.000000
  0
LINE
  8
0
  6
DASHED
 62
2
 10
167.000000
 20
57.000000
 11
167.000000
 21
52.000000
  0
LINE
  8
0
  6
DASHED
 62
2
 10
167.350006
 20
57.000000
 11
167.350006
 21
52.000000
  0
LINE
  8
0
  6
DASHED
 62
2
 10
166.000000
 20
57.000000
 11
172.000000
 21
57.000000
  0
LINE
  8
0
  6
CENTER
 62
2
 10
169.000000
 20
59.500000
 11
169.000000
 21
50.000000
  0
LINE
  8
0
  6
DASHED
 62
2
 10
170.649994
 20
57.000000
 11
170.649994
 21
52.000000
  0
LINE
  8
0
  6
DASHED
 62
2
 10
171.000000
 20
57.000000
 11
171.000000
 21
52.000000
  0
LINE
  8
0
  6
DASHED
 62
2
 10
172.000000
 20
57.500000
 11
172.000000
 21
57.000000
  0
LINE
  8
0
  6
DASHED
 62
2
 10
166.000000
 20
57.500000
 11
166.000000
 21
57.000000
  0
LINE
  8
0
  6
DASHED
 62
2
 10
108.650002
 20
142.000000
 11
108.650002
 21
147.000000
  0
LINE
  8
0
  6
DASHED
 62
2
 10
110.000000
 20
142.000000
 11
104.000000
 21
142.000000
  0
LINE
  8
0
  6
CENTER
 62
2
 10
107.000000
 20
139.500000
 11
107.000000
 21
149.000000
  0
LINE
  8
0
  6
DASHED
 62
2
 10
105.349998
 20
142.000000
 11
105.349998
 21
147.000000
  0
LINE
  8
0
  6
DASHED
 62
2
 10
105.000000
 20
142.000000
 11
105.000000
 21
147.000000
  0
LINE
  8
0
  6
DASHED
 62
2
 10
104.000000
 20
141.500000
 11
104.000000
 21
142.000000
  0
LINE
  8
0
  6
DASHED
 62
2
 10
110.000000
 20
141.500000
 11
110.000000
 21
142.000000
  0
LINE
  8
0
  6
DASHED
 62
2
 10
171.000000
 20
142.000000
 11
171.000000
 21
147.000000
  0
LINE
  8
0
  6
DASHED
 62
2
 10
170.649994
 20
142.000000
 11
170.649994
 21
147.000000
  0
LINE
  8
0
  6
DASHED
 62
2
 10
172.000000
 20
142.000000
 11
166.000000
 21
142.000000
  0
LINE
  8
0
  6
CENTER
 62
2
 10
169.000000
 20
139.500000
 11
169.000000
 21
149.000000
  0
LINE
  8
0
  6
DASHED
 62
2
 10
167.350006
 20
142.000000
 11
167.350006
 21
147.000000
  0
LINE
  8
0
  6
DASHED
 62
2
 10
166.000000
 20
141.500000
 11
166.000000
 21
142.000000
  0
LINE
  8
0
  6
DASHED
 62
2
 10
172.000000
 20
141.500000
 11
172.000000
 21
142.000000
  0
LINE
  8
0
  6
CENTER
 62
2
 10
133.000000
 20
74.000000
 11
133.000000
 21
70.000000
  0
LINE
  8
0
  6
CENTER
 62
2
 10
148.000000
 20
74.000000
 11
148.000000
 21
70.000000
  0
LINE
  8
0
  6
CENTER
 62
2
 10
163.000000
 20
74.000000
 11
163.000000
 21
70.000000
  0
LINE
  8
0
  6
CENTER
 62
2
 10
133.000000
 20
125.000000
 11
133.000000
 21
129.000000
  0
LINE
  8
0
  6
CENTER
 62
2
 10
148.000000
 20
125.000000
 11
148.000000
 21
129.000000
  0
LINE
  8
0
  6
CENTER
 62
2
 10
163.000000
 20
125.000000
 11
163.000000
 21
129.000000
  0
LINE
  8
0
  6
CONTINUOUS
 62
7
 10
68.000000
 20
67.500000
 11
80.000000
 21
67.500000
  0
LINE
  8
0
  6
CONTINUOUS
 62
7
 10
68.000000
 20
64.290703
 11
68.000000
 21
61.500000
  0
LINE
  8
0
  6
CONTINUOUS
 62
7
 10
68.000000
 20
67.500000
 11
68.000000
 21
66.709297
  0
LINE
  8
0
  6
CONTINUOUS
 62
7
 10
60.500000
 20
72.000000
 11
67.000000
 21
72.000000
  0
LINE
  8
0
  6
CONTINUOUS
 62
7
 10
60.500000
 20
62.000000
 11
68.000000
 21
62.000000
  0
LINE
  8
0
  6
CONTINUOUS
 62
7
 10
67.300003
 20
71.699997
 11
80.699997
 21
71.699997
  0
LINE
  8
0
  6
CONTINUOUS
 62
7
 10
80.000000
 20
64.290703
 11
80.000000
 21
61.500000
  0
LINE
  8
0
  6
CONTINUOUS
 62
7
 10
80.000000
 20
67.500000
 11
80.000000
 21
66.709297
  0
LINE
  8
0
  6
CONTINUOUS
 62
7
 10
87.500000
 20
72.000000
 11
81.000000
 21
72.000000
  0
LINE
  8
0
  6
CONTINUOUS
 62
7
 10
87.500000
 20
72.000000
 11
87.500000
 21
62.000000
  0
LINE
  8
0
  6
CONTINUOUS
 62
7
 10
87.500000
 20
62.000000
 11
80.000000
 21
62.000000
  0
LINE
  8
0
  6
CONTINUOUS
 62
7
 10
60.500000
 20
72.000000
 11
60.500000
 21
62.000000
  0
LINE
  8
0
  6
CONTINUOUS
 62
7
 10
67.000000
 20
72.000000
 11
67.300003
 21
71.699997
  0
LINE
  8
0
  6
CONTINUOUS
 62
7
 10
81.000000
 20
72.000000
 11
80.699997
 21
71.699997
  0
LINE
  8
0
  6
CONTINUOUS
 62
7
 10
88.000000
 20
61.500000
 11
80.000000
 21
61.500000
  0
LINE
  8
0
  6
CONTINUOUS
 62
7
 10
88.000000
 20
52.000000
 11
60.000000
 21
52.000000
  0
LINE
  8
0
  6
CONTINUOUS
 62
7
 10
60.000000
 20
61.500000
 11
68.000000
 21
61.500000
  0
LINE
  8
0
  6
CONTINUOUS
 62
7
 10
88.000000
 20
61.500000
 11
88.000000
 21
52.000000
  0
LINE
  8
0
  6
CONTINUOUS
 62
7
 10
-145.000000
 20
71.500000
 11
-145.000000
 21
62.000000
  0
LINE
  8
0
  6
CONTINUOUS
 62
7
 10
-138.500000
 20
72.000000
 11
-117.500000
 21
72.000000
  0
LINE
  8
0
  6
CONTINUOUS
 62
7
 10
-138.500000
 20
72.000000
 11
-138.500000
 21
62.000000
  0
LINE
  8
0
  6
CONTINUOUS
 62
7
 10
-145.000000
 20
71.500000
 11
-138.500000
 21
71.500000
  0
LINE
  8
0
  6
CONTINUOUS
 62
7
 10
-111.000000
 20
71.500000
 11
-111.000000
 21
62.000000
  0
LINE
  8
0
  6
CONTINUOUS
 62
7
 10
-117.500000
 20
72.000000
 11
-117.500000
 21
62.000000
  0
LINE
  8
0
  6
CONTINUOUS
 62
7
 10
-111.000000
 20
71.500000
 11
-117.500000
 21
71.500000
  0
LINE
  8
0
  6
CONTINUOUS
 62
7
 10
-163.000000
 20
67.500000
 11
-145.000000
 21
67.500000
  0
LINE
  8
0
  6
CONTINUOUS
 62
7
 10
-111.000000
 20
67.500000
 11
-103.000000
 21
67.500000
  0
LINE
  8
0
  6
CONTINUOUS
 62
7
 10
-163.000000
 20
52.000000
 11
-163.000000
 21
67.500000
  0
LINE
  8
0
  6
CONTINUOUS
 62
7
 10
-103.000000
 20
52.000000
 11
-103.000000
 21
67.500000
  0
LINE
  8
0
  6
CONTINUOUS
 62
7
 10
-163.000000
 20
52.000000
 11
-103.000000
 21
52.000000
  0
LINE
  8
0
  6
CENTER
 62
2
 10
-100.702003
 20
97.000000
 11
-166.587006
 21
97.000000
  0
LINE
  8
0
  6
CONTINUOUS
 62
7
 10
-117.500000
 20
110.500000
 11
-138.500000
 21
110.500000
  0
LINE
  8
0
  6
CONTINUOUS
 62
7
 10
-138.500000
 20
110.500000
 11
-138.500000
 21
83.500000
  0
LINE
  8
0
  6
CONTINUOUS
 62
7
 10
-117.500000
 20
83.500000
 11
-138.500000
 21
83.500000
  0
LINE
  8
0
  6
CONTINUOUS
 62
7
 10
-117.500000
 20
110.500000
 11
-117.500000
 21
83.500000
  0
LINE
  8
0
  6
CONTINUOUS
 62
7
 10
-163.000000
 20
103.000000
 11
-145.000000
 21
103.000000
  0
LINE
  8
0
  6
CONTINUOUS
 62
7
 10
-111.000000
 20
103.000000
 11
-103.000000
 21
103.000000
  0
LINE
  8
0
  6
CONTINUOUS
 62
7
 10
-163.000000
 20
91.000000
 11
-145.000000
 21
91.000000
  0
LINE
  8
0
  6
CONTINUOUS
 62
7
 10
-111.000000
 20
91.000000
 11
-103.000000
 21
91.000000
  0
LINE
  8
0
  6
CONTINUOUS
 62
7
 10
-117.500000
 20
90.000000
 11
-138.500000
 21
90.000000
  0
LINE
  8
0
  6
CONTINUOUS
 62
7
 10
-117.500000
 20
104.000000
 11
-138.500000
 21
104.000000
  0
LINE
  8
0
  6
CONTINUOUS
 62
7
 10
-111.000000
 20
110.300003
 11
-117.500000
 21
110.300003
  0
LINE
  8
0
  6
CONTINUOUS
 62
7
 10
-111.000000
 20
83.699997
 11
-111.000000
 21
110.300003
  0
LINE
  8
0
  6
CONTINUOUS
 62
7
 10
-111.000000
 20
83.699997
 11
-117.500000
 21
83.699997
  0
LINE
  8
0
  6
CONTINUOUS
 62
7
 10
-103.000000
 20
83.000000
 11
-163.000000
 21
83.000000
  0
LINE
  8
0
  6
CONTINUOUS
 62
7
 10
-163.000000
 20
111.000000
 11
-163.000000
 21
83.000000
  0
LINE
  8
0
  6
CONTINUOUS
 62
7
 10
-103.000000
 20
111.000000
 11
-103.000000
 21
83.000000
  0
LINE
  8
0
  6
CENTER
 62
2
 10
-149.000000
 20
91.535301
 11
-149.000000
 21
82.000000
  0
LINE
  8
0
  6
CENTER
 62
2
 10
-149.000000
 20
102.500000
 11
-149.000000
 21
111.500000
  0
LINE
  8
0
  6
CENTER
 62
2
 10
-135.500000
 20
103.500000
 11
-135.500000
 21
110.500000
  0
LINE
  8
0
  6
CENTER
 62
2
 10
-152.500000
 20
107.500000
 11
-144.582993
 21
107.500000
  0
LINE
  8
0
  6
CENTER
 62
2
 10
-135.500000
 20
90.500000
 11
-135.500000
 21
83.500000
  0
LINE
  8
0
  6
CENTER
 62
2
 10
-152.500000
 20
86.500000
 11
-144.582993
 21
86.500000
  0
LINE
  8
0
  6
CONTINUOUS
 62
7
 10
-113.800003
 20
57.500000
 11
-120.402000
 21
57.500000
  0
LINE
  8
0
  6
CONTINUOUS
 62
7
 10
-163.000000
 20
61.500000
 11
-154.347000
 21
61.500000
  0
LINE
  8
0
  6
CONTINUOUS
 62
7
 10
-145.598007
 20
57.500000
 11
-152.199997
 21
57.500000
  0
LINE
  8
0
  6
CONTINUOUS
 62
7
 10
-145.000000
 20
62.000000
 11
-111.000000
 21
62.000000
  0
LINE
  8
0
  6
CENTER
 62
2
 10
-117.000000
 20
102.500000
 11
-117.000000
 21
111.500000
  0
LINE
  8
0
  6
CENTER
 62
2
 10
-113.500000
 20
107.500000
 11
-121.400002
 21
107.500000
  0
LINE
  8
0
  6
CENTER
 62
2
 10
-120.500000
 20
103.500000
 11
-120.500000
 21
110.500000
  0
LINE
  8
0
  6
CENTER
 62
2
 10
-113.500000
 20
86.500000
 11
-120.822998
 21
86.500000
  0
LINE
  8
0
  6
CENTER
 62
2
 10
-120.500000
 20
90.500000
 11
-120.500000
 21
83.500000
  0
LINE
  8
0
  6
CENTER
 62
2
 10
-117.000000
 20
91.535301
 11
-117.000000
 21
82.000000
  0
LINE
  8
0
  6
CENTER
 62
2
 10
-138.500000
 20
87.000000
 11
-132.000000
 21
87.000000
  0
LINE
  8
0
  6
CENTER
 62
2
 10
-138.500000
 20
107.000000
 11
-132.000000
 21
107.000000
  0
LINE
  8
0
  6
CENTER
 62
2
 10
-117.500000
 20
107.000000
 11
-124.000000
 21
107.000000
  0
LINE
  8
0
  6
CENTER
 62
2
 10
-117.500000
 20
87.000000
 11
-124.000000
 21
87.000000
  0
LINE
  8
0
  6
CONTINUOUS
 62
7
 10
-126.000000
 20
56.000000
 11
-140.000000
 21
56.000000
  0
LINE
  8
0
  6
CONTINUOUS
 62
7
 10
-145.000000
 20
83.699997
 11
-145.000000
 21
110.300003
  0
LINE
  8
0
  6
CONTINUOUS
 62
7
 10
-145.000000
 20
110.300003
 11
-138.500000
 21
110.300003
  0
LINE
  8
0
  6
CONTINUOUS
 62
7
 10
-145.000000
 20
83.699997
 11
-138.500000
 21
83.699997
  0
LINE
  8
0
  6
CONTINUOUS
 62
7
 10
-111.653000
 20
61.500000
 11
-103.000000
 21
61.500000
  0
LINE
  8
0
  6
CENTER
 62
2
 10
-143.000000
 20
59.500000
 11
-143.000000
 21
52.500000
  0
LINE
  8
0
  6
CENTER
 62
2
 10
-146.500000
 20
56.000000
 11
-139.500000
 21
56.000000
  0
LINE
  8
0
  6
CENTER
 62
2
 10
-123.000000
 20
59.500000
 11
-123.000000
 21
52.500000
  0
LINE
  8
0
  6
CENTER
 62
2
 10
-126.500000
 20
56.000000
 11
-119.500000
 21
56.000000
  0
LINE
  8
0
  6
CENTER
 62
2
 10
-133.000000
 20
71.000000
 11
-133.000000
 21
65.000000
  0
LINE
  8
0
  6
CENTER
 62
2
 10
-136.000000
 20
68.000000
 11
-130.000000
 21
68.000000
  0
LINE
  8
0
  6
CENTER
 62
2
 10
-123.000000
 20
71.000000
 11
-123.000000
 21
65.000000
  0
LINE
  8
0
  6
CENTER
 62
2
 10
-126.000000
 20
68.000000
 11
-120.000000
 21
68.000000
  0
LINE
  8
0
  6
CENTER
 62
2
 10
65.000000
 20
59.500000
 11
65.000000
 21
52.500000
  0
LINE
  8
0
  6
CENTER
 62
2
 10
61.500000
 20
56.000000
 11
68.500000
 21
56.000000
  0
LINE
  8
0
  6
CENTER
 62
2
 10
74.000000
 20
74.000000
 11
74.000000
 21
50.000000
  0
LINE
  8
0
  6
CENTER
 62
2
 10
66.599998
 20
59.000000
 11
81.400002
 21
59.000000
  0
LINE
  8
0
  6
DASHED
 62
2
 10
-120.000000
 20
57.000000
 11
-114.000000
 21
57.000000
  0
LINE
  8
0
  6
CENTER
 62
2
 10
-117.000000
 20
59.500000
 11
-117.000000
 21
50.000000
  0
LINE
  8
0
  6
DASHED
 62
2
 10
-120.000000
 20
57.500000
 11
-120.000000
 21
57.000000
  0
LINE
  8
0
  6
DASHED
 62
2
 10
-146.000000
 20
57.500000
 11
-146.000000
 21
57.000000
  0
LINE
  8
0
  6
DASHED
 62
2
 10
-119.000000
 20
57.000000
 11
-119.000000
 21
52.000000
  0
LINE
  8
0
  6
DASHED
 62
2
 10
-115.000000
 20
57.000000
 11
-115.000000
 21
52.000000
  0
LINE
  8
0
  6
DASHED
 62
2
 10
-115.349998
 20
57.000000
 11
-115.349998
 21
52.000000
  0
LINE
  8
0
  6
DASHED
 62
2
 10
-118.650002
 20
57.000000
 11
-118.650002
 21
52.000000
  0
LINE
  8
0
  6
DASHED
 62
2
 10
-152.000000
 20
57.000000
 11
-146.000000
 21
57.000000
  0
LINE
  8
0
  6
CENTER
 62
2
 10
-149.000000
 20
59.500000
 11
-149.000000
 21
50.000000
  0
LINE
  8
0
  6
DASHED
 62
2
 10
-152.000000
 20
57.500000
 11
-152.000000
 21
57.000000
  0
LINE
  8
0
  6
DASHED
 62
2
 10
-151.000000
 20
57.000000
 11
-151.000000
 21
52.000000
  0
LINE
  8
0
  6
DASHED
 62
2
 10
-147.000000
 20
57.000000
 11
-147.000000
 21
52.000000
  0
LINE
  8
0
  6
DASHED
 62
2
 10
-147.350006
 20
57.000000
 11
-147.350006
 21
52.000000
  0
LINE
  8
0
  6
DASHED
 62
2
 10
-150.649994
 20
57.000000
 11
-150.649994
 21
52.000000
  0
LINE
  8
0
  6
DASHED
 62
2
 10
-152.000000
 20
142.000000
 11
-146.000000
 21
142.000000
  0
LINE
  8
0
  6
CENTER
 62
2
 10
-149.000000
 20
139.500000
 11
-149.000000
 21
149.000000
  0
LINE
  8
0
  6
DASHED
 62
2
 10
-151.000000
 20
142.000000
 11
-151.000000
 21
147.000000
  0
LINE
  8
0
  6
DASHED
 62
2
 10
-147.000000
 20
142.000000
 11
-147.000000
 21
147.000000
  0
LINE
  8
0
  6
DASHED
 62
2
 10
-147.350006
 20
142.000000
 11
-147.350006
 21
147.000000
  0
LINE
  8
0
  6
DASHED
 62
2
 10
-150.649994
 20
142.000000
 11
-150.649994
 21
147.000000
  0
LINE
  8
0
  6
DASHED
 62
2
 10
-120.000000
 20
142.000000
 11
-114.000000
 21
142.000000
  0
LINE
  8
0
  6
CENTER
 62
2
 10
-117.000000
 20
139.500000
 11
-117.000000
 21
149.000000
  0
LINE
  8
0
  6
DASHED
 62
2
 10
-119.000000
 20
142.000000
 11
-119.000000
 21
147.000000
  0
LINE
  8
0
  6
DASHED
 62
2
 10
-115.000000
 20
142.000000
 11
-115.000000
 21
147.000000
  0
LINE
  8
0
  6
DASHED
 62
2
 10
-115.349998
 20
142.000000
 11
-115.349998
 21
147.000000
  0
LINE
  8
0
  6
DASHED
 62
2
 10
-118.650002
 20
142.000000
 11
-118.650002
 21
147.000000
  0
LINE
  8
0
  6
DASHED
 62
2
 10
-120.000000
 20
141.500000
 11
-120.000000
 21
142.000000
  0
LINE
  8
0
  6
DASHED
 62
2
 10
-146.000000
 20
141.500000
 11
-146.000000
 21
142.000000
  0
LINE
  8
0
  6
DASHED
 62
2
 10
-114.000000
 20
57.500000
 11
-114.000000
 21
57.000000
  0
LINE
  8
0
  6
CENTER
 62
2
 10
-135.500000
 20
74.000000
 11
-135.500000
 21
70.000000
  0
LINE
  8
0
  6
CENTER
 62
2
 10
-120.500000
 20
74.000000
 11
-120.500000
 21
70.000000
  0
LINE
  8
0
  6
CENTER
 62
2
 10
64.000000
 20
74.000000
 11
64.000000
 21
70.000000
  0
LINE
  8
0
  6
CENTER
 62
2
 10
84.000000
 20
74.000000
 11
84.000000
 21
70.000000
  0
LINE
  8
0
  6
CONTINUOUS
 62
7
 10
-103.000000
 20
13.000000
 11
-163.000000
 21
13.000000
  0
LINE
  8
0
  6
CONTINUOUS
 62
7
 10
-163.000000
 20
13.000000
 11
-163.000000
 21
41.000000
  0
LINE
  8
0
  6
CONTINUOUS
 62
7
 10
-103.000000
 20
41.000000
 11
-163.000000
 21
41.000000
  0
LINE
  8
0
  6
CONTINUOUS
 62
7
 10
-103.000000
 20
13.000000
 11
-103.000000
 21
41.000000
  0
LINE
  8
0
  6
CENTER
 62
2
 10
-100.366997
 20
27.000000
 11
-167.000000
 21
27.000000
  0
LINE
  8
0
  6
CENTER
 62
2
 10
-155.500000
 20
38.400002
 11
-155.500000
 21
22.600000
  0
LINE
  8
0
  6
CENTER
 62
2
 10
-163.399994
 20
30.500000
 11
-147.600006
 21
30.500000
  0
LINE
  8
0
  6
CENTER
 62
2
 10
-149.000000
 20
41.500000
 11
-149.000000
 21
33.500000
  0
LINE
  8
0
  6
CENTER
 62
2
 10
-153.000000
 20
37.500000
 11
-145.000000
 21
37.500000
  0
LINE
  8
0
  6
CENTER
 62
2
 10
-117.000000
 20
41.500000
 11
-117.000000
 21
33.500000
  0
LINE
  8
0
  6
CENTER
 62
2
 10
-121.000000
 20
37.500000
 11
-113.000000
 21
37.500000
  0
LINE
  8
0
  6
CENTER
 62
2
 10
-110.500000
 20
38.400002
 11
-110.500000
 21
22.600000
  0
LINE
  8
0
  6
CENTER
 62
2
 10
-118.400002
 20
30.500000
 11
-102.599998
 21
30.500000
  0
LINE
  8
0
  6
CENTER
 62
2
 10
-117.000000
 20
20.500000
 11
-117.000000
 21
12.500000
  0
LINE
  8
0
  6
CENTER
 62
2
 10
-121.000000
 20
16.500000
 11
-113.000000
 21
16.500000
  0
LINE
  8
0
  6
CENTER
 62
2
 10
-149.000000
 20
20.500000
 11
-149.000000
 21
12.500000
  0
LINE
  8
0
  6
CENTER
 62
2
 10
-153.000000
 20
16.500000
 11
-145.000000
 21
16.500000
  0
LINE
  8
0
  6
CONTINUOUS
 62
7
 10
183.000000
 20
13.000000
 11
93.000000
 21
13.000000
  0
LINE
  8
0
  6
CONTINUOUS
 62
7
 10
93.000000
 20
13.000000
 11
93.000000
 21
41.000000
  0
LINE
  8
0
  6
CONTINUOUS
 62
7
 10
183.000000
 20
41.000000
 11
93.000000
 21
41.000000
  0
LINE
  8
0
  6
CONTINUOUS
 62
7
 10
183.000000
 20
13.000000
 11
183.000000
 21
41.000000
  0
LINE
  8
0
  6
CENTER
 62
2
 10
107.000000
 20
41.500000
 11
107.000000
 21
33.500000
  0
LINE
  8
0
  6
CENTER
 62
2
 10
103.000000
 20
37.500000
 11
111.000000
 21
37.500000
  0
LINE
  8
0
  6
CENTER
 62
2
 10
100.500000
 20
38.400002
 11
100.500000
 21
22.600000
  0
LINE
  8
0
  6
CENTER
 62
2
 10
92.599998
 20
30.500000
 11
108.400002
 21
30.500000
  0
LINE
  8
0
  6
CENTER
 62
2
 10
107.000000
 20
20.500000
 11
107.000000
 21
12.500000
  0
LINE
  8
0
  6
CENTER
 62
2
 10
103.000000
 20
16.500000
 11
111.000000
 21
16.500000
  0
LINE
  8
0
  6
CENTER
 62
2
 10
169.000000
 20
20.500000
 11
169.000000
 21
12.500000
  0
LINE
  8
0
  6
CENTER
 62
2
 10
165.000000
 20
16.500000
 11
173.000000
 21
16.500000
  0
LINE
  8
0
  6
CENTER
 62
2
 10
169.000000
 20
41.500000
 11
169.000000
 21
33.500000
  0
LINE
  8
0
  6
CENTER
 62
2
 10
165.000000
 20
37.500000
 11
173.000000
 21
37.500000
  0
LINE
  8
0
  6
CENTER
 62
2
 10
175.500000
 20
38.400002
 11
175.500000
 21
22.600000
  0
LINE
  8
0
  6
CENTER
 62
2
 10
167.600006
 20
30.500000
 11
183.399994
 21
30.500000
  0
LINE
  8
0
  6
CENTER
 62
2
 10
91.000000
 20
27.000000
 11
185.000000
 21
27.000000
  0
LINE
  8
0
  6
CENTER
 62
2
 10
84.500000
 20
54.000000
 11
84.500000
 21
50.000000
  0
LINE
  8
0
  6
CENTER
 62
2
 10
63.500000
 20
54.000000
 11
63.500000
 21
50.000000
  0
LINE
  8
0
  6
CENTER
 62
2
 10
120.693001
 20
115.000000
 11
95.912201
 21
115.000000
  0
LINE
  8
0
  6
CONTINUOUS
 62
7
 10
119.000000
 20
127.500000
 11
109.000000
 21
127.500000
  0
LINE
  8
0
  6
CONTINUOUS
 62
7
 10
154.000000
 20
138.000000
 11
122.000000
 21
138.000000
  0
LINE
  8
0
  6
CONTINUOUS
 62
7
 10
140.000000
 20
127.500000
 11
156.000000
 21
127.500000
  0
LINE
  8
0
  6
CONTINUOUS
 62
7
 10
98.000000
 20
112.500000
 11
98.000000
 21
117.500000
  0
LINE
  8
0
  6
CONTINUOUS
 62
7
 10
109.000000
 20
146.500000
 11
167.000000
 21
146.500000
  0
LINE
  8
0
  6
CONTINUOUS
 62
7
 10
178.000000
 20
112.500000
 11
178.000000
 21
117.500000
  0
LINE
  8
0
  6
CENTER
 62
2
 10
155.397003
 20
132.000000
 11
178.587997
 21
132.000000
  0
LINE
  8
0
  6
CONTINUOUS
 62
7
 10
156.000000
 20
118.500000
 11
140.000000
 21
118.500000
  0
LINE
  8
0
  6
CONTINUOUS
 62
7
 10
119.000000
 20
71.500000
 11
109.000000
 21
71.500000
  0
LINE
  8
0
  6
CONTINUOUS
 62
7
 10
140.000000
 20
135.500000
 11
156.000000
 21
135.500000
  0
LINE
  8
0
  6
CONTINUOUS
 62
7
 10
140.000000
 20
135.500000
 11
140.000000
 21
127.500000
  0
LINE
  8
0
  6
CONTINUOUS
 62
7
 10
156.000000
 20
135.500000
 11
156.000000
 21
127.500000
  0
LINE
  8
0
  6
CONTINUOUS
 62
7
 10
109.000000
 20
146.500000
 11
109.000000
 21
127.500000
  0
LINE
  8
0
  6
CONTINUOUS
 62
7
 10
167.000000
 20
146.500000
 11
167.000000
 21
127.500000
  0
LINE
  8
0
  6
CONTINUOUS
 62
7
 10
119.000000
 20
135.000000
 11
119.000000
 21
127.500000
  0
LINE
  8
0
  6
CONTINUOUS
 62
7
 10
157.000000
 20
135.000000
 11
157.000000
 21
127.500000
  0
LINE
  8
0
  6
CENTER
 62
2
 10
155.307007
 20
115.000000
 11
180.087997
 21
115.000000
  0
LINE
  8
0
  6
CONTINUOUS
 62
7
 10
167.000000
 20
119.000000
 11
109.000000
 21
119.000000
  0
LINE
  8
0
  6
CONTINUOUS
 62
7
 10
140.000000
 20
110.500000
 11
140.000000
 21
118.500000
  0
LINE
  8
0
  6
CONTINUOUS
 62
7
 10
156.000000
 20
110.500000
 11
156.000000
 21
118.500000
  0
LINE
  8
0
  6
CONTINUOUS
 62
7
 10
157.000000
 20
111.000000
 11
157.000000
 21
119.000000
  0
LINE
  8
0
  6
CONTINUOUS
 62
7
 10
119.000000
 20
111.000000
 11
119.000000
 21
119.000000
  0
LINE
  8
0
  6
CONTINUOUS
 62
7
 10
172.500000
 20
127.500000
 11
157.000000
 21
127.500000
  0
LINE
  8
0
  6
CONTINUOUS
 62
7
 10
109.000000
 20
111.000000
 11
109.000000
 21
119.000000
  0
LINE
  8
0
  6
CONTINUOUS
 62
7
 10
167.000000
 20
111.000000
 11
167.000000
 21
119.000000
  0
LINE
  8
0
  6
CONTINUOUS
 62
7
 10
119.000000
 20
67.500000
 11
119.000000
 21
71.500000
  0
LINE
  8
0
  6
CONTINUOUS
 62
7
 10
109.000000
 20
67.500000
 11
109.000000
 21
71.500000
  0
LINE
  8
0
  6
CONTINUOUS
 62
2
 10
105.000000
 20
117.099998
 11
98.000000
 21
117.099998
  0
LINE
  8
0
  6
CONTINUOUS
 62
7
 10
105.000000
 20
117.500000
 11
98.000000
 21
117.500000
  0
LINE
  8
0
  6
CONTINUOUS
 62
2
 10
105.000000
 20
112.900002
 11
98.000000
 21
112.900002
  0
LINE
  8
0
  6
CONTINUOUS
 62
7
 10
105.000000
 20
112.500000
 11
98.000000
 21
112.500000
  0
LINE
  8
0
  6
CONTINUOUS
 62
7
 10
171.000000
 20
112.500000
 11
178.000000
 21
112.500000
  0
LINE
  8
0
  6
CONTINUOUS
 62
2
 10
171.000000
 20
112.900002
 11
178.000000
 21
112.900002
  0
LINE
  8
0
  6
CONTINUOUS
 62
2
 10
171.000000
 20
117.099998
 11
178.000000
 21
117.099998
  0
LINE
  8
0
  6
CONTINUOUS
 62
7
 10
171.000000
 20
117.500000
 11
178.000000
 21
117.500000
  0
LINE
  8
0
  6
CONTINUOUS
 62
7
 10
105.000000
 20
135.699997
 11
105.000000
 21
128.300003
  0
LINE
  8
0
  6
CONTINUOUS
 62
7
 10
105.000000
 20
135.699997
 11
109.000000
 21
135.699997
  0
LINE
  8
0
  6
CONTINUOUS
 62
7
 10
105.000000
 20
128.300003
 11
109.000000
 21
128.300003
  0
LINE
  8
0
  6
CONTINUOUS
 62
7
 10
105.000000
 20
134.020996
 11
109.000000
 21
134.020996
  0
LINE
  8
0
  6
CONTINUOUS
 62
7
 10
109.000000
 20
133.199997
 11
105.000000
 21
133.199997
  0
LINE
  8
0
  6
CONTINUOUS
 62
7
 10
105.000000
 20
130.800003
 11
109.000000
 21
130.800003
  0
LINE
  8
0
  6
CONTINUOUS
 62
7
 10
109.000000
 20
129.979004
 11
105.000000
 21
129.979004
  0
LINE
  8
0
  6
CONTINUOUS
 62
7
 10
171.000000
 20
135.699997
 11
171.000000
 21
128.300003
  0
LINE
  8
0
  6
CONTINUOUS
 62
7
 10
171.000000
 20
135.699997
 11
167.000000
 21
135.699997
  0
LINE
  8
0
  6
CONTINUOUS
 62
7
 10
171.000000
 20
134.020996
 11
167.000000
 21
134.020996
  0
LINE
  8
0
  6
CONTINUOUS
 62
7
 10
167.000000
 20
133.199997
 11
171.000000
 21
133.199997
  0
LINE
  8
0
  6
CONTINUOUS
 62
7
 10
171.000000
 20
130.800003
 11
167.000000
 21
130.800003
  0
LINE
  8
0
  6
CONTINUOUS
 62
7
 10
167.000000
 20
129.979004
 11
171.000000
 21
129.979004
  0
LINE
  8
0
  6
CONTINUOUS
 62
7
 10
109.000000
 20
111.500000
 11
105.000000
 21
111.500000
  0
LINE
  8
0
  6
CONTINUOUS
 62
7
 10
109.000000
 20
118.500000
 11
105.000000
 21
118.500000
  0
LINE
  8
0
  6
CONTINUOUS
 62
7
 10
105.000000
 20
111.500000
 11
105.000000
 21
118.500000
  0
LINE
  8
0
  6
CONTINUOUS
 62
7
 10
105.000000
 20
115.710999
 11
109.000000
 21
115.710999
  0
LINE
  8
0
  6
CONTINUOUS
 62
7
 10
105.000000
 20
114.289001
 11
109.000000
 21
114.289001
  0
LINE
  8
0
  6
CONTINUOUS
 62
7
 10
105.000000
 20
117.789001
 11
109.000000
 21
117.789001
  0
LINE
  8
0
  6
CONTINUOUS
 62
7
 10
105.000000
 20
112.210999
 11
109.000000
 21
112.210999
  0
LINE
  8
0
  6
CONTINUOUS
 62
7
 10
171.000000
 20
128.300003
 11
167.000000
 21
128.300003
  0
LINE
  8
0
  6
CENTER
 62
2
 10
112.000000
 20
9.000010
 11
95.912201
 21
9.000010
  0
LINE
  8
0
  6
CONTINUOUS
 62
7
 10
98.000000
 20
11.500000
 11
98.000000
 21
6.500010
  0
LINE
  8
0
  6
CONTINUOUS
 62
2
 10
105.000000
 20
6.900000
 11
98.000000
 21
6.900000
  0
LINE
  8
0
  6
CONTINUOUS
 62
2
 10
105.000000
 20
11.100000
 11
98.000000
 21
11.100000
  0
LINE
  8
0
  6
CONTINUOUS
 62
7
 10
105.000000
 20
11.500000
 11
98.000000
 21
11.500000
  0
LINE
  8
0
  6
CONTINUOUS
 62
7
 10
105.000000
 20
6.500010
 11
98.000000
 21
6.500010
  0
LINE
  8
0
  6
CONTINUOUS
 62
2
 10
171.000000
 20
11.100000
 11
178.000000
 21
11.100000
  0
LINE
  8
0
  6
CONTINUOUS
 62
7
 10
171.000000
 20
11.500000
 11
178.000000
 21
11.500000
  0
LINE
  8
0
  6
CONTINUOUS
 62
7
 10
178.000000
 20
11.500000
 11
178.000000
 21
6.500010
  0
LINE
  8
0
  6
CONTINUOUS
 62
2
 10
171.000000
 20
6.900000
 11
178.000000
 21
6.900000
  0
LINE
  8
0
  6
CONTINUOUS
 62
7
 10
171.000000
 20
6.500010
 11
178.000000
 21
6.500010
  0
LINE
  8
0
  6
CONTINUOUS
 62
7
 10
167.000000
 20
5.500020
 11
171.000000
 21
5.500020
  0
LINE
  8
0
  6
CONTINUOUS
 62
7
 10
167.000000
 20
12.500000
 11
171.000000
 21
12.500000
  0
LINE
  8
0
  6
CONTINUOUS
 62
7
 10
171.000000
 20
5.500020
 11
171.000000
 21
12.500000
  0
LINE
  8
0
  6
CONTINUOUS
 62
7
 10
171.000000
 20
9.710780
 11
167.000000
 21
9.710780
  0
LINE
  8
0
  6
CONTINUOUS
 62
7
 10
171.000000
 20
8.289240
 11
167.000000
 21
8.289240
  0
LINE
  8
0
  6
CONTINUOUS
 62
7
 10
171.000000
 20
6.210800
 11
167.000000
 21
6.210800
  0
LINE
  8
0
  6
CENTER
 62
2
 10
164.000000
 20
9.000010
 11
178.914001
 21
9.000010
  0
LINE
  8
0
  6
CONTINUOUS
 62
7
 10
167.000000
 20
5.000000
 11
109.000000
 21
5.000000
  0
LINE
  8
0
  6
CONTINUOUS
 62
7
 10
109.000000
 20
13.000000
 11
109.000000
 21
5.000000
  0
LINE
  8
0
  6
CONTINUOUS
 62
7
 10
167.000000
 20
13.000000
 11
167.000000
 21
5.000000
  0
LINE
  8
0
  6
CONTINUOUS
 62
7
 10
109.000000
 20
12.500000
 11
105.000000
 21
12.500000
  0
LINE
  8
0
  6
CONTINUOUS
 62
7
 10
109.000000
 20
5.499990
 11
105.000000
 21
5.499990
  0
LINE
  8
0
  6
CONTINUOUS
 62
7
 10
105.000000
 20
12.500000
 11
105.000000
 21
5.499990
  0
LINE
  8
0
  6
CONTINUOUS
 62
7
 10
105.000000
 20
8.289240
 11
109.000000
 21
8.289240
  0
LINE
  8
0
  6
CONTINUOUS
 62
7
 10
105.000000
 20
9.710780
 11
109.000000
 21
9.710780
  0
LINE
  8
0
  6
CONTINUOUS
 62
7
 10
105.000000
 20
6.210770
 11
109.000000
 21
6.210770
  0
LINE
  8
0
  6
CONTINUOUS
 62
7
 10
105.000000
 20
11.789200
 11
109.000000
 21
11.789200
  0
LINE
  8
0
  6
CONTINUOUS
 62
7
 10
98.000000
 20
129.500000
 11
98.000000
 21
134.500000
  0
LINE
  8
0
  6
CONTINUOUS
 62
2
 10
105.000000
 20
134.100006
 11
98.000000
 21
134.100006
  0
LINE
  8
0
  6
CONTINUOUS
 62
7
 10
105.000000
 20
134.500000
 11
98.000000
 21
134.500000
  0
LINE
  8
0
  6
CONTINUOUS
 62
2
 10
105.000000
 20
129.899994
 11
98.000000
 21
129.899994
  0
LINE
  8
0
  6
CONTINUOUS
 62
7
 10
105.000000
 20
129.500000
 11
98.000000
 21
129.500000
  0
LINE
  8
0
  6
CONTINUOUS
 62
7
 10
171.000000
 20
134.500000
 11
178.000000
 21
134.500000
  0
LINE
  8
0
  6
CONTINUOUS
 62
2
 10
171.000000
 20
134.100006
 11
178.000000
 21
134.100006
  0
LINE
  8
0
  6
CONTINUOUS
 62
7
 10
178.000000
 20
129.500000
 11
178.000000
 21
134.500000
  0
LINE
  8
0
  6
CONTINUOUS
 62
2
 10
171.000000
 20
129.899994
 11
178.000000
 21
129.899994
  0
LINE
  8
0
  6
CONTINUOUS
 62
7
 10
171.000000
 20
129.500000
 11
178.000000
 21
129.500000
  0
LINE
  8
0
  6
CONTINUOUS
 62
7
 10
171.000000
 20
111.500000
 11
171.000000
 21
118.500000
  0
LINE
  8
0
  6
CONTINUOUS
 62
7
 10
171.000000
 20
117.789001
 11
167.000000
 21
117.789001
  0
LINE
  8
0
  6
CONTINUOUS
 62
7
 10
167.000000
 20
118.500000
 11
171.000000
 21
118.500000
  0
LINE
  8
0
  6
CONTINUOUS
 62
7
 10
171.000000
 20
115.710999
 11
167.000000
 21
115.710999
  0
LINE
  8
0
  6
CONTINUOUS
 62
7
 10
171.000000
 20
114.289001
 11
167.000000
 21
114.289001
  0
LINE
  8
0
  6
CONTINUOUS
 62
7
 10
171.000000
 20
112.210999
 11
167.000000
 21
112.210999
  0
LINE
  8
0
  6
CONTINUOUS
 62
7
 10
167.000000
 20
111.500000
 11
171.000000
 21
111.500000
  0
LINE
  8
0
  6
CONTINUOUS
 62
7
 10
98.000000
 20
69.500000
 11
98.000000
 21
67.500000
  0
LINE
  8
0
  6
CONTINUOUS
 62
7
 10
178.000000
 20
69.500000
 11
178.000000
 21
67.500000
  0
LINE
  8
0
  6
CONTINUOUS
 62
7
 10
172.500000
 20
69.500000
 11
178.000000
 21
69.500000
  0
LINE
  8
0
  6
CONTINUOUS
 62
7
 10
208.000000
 20
67.500000
 11
196.000000
 21
67.500000
  0
LINE
  8
0
  6
CONTINUOUS
 62
7
 10
208.000000
 20
64.290703
 11
208.000000
 21
61.500000
  0
LINE
  8
0
  6
CONTINUOUS
 62
7
 10
208.000000
 20
67.500000
 11
208.000000
 21
66.709297
  0
LINE
  8
0
  6
CONTINUOUS
 62
7
 10
215.500000
 20
72.000000
 11
209.000000
 21
72.000000
  0
LINE
  8
0
  6
CONTINUOUS
 62
7
 10
215.500000
 20
62.000000
 11
208.000000
 21
62.000000
  0
LINE
  8
0
  6
CONTINUOUS
 62
7
 10
208.699997
 20
71.699997
 11
195.300003
 21
71.699997
  0
LINE
  8
0
  6
CONTINUOUS
 62
7
 10
196.000000
 20
64.290703
 11
196.000000
 21
61.500000
  0
LINE
  8
0
  6
CONTINUOUS
 62
7
 10
196.000000
 20
67.500000
 11
196.000000
 21
66.709297
  0
LINE
  8
0
  6
CONTINUOUS
 62
7
 10
188.500000
 20
72.000000
 11
195.000000
 21
72.000000
  0
LINE
  8
0
  6
CONTINUOUS
 62
7
 10
188.500000
 20
72.000000
 11
188.500000
 21
62.000000
  0
LINE
  8
0
  6
CONTINUOUS
 62
7
 10
188.500000
 20
62.000000
 11
196.000000
 21
62.000000
  0
LINE
  8
0
  6
CONTINUOUS
 62
7
 10
215.500000
 20
72.000000
 11
215.500000
 21
62.000000
  0
LINE
  8
0
  6
CONTINUOUS
 62
7
 10
209.000000
 20
72.000000
 11
208.699997
 21
71.699997
  0
LINE
  8
0
  6
CONTINUOUS
 62
7
 10
195.000000
 20
72.000000
 11
195.300003
 21
71.699997
  0
LINE
  8
0
  6
CONTINUOUS
 62
7
 10
188.000000
 20
61.500000
 11
196.000000
 21
61.500000
  0
LINE
  8
0
  6
CONTINUOUS
 62
7
 10
188.000000
 20
52.000000
 11
216.000000
 21
52.000000
  0
LINE
  8
0
  6
CONTINUOUS
 62
7
 10
216.000000
 20
61.500000
 11
208.000000
 21
61.500000
  0
LINE
  8
0
  6
CONTINUOUS
 62
7
 10
188.000000
 20
61.500000
 11
188.000000
 21
52.000000
  0
LINE
  8
0
  6
CENTER
 62
2
 10
211.000000
 20
59.500000
 11
211.000000
 21
52.500000
  0
LINE
  8
0
  6
CENTER
 62
2
 10
214.500000
 20
56.000000
 11
207.500000
 21
56.000000
  0
LINE
  8
0
  6
CENTER
 62
2
 10
202.000000
 20
74.000000
 11
202.000000
 21
50.000000
  0
LINE
  8
0
  6
CENTER
 62
2
 10
209.399994
 20
59.000000
 11
194.600006
 21
59.000000
  0
LINE
  8
0
  6
CENTER
 62
2
 10
192.000000
 20
74.000000
 11
192.000000
 21
70.000000
  0
LINE
  8
0
  6
CENTER
 62
2
 10
212.000000
 20
74.000000
 11
212.000000
 21
70.000000
  0
LINE
  8
0
  6
CENTER
 62
2
 10
212.500000
 20
54.000000
 11
212.500000
 21
50.000000
  0
LINE
  8
0
  6
CENTER
 62
2
 10
191.500000
 20
54.000000
 11
191.500000
 21
50.000000
  0
LINE
  8
0
  6
CONTINUOUS
 62
7
 10
140.000000
 20
111.000000
 11
93.000000
 21
111.000000
  0
LINE
  8
0
  6
CONTINUOUS
 62
7
 10
-103.000000
 20
111.000000
 11
-120.000000
 21
111.000000
  0
LINE
  8
0
  6
CONTINUOUS
 62
7
 10
123.500000
 20
137.000000
 11
156.235992
 21
137.000000
  0
LINE
  8
0
  6
CONTINUOUS
 62
7
 10
120.000000
 20
131.500000
 11
123.500000
 21
131.500000
  0
LINE
  8
0
  6
CENTER
 62
2
 10
120.602997
 20
132.000000
 11
97.412201
 21
132.000000
  0
LINE
  8
0
  6
CENTER
 62
2
 10
-144.897003
 20
132.000000
 11
-163.587997
 21
132.000000
  0
LINE
  8
0
  6
CENTER
 62
2
 10
-120.602997
 20
132.000000
 11
-103.412003
 21
132.000000
  0
LINE
  8
0
  6
CONTINUOUS
 62
7
 10
-138.500000
 20
127.000000
 11
-117.500000
 21
127.000000
  0
LINE
  8
0
  6
CONTINUOUS
 62
7
 10
-103.000000
 20
147.000000
 11
-103.000000
 21
131.500000
  0
LINE
  8
0
  6
CONTINUOUS
 62
7
 10
-163.000000
 20
147.000000
 11
-103.000000
 21
147.000000
  0
LINE
  8
0
  6
CONTINUOUS
 62
7
 10
-163.000000
 20
137.500000
 11
-154.347000
 21
137.500000
  0
LINE
  8
0
  6
CONTINUOUS
 62
7
 10
-145.000000
 20
137.000000
 11
-119.267998
 21
137.000000
  0
LINE
  8
0
  6
CONTINUOUS
 62
7
 10
-163.000000
 20
147.000000
 11
-163.000000
 21
131.500000
  0
LINE
  8
0
  6
CONTINUOUS
 62
7
 10
-163.000000
 20
137.500000
 11
-154.347000
 21
137.500000
  0
LINE
  8
0
  6
CONTINUOUS
 62
7
 10
-111.653000
 20
137.500000
 11
-103.000000
 21
137.500000
  0
LINE
  8
0
  6
CONTINUOUS
 62
7
 10
-163.000000
 20
131.500000
 11
-162.000000
 21
131.500000
  0
LINE
  8
0
  6
CONTINUOUS
 62
7
 10
-104.000000
 20
131.500000
 11
-103.000000
 21
131.500000
  0
LINE
  8
0
  6
CONTINUOUS
 62
7
 10
-111.000000
 20
137.000000
 11
-111.000000
 21
135.699997
  0
LINE
  8
0
  6
CONTINUOUS
 62
7
 10
-145.000000
 20
137.000000
 11
-145.000000
 21
127.500000
  0
LINE
  8
0
  6
CONTINUOUS
 62
7
 10
-145.000000
 20
127.500000
 11
-138.500000
 21
127.500000
  0
LINE
  8
0
  6
CONTINUOUS
 62
7
 10
-138.500000
 20
137.000000
 11
-138.500000
 21
127.000000
  0
LINE
  8
0
  6
CONTINUOUS
 62
7
 10
-117.500000
 20
127.500000
 11
-117.500000
 21
127.000000
  0
LINE
  8
0
  6
CONTINUOUS
 62
7
 10
-119.000000
 20
127.500000
 11
-111.000000
 21
127.500000
  0
LINE
  8
0
  6
CONTINUOUS
 62
7
 10
-136.000000
 20
135.500000
 11
-136.000000
 21
127.500000
  0
LINE
  8
0
  6
CONTINUOUS
 62
7
 10
-120.000000
 20
127.500000
 11
-136.000000
 21
127.500000
  0
LINE
  8
0
  6
CONTINUOUS
 62
7
 10
-120.000000
 20
135.500000
 11
-120.000000
 21
127.500000
  0
LINE
  8
0
  6
CONTINUOUS
 62
7
 10
-151.500000
 20
127.500000
 11
-147.000000
 21
127.500000
  0
LINE
  8
0
  6
CONTINUOUS
 62
7
 10
-151.500000
 20
146.500000
 11
-114.500000
 21
146.500000
  0
LINE
  8
0
  6
CONTINUOUS
 62
7
 10
-119.000000
 20
136.000000
 11
-119.000000
 21
127.500000
  0
LINE
  8
0
  6
CONTINUOUS
 62
7
 10
-111.000000
 20
128.300003
 11
-111.000000
 21
127.500000
  0
LINE
  8
0
  6
CONTINUOUS
 62
7
 10
-114.500000
 20
137.000000
 11
-111.000000
 21
137.000000
  0
LINE
  8
0
  6
CONTINUOUS
 62
7
 10
-104.000000
 20
134.500000
 11
-104.000000
 21
129.500000
  0
LINE
  8
0
  6
CONTINUOUS
 62
7
 10
-147.000000
 20
136.000000
 11
-147.000000
 21
127.500000
  0
LINE
  8
0
  6
CONTINUOUS
 62
7
 10
-155.500000
 20
135.699997
 11
-155.500000
 21
128.300003
  0
LINE
  8
0
  6
CONTINUOUS
 62
7
 10
-151.500000
 20
128.300003
 11
-155.500000
 21
128.300003
  0
LINE
  8
0
  6
CONTINUOUS
 62
7
 10
-151.500000
 20
135.699997
 11
-155.500000
 21
135.699997
  0
LINE
  8
0
  6
CONTINUOUS
 62
7
 10
-151.500000
 20
133.199997
 11
-155.500000
 21
133.199997
  0
LINE
  8
0
  6
CONTINUOUS
 62
7
 10
-151.500000
 20
134.431000
 11
-155.500000
 21
134.431000
  0
LINE
  8
0
  6
CONTINUOUS
 62
7
 10
-151.500000
 20
130.800003
 11
-155.500000
 21
130.800003
  0
LINE
  8
0
  6
CONTINUOUS
 62
7
 10
-151.500000
 20
129.569000
 11
-155.500000
 21
129.569000
  0
LINE
  8
0
  6
CONTINUOUS
 62
7
 10
-162.000000
 20
134.500000
 11
-155.500000
 21
134.500000
  0
LINE
  8
0
  6
CONTINUOUS
 62
7
 10
-162.000000
 20
129.500000
 11
-155.500000
 21
129.500000
  0
LINE
  8
0
  6
CONTINUOUS
 62
2
 10
-162.000000
 20
134.100006
 11
-155.500000
 21
134.100006
  0
LINE
  8
0
  6
CONTINUOUS
 62
2
 10
-162.000000
 20
129.899994
 11
-155.500000
 21
129.899994
  0
LINE
  8
0
  6
CONTINUOUS
 62
7
 10
-162.000000
 20
134.500000
 11
-162.000000
 21
129.500000
  0
LINE
  8
0
  6
CONTINUOUS
 62
7
 10
-146.000000
 20
131.500000
 11
-145.000000
 21
131.500000
  0
LINE
  8
0
  6
CONTINUOUS
 62
7
 10
-114.500000
 20
146.500000
 11
-114.500000
 21
127.500000
  0
LINE
  8
0
  6
CONTINUOUS
 62
7
 10
-151.500000
 20
146.500000
 11
-151.500000
 21
127.500000
  0
LINE
  8
0
  6
CONTINUOUS
 62
7
 10
-121.000000
 20
138.000000
 11
-145.000000
 21
138.000000
  0
LINE
  8
0
  6
CONTINUOUS
 62
7
 10
-120.000000
 20
135.500000
 11
-136.000000
 21
135.500000
  0
LINE
  8
0
  6
CONTINUOUS
 62
7
 10
-110.500000
 20
129.500000
 11
-104.000000
 21
129.500000
  0
LINE
  8
0
  6
CONTINUOUS
 62
2
 10
-110.500000
 20
129.899994
 11
-104.000000
 21
129.899994
  0
LINE
  8
0
  6
CONTINUOUS
 62
2
 10
-110.500000
 20
134.100006
 11
-104.000000
 21
134.100006
  0
LINE
  8
0
  6
CONTINUOUS
 62
7
 10
-110.500000
 20
134.500000
 11
-104.000000
 21
134.500000
  0
LINE
  8
0
  6
CONTINUOUS
 62
7
 10
-114.500000
 20
128.300003
 11
-110.500000
 21
128.300003
  0
LINE
  8
0
  6
CONTINUOUS
 62
7
 10
-110.500000
 20
128.300003
 11
-110.500000
 21
135.699997
  0
LINE
  8
0
  6
CONTINUOUS
 62
7
 10
-114.500000
 20
129.569000
 11
-110.500000
 21
129.569000
  0
LINE
  8
0
  6
CONTINUOUS
 62
7
 10
-114.500000
 20
130.800003
 11
-110.500000
 21
130.800003
  0
LINE
  8
0
  6
CONTINUOUS
 62
7
 10
-114.500000
 20
133.199997
 11
-110.500000
 21
133.199997
  0
LINE
  8
0
  6
CONTINUOUS
 62
7
 10
-114.500000
 20
134.431000
 11
-110.500000
 21
134.431000
  0
LINE
  8
0
  6
CONTINUOUS
 62
7
 10
-114.500000
 20
135.699997
 11
-110.500000
 21
135.699997
  0
LINE
  8
0
  6
DASHED
 62
2
 10
-152.000000
 20
141.500000
 11
-152.000000
 21
142.000000
  0
LINE
  8
0
  6
DASHED
 62
2
 10
-114.000000
 20
141.500000
 11
-114.000000
 21
142.000000
  0
LINE
  8
0
  6
CONTINUOUS
 62
7
 10
-147.000000
 20
71.500000
 11
-151.500000
 21
71.500000
  0
LINE
  8
0
  6
CONTINUOUS
 62
7
 10
-147.000000
 20
67.500000
 11
-147.000000
 21
71.500000
  0
LINE
  8
0
  6
CONTINUOUS
 62
7
 10
-111.000000
 20
69.431099
 11
-110.500000
 21
69.431099
  0
LINE
  8
0
  6
CONTINUOUS
 62
7
 10
-151.500000
 20
67.500000
 11
-151.500000
 21
71.500000
  0
LINE
  8
0
  6
CONTINUOUS
 62
7
 10
-155.500000
 20
70.699997
 11
-155.500000
 21
67.500000
  0
LINE
  8
0
  6
CONTINUOUS
 62
7
 10
-151.500000
 20
70.699997
 11
-155.500000
 21
70.699997
  0
LINE
  8
0
  6
CONTINUOUS
 62
7
 10
-151.500000
 20
68.199997
 11
-155.500000
 21
68.199997
  0
LINE
  8
0
  6
CONTINUOUS
 62
7
 10
-151.500000
 20
69.431099
 11
-155.500000
 21
69.431099
  0
LINE
  8
0
  6
CONTINUOUS
 62
7
 10
-162.000000
 20
69.500000
 11
-155.500000
 21
69.500000
  0
LINE
  8
0
  6
CONTINUOUS
 62
2
 10
-162.000000
 20
69.099998
 11
-155.500000
 21
69.099998
  0
LINE
  8
0
  6
CONTINUOUS
 62
7
 10
-162.000000
 20
69.500000
 11
-162.000000
 21
67.500000
  0
LINE
  8
0
  6
CONTINUOUS
 62
7
 10
-104.000000
 20
69.500000
 11
-110.500000
 21
69.500000
  0
LINE
  8
0
  6
CONTINUOUS
 62
7
 10
-104.000000
 20
67.500000
 11
-104.000000
 21
69.500000
  0
LINE
  8
0
  6
CONTINUOUS
 62
2
 10
-104.000000
 20
69.099998
 11
-110.500000
 21
69.099998
  0
LINE
  8
0
  6
CONTINUOUS
 62
7
 10
-110.500000
 20
67.500000
 11
-110.500000
 21
70.699997
  0
LINE
  8
0
  6
CONTINUOUS
 62
7
 10
-111.000000
 20
70.699997
 11
-110.500000
 21
70.699997
  0
LINE
  8
0
  6
CONTINUOUS
 62
7
 10
-111.000000
 20
68.199997
 11
-110.500000
 21
68.199997
  0
LINE
  8
0
  6
CENTER
 62
2
 10
-149.000000
 20
9.000010
 11
-164.087997
 21
9.000010
  0
LINE
  8
0
  6
CENTER
 62
2
 10
-117.000000
 20
9.000010
 11
-103.085999
 21
9.000010
  0
LINE
  8
0
  6
CONTINUOUS
 62
7
 10
-114.500000
 20
5.000000
 11
-151.500000
 21
5.000000
  0
LINE
  8
0
  6
CONTINUOUS
 62
7
 10
-151.500000
 20
13.000000
 11
-151.500000
 21
5.000000
  0
LINE
  8
0
  6
CONTINUOUS
 62
7
 10
-114.500000
 20
13.000000
 11
-114.500000
 21
5.000000
  0
LINE
  8
0
  6
CONTINUOUS
 62
7
 10
-162.000000
 20
11.500000
 11
-155.500000
 21
11.500000
  0
LINE
  8
0
  6
CONTINUOUS
 62
7
 10
-162.000000
 20
6.500020
 11
-155.500000
 21
6.500020
  0
LINE
  8
0
  6
CONTINUOUS
 62
2
 10
-162.000000
 20
11.100000
 11
-155.500000
 21
11.100000
  0
LINE
  8
0
  6
CONTINUOUS
 62
2
 10
-162.000000
 20
6.900020
 11
-155.500000
 21
6.900020
  0
LINE
  8
0
  6
CONTINUOUS
 62
7
 10
-162.000000
 20
11.500000
 11
-162.000000
 21
6.500020
  0
LINE
  8
0
  6
CONTINUOUS
 62
7
 10
-104.000000
 20
6.499990
 11
-110.500000
 21
6.499990
  0
LINE
  8
0
  6
CONTINUOUS
 62
7
 10
-104.000000
 20
11.500000
 11
-110.500000
 21
11.500000
  0
LINE
  8
0
  6
CONTINUOUS
 62
2
 10
-104.000000
 20
6.899990
 11
-110.500000
 21
6.899990
  0
LINE
  8
0
  6
CONTINUOUS
 62
2
 10
-104.000000
 20
11.100000
 11
-110.500000
 21
11.100000
  0
LINE
  8
0
  6
CONTINUOUS
 62
7
 10
-104.000000
 20
6.499990
 11
-104.000000
 21
11.500000
  0
LINE
  8
0
  6
CONTINUOUS
 62
7
 10
-151.500000
 20
5.500010
 11
-155.500000
 21
5.500010
  0
LINE
  8
0
  6
CONTINUOUS
 62
7
 10
-155.500000
 20
12.500000
 11
-155.500000
 21
5.500010
  0
LINE
  8
0
  6
CONTINUOUS
 62
7
 10
-151.500000
 20
12.500000
 11
-155.500000
 21
12.500000
  0
LINE
  8
0
  6
CONTINUOUS
 62
7
 10
-151.500000
 20
11.789200
 11
-155.500000
 21
11.789200
  0
LINE
  8
0
  6
CONTINUOUS
 62
7
 10
-151.500000
 20
9.710780
 11
-155.500000
 21
9.710780
  0
LINE
  8
0
  6
CONTINUOUS
 62
7
 10
-151.500000
 20
8.289240
 11
-155.500000
 21
8.289240
  0
LINE
  8
0
  6
CONTINUOUS
 62
7
 10
-151.500000
 20
6.210770
 11
-155.500000
 21
6.210770
  0
LINE
  8
0
  6
CONTINUOUS
 62
7
 10
-114.500000
 20
12.500000
 11
-110.500000
 21
12.500000
  0
LINE
  8
0
  6
CONTINUOUS
 62
7
 10
-110.500000
 20
5.500010
 11
-110.500000
 21
12.500000
  0
LINE
  8
0
  6
CONTINUOUS
 62
7
 10
-114.500000
 20
5.500010
 11
-110.500000
 21
5.500010
  0
LINE
  8
0
  6
CONTINUOUS
 62
7
 10
-114.500000
 20
6.210770
 11
-110.500000
 21
6.210770
  0
LINE
  8
0
  6
CONTINUOUS
 62
7
 10
-114.500000
 20
8.289230
 11
-110.500000
 21
8.289230
  0
LINE
  8
0
  6
CONTINUOUS
 62
7
 10
-114.500000
 20
9.710770
 11
-110.500000
 21
9.710770
  0
LINE
  8
0
  6
CONTINUOUS
 62
7
 10
-114.500000
 20
11.789200
 11
-110.500000
 21
11.789200
  0
LINE
  8
0
  6
CONTINUOUS
 62
7
 10
52.000000
 20
71.500000
 11
52.000000
 21
52.500000
  0
LINE
  8
0
  6
CONTINUOUS
 62
7
 10
60.000000
 20
52.500000
 11
52.000000
 21
52.500000
  0
LINE
  8
0
  6
CONTINUOUS
 62
7
 10
60.500000
 20
71.500000
 11
52.000000
 21
71.500000
  0
LINE
  8
0
  6
CONTINUOUS
 62
7
 10
56.000000
 20
68.443398
 11
54.750000
 21
67.721703
  0
LINE
  8
0
  6
CONTINUOUS
 62
7
 10
54.750000
 20
67.721703
 11
54.750000
 21
66.278297
  0
LINE
  8
0
  6
CONTINUOUS
 62
7
 10
56.000000
 20
65.556602
 11
54.750000
 21
66.278297
  0
LINE
  8
0
  6
CONTINUOUS
 62
7
 10
57.250000
 20
66.278297
 11
56.000000
 21
65.556602
  0
LINE
  8
0
  6
CONTINUOUS
 62
7
 10
57.250000
 20
67.721703
 11
57.250000
 21
66.278297
  0
LINE
  8
0
  6
CONTINUOUS
 62
7
 10
56.000000
 20
68.443398
 11
57.250000
 21
67.721703
  0
LINE
  8
0
  6
CONTINUOUS
 62
7
 10
56.710800
 20
70.631104
 11
58.789200
 21
69.431099
  0
LINE
  8
0
  6
CENTER
 62
2
 10
56.000000
 20
72.000000
 11
56.000000
 21
62.000000
  0
LINE
  8
0
  6
CENTER
 62
2
 10
51.000000
 20
67.000000
 11
61.000000
 21
67.000000
  0
LINE
  8
0
  6
CONTINUOUS
 62
7
 10
55.289299
 20
70.631104
 11
53.210800
 21
69.431099
  0
LINE
  8
0
  6
CONTINUOUS
 62
7
 10
52.500000
 20
68.199997
 11
52.500000
 21
65.800003
  0
LINE
  8
0
  6
CONTINUOUS
 62
7
 10
55.289200
 20
63.368900
 11
53.210800
 21
64.568901
  0
LINE
  8
0
  6
CONTINUOUS
 62
7
 10
58.789200
 20
64.568901
 11
56.710800
 21
63.368900
  0
LINE
  8
0
  6
CONTINUOUS
 62
7
 10
59.500000
 20
68.199997
 11
59.500000
 21
65.800003
  0
LINE
  8
0
  6
CONTINUOUS
 62
7
 10
60.000000
 20
71.500000
 11
60.000000
 21
52.000000
  0
LINE
  8
0
  6
CONTINUOUS
 62
7
 10
224.000000
 20
71.500000
 11
224.000000
 21
52.500000
  0
LINE
  8
0
  6
CONTINUOUS
 62
7
 10
216.000000
 20
52.500000
 11
224.000000
 21
52.500000
  0
LINE
  8
0
  6
CONTINUOUS
 62
7
 10
215.500000
 20
71.500000
 11
224.000000
 21
71.500000
  0
LINE
  8
0
  6
CONTINUOUS
 62
7
 10
220.000000
 20
68.443398
 11
221.250000
 21
67.721703
  0
LINE
  8
0
  6
CONTINUOUS
 62
7
 10
221.250000
 20
67.721703
 11
221.250000
 21
66.278297
  0
LINE
  8
0
  6
CONTINUOUS
 62
7
 10
220.000000
 20
65.556602
 11
221.250000
 21
66.278297
  0
LINE
  8
0
  6
CONTINUOUS
 62
7
 10
218.750000
 20
66.278297
 11
220.000000
 21
65.556602
  0
LINE
  8
0
  6
CONTINUOUS
 62
7
 10
218.750000
 20
67.721703
 11
218.750000
 21
66.278297
  0
LINE
  8
0
  6
CONTINUOUS
 62
7
 10
220.000000
 20
68.443398
 11
218.750000
 21
67.721703
  0
LINE
  8
0
  6
CONTINUOUS
 62
7
 10
219.289001
 20
70.631104
 11
217.210999
 21
69.431099
  0
LINE
  8
0
  6
CENTER
 62
2
 10
220.000000
 20
72.000000
 11
220.000000
 21
62.000000
  0
LINE
  8
0
  6
CENTER
 62
2
 10
225.000000
 20
67.000000
 11
215.000000
 21
67.000000
  0
LINE
  8
0
  6
CONTINUOUS
 62
7
 10
220.710999
 20
70.631104
 11
222.789001
 21
69.431099
  0
LINE
  8
0
  6
CONTINUOUS
 62
7
 10
223.500000
 20
68.199997
 11
223.500000
 21
65.800003
  0
LINE
  8
0
  6
CONTINUOUS
 62
7
 10
220.710999
 20
63.368900
 11
222.789001
 21
64.568901
  0
LINE
  8
0
  6
CONTINUOUS
 62
7
 10
217.210999
 20
64.568901
 11
219.289001
 21
63.368900
  0
LINE
  8
0
  6
CONTINUOUS
 62
7
 10
216.500000
 20
68.199997
 11
216.500000
 21
65.800003
  0
LINE
  8
0
  6
CONTINUOUS
 62
7
 10
216.000000
 20
71.500000
 11
216.000000
 21
52.000000
  0
LINE
  8
0
  6
CONTINUOUS
 62
7
 10
-188.000000
 20
67.500000
 11
-176.000000
 21
67.500000
  0
LINE
  8
0
  6
CONTINUOUS
 62
7
 10
-188.000000
 20
64.290703
 11
-188.000000
 21
61.500000
  0
LINE
  8
0
  6
CONTINUOUS
 62
7
 10
-188.000000
 20
67.500000
 11
-188.000000
 21
66.709297
  0
LINE
  8
0
  6
CONTINUOUS
 62
7
 10
-195.500000
 20
72.000000
 11
-189.000000
 21
72.000000
  0
LINE
  8
0
  6
CONTINUOUS
 62
7
 10
-195.500000
 20
62.000000
 11
-188.000000
 21
62.000000
  0
LINE
  8
0
  6
CONTINUOUS
 62
7
 10
-188.699997
 20
71.699997
 11
-175.300003
 21
71.699997
  0
LINE
  8
0
  6
CONTINUOUS
 62
7
 10
-176.000000
 20
64.290703
 11
-176.000000
 21
61.500000
  0
LINE
  8
0
  6
CONTINUOUS
 62
7
 10
-176.000000
 20
67.500000
 11
-176.000000
 21
66.709297
  0
LINE
  8
0
  6
CONTINUOUS
 62
7
 10
-168.500000
 20
72.000000
 11
-175.000000
 21
72.000000
  0
LINE
  8
0
  6
CONTINUOUS
 62
7
 10
-168.500000
 20
72.000000
 11
-168.500000
 21
62.000000
  0
LINE
  8
0
  6
CONTINUOUS
 62
7
 10
-168.500000
 20
62.000000
 11
-176.000000
 21
62.000000
  0
LINE
  8
0
  6
CONTINUOUS
 62
7
 10
-195.500000
 20
72.000000
 11
-195.500000
 21
62.000000
  0
LINE
  8
0
  6
CONTINUOUS
 62
7
 10
-189.000000
 20
72.000000
 11
-188.699997
 21
71.699997
  0
LINE
  8
0
  6
CONTINUOUS
 62
7
 10
-175.000000
 20
72.000000
 11
-175.300003
 21
71.699997
  0
LINE
  8
0
  6
CONTINUOUS
 62
7
 10
-168.000000
 20
61.500000
 11
-176.000000
 21
61.500000
  0
LINE
  8
0
  6
CONTINUOUS
 62
7
 10
-168.000000
 20
52.000000
 11
-196.000000
 21
52.000000
  0
LINE
  8
0
  6
CONTINUOUS
 62
7
 10
-196.000000
 20
61.500000
 11
-188.000000
 21
61.500000
  0
LINE
  8
0
  6
CONTINUOUS
 62
7
 10
-168.000000
 20
61.500000
 11
-168.000000
 21
52.000000
  0
LINE
  8
0
  6
CENTER
 62
2
 10
-191.000000
 20
59.500000
 11
-191.000000
 21
52.500000
  0
LINE
  8
0
  6
CENTER
 62
2
 10
-194.500000
 20
56.000000
 11
-187.500000
 21
56.000000
  0
LINE
  8
0
  6
CENTER
 62
2
 10
-182.000000
 20
74.000000
 11
-182.000000
 21
50.000000
  0
LINE
  8
0
  6
CENTER
 62
2
 10
-189.399994
 20
59.000000
 11
-174.600006
 21
59.000000
  0
LINE
  8
0
  6
CENTER
 62
2
 10
-192.000000
 20
74.000000
 11
-192.000000
 21
70.000000
  0
LINE
  8
0
  6
CENTER
 62
2
 10
-172.000000
 20
74.000000
 11
-172.000000
 21
70.000000
  0
LINE
  8
0
  6
CENTER
 62
2
 10
-171.500000
 20
54.000000
 11
-171.500000
 21
50.000000
  0
LINE
  8
0
  6
CENTER
 62
2
 10
-192.500000
 20
54.000000
 11
-192.500000
 21
50.000000
  0
LINE
  8
0
  6
CONTINUOUS
 62
7
 10
-204.000000
 20
71.500000
 11
-204.000000
 21
52.500000
  0
LINE
  8
0
  6
CONTINUOUS
 62
7
 10
-196.000000
 20
52.500000
 11
-204.000000
 21
52.500000
  0
LINE
  8
0
  6
CONTINUOUS
 62
7
 10
-195.500000
 20
71.500000
 11
-204.000000
 21
71.500000
  0
LINE
  8
0
  6
CONTINUOUS
 62
7
 10
-200.000000
 20
68.443398
 11
-201.250000
 21
67.721703
  0
LINE
  8
0
  6
CONTINUOUS
 62
7
 10
-201.250000
 20
67.721703
 11
-201.250000
 21
66.278297
  0
LINE
  8
0
  6
CONTINUOUS
 62
7
 10
-200.000000
 20
65.556602
 11
-201.250000
 21
66.278297
  0
LINE
  8
0
  6
CONTINUOUS
 62
7
 10
-198.750000
 20
66.278297
 11
-200.000000
 21
65.556602
  0
LINE
  8
0
  6
CONTINUOUS
 62
7
 10
-198.750000
 20
67.721703
 11
-198.750000
 21
66.278297
  0
LINE
  8
0
  6
CONTINUOUS
 62
7
 10
-200.000000
 20
68.443398
 11
-198.750000
 21
67.721703
  0
LINE
  8
0
  6
CONTINUOUS
 62
7
 10
-199.289001
 20
70.631104
 11
-197.210999
 21
69.431099
  0
LINE
  8
0
  6
CENTER
 62
2
 10
-200.000000
 20
72.000000
 11
-200.000000
 21
62.000000
  0
LINE
  8
0
  6
CENTER
 62
2
 10
-205.000000
 20
67.000000
 11
-195.000000
 21
67.000000
  0
LINE
  8
0
  6
CONTINUOUS
 62
7
 10
-200.710999
 20
70.631104
 11
-202.789001
 21
69.431099
  0
LINE
  8
0
  6
CONTINUOUS
 62
7
 10
-203.500000
 20
68.199997
 11
-203.500000
 21
65.800003
  0
LINE
  8
0
  6
CONTINUOUS
 62
7
 10
-200.710999
 20
63.368900
 11
-202.789001
 21
64.568901
  0
LINE
  8
0
  6
CONTINUOUS
 62
7
 10
-197.210999
 20
64.568901
 11
-199.289001
 21
63.368900
  0
LINE
  8
0
  6
CONTINUOUS
 62
7
 10
-196.500000
 20
68.199997
 11
-196.500000
 21
65.800003
  0
LINE
  8
0
  6
CONTINUOUS
 62
7
 10
-196.000000
 20
71.500000
 11
-196.000000
 21
52.000000
  0
LINE
  8
0
  6
CONTINUOUS
 62
7
 10
-78.000000
 20
67.500000
 11
-90.000000
 21
67.500000
  0
LINE
  8
0
  6
CONTINUOUS
 62
7
 10
-78.000000
 20
64.290703
 11
-78.000000
 21
61.500000
  0
LINE
  8
0
  6
CONTINUOUS
 62
7
 10
-78.000000
 20
67.500000
 11
-78.000000
 21
66.709297
  0
LINE
  8
0
  6
CONTINUOUS
 62
7
 10
-70.500000
 20
72.000000
 11
-77.000000
 21
72.000000
  0
LINE
  8
0
  6
CONTINUOUS
 62
7
 10
-70.500000
 20
62.000000
 11
-78.000000
 21
62.000000
  0
LINE
  8
0
  6
CONTINUOUS
 62
7
 10
-77.300003
 20
71.699997
 11
-90.699997
 21
71.699997
  0
LINE
  8
0
  6
CONTINUOUS
 62
7
 10
-90.000000
 20
64.290703
 11
-90.000000
 21
61.500000
  0
LINE
  8
0
  6
CONTINUOUS
 62
7
 10
-90.000000
 20
67.500000
 11
-90.000000
 21
66.709297
  0
LINE
  8
0
  6
CONTINUOUS
 62
7
 10
-97.500000
 20
72.000000
 11
-91.000000
 21
72.000000
  0
LINE
  8
0
  6
CONTINUOUS
 62
7
 10
-97.500000
 20
72.000000
 11
-97.500000
 21
62.000000
  0
LINE
  8
0
  6
CONTINUOUS
 62
7
 10
-97.500000
 20
62.000000
 11
-90.000000
 21
62.000000
  0
LINE
  8
0
  6
CONTINUOUS
 62
7
 10
-70.500000
 20
72.000000
 11
-70.500000
 21
62.000000
  0
LINE
  8
0
  6
CONTINUOUS
 62
7
 10
-77.000000
 20
72.000000
 11
-77.300003
 21
71.699997
  0
LINE
  8
0
  6
CONTINUOUS
 62
7
 10
-91.000000
 20
72.000000
 11
-90.699997
 21
71.699997
  0
LINE
  8
0
  6
CONTINUOUS
 62
7
 10
-98.000000
 20
61.500000
 11
-90.000000
 21
61.500000
  0
LINE
  8
0
  6
CONTINUOUS
 62
7
 10
-98.000000
 20
52.000000
 11
-70.000000
 21
52.000000
  0
LINE
  8
0
  6
CONTINUOUS
 62
7
 10
-70.000000
 20
61.500000
 11
-78.000000
 21
61.500000
  0
LINE
  8
0
  6
CONTINUOUS
 62
7
 10
-98.000000
 20
61.500000
 11
-98.000000
 21
52.000000
  0
LINE
  8
0
  6
CENTER
 62
2
 10
-75.000000
 20
59.500000
 11
-75.000000
 21
52.500000
  0
LINE
  8
0
  6
CENTER
 62
2
 10
-71.500000
 20
56.000000
 11
-78.500000
 21
56.000000
  0
LINE
  8
0
  6
CENTER
 62
2
 10
-84.000000
 20
74.000000
 11
-84.000000
 21
50.000000
  0
LINE
  8
0
  6
CENTER
 62
2
 10
-76.599998
 20
59.000000
 11
-91.400002
 21
59.000000
  0
LINE
  8
0
  6
CENTER
 62
2
 10
-94.000000
 20
74.000000
 11
-94.000000
 21
70.000000
  0
LINE
  8
0
  6
CENTER
 62
2
 10
-74.000000
 20
74.000000
 11
-74.000000
 21
70.000000
  0
LINE
  8
0
  6
CENTER
 62
2
 10
-73.500000
 20
54.000000
 11
-73.500000
 21
50.000000
  0
LINE
  8
0
  6
CENTER
 62
2
 10
-94.500000
 20
54.000000
 11
-94.500000
 21
50.000000
  0
LINE
  8
0
  6
CONTINUOUS
 62
7
 10
-62.000000
 20
71.500000
 11
-62.000000
 21
52.500000
  0
LINE
  8
0
  6
CONTINUOUS
 62
7
 10
-70.000000
 20
52.500000
 11
-62.000000
 21
52.500000
  0
LINE
  8
0
  6
CONTINUOUS
 62
7
 10
-70.500000
 20
71.500000
 11
-62.000000
 21
71.500000
  0
LINE
  8
0
  6
CONTINUOUS
 62
7
 10
-66.000000
 20
68.443398
 11
-64.750000
 21
67.721703
  0
LINE
  8
0
  6
CONTINUOUS
 62
7
 10
-64.750000
 20
67.721703
 11
-64.750000
 21
66.278297
  0
LINE
  8
0
  6
CONTINUOUS
 62
7
 10
-66.000000
 20
65.556602
 11
-64.750000
 21
66.278297
  0
LINE
  8
0
  6
CONTINUOUS
 62
7
 10
-67.250000
 20
66.278297
 11
-66.000000
 21
65.556602
  0
LINE
  8
0
  6
CONTINUOUS
 62
7
 10
-67.250000
 20
67.721703
 11
-67.250000
 21
66.278297
  0
LINE
  8
0
  6
CONTINUOUS
 62
7
 10
-66.000000
 20
68.443398
 11
-67.250000
 21
67.721703
  0
LINE
  8
0
  6
CONTINUOUS
 62
7
 10
-66.710800
 20
70.631104
 11
-68.789200
 21
69.431099
  0
LINE
  8
0
  6
CENTER
 62
2
 10
-66.000000
 20
72.000000
 11
-66.000000
 21
62.000000
  0
LINE
  8
0
  6
CENTER
 62
2
 10
-61.000000
 20
67.000000
 11
-71.000000
 21
67.000000
  0
LINE
  8
0
  6
CONTINUOUS
 62
7
 10
-65.289299
 20
70.631104
 11
-63.210800
 21
69.431099
  0
LINE
  8
0
  6
CONTINUOUS
 62
7
 10
-62.500000
 20
68.199997
 11
-62.500000
 21
65.800003
  0
LINE
  8
0
  6
CONTINUOUS
 62
7
 10
-65.289200
 20
63.368900
 11
-63.210800
 21
64.568901
  0
LINE
  8
0
  6
CONTINUOUS
 62
7
 10
-68.789299
 20
64.568901
 11
-66.710800
 21
63.368900
  0
LINE
  8
0
  6
CONTINUOUS
 62
7
 10
-69.500000
 20
68.199997
 11
-69.500000
 21
65.800003
  0
LINE
  8
0
  6
CONTINUOUS
 62
7
 10
-70.000000
 20
71.500000
 11
-70.000000
 21
52.000000
  0
LINE
  8
0
  6
CENTER
 62
2
 10
-145.307007
 20
115.000000
 11
-164.087997
 21
115.000000
  0
LINE
  8
0
  6
CONTINUOUS
 62
7
 10
-120.000000
 20
118.500000
 11
-136.000000
 21
118.500000
  0
LINE
  8
0
  6
CENTER
 62
2
 10
-120.693001
 20
115.000000
 11
-103.085999
 21
115.000000
  0
LINE
  8
0
  6
CONTINUOUS
 62
7
 10
-114.500000
 20
119.000000
 11
-151.500000
 21
119.000000
  0
LINE
  8
0
  6
CONTINUOUS
 62
7
 10
-136.000000
 20
110.500000
 11
-136.000000
 21
118.500000
  0
LINE
  8
0
  6
CONTINUOUS
 62
7
 10
-120.000000
 20
110.500000
 11
-120.000000
 21
118.500000
  0
LINE
  8
0
  6
CONTINUOUS
 62
7
 10
-119.000000
 20
111.000000
 11
-119.000000
 21
119.000000
  0
LINE
  8
0
  6
CONTINUOUS
 62
7
 10
-147.000000
 20
111.000000
 11
-147.000000
 21
119.000000
  0
LINE
  8
0
  6
CONTINUOUS
 62
7
 10
-151.500000
 20
111.000000
 11
-151.500000
 21
119.000000
  0
LINE
  8
0
  6
CONTINUOUS
 62
7
 10
-162.000000
 20
117.500000
 11
-155.500000
 21
117.500000
  0
LINE
  8
0
  6
CONTINUOUS
 62
7
 10
-162.000000
 20
112.500000
 11
-155.500000
 21
112.500000
  0
LINE
  8
0
  6
CONTINUOUS
 62
2
 10
-162.000000
 20
117.099998
 11
-155.500000
 21
117.099998
  0
LINE
  8
0
  6
CONTINUOUS
 62
2
 10
-162.000000
 20
112.900002
 11
-155.500000
 21
112.900002
  0
LINE
  8
0
  6
CONTINUOUS
 62
7
 10
-162.000000
 20
117.500000
 11
-162.000000
 21
112.500000
  0
LINE
  8
0
  6
CONTINUOUS
 62
7
 10
-114.500000
 20
111.000000
 11
-114.500000
 21
119.000000
  0
LINE
  8
0
  6
CONTINUOUS
 62
7
 10
-104.000000
 20
112.500000
 11
-110.500000
 21
112.500000
  0
LINE
  8
0
  6
CONTINUOUS
 62
7
 10
-104.000000
 20
117.500000
 11
-110.500000
 21
117.500000
  0
LINE
  8
0
  6
CONTINUOUS
 62
2
 10
-104.000000
 20
112.900002
 11
-110.500000
 21
112.900002
  0
LINE
  8
0
  6
CONTINUOUS
 62
2
 10
-104.000000
 20
117.099998
 11
-110.500000
 21
117.099998
  0
LINE
  8
0
  6
CONTINUOUS
 62
7
 10
-104.000000
 20
112.500000
 11
-104.000000
 21
117.500000
  0
LINE
  8
0
  6
CONTINUOUS
 62
7
 10
-151.500000
 20
111.500000
 11
-155.500000
 21
111.500000
  0
LINE
  8
0
  6
CONTINUOUS
 62
7
 10
-155.500000
 20
118.500000
 11
-155.500000
 21
111.500000
  0
LINE
  8
0
  6
CONTINUOUS
 62
7
 10
-151.500000
 20
118.500000
 11
-155.500000
 21
118.500000
  0
LINE
  8
0
  6
CONTINUOUS
 62
7
 10
-151.500000
 20
117.789001
 11
-155.500000
 21
117.789001
  0
LINE
  8
0
  6
CONTINUOUS
 62
7
 10
-151.500000
 20
115.710999
 11
-155.500000
 21
115.710999
  0
LINE
  8
0
  6
CONTINUOUS
 62
7
 10
-151.500000
 20
114.289001
 11
-155.500000
 21
114.289001
  0
LINE
  8
0
  6
CONTINUOUS
 62
7
 10
-151.500000
 20
112.210999
 11
-155.500000
 21
112.210999
  0
LINE
  8
0
  6
CONTINUOUS
 62
7
 10
-114.500000
 20
118.500000
 11
-110.500000
 21
118.500000
  0
LINE
  8
0
  6
CONTINUOUS
 62
7
 10
-110.500000
 20
111.500000
 11
-110.500000
 21
118.500000
  0
LINE
  8
0
  6
CONTINUOUS
 62
7
 10
-114.500000
 20
111.500000
 11
-110.500000
 21
111.500000
  0
LINE
  8
0
  6
CONTINUOUS
 62
7
 10
-114.500000
 20
112.210999
 11
-110.500000
 21
112.210999
  0
LINE
  8
0
  6
CONTINUOUS
 62
7
 10
-114.500000
 20
114.289001
 11
-110.500000
 21
114.289001
  0
LINE
  8
0
  6
CONTINUOUS
 62
7
 10
-114.500000
 20
115.710999
 11
-110.500000
 21
115.710999
  0
LINE
  8
0
  6
CONTINUOUS
 62
7
 10
-114.500000
 20
117.789001
 11
-110.500000
 21
117.789001
  0
LINE
  8
0
  6
CONTINUOUS
 62
7
 10
-136.000000
 20
111.000000
 11
-163.000000
 21
111.000000
  0
LINE
  8
0
  6
CONTINUOUS
 62
7
 10
105.000000
 20
70.699997
 11
105.000000
 21
67.500000
  0
LINE
  8
0
  6
CONTINUOUS
 62
7
 10
109.000000
 20
70.699997
 11
105.000000
 21
70.699997
  0
LINE
  8
0
  6
CONTINUOUS
 62
7
 10
109.000000
 20
68.199997
 11
105.000000
 21
68.199997
  0
LINE
  8
0
  6
CONTINUOUS
 62
7
 10
109.000000
 20
69.431099
 11
105.000000
 21
69.431099
  0
LINE
  8
0
  6
CONTINUOUS
 62
7
 10
98.000000
 20
69.500000
 11
105.000000
 21
69.500000
  0
LINE
  8
0
  6
CONTINUOUS
 62
2
 10
98.000000
 20
69.099998
 11
105.000000
 21
69.099998
  0
LINE
  8
0
  6
CONTINUOUS
 62
2
 10
172.500000
 20
69.099998
 11
178.000000
 21
69.099998
  0
LINE
  8
0
  6
CONTINUOUS
 62
7
 10
-146.000000
 20
-110.449997
 11
-147.000000
 21
-110.449997
  0
LINE
  8
0
  6
CONTINUOUS
 62
7
 10
-146.000000
 20
-110.449997
 11
-146.000000
 21
-107.550003
  0
LINE
  8
0
  6
CONTINUOUS
 62
7
 10
-146.000000
 20
-107.550003
 11
-147.000000
 21
-107.550003
  0
LINE
  8
0
  6
CONTINUOUS
 62
7
 10
-120.000000
 20
-110.449997
 11
-119.000000
 21
-110.449997
  0
LINE
  8
0
  6
CONTINUOUS
 62
7
 10
-120.000000
 20
-107.550003
 11
-119.000000
 21
-107.550003
  0
LINE
  8
0
  6
CONTINUOUS
 62
7
 10
-146.000000
 20
133.449997
 11
-147.000000
 21
133.449997
  0
LINE
  8
0
  6
CONTINUOUS
 62
7
 10
-146.000000
 20
130.550003
 11
-146.000000
 21
133.449997
  0
LINE
  8
0
  6
CONTINUOUS
 62
7
 10
-146.000000
 20
130.550003
 11
-147.000000
 21
130.550003
  0
LINE
  8
0
  6
CONTINUOUS
 62
7
 10
-120.000000
 20
133.449997
 11
-119.000000
 21
133.449997
  0
LINE
  8
0
  6
CONTINUOUS
 62
7
 10
-120.000000
 20
130.550003
 11
-119.000000
 21
130.550003
  0
LINE
  8
0
  6
CONTINUOUS
 62
7
 10
-146.000000
 20
67.500000
 11
-146.000000
 21
68.449997
  0
LINE
  8
0
  6
CONTINUOUS
 62
7
 10
-146.000000
 20
68.449997
 11
-147.000000
 21
68.449997
  0
LINE
  8
0
  6
CONTINUOUS
 62
7
 10
-146.000000
 20
-43.450001
 11
-147.000000
 21
-43.450001
  0
LINE
  8
0
  6
CONTINUOUS
 62
7
 10
-146.000000
 20
-43.450001
 11
-146.000000
 21
-42.500000
  0
LINE
  8
0
  6
CONTINUOUS
 62
7
 10
-146.000000
 20
116.449997
 11
-147.000000
 21
116.449997
  0
LINE
  8
0
  6
CONTINUOUS
 62
7
 10
-146.000000
 20
113.550003
 11
-146.000000
 21
116.449997
  0
LINE
  8
0
  6
CONTINUOUS
 62
7
 10
-146.000000
 20
113.550003
 11
-147.000000
 21
113.550003
  0
LINE
  8
0
  6
CONTINUOUS
 62
7
 10
-120.000000
 20
116.449997
 11
-119.000000
 21
116.449997
  0
LINE
  8
0
  6
CONTINUOUS
 62
7
 10
-120.000000
 20
113.550003
 11
-119.000000
 21
113.550003
  0
LINE
  8
0
  6
CONTINUOUS
 62
7
 10
-146.000000
 20
-86.550003
 11
-147.000000
 21
-86.550003
  0
LINE
  8
0
  6
CONTINUOUS
 62
7
 10
-146.000000
 20
-89.449997
 11
-146.000000
 21
-86.550003
  0
LINE
  8
0
  6
CONTINUOUS
 62
7
 10
-146.000000
 20
-89.449997
 11
-147.000000
 21
-89.449997
  0
LINE
  8
0
  6
CONTINUOUS
 62
7
 10
-120.000000
 20
-86.550003
 11
-119.000000
 21
-86.550003
  0
LINE
  8
0
  6
CONTINUOUS
 62
7
 10
-120.000000
 20
-89.449997
 11
-119.000000
 21
-89.449997
  0
LINE
  8
0
  6
CONTINUOUS
 62
7
 10
120.000000
 20
-110.449997
 11
119.000000
 21
-110.449997
  0
LINE
  8
0
  6
CONTINUOUS
 62
7
 10
120.000000
 20
-110.449997
 11
120.000000
 21
-107.550003
  0
LINE
  8
0
  6
CONTINUOUS
 62
7
 10
120.000000
 20
-107.550003
 11
119.000000
 21
-107.550003
  0
LINE
  8
0
  6
CONTINUOUS
 62
7
 10
156.000000
 20
-107.550003
 11
157.000000
 21
-107.550003
  0
LINE
  8
0
  6
CONTINUOUS
 62
7
 10
156.000000
 20
-110.449997
 11
157.000000
 21
-110.449997
  0
LINE
  8
0
  6
CONTINUOUS
 62
7
 10
120.000000
 20
133.449997
 11
119.000000
 21
133.449997
  0
LINE
  8
0
  6
CONTINUOUS
 62
7
 10
120.000000
 20
130.550003
 11
120.000000
 21
133.449997
  0
LINE
  8
0
  6
CONTINUOUS
 62
7
 10
120.000000
 20
130.550003
 11
119.000000
 21
130.550003
  0
LINE
  8
0
  6
CONTINUOUS
 62
7
 10
156.000000
 20
133.449997
 11
157.000000
 21
133.449997
  0
LINE
  8
0
  6
CONTINUOUS
 62
7
 10
156.000000
 20
130.550003
 11
157.000000
 21
130.550003
  0
LINE
  8
0
  6
CONTINUOUS
 62
7
 10
120.000000
 20
67.500000
 11
120.000000
 21
68.449997
  0
LINE
  8
0
  6
CONTINUOUS
 62
7
 10
120.000000
 20
68.449997
 11
119.000000
 21
68.449997
  0
LINE
  8
0
  6
CONTINUOUS
 62
7
 10
120.000000
 20
-43.450001
 11
119.000000
 21
-43.450001
  0
LINE
  8
0
  6
CONTINUOUS
 62
7
 10
120.000000
 20
-43.450001
 11
120.000000
 21
-42.500000
  0
LINE
  8
0
  6
CONTINUOUS
 62
7
 10
120.000000
 20
116.449997
 11
119.000000
 21
116.449997
  0
LINE
  8
0
  6
CONTINUOUS
 62
7
 10
120.000000
 20
113.550003
 11
120.000000
 21
116.449997
  0
LINE
  8
0
  6
CONTINUOUS
 62
7
 10
120.000000
 20
113.550003
 11
119.000000
 21
113.550003
  0
LINE
  8
0
  6
CONTINUOUS
 62
7
 10
156.000000
 20
116.449997
 11
157.000000
 21
116.449997
  0
LINE
  8
0
  6
CONTINUOUS
 62
7
 10
156.000000
 20
113.550003
 11
157.000000
 21
113.550003
  0
LINE
  8
0
  6
CONTINUOUS
 62
7
 10
120.000000
 20
-89.449997
 11
119.000000
 21
-89.449997
  0
LINE
  8
0
  6
CONTINUOUS
 62
7
 10
120.000000
 20
-86.550003
 11
119.000000
 21
-86.550003
  0
LINE
  8
0
  6
CONTINUOUS
 62
7
 10
120.000000
 20
-89.449997
 11
120.000000
 21
-86.550003
  0
LINE
  8
0
  6
CONTINUOUS
 62
7
 10
156.000000
 20
-86.550003
 11
157.000000
 21
-86.550003
  0
LINE
  8
0
  6
CONTINUOUS
 62
7
 10
156.000000
 20
-89.449997
 11
157.000000
 21
-89.449997
  0
LINE
  8
0
  6
CENTER
 62
2
 10
-157.000000
 20
62.000000
 11
-157.000000
 21
53.000000
  0
LINE
  8
0
  6
CENTER
 62
2
 10
-161.500000
 20
57.500000
 11
-152.500000
 21
57.500000
  0
LINE
  8
0
  6
CENTER
 62
2
 10
-109.000000
 20
62.000000
 11
-109.000000
 21
53.000000
  0
LINE
  8
0
  6
CENTER
 62
2
 10
-113.500000
 20
57.500000
 11
-104.500000
 21
57.500000
  0
LINE
  8
0
  6
CENTER
 62
2
 10
-157.000000
 20
-114.000000
 11
-157.000000
 21
-123.000000
  0
LINE
  8
0
  6
CENTER
 62
2
 10
-161.500000
 20
-118.500000
 11
-152.500000
 21
-118.500000
  0
LINE
  8
0
  6
CENTER
 62
2
 10
-109.000000
 20
-114.000000
 11
-109.000000
 21
-123.000000
  0
LINE
  8
0
  6
CENTER
 62
2
 10
-113.500000
 20
-118.500000
 11
-104.500000
 21
-118.500000
  0
LINE
  8
0
  6
CENTER
 62
2
 10
99.000000
 20
62.000000
 11
99.000000
 21
53.000000
  0
LINE
  8
0
  6
CENTER
 62
2
 10
94.500000
 20
57.500000
 11
103.500000
 21
57.500000
  0
LINE
  8
0
  6
CENTER
 62
2
 10
177.000000
 20
62.000000
 11
177.000000
 21
53.000000
  0
LINE
  8
0
  6
CENTER
 62
2
 10
172.500000
 20
57.500000
 11
181.500000
 21
57.500000
  0
LINE
  8
0
  6
CENTER
 62
2
 10
99.000000
 20
-114.000000
 11
99.000000
 21
-123.000000
  0
LINE
  8
0
  6
CENTER
 62
2
 10
94.500000
 20
-118.500000
 11
103.500000
 21
-118.500000
  0
LINE
  8
0
  6
CENTER
 62
2
 10
177.000000
 20
-114.000000
 11
177.000000
 21
-123.000000
  0
LINE
  8
0
  6
CENTER
 62
2
 10
172.500000
 20
-118.500000
 11
181.500000
 21
-118.500000
  0
LINE
  8
0
  6
CENTER
 62
2
 10
-135.500000
 20
129.000000
 11
-135.500000
 21
125.000000
  0
LINE
  8
0
  6
CENTER
 62
2
 10
-120.500000
 20
129.000000
 11
-120.500000
 21
125.000000
  0
LINE
  8
0
  6
CENTER
 62
2
 10
-135.500000
 20
-102.000000
 11
-135.500000
 21
-106.000000
  0
LINE
  8
0
  6
CENTER
 62
2
 10
-120.500000
 20
-102.000000
 11
-120.500000
 21
-106.000000
  0
LINE
  8
0
  6
CONTINUOUS
 62
7
 10
-281.250000
 20
0.250000
 11
282.100006
 21
0.250000
  0
LINE
  8
0
  6
CONTINUOUS
 62
7
 10
0.424988
 20
195.500000
 11
0.424988
 21
-195.000000
  0
CIRCLE
  8
0
  6
CONTINUOUS
 62
7
 10
107.000000
 20
-80.500000
 40
1.650000
  0
CIRCLE
  8
0
  6
CONTINUOUS
 62
2
 10
107.000000
 20
-80.500000
 40
2.000000
  0
CIRCLE
  8
0
  6
CONTINUOUS
 62
2
 10
107.000000
 20
-59.500000
 40
2.000000
  0
CIRCLE
  8
0
  6
CONTINUOUS
 62
7
 10
107.000000
 20
-59.500000
 40
1.650000
  0
CIRCLE
  8
0
  6
CONTINUOUS
 62
2
 10
113.000000
 20
-31.000000
 40
1.500000
  0
CIRCLE
  8
0
  6
CONTINUOUS
 62
7
 10
113.000000
 20
-31.000000
 40
1.250000
  0
CIRCLE
  8
0
  6
CONTINUOUS
 62
7
 10
163.000000
 20
-31.000000
 40
1.250000
  0
CIRCLE
  8
0
  6
CONTINUOUS
 62
2
 10
163.000000
 20
-31.000000
 40
1.500000
  0
CIRCLE
  8
0
  6
CONTINUOUS
 62
7
 10
148.000000
 20
-60.000000
 40
1.250000
  0
CIRCLE
  8
0
  6
CONTINUOUS
 62
2
 10
148.000000
 20
-60.000000
 40
1.500000
  0
CIRCLE
  8
0
  6
CONTINUOUS
 62
7
 10
148.000000
 20
-80.000000
 40
1.250000
  0
CIRCLE
  8
0
  6
CONTINUOUS
 62
2
 10
148.000000
 20
-80.000000
 40
1.500000
  0
ARC
  8
0
  6
CONTINUOUS
 62
7
 10
113.000000
 20
-31.000000
 40
3.000000
 50
210.000000
 51
0.000000
  0
ARC
  8
0
  6
CONTINUOUS
 62
7
 10
163.000000
 20
-31.000000
 40
3.000000
 50
180.000000
 51
330.000000
  0
CIRCLE
  8
0
  6
CONTINUOUS
 62
2
 10
143.000000
 20
-43.000000
 40
1.000000
  0
CIRCLE
  8
0
  6
CONTINUOUS
 62
2
 10
153.000000
 20
-43.000000
 40
1.000000
  0
CIRCLE
  8
0
  6
CONTINUOUS
 62
7
 10
143.000000
 20
-43.000000
 40
0.800000
  0
CIRCLE
  8
0
  6
CONTINUOUS
 62
7
 10
153.000000
 20
-43.000000
 40
0.800000
  0
CIRCLE
  8
0
  6
DASHED
 62
2
 10
169.000000
 20
-59.500000
 40
1.650000
  0
CIRCLE
  8
0
  6
DASHED
 62
2
 10
169.000000
 20
-59.500000
 40
2.000000
  0
CIRCLE
  8
0
  6
CONTINUOUS
 62
7
 10
163.000000
 20
-60.000000
 40
1.250000
  0
CIRCLE
  8
0
  6
CONTINUOUS
 62
2
 10
163.000000
 20
-60.000000
 40
1.500000
  0
CIRCLE
  8
0
  6
CONTINUOUS
 62
7
 10
163.000000
 20
-80.000000
 40
1.250000
  0
CIRCLE
  8
0
  6
CONTINUOUS
 62
2
 10
163.000000
 20
-80.000000
 40
1.500000
  0
CIRCLE
  8
0
  6
DASHED
 62
2
 10
169.000000
 20
-80.500000
 40
1.650000
  0
CIRCLE
  8
0
  6
DASHED
 62
2
 10
169.000000
 20
-80.500000
 40
2.000000
  0
CIRCLE
  8
0
  6
CONTINUOUS
 62
7
 10
133.000000
 20
-60.000000
 40
1.250000
  0
CIRCLE
  8
0
  6
CONTINUOUS
 62
2
 10
133.000000
 20
-60.000000
 40
1.500000
  0
CIRCLE
  8
0
  6
CONTINUOUS
 62
7
 10
133.000000
 20
-80.000000
 40
1.250000
  0
CIRCLE
  8
0
  6
CONTINUOUS
 62
2
 10
133.000000
 20
-80.000000
 40
1.500000
  0
ARC
  8
0
  6
CONTINUOUS
 62
7
 10
99.000000
 20
-32.500000
 40
4.800000
 50
303.557007
 51
0.000000
  0
ARC
  8
0
  6
CONTINUOUS
 62
7
 10
177.000000
 20
-32.500000
 40
4.800000
 50
180.000000
 51
236.442993
  0
ARC
  8
0
  6
CONTINUOUS
 62
7
 10
99.000000
 20
-118.500000
 40
4.800000
 50
0.000000
 51
56.442699
  0
ARC
  8
0
  6
CONTINUOUS
 62
7
 10
177.000000
 20
-118.500000
 40
4.800000
 50
123.556999
 51
180.000000
  0
CIRCLE
  8
0
  6
CONTINUOUS
 62
7
 10
107.000000
 20
-59.500000
 40
3.000000
  0
CIRCLE
  8
0
  6
CONTINUOUS
 62
7
 10
107.000000
 20
-80.500000
 40
3.000000
  0
CIRCLE
  8
0
  6
DASHED
 62
2
 10
169.000000
 20
-80.500000
 40
3.000000
  0
CIRCLE
  8
0
  6
DASHED
 62
2
 10
169.000000
 20
-59.500000
 40
3.000000
  0
CIRCLE
  8
0
  6
CONTINUOUS
 62
7
 10
66.000000
 20
-117.000000
 40
5.400000
  0
ARC
  8
0
  6
CONTINUOUS
 62
7
 10
72.599998
 20
-110.500000
 40
1.350000
 50
116.387001
 51
243.610992
  0
ARC
  8
0
  6
CONTINUOUS
 62
7
 10
59.400002
 20
-110.500000
 40
1.350000
 50
296.385986
 51
63.610001
  0
CIRCLE
  8
0
  6
CONTINUOUS
 62
2
 10
57.000000
 20
-120.000000
 40
1.500000
  0
CIRCLE
  8
0
  6
CONTINUOUS
 62
7
 10
57.000000
 20
-120.000000
 40
1.250000
  0
CIRCLE
  8
0
  6
CONTINUOUS
 62
7
 10
-149.000000
 20
-80.500000
 40
1.650000
  0
CIRCLE
  8
0
  6
CONTINUOUS
 62
2
 10
-149.000000
 20
-80.500000
 40
2.000000
  0
CIRCLE
  8
0
  6
CONTINUOUS
 62
2
 10
-149.000000
 20
-59.500000
 40
2.000000
  0
CIRCLE
  8
0
  6
CONTINUOUS
 62
7
 10
-149.000000
 20
-59.500000
 40
1.650000
  0
CIRCLE
  8
0
  6
CONTINUOUS
 62
2
 10
-143.000000
 20
-31.000000
 40
1.500000
  0
CIRCLE
  8
0
  6
CONTINUOUS
 62
7
 10
-143.000000
 20
-31.000000
 40
1.250000
  0
CIRCLE
  8
0
  6
CONTINUOUS
 62
7
 10
-123.000000
 20
-31.000000
 40
1.250000
  0
CIRCLE
  8
0
  6
CONTINUOUS
 62
2
 10
-123.000000
 20
-31.000000
 40
1.500000
  0
CIRCLE
  8
0
  6
CONTINUOUS
 62
7
 10
-135.500000
 20
-60.000000
 40
1.250000
  0
CIRCLE
  8
0
  6
CONTINUOUS
 62
2
 10
-135.500000
 20
-60.000000
 40
1.500000
  0
CIRCLE
  8
0
  6
CONTINUOUS
 62
7
 10
-135.500000
 20
-80.000000
 40
1.250000
  0
CIRCLE
  8
0
  6
CONTINUOUS
 62
2
 10
-135.500000
 20
-80.000000
 40
1.500000
  0
ARC
  8
0
  6
CONTINUOUS
 62
7
 10
-143.000000
 20
-31.000000
 40
3.000010
 50
210.000000
 51
0.000000
  0
ARC
  8
0
  6
CONTINUOUS
 62
7
 10
-123.000000
 20
-31.000000
 40
3.000000
 50
180.000000
 51
330.000000
  0
CIRCLE
  8
0
  6
CONTINUOUS
 62
2
 10
-133.000000
 20
-43.000000
 40
1.000000
  0
CIRCLE
  8
0
  6
CONTINUOUS
 62
2
 10
-123.000000
 20
-43.000000
 40
1.000000
  0
CIRCLE
  8
0
  6
CONTINUOUS
 62
7
 10
-133.000000
 20
-43.000000
 40
0.800000
  0
CIRCLE
  8
0
  6
CONTINUOUS
 62
7
 10
-123.000000
 20
-43.000000
 40
0.800000
  0
CIRCLE
  8
0
  6
CONTINUOUS
 62
7
 10
-120.500000
 20
-60.000000
 40
1.250000
  0
CIRCLE
  8
0
  6
CONTINUOUS
 62
2
 10
-120.500000
 20
-60.000000
 40
1.500000
  0
CIRCLE
  8
0
  6
CONTINUOUS
 62
7
 10
-120.500000
 20
-80.000000
 40
1.250000
  0
CIRCLE
  8
0
  6
CONTINUOUS
 62
2
 10
-120.500000
 20
-80.000000
 40
1.500000
  0
CIRCLE
  8
0
  6
CONTINUOUS
 62
7
 10
-149.000000
 20
-80.500000
 40
3.000000
  0
CIRCLE
  8
0
  6
CONTINUOUS
 62
7
 10
-149.000000
 20
-59.500000
 40
3.000000
  0
CIRCLE
  8
0
  6
DASHED
 62
2
 10
-117.000000
 20
-59.500000
 40
3.000000
  0
CIRCLE
  8
0
  6
DASHED
 62
2
 10
-117.000000
 20
-80.500000
 40
3.000000
  0
ARC
  8
0
  6
CONTINUOUS
 62
7
 10
-157.000000
 20
-32.500000
 40
4.800000
 50
303.557007
 51
0.000000
  0
ARC
  8
0
  6
CONTINUOUS
 62
7
 10
-109.000000
 20
-32.500000
 40
4.800000
 50
180.000000
 51
236.442993
  0
CIRCLE
  8
0
  6
DASHED
 62
2
 10
-117.000000
 20
-59.500000
 40
1.650000
  0
CIRCLE
  8
0
  6
DASHED
 62
2
 10
-117.000000
 20
-59.500000
 40
2.000000
  0
CIRCLE
  8
0
  6
DASHED
 62
2
 10
-117.000000
 20
-80.500000
 40
2.000000
  0
CIRCLE
  8
0
  6
DASHED
 62
2
 10
-117.000000
 20
-80.500000
 40
1.650000
  0
CIRCLE
  8
0
  6
CONTINUOUS
 62
2
 10
-149.000000
 20
-146.500000
 40
2.000000
  0
CIRCLE
  8
0
  6
CONTINUOUS
 62
7
 10
-149.000000
 20
-167.500000
 40
1.650000
  0
CIRCLE
  8
0
  6
CONTINUOUS
 62
2
 10
-149.000000
 20
-167.500000
 40
2.000000
  0
CIRCLE
  8
0
  6
CONTINUOUS
 62
7
 10
-149.000000
 20
-146.500000
 40
1.650000
  0
CIRCLE
  8
0
  6
CONTINUOUS
 62
7
 10
-117.000000
 20
-167.500000
 40
1.650000
  0
CIRCLE
  8
0
  6
CONTINUOUS
 62
2
 10
-117.000000
 20
-167.500000
 40
2.000000
  0
CIRCLE
  8
0
  6
CONTINUOUS
 62
7
 10
-117.000000
 20
-146.500000
 40
1.650000
  0
CIRCLE
  8
0
  6
CONTINUOUS
 62
2
 10
-117.000000
 20
-146.500000
 40
2.000000
  0
CIRCLE
  8
0
  6
CONTINUOUS
 62
7
 10
-110.500000
 20
-153.500000
 40
5.900000
  0
CIRCLE
  8
0
  6
CONTINUOUS
 62
7
 10
-155.500000
 20
-153.500000
 40
5.900000
  0
CIRCLE
  8
0
  6
CONTINUOUS
 62
2
 10
107.000000
 20
-146.500000
 40
2.000000
  0
CIRCLE
  8
0
  6
CONTINUOUS
 62
7
 10
107.000000
 20
-167.500000
 40
1.650000
  0
CIRCLE
  8
0
  6
CONTINUOUS
 62
2
 10
107.000000
 20
-167.500000
 40
2.000000
  0
CIRCLE
  8
0
  6
CONTINUOUS
 62
7
 10
107.000000
 20
-146.500000
 40
1.650000
  0
CIRCLE
  8
0
  6
CONTINUOUS
 62
7
 10
169.000000
 20
-167.500000
 40
1.650000
  0
CIRCLE
  8
0
  6
CONTINUOUS
 62
2
 10
169.000000
 20
-167.500000
 40
2.000000
  0
CIRCLE
  8
0
  6
CONTINUOUS
 62
7
 10
169.000000
 20
-146.500000
 40
1.650000
  0
CIRCLE
  8
0
  6
CONTINUOUS
 62
2
 10
169.000000
 20
-146.500000
 40
2.000000
  0
CIRCLE
  8
0
  6
CONTINUOUS
 62
7
 10
175.500000
 20
-153.500000
 40
5.900000
  0
CIRCLE
  8
0
  6
CONTINUOUS
 62
7
 10
100.500000
 20
-153.500000
 40
5.900000
  0
ARC
  8
0
  6
CONTINUOUS
 62
7
 10
122.000000
 20
-112.000000
 40
3.000000
 50
180.000000
 51
270.000000
  0
ARC
  8
0
  6
CONTINUOUS
 62
7
 10
154.000000
 20
-112.000000
 40
3.000000
 50
270.000000
 51
0.000000
  0
CIRCLE
  8
0
  6
CONTINUOUS
 62
7
 10
210.000000
 20
-117.000000
 40
5.400000
  0
ARC
  8
0
  6
CONTINUOUS
 62
7
 10
203.399994
 20
-110.500000
 40
1.350000
 50
296.389008
 51
63.612598
  0
ARC
  8
0
  6
CONTINUOUS
 62
7
 10
216.600006
 20
-110.500000
 40
1.350010
 50
116.389999
 51
243.613007
  0
CIRCLE
  8
0
  6
CONTINUOUS
 62
2
 10
219.000000
 20
-120.000000
 40
1.500000
  0
CIRCLE
  8
0
  6
CONTINUOUS
 62
7
 10
219.000000
 20
-120.000000
 40
1.250000
  0
ARC
  8
0
  6
CONTINUOUS
 62
7
 10
-109.000000
 20
-118.500000
 40
4.800000
 50
123.556999
 51
170.072006
  0
ARC
  8
0
  6
CONTINUOUS
 62
7
 10
-157.000000
 20
-118.500000
 40
4.800000
 50
9.928160
 51
56.442600
  0
ARC
  8
0
  6
CONTINUOUS
 62
7
 10
-114.712997
 20
-117.500000
 40
0.999999
 50
282.307007
 51
350.071991
  0
ARC
  8
0
  6
CONTINUOUS
 62
7
 10
-151.287003
 20
-117.500000
 40
1.000010
 50
189.927994
 51
257.692993
  0
ARC
  8
0
  6
CONTINUOUS
 62
7
 10
-121.000000
 20
-113.000000
 40
2.000000
 50
270.000000
 51
0.000000
  0
ARC
  8
0
  6
CONTINUOUS
 62
7
 10
-145.000000
 20
-113.000000
 40
2.000000
 50
180.000000
 51
270.000000
  0
CIRCLE
  8
0
  6
CONTINUOUS
 62
7
 10
84.000000
 20
-109.000000
 40
2.500000
  0
ARC
  8
0
  6
CONTINUOUS
 62
7
 10
84.000000
 20
-109.000000
 40
3.700000
 50
78.924797
 51
101.075996
  0
ARC
  8
0
  6
CONTINUOUS
 62
7
 10
84.000000
 20
-109.000000
 40
3.700000
 50
18.924801
 51
41.075600
  0
ARC
  8
0
  6
CONTINUOUS
 62
7
 10
84.000000
 20
-109.000000
 40
3.700000
 50
198.925003
 51
221.076004
  0
ARC
  8
0
  6
CONTINUOUS
 62
7
 10
84.000000
 20
-109.000000
 40
3.700000
 50
318.924988
 51
341.075989
  0
ARC
  8
0
  6
CONTINUOUS
 62
7
 10
84.000000
 20
-109.000000
 40
3.700000
 50
258.924988
 51
281.075989
  0
ARC
  8
0
  6
CONTINUOUS
 62
7
 10
84.000000
 20
-109.000000
 40
3.700000
 50
138.925003
 51
161.076004
  0
CIRCLE
  8
0
  6
CONTINUOUS
 62
7
 10
192.000000
 20
-109.000000
 40
2.500000
  0
ARC
  8
0
  6
CONTINUOUS
 62
7
 10
192.000000
 20
-109.000000
 40
3.700000
 50
78.924400
 51
101.074997
  0
ARC
  8
0
  6
CONTINUOUS
 62
7
 10
192.000000
 20
-109.000000
 40
3.699990
 50
138.923996
 51
161.074997
  0
ARC
  8
0
  6
CONTINUOUS
 62
7
 10
192.000000
 20
-109.000000
 40
3.699990
 50
318.924011
 51
341.075012
  0
ARC
  8
0
  6
CONTINUOUS
 62
7
 10
192.000000
 20
-109.000000
 40
3.699990
 50
198.923996
 51
221.074997
  0
ARC
  8
0
  6
CONTINUOUS
 62
7
 10
192.000000
 20
-109.000000
 40
3.700000
 50
258.924011
 51
281.075012
  0
ARC
  8
0
  6
CONTINUOUS
 62
7
 10
192.000000
 20
-109.000000
 40
3.699990
 50
18.924400
 51
41.075298
  0
CIRCLE
  8
0
  6
CONTINUOUS
 62
7
 10
-190.000000
 20
-117.000000
 40
5.400000
  0
ARC
  8
0
  6
CONTINUOUS
 62
7
 10
-183.399994
 20
-110.500000
 40
1.350000
 50
116.387001
 51
243.610992
  0
ARC
  8
0
  6
CONTINUOUS
 62
7
 10
-196.600006
 20
-110.500000
 40
1.350010
 50
296.386993
 51
63.609901
  0
CIRCLE
  8
0
  6
CONTINUOUS
 62
2
 10
-199.000000
 20
-120.000000
 40
1.500000
  0
CIRCLE
  8
0
  6
CONTINUOUS
 62
7
 10
-199.000000
 20
-120.000000
 40
1.250000
  0
CIRCLE
  8
0
  6
CONTINUOUS
 62
7
 10
-172.000000
 20
-109.000000
 40
2.500000
  0
ARC
  8
0
  6
CONTINUOUS
 62
7
 10
-172.000000
 20
-109.000000
 40
3.700000
 50
78.924896
 51
101.075996
  0
ARC
  8
0
  6
CONTINUOUS
 62
7
 10
-172.000000
 20
-109.000000
 40
3.700000
 50
18.924801
 51
41.075600
  0
ARC
  8
0
  6
CONTINUOUS
 62
7
 10
-172.000000
 20
-109.000000
 40
3.700000
 50
198.925003
 51
221.076004
  0
ARC
  8
0
  6
CONTINUOUS
 62
7
 10
-172.000000
 20
-109.000000
 40
3.700000
 50
318.924988
 51
341.075989
  0
ARC
  8
0
  6
CONTINUOUS
 62
7
 10
-172.000000
 20
-109.000000
 40
3.700000
 50
258.924988
 51
281.075989
  0
ARC
  8
0
  6
CONTINUOUS
 62
7
 10
-172.000000
 20
-109.000000
 40
3.700000
 50
138.925003
 51
161.076004
  0
CIRCLE
  8
0
  6
CONTINUOUS
 62
7
 10
-76.000000
 20
-117.000000
 40
5.400000
  0
ARC
  8
0
  6
CONTINUOUS
 62
7
 10
-82.599998
 20
-110.500000
 40
1.350000
 50
296.389008
 51
63.612598
  0
ARC
  8
0
  6
CONTINUOUS
 62
7
 10
-69.400002
 20
-110.500000
 40
1.350000
 50
116.389999
 51
243.613998
  0
CIRCLE
  8
0
  6
CONTINUOUS
 62
2
 10
-67.000000
 20
-120.000000
 40
1.500000
  0
CIRCLE
  8
0
  6
CONTINUOUS
 62
7
 10
-67.000000
 20
-120.000000
 40
1.250000
  0
CIRCLE
  8
0
  6
CONTINUOUS
 62
7
 10
-94.000000
 20
-109.000000
 40
2.500000
  0
ARC
  8
0
  6
CONTINUOUS
 62
7
 10
-94.000000
 20
-109.000000
 40
3.700000
 50
78.924400
 51
101.074997
  0
ARC
  8
0
  6
CONTINUOUS
 62
7
 10
-94.000000
 20
-109.000000
 40
3.699990
 50
138.923996
 51
161.074997
  0
ARC
  8
0
  6
CONTINUOUS
 62
7
 10
-94.000000
 20
-109.000000
 40
3.700000
 50
318.924011
 51
341.075012
  0
ARC
  8
0
  6
CONTINUOUS
 62
7
 10
-94.000000
 20
-109.000000
 40
3.700000
 50
198.923996
 51
221.074997
  0
ARC
  8
0
  6
CONTINUOUS
 62
7
 10
-94.000000
 20
-109.000000
 40
3.700000
 50
258.924011
 51
281.075012
  0
ARC
  8
0
  6
CONTINUOUS
 62
7
 10
-94.000000
 20
-109.000000
 40
3.700000
 50
18.924299
 51
41.075199
  0
CIRCLE
  8
0
  6
CONTINUOUS
 62
7
 10
107.000000
 20
86.500000
 40
1.650000
  0
CIRCLE
  8
0
  6
CONTINUOUS
 62
2
 10
107.000000
 20
86.500000
 40
2.000000
  0
CIRCLE
  8
0
  6
CONTINUOUS
 62
2
 10
107.000000
 20
107.500000
 40
2.000000
  0
CIRCLE
  8
0
  6
CONTINUOUS
 62
7
 10
107.000000
 20
107.500000
 40
1.650000
  0
CIRCLE
  8
0
  6
CONTINUOUS
 62
2
 10
113.000000
 20
56.000000
 40
1.500000
  0
CIRCLE
  8
0
  6
CONTINUOUS
 62
7
 10
113.000000
 20
56.000000
 40
1.250000
  0
CIRCLE
  8
0
  6
CONTINUOUS
 62
7
 10
163.000000
 20
56.000000
 40
1.250000
  0
CIRCLE
  8
0
  6
CONTINUOUS
 62
2
 10
163.000000
 20
56.000000
 40
1.500000
  0
CIRCLE
  8
0
  6
CONTINUOUS
 62
7
 10
148.000000
 20
107.000000
 40
1.250000
  0
CIRCLE
  8
0
  6
CONTINUOUS
 62
2
 10
148.000000
 20
107.000000
 40
1.500000
  0
CIRCLE
  8
0
  6
CONTINUOUS
 62
7
 10
148.000000
 20
87.000000
 40
1.250000
  0
CIRCLE
  8
0
  6
CONTINUOUS
 62
2
 10
148.000000
 20
87.000000
 40
1.500000
  0
ARC
  8
0
  6
CONTINUOUS
 62
7
 10
113.000000
 20
56.000000
 40
3.000000
 50
0.000000
 51
150.000000
  0
ARC
  8
0
  6
CONTINUOUS
 62
7
 10
163.000000
 20
56.000000
 40
3.000010
 50
29.999901
 51
180.000000
  0
CIRCLE
  8
0
  6
CONTINUOUS
 62
2
 10
143.000000
 20
68.000000
 40
1.000000
  0
CIRCLE
  8
0
  6
CONTINUOUS
 62
2
 10
153.000000
 20
68.000000
 40
1.000000
  0
CIRCLE
  8
0
  6
CONTINUOUS
 62
7
 10
143.000000
 20
68.000000
 40
0.800000
  0
CIRCLE
  8
0
  6
CONTINUOUS
 62
7
 10
153.000000
 20
68.000000
 40
0.800000
  0
CIRCLE
  8
0
  6
DASHED
 62
2
 10
169.000000
 20
107.500000
 40
1.650000
  0
CIRCLE
  8
0
  6
DASHED
 62
2
 10
169.000000
 20
107.500000
 40
2.000000
  0
CIRCLE
  8
0
  6
CONTINUOUS
 62
7
 10
163.000000
 20
107.000000
 40
1.250000
  0
CIRCLE
  8
0
  6
CONTINUOUS
 62
2
 10
163.000000
 20
107.000000
 40
1.500000
  0
CIRCLE
  8
0
  6
CONTINUOUS
 62
7
 10
163.000000
 20
87.000000
 40
1.250000
  0
CIRCLE
  8
0
  6
CONTINUOUS
 62
2
 10
163.000000
 20
87.000000
 40
1.500000
  0
CIRCLE
  8
0
  6
DASHED
 62
2
 10
169.000000
 20
86.500000
 40
1.650000
  0
CIRCLE
  8
0
  6
DASHED
 62
2
 10
169.000000
 20
86.500000
 40
2.000000
  0
CIRCLE
  8
0
  6
CONTINUOUS
 62
7
 10
133.000000
 20
107.000000
 40
1.250000
  0
CIRCLE
  8
0
  6
CONTINUOUS
 62
2
 10
133.000000
 20
107.000000
 40
1.500000
  0
CIRCLE
  8
0
  6
CONTINUOUS
 62
7
 10
133.000000
 20
87.000000
 40
1.250000
  0
CIRCLE
  8
0
  6
CONTINUOUS
 62
2
 10
133.000000
 20
87.000000
 40
1.500000
  0
ARC
  8
0
  6
CONTINUOUS
 62
7
 10
99.000000
 20
57.500000
 40
4.800000
 50
0.000000
 51
56.442699
  0
ARC
  8
0
  6
CONTINUOUS
 62
7
 10
177.000000
 20
57.500000
 40
4.800000
 50
123.556999
 51
180.000000
  0
ARC
  8
0
  6
CONTINUOUS
 62
7
 10
99.000000
 20
141.500000
 40
4.800000
 50
303.557007
 51
0.000000
  0
ARC
  8
0
  6
CONTINUOUS
 62
7
 10
177.000000
 20
141.500000
 40
4.800000
 50
180.000000
 51
236.442993
  0
CIRCLE
  8
0
  6
CONTINUOUS
 62
7
 10
107.000000
 20
107.500000
 40
3.000000
  0
CIRCLE
  8
0
  6
CONTINUOUS
 62
7
 10
107.000000
 20
86.500000
 40
3.000000
  0
CIRCLE
  8
0
  6
DASHED
 62
2
 10
169.000000
 20
86.500000
 40
3.000000
  0
CIRCLE
  8
0
  6
DASHED
 62
2
 10
169.000000
 20
107.500000
 40
3.000000
  0
CIRCLE
  8
0
  6
CONTINUOUS
 62
7
 10
74.000000
 20
59.000000
 40
5.400000
  0
ARC
  8
0
  6
CONTINUOUS
 62
7
 10
80.599998
 20
65.500000
 40
1.350000
 50
116.387001
 51
243.610992
  0
ARC
  8
0
  6
CONTINUOUS
 62
7
 10
67.400002
 20
65.500000
 40
1.350000
 50
296.385986
 51
63.610199
  0
CIRCLE
  8
0
  6
CONTINUOUS
 62
2
 10
65.000000
 20
56.000000
 40
1.500000
  0
CIRCLE
  8
0
  6
CONTINUOUS
 62
7
 10
65.000000
 20
56.000000
 40
1.250000
  0
CIRCLE
  8
0
  6
CONTINUOUS
 62
7
 10
-149.000000
 20
86.500000
 40
1.650000
  0
CIRCLE
  8
0
  6
CONTINUOUS
 62
2
 10
-149.000000
 20
86.500000
 40
2.000000
  0
CIRCLE
  8
0
  6
CONTINUOUS
 62
2
 10
-149.000000
 20
107.500000
 40
2.000000
  0
CIRCLE
  8
0
  6
CONTINUOUS
 62
7
 10
-149.000000
 20
107.500000
 40
1.650000
  0
CIRCLE
  8
0
  6
CONTINUOUS
 62
2
 10
-143.000000
 20
56.000000
 40
1.500000
  0
CIRCLE
  8
0
  6
CONTINUOUS
 62
7
 10
-143.000000
 20
56.000000
 40
1.250000
  0
CIRCLE
  8
0
  6
CONTINUOUS
 62
7
 10
-123.000000
 20
56.000000
 40
1.250000
  0
CIRCLE
  8
0
  6
CONTINUOUS
 62
2
 10
-123.000000
 20
56.000000
 40
1.500000
  0
CIRCLE
  8
0
  6
CONTINUOUS
 62
7
 10
-135.500000
 20
107.000000
 40
1.250000
  0
CIRCLE
  8
0
  6
CONTINUOUS
 62
2
 10
-135.500000
 20
107.000000
 40
1.500000
  0
CIRCLE
  8
0
  6
CONTINUOUS
 62
7
 10
-135.500000
 20
87.000000
 40
1.250000
  0
CIRCLE
  8
0
  6
CONTINUOUS
 62
2
 10
-135.500000
 20
87.000000
 40
1.500000
  0
ARC
  8
0
  6
CONTINUOUS
 62
7
 10
-143.000000
 20
56.000000
 40
3.000000
 50
0.000000
 51
150.000000
  0
ARC
  8
0
  6
CONTINUOUS
 62
7
 10
-123.000000
 20
56.000000
 40
3.000000
 50
30.000000
 51
180.000000
  0
CIRCLE
  8
0
  6
CONTINUOUS
 62
2
 10
-133.000000
 20
68.000000
 40
1.000000
  0
CIRCLE
  8
0
  6
CONTINUOUS
 62
2
 10
-123.000000
 20
68.000000
 40
1.000000
  0
CIRCLE
  8
0
  6
CONTINUOUS
 62
7
 10
-133.000000
 20
68.000000
 40
0.800000
  0
CIRCLE
  8
0
  6
CONTINUOUS
 62
7
 10
-123.000000
 20
68.000000
 40
0.800000
  0
CIRCLE
  8
0
  6
CONTINUOUS
 62
7
 10
-120.500000
 20
107.000000
 40
1.250000
  0
CIRCLE
  8
0
  6
CONTINUOUS
 62
2
 10
-120.500000
 20
107.000000
 40
1.500000
  0
CIRCLE
  8
0
  6
CONTINUOUS
 62
7
 10
-120.500000
 20
87.000000
 40
1.250000
  0
CIRCLE
  8
0
  6
CONTINUOUS
 62
2
 10
-120.500000
 20
87.000000
 40
1.500000
  0
CIRCLE
  8
0
  6
CONTINUOUS
 62
7
 10
-149.000000
 20
86.500000
 40
3.000000
  0
CIRCLE
  8
0
  6
CONTINUOUS
 62
7
 10
-149.000000
 20
107.500000
 40
3.000000
  0
CIRCLE
  8
0
  6
DASHED
 62
2
 10
-117.000000
 20
107.500000
 40
3.000000
  0
CIRCLE
  8
0
  6
DASHED
 62
2
 10
-117.000000
 20
86.500000
 40
3.000000
  0
ARC
  8
0
  6
CONTINUOUS
 62
7
 10
-157.000000
 20
57.500000
 40
4.800000
 50
0.000000
 51
56.442600
  0
ARC
  8
0
  6
CONTINUOUS
 62
7
 10
-109.000000
 20
57.500000
 40
4.800000
 50
123.556999
 51
180.000000
  0
CIRCLE
  8
0
  6
DASHED
 62
2
 10
-117.000000
 20
107.500000
 40
1.650000
  0
CIRCLE
  8
0
  6
DASHED
 62
2
 10
-117.000000
 20
107.500000
 40
2.000000
  0
CIRCLE
  8
0
  6
DASHED
 62
2
 10
-117.000000
 20
86.500000
 40
2.000000
  0
CIRCLE
  8
0
  6
DASHED
 62
2
 10
-117.000000
 20
86.500000
 40
1.650000
  0
CIRCLE
  8
0
  6
CONTINUOUS
 62
2
 10
-149.000000
 20
37.500000
 40
2.000000
  0
CIRCLE
  8
0
  6
CONTINUOUS
 62
7
 10
-149.000000
 20
16.500000
 40
1.650000
  0
CIRCLE
  8
0
  6
CONTINUOUS
 62
2
 10
-149.000000
 20
16.500000
 40
2.000000
  0
CIRCLE
  8
0
  6
CONTINUOUS
 62
7
 10
-149.000000
 20
37.500000
 40
1.650000
  0
CIRCLE
  8
0
  6
CONTINUOUS
 62
7
 10
-117.000000
 20
16.500000
 40
1.650000
  0
CIRCLE
  8
0
  6
CONTINUOUS
 62
2
 10
-117.000000
 20
16.500000
 40
2.000000
  0
CIRCLE
  8
0
  6
CONTINUOUS
 62
7
 10
-117.000000
 20
37.500000
 40
1.650000
  0
CIRCLE
  8
0
  6
CONTINUOUS
 62
2
 10
-117.000000
 20
37.500000
 40
2.000000
  0
CIRCLE
  8
0
  6
CONTINUOUS
 62
7
 10
-110.500000
 20
30.500000
 40
5.900000
  0
CIRCLE
  8
0
  6
CONTINUOUS
 62
7
 10
-155.500000
 20
30.500000
 40
5.900000
  0
CIRCLE
  8
0
  6
CONTINUOUS
 62
2
 10
107.000000
 20
37.500000
 40
2.000000
  0
CIRCLE
  8
0
  6
CONTINUOUS
 62
7
 10
107.000000
 20
16.500000
 40
1.650000
  0
CIRCLE
  8
0
  6
CONTINUOUS
 62
2
 10
107.000000
 20
16.500000
 40
2.000000
  0
CIRCLE
  8
0
  6
CONTINUOUS
 62
7
 10
107.000000
 20
37.500000
 40
1.650000
  0
CIRCLE
  8
0
  6
CONTINUOUS
 62
7
 10
169.000000
 20
16.500000
 40
1.650000
  0
CIRCLE
  8
0
  6
CONTINUOUS
 62
2
 10
169.000000
 20
16.500000
 40
2.000000
  0
CIRCLE
  8
0
  6
CONTINUOUS
 62
7
 10
169.000000
 20
37.500000
 40
1.650000
  0
CIRCLE
  8
0
  6
CONTINUOUS
 62
2
 10
169.000000
 20
37.500000
 40
2.000000
  0
CIRCLE
  8
0
  6
CONTINUOUS
 62
7
 10
175.500000
 20
30.500000
 40
5.900000
  0
CIRCLE
  8
0
  6
CONTINUOUS
 62
7
 10
100.500000
 20
30.500000
 40
5.900000
  0
ARC
  8
0
  6
CONTINUOUS
 62
7
 10
122.000000
 20
135.000000
 40
3.000000
 50
90.000000
 51
180.000000
  0
ARC
  8
0
  6
CONTINUOUS
 62
7
 10
154.000000
 20
135.000000
 40
3.000000
 50
0.000000
 51
90.000000
  0
CIRCLE
  8
0
  6
CONTINUOUS
 62
7
 10
202.000000
 20
59.000000
 40
5.400000
  0
ARC
  8
0
  6
CONTINUOUS
 62
7
 10
195.399994
 20
65.500000
 40
1.350000
 50
296.389008
 51
63.612598
  0
ARC
  8
0
  6
CONTINUOUS
 62
7
 10
208.600006
 20
65.500000
 40
1.350010
 50
116.389999
 51
243.613007
  0
CIRCLE
  8
0
  6
CONTINUOUS
 62
2
 10
211.000000
 20
56.000000
 40
1.500000
  0
CIRCLE
  8
0
  6
CONTINUOUS
 62
7
 10
211.000000
 20
56.000000
 40
1.250000
  0
ARC
  8
0
  6
CONTINUOUS
 62
7
 10
-109.000000
 20
141.500000
 40
4.800000
 50
189.927994
 51
236.442993
  0
ARC
  8
0
  6
CONTINUOUS
 62
7
 10
-157.000000
 20
141.500000
 40
4.800000
 50
303.557007
 51
350.071991
  0
ARC
  8
0
  6
CONTINUOUS
 62
7
 10
-114.712997
 20
140.500000
 40
0.999998
 50
9.927940
 51
77.693398
  0
ARC
  8
0
  6
CONTINUOUS
 62
7
 10
-151.287003
 20
140.500000
 40
1.000000
 50
102.306999
 51
170.072006
  0
ARC
  8
0
  6
CONTINUOUS
 62
7
 10
-121.000000
 20
136.000000
 40
2.000000
 50
0.000000
 51
90.000000
  0
ARC
  8
0
  6
CONTINUOUS
 62
7
 10
-145.000000
 20
136.000000
 40
2.000000
 50
90.000000
 51
180.000000
  0
CIRCLE
  8
0
  6
CONTINUOUS
 62
7
 10
56.000000
 20
67.000000
 40
2.500000
  0
ARC
  8
0
  6
CONTINUOUS
 62
7
 10
56.000000
 20
67.000000
 40
3.700000
 50
78.924400
 51
101.074997
  0
ARC
  8
0
  6
CONTINUOUS
 62
7
 10
56.000000
 20
67.000000
 40
3.700000
 50
138.923996
 51
161.074997
  0
ARC
  8
0
  6
CONTINUOUS
 62
7
 10
56.000000
 20
67.000000
 40
3.700000
 50
318.924011
 51
341.075012
  0
ARC
  8
0
  6
CONTINUOUS
 62
7
 10
56.000000
 20
67.000000
 40
3.700000
 50
198.923996
 51
221.074997
  0
ARC
  8
0
  6
CONTINUOUS
 62
7
 10
56.000000
 20
67.000000
 40
3.700000
 50
258.924011
 51
281.075012
  0
ARC
  8
0
  6
CONTINUOUS
 62
7
 10
56.000000
 20
67.000000
 40
3.700000
 50
18.924400
 51
41.075199
  0
CIRCLE
  8
0
  6
CONTINUOUS
 62
7
 10
220.000000
 20
67.000000
 40
2.500000
  0
ARC
  8
0
  6
CONTINUOUS
 62
7
 10
220.000000
 20
67.000000
 40
3.700000
 50
78.924896
 51
101.075996
  0
ARC
  8
0
  6
CONTINUOUS
 62
7
 10
220.000000
 20
67.000000
 40
3.700000
 50
18.924801
 51
41.075600
  0
ARC
  8
0
  6
CONTINUOUS
 62
7
 10
220.000000
 20
67.000000
 40
3.700000
 50
198.925003
 51
221.076004
  0
ARC
  8
0
  6
CONTINUOUS
 62
7
 10
220.000000
 20
67.000000
 40
3.700000
 50
318.924988
 51
341.075989
  0
ARC
  8
0
  6
CONTINUOUS
 62
7
 10
220.000000
 20
67.000000
 40
3.700000
 50
258.924988
 51
281.075989
  0
ARC
  8
0
  6
CONTINUOUS
 62
7
 10
220.000000
 20
67.000000
 40
3.700000
 50
138.925003
 51
161.076004
  0
CIRCLE
  8
0
  6
CONTINUOUS
 62
7
 10
-182.000000
 20
59.000000
 40
5.400000
  0
ARC
  8
0
  6
CONTINUOUS
 62
7
 10
-175.399994
 20
65.500000
 40
1.350000
 50
116.387001
 51
243.610992
  0
ARC
  8
0
  6
CONTINUOUS
 62
7
 10
-188.600006
 20
65.500000
 40
1.350010
 50
296.386993
 51
63.609901
  0
CIRCLE
  8
0
  6
CONTINUOUS
 62
2
 10
-191.000000
 20
56.000000
 40
1.500000
  0
CIRCLE
  8
0
  6
CONTINUOUS
 62
7
 10
-191.000000
 20
56.000000
 40
1.250000
  0
CIRCLE
  8
0
  6
CONTINUOUS
 62
7
 10
-200.000000
 20
67.000000
 40
2.500000
  0
ARC
  8
0
  6
CONTINUOUS
 62
7
 10
-200.000000
 20
67.000000
 40
3.700000
 50
78.924400
 51
101.074997
  0
ARC
  8
0
  6
CONTINUOUS
 62
7
 10
-200.000000
 20
67.000000
 40
3.699990
 50
138.923996
 51
161.074997
  0
ARC
  8
0
  6
CONTINUOUS
 62
7
 10
-200.000000
 20
67.000000
 40
3.699990
 50
318.924011
 51
341.075012
  0
ARC
  8
0
  6
CONTINUOUS
 62
7
 10
-200.000000
 20
67.000000
 40
3.699990
 50
198.923996
 51
221.074997
  0
ARC
  8
0
  6
CONTINUOUS
 62
7
 10
-200.000000
 20
67.000000
 40
3.700000
 50
258.924011
 51
281.075012
  0
ARC
  8
0
  6
CONTINUOUS
 62
7
 10
-200.000000
 20
67.000000
 40
3.699990
 50
18.924400
 51
41.075298
  0
CIRCLE
  8
0
  6
CONTINUOUS
 62
7
 10
-84.000000
 20
59.000000
 40
5.400000
  0
ARC
  8
0
  6
CONTINUOUS
 62
7
 10
-90.599998
 20
65.500000
 40
1.350000
 50
296.389008
 51
63.612598
  0
ARC
  8
0
  6
CONTINUOUS
 62
7
 10
-77.400002
 20
65.500000
 40
1.350000
 50
116.389999
 51
243.613998
  0
CIRCLE
  8
0
  6
CONTINUOUS
 62
2
 10
-75.000000
 20
56.000000
 40
1.500000
  0
CIRCLE
  8
0
  6
CONTINUOUS
 62
7
 10
-75.000000
 20
56.000000
 40
1.250000
  0
CIRCLE
  8
0
  6
CONTINUOUS
 62
7
 10
-66.000000
 20
67.000000
 40
2.500000
  0
ARC
  8
0
  6
CONTINUOUS
 62
7
 10
-66.000000
 20
67.000000
 40
3.700000
 50
78.924797
 51
101.075996
  0
ARC
  8
0
  6
CONTINUOUS
 62
7
 10
-66.000000
 20
67.000000
 40
3.700000
 50
18.924801
 51
41.075600
  0
ARC
  8
0
  6
CONTINUOUS
 62
7
 10
-66.000000
 20
67.000000
 40
3.700000
 50
198.925003
 51
221.076004
  0
ARC
  8
0
  6
CONTINUOUS
 62
7
 10
-66.000000
 20
67.000000
 40
3.700000
 50
318.924988
 51
341.075989
  0
ARC
  8
0
  6
CONTINUOUS
 62
7
 10
-66.000000
 20
67.000000
 40
3.700000
 50
258.924988
 51
281.075989
  0
ARC
  8
0
  6
CONTINUOUS
 62
7
 10
-66.000000
 20
67.000000
 40
3.700000
 50
138.925003
 51
161.076004
  0
CIRCLE
  8
0
  6
CONTINUOUS
 62
2
 10
-157.000000
 20
57.500000
 40
2.500000
  0
CIRCLE
  8
0
  6
CONTINUOUS
 62
7
 10
-157.000000
 20
57.500000
 40
2.100000
  0
CIRCLE
  8
0
  6
CONTINUOUS
 62
2
 10
-109.000000
 20
57.500000
 40
2.500000
  0
CIRCLE
  8
0
  6
CONTINUOUS
 62
7
 10
-109.000000
 20
57.500000
 40
2.100000
  0
CIRCLE
  8
0
  6
CONTINUOUS
 62
2
 10
-157.000000
 20
-118.500000
 40
2.500000
  0
CIRCLE
  8
0
  6
CONTINUOUS
 62
7
 10
-157.000000
 20
-118.500000
 40
2.100000
  0
CIRCLE
  8
0
  6
CONTINUOUS
 62
2
 10
-109.000000
 20
-118.500000
 40
2.500000
  0
CIRCLE
  8
0
  6
CONTINUOUS
 62
7
 10
-109.000000
 20
-118.500000
 40
2.100000
  0
CIRCLE
  8
0
  6
CONTINUOUS
 62
2
 10
99.000000
 20
57.500000
 40
2.500000
  0
CIRCLE
  8
0
  6
CONTINUOUS
 62
7
 10
99.000000
 20
57.500000
 40
2.100000
  0
CIRCLE
  8
0
  6
CONTINUOUS
 62
2
 10
177.000000
 20
57.500000
 40
2.500000
  0
CIRCLE
  8
0
  6
CONTINUOUS
 62
7
 10
177.000000
 20
57.500000
 40
2.100000
  0
CIRCLE
  8
0
  6
CONTINUOUS
 62
2
 10
99.000000
 20
-118.500000
 40
2.500000
  0
CIRCLE
  8
0
  6
CONTINUOUS
 62
7
 10
99.000000
 20
-118.500000
 40
2.100000
  0
CIRCLE
  8
0
  6
CONTINUOUS
 62
2
 10
177.000000
 20
-118.500000
 40
2.500000
  0
CIRCLE
  8
0
  6
CONTINUOUS
 62
7
 10
177.000000
 20
-118.500000
 40
2.100000
  0
TEXT
  8
0
 62
7
 10
202.930283
 20
183.925003
 40
6.300000
  1
Ver.1.0
 50
0.000000
 41
1.010330
 51
0.000000
  7
STANDARD
  0
TEXT
  8
0
 62
7
 10
172.714691
 20
-187.250000
 40
9.000000
  1
KOGANEI CORP.
 50
0.000000
 41
0.771524
 51
0.000000
  7
STANDARD
  0
TEXT
  8
0
 62
7
 10
-243.569717
 20
183.925003
 40
6.300000
  1
AP TABLE
 50
0.000000
 41
0.775607
 51
0.000000
  7
STANDARD
  0
TEXT
  8
0
 62
7
 10
12.274609
 20
158.925003
 40
6.300000
  1
MODEL:APT-SD10-20-TPQT
 50
0.000000
 41
0.784601
 51
0.000000
  7
STANDARD
  0
TEXT
  8
0
 62
7
 10
12.274609
 20
-16.325001
 40
6.300000
  1
MODEL:APT-GT10-20-TPQT
 50
0.000000
 41
0.784601
 51
0.000000
  7
STANDARD
  0
TEXT
  8
0
 62
7
 10
-269.400391
 20
158.925003
 40
6.300000
  1
MODEL:APT-SD10-10-TPQT
 50
0.000000
 41
0.798129
 51
0.000000
  7
STANDARD
  0
TEXT
  8
0
 62
7
 10
-269.400391
 20
-16.325001
 40
6.300000
  1
MODEL:APT-GT10-10-TPQT
 50
0.000000
 41
0.798129
 51
0.000000
  7
STANDARD
  0
ENDSEC
  0
EOF
