  0
SECTION
  2
HEADER
  0
ENDSEC
  0
SECTION
  2
TABLES
  0
TABLE
  2
LTYPE
 70
     4
  0
LTYPE
  2
CONTINUOUS
 70
    64
  3
Solid line
 72
    65
 73
     0
 40
0.000000
  0
LTYPE
  2
DASHED
 70
    64
  3
__ __ __ __ __ __ __ __ __ __ __ __ __ __ __
 72
    65
 73
     2
 40
3.500000
 49
2.000000
 49
-1.500000
  0
LTYPE
  2
CENTER
 70
    64
  3
____ _ ____ _ ____ _ ____ _ ____ _ ____ _ ____
 72
    65
 73
     4
 40
17.500000
 49
13.000000
 49
-1.500000
 49
1.500000
 49
-1.500000
  0
LTYPE
  2
PHANTOM
 70
    64
  3
_____ _ _ _____ _ _ _____ _ _ _____ _ _ ____  
 72
    65
 73
     6
 40
15.500000
 49
8.000000
 49
-1.500000
 49
1.500000
 49
-1.500000
 49
1.500000
 49
-1.500000
  0
ENDTAB
  0
TABLE
  2
LAYER
 70
     1
  0
LAYER
  2
0
 70
     0
 62
     7
  6
CONTINUOUS
  0
ENDTAB
  0
TABLE
  2
STYLE
 70
     1
  0
STYLE
  2
STANDARD
 70
     0
 40
0.000000
 41
1.000000
 50
0.000000
 71
     0
 42
0.200000
  3
txt
  4
BIGFONT
  0
ENDTAB
  0
TABLE
  2
VIEW
 70
     0
  0
ENDTAB
  0
ENDSEC
  0
SECTION
  2
BLOCKS
  0
ENDSEC
  0
SECTION
  2
ENTITIES
  0
LINE
  8
0
  6
CONTINUOUS
 62
7
 10
399.799988
 20
276.250000
 11
399.799988
 21
-276.750000
  0
LINE
  8
0
  6
CONTINUOUS
 62
7
 10
-399.250000
 20
276.250000
 11
-399.250000
 21
-276.750000
  0
LINE
  8
0
  6
CONTINUOUS
 62
7
 10
-399.250000
 20
276.250000
 11
399.799988
 21
276.250000
  0
LINE
  8
0
  6
CONTINUOUS
 62
7
 10
-399.250000
 20
-276.750000
 11
399.799988
 21
-276.750000
  0
LINE
  8
0
  6
CONTINUOUS
 62
7
 10
239.800003
 20
-251.750000
 11
399.799988
 21
-251.750000
  0
LINE
  8
0
  6
CONTINUOUS
 62
7
 10
239.800003
 20
251.250000
 11
399.799988
 21
251.250000
  0
LINE
  8
0
  6
CONTINUOUS
 62
7
 10
-399.250000
 20
251.250000
 11
-239.250000
 21
251.250000
  0
LINE
  8
0
  6
CONTINUOUS
 62
7
 10
239.800003
 20
-251.750000
 11
239.800003
 21
-276.750000
  0
LINE
  8
0
  6
CONTINUOUS
 62
7
 10
239.800003
 20
251.250000
 11
239.800003
 21
276.250000
  0
LINE
  8
0
  6
CONTINUOUS
 62
7
 10
-239.250000
 20
276.250000
 11
-239.250000
 21
251.250000
  0
LINE
  8
0
  6
CONTINUOUS
 62
7
 10
-271.000000
 20
-162.175003
 11
-256.000000
 21
-162.175003
  0
LINE
  8
0
  6
CONTINUOUS
 62
7
 10
-271.000000
 20
-166.175003
 11
-271.000000
 21
-169.675003
  0
LINE
  8
0
  6
CONTINUOUS
 62
7
 10
-271.000000
 20
-162.175003
 11
-271.000000
 21
-163.175003
  0
LINE
  8
0
  6
CONTINUOUS
 62
7
 10
-279.500000
 20
-157.175003
 11
-272.500000
 21
-157.175003
  0
LINE
  8
0
  6
CONTINUOUS
 62
7
 10
-279.500000
 20
-169.175003
 11
-271.000000
 21
-169.175003
  0
LINE
  8
0
  6
CONTINUOUS
 62
7
 10
-272.200012
 20
-157.475006
 11
-254.800003
 21
-157.475006
  0
LINE
  8
0
  6
CONTINUOUS
 62
7
 10
-272.500000
 20
-157.175003
 11
-272.200012
 21
-157.475006
  0
LINE
  8
0
  6
CONTINUOUS
 62
7
 10
-256.000000
 20
-166.175003
 11
-256.000000
 21
-169.675003
  0
LINE
  8
0
  6
CONTINUOUS
 62
7
 10
-256.000000
 20
-162.175003
 11
-256.000000
 21
-163.175003
  0
LINE
  8
0
  6
CONTINUOUS
 62
7
 10
-247.500000
 20
-157.175003
 11
-247.500000
 21
-169.175003
  0
LINE
  8
0
  6
CONTINUOUS
 62
7
 10
-247.500000
 20
-157.175003
 11
-254.500000
 21
-157.175003
  0
LINE
  8
0
  6
CONTINUOUS
 62
7
 10
-247.500000
 20
-169.175003
 11
-256.000000
 21
-169.175003
  0
LINE
  8
0
  6
CONTINUOUS
 62
7
 10
-254.500000
 20
-157.175003
 11
-254.800003
 21
-157.475006
  0
LINE
  8
0
  6
CONTINUOUS
 62
7
 10
-279.500000
 20
-157.175003
 11
-279.500000
 21
-169.175003
  0
LINE
  8
0
  6
CONTINUOUS
 62
7
 10
-247.000000
 20
-169.675003
 11
-256.000000
 21
-169.675003
  0
LINE
  8
0
  6
CONTINUOUS
 62
7
 10
-247.000000
 20
-179.175003
 11
-280.000000
 21
-179.175003
  0
LINE
  8
0
  6
CONTINUOUS
 62
7
 10
-280.000000
 20
-169.675003
 11
-271.000000
 21
-169.675003
  0
LINE
  8
0
  6
CONTINUOUS
 62
7
 10
-247.000000
 20
-169.675003
 11
-247.000000
 21
-179.175003
  0
LINE
  8
0
  6
CONTINUOUS
 62
7
 10
-280.000000
 20
-169.675003
 11
-280.000000
 21
-179.175003
  0
LINE
  8
0
  6
CENTER
 62
2
 10
-161.000000
 20
-115.675003
 11
-241.000000
 21
-115.675003
  0
LINE
  8
0
  6
CONTINUOUS
 62
7
 10
-214.500000
 20
-157.675003
 11
-214.500000
 21
-169.175003
  0
LINE
  8
0
  6
CONTINUOUS
 62
7
 10
-206.899994
 20
-157.175003
 11
-206.899994
 21
-169.175003
  0
LINE
  8
0
  6
CONTINUOUS
 62
7
 10
-206.899994
 20
-157.175003
 11
-180.100006
 21
-157.175003
  0
LINE
  8
0
  6
CONTINUOUS
 62
7
 10
-214.500000
 20
-169.175003
 11
-172.500000
 21
-169.175003
  0
LINE
  8
0
  6
CONTINUOUS
 62
7
 10
-214.500000
 20
-157.675003
 11
-206.899994
 21
-157.675003
  0
LINE
  8
0
  6
CONTINUOUS
 62
7
 10
-239.000000
 20
-162.175003
 11
-214.500000
 21
-162.175003
  0
LINE
  8
0
  6
CONTINUOUS
 62
7
 10
-172.500000
 20
-162.175003
 11
-163.000000
 21
-162.175003
  0
LINE
  8
0
  6
CONTINUOUS
 62
7
 10
-172.500000
 20
-157.675003
 11
-172.500000
 21
-169.175003
  0
LINE
  8
0
  6
CONTINUOUS
 62
7
 10
-180.100006
 20
-157.175003
 11
-180.100006
 21
-169.175003
  0
LINE
  8
0
  6
CONTINUOUS
 62
7
 10
-172.500000
 20
-157.675003
 11
-180.100006
 21
-157.675003
  0
LINE
  8
0
  6
CONTINUOUS
 62
7
 10
-239.000000
 20
-169.675003
 11
-230.347000
 21
-169.675003
  0
LINE
  8
0
  6
CONTINUOUS
 62
7
 10
-239.000000
 20
-179.175003
 11
-163.000000
 21
-179.175003
  0
LINE
  8
0
  6
CONTINUOUS
 62
7
 10
-239.000000
 20
-162.175003
 11
-239.000000
 21
-179.175003
  0
LINE
  8
0
  6
CONTINUOUS
 62
7
 10
-163.000000
 20
-162.175003
 11
-163.000000
 21
-179.175003
  0
LINE
  8
0
  6
CONTINUOUS
 62
7
 10
-206.899994
 20
-99.675003
 11
-206.899994
 21
-131.675003
  0
LINE
  8
0
  6
CONTINUOUS
 62
7
 10
-180.100006
 20
-99.675003
 11
-206.899994
 21
-99.675003
  0
LINE
  8
0
  6
CONTINUOUS
 62
7
 10
-180.100006
 20
-131.675003
 11
-206.899994
 21
-131.675003
  0
LINE
  8
0
  6
CONTINUOUS
 62
7
 10
-180.100006
 20
-99.675003
 11
-180.100006
 21
-131.675003
  0
LINE
  8
0
  6
CONTINUOUS
 62
7
 10
-180.100006
 20
-99.875000
 11
-172.500000
 21
-99.875000
  0
LINE
  8
0
  6
CONTINUOUS
 62
7
 10
-172.500000
 20
-99.875000
 11
-172.500000
 21
-131.475006
  0
LINE
  8
0
  6
CONTINUOUS
 62
7
 10
-180.100006
 20
-131.475006
 11
-172.500000
 21
-131.475006
  0
LINE
  8
0
  6
CONTINUOUS
 62
7
 10
-239.000000
 20
-108.175003
 11
-214.500000
 21
-108.175003
  0
LINE
  8
0
  6
CONTINUOUS
 62
7
 10
-172.500000
 20
-108.175003
 11
-163.000000
 21
-108.175003
  0
LINE
  8
0
  6
CONTINUOUS
 62
7
 10
-239.000000
 20
-123.175003
 11
-214.500000
 21
-123.175003
  0
LINE
  8
0
  6
CONTINUOUS
 62
7
 10
-172.500000
 20
-123.175003
 11
-163.000000
 21
-123.175003
  0
LINE
  8
0
  6
CONTINUOUS
 62
7
 10
-180.100006
 20
-124.675003
 11
-206.899994
 21
-124.675003
  0
LINE
  8
0
  6
CONTINUOUS
 62
7
 10
-180.100006
 20
-106.675003
 11
-206.899994
 21
-106.675003
  0
LINE
  8
0
  6
CONTINUOUS
 62
7
 10
-239.000000
 20
-99.175003
 11
-163.000000
 21
-99.175003
  0
LINE
  8
0
  6
CONTINUOUS
 62
7
 10
-239.000000
 20
-132.175003
 11
-163.000000
 21
-132.175003
  0
LINE
  8
0
  6
CONTINUOUS
 62
7
 10
-239.000000
 20
-132.175003
 11
-239.000000
 21
-99.175003
  0
LINE
  8
0
  6
CONTINUOUS
 62
7
 10
-163.000000
 20
-132.175003
 11
-163.000000
 21
-99.175003
  0
LINE
  8
0
  6
CENTER
 62
2
 10
-161.000000
 20
-220.675003
 11
-241.000000
 21
-220.675003
  0
LINE
  8
0
  6
CONTINUOUS
 62
7
 10
-239.000000
 20
-237.175003
 11
-163.000000
 21
-237.175003
  0
LINE
  8
0
  6
CONTINUOUS
 62
7
 10
-239.000000
 20
-204.175003
 11
-163.000000
 21
-204.175003
  0
LINE
  8
0
  6
CONTINUOUS
 62
7
 10
-239.000000
 20
-204.175003
 11
-239.000000
 21
-237.175003
  0
LINE
  8
0
  6
CONTINUOUS
 62
7
 10
-163.000000
 20
-204.175003
 11
-163.000000
 21
-237.175003
  0
LINE
  8
0
  6
CONTINUOUS
 62
7
 10
-228.199997
 20
-173.675003
 11
-219.000000
 21
-173.675003
  0
LINE
  8
0
  6
CONTINUOUS
 62
7
 10
-189.000000
 20
-173.675003
 11
-213.000000
 21
-173.675003
  0
LINE
  8
0
  6
CONTINUOUS
 62
7
 10
-173.800003
 20
-173.675003
 11
-183.000000
 21
-173.675003
  0
LINE
  8
0
  6
CENTER
 62
2
 10
-199.500000
 20
-159.175003
 11
-199.500000
 21
-164.175003
  0
LINE
  8
0
  6
CENTER
 62
2
 10
-202.000000
 20
-161.675003
 11
-197.000000
 21
-161.675003
  0
LINE
  8
0
  6
CENTER
 62
2
 10
-187.500000
 20
-159.175003
 11
-187.500000
 21
-164.175003
  0
LINE
  8
0
  6
CENTER
 62
2
 10
-185.000000
 20
-161.675003
 11
-190.000000
 21
-161.675003
  0
LINE
  8
0
  6
CONTINUOUS
 62
7
 10
-214.500000
 20
-73.675003
 11
-214.500000
 21
-62.174999
  0
LINE
  8
0
  6
CONTINUOUS
 62
7
 10
-206.899994
 20
-74.175003
 11
-206.899994
 21
-62.174999
  0
LINE
  8
0
  6
CONTINUOUS
 62
7
 10
-206.899994
 20
-74.175003
 11
-180.100006
 21
-74.175003
  0
LINE
  8
0
  6
CONTINUOUS
 62
7
 10
-214.500000
 20
-62.174999
 11
-172.500000
 21
-62.174999
  0
LINE
  8
0
  6
CONTINUOUS
 62
7
 10
-214.500000
 20
-73.675003
 11
-206.899994
 21
-73.675003
  0
LINE
  8
0
  6
CONTINUOUS
 62
7
 10
-239.000000
 20
-69.175003
 11
-214.500000
 21
-69.175003
  0
LINE
  8
0
  6
CONTINUOUS
 62
7
 10
-172.500000
 20
-69.175003
 11
-163.000000
 21
-69.175003
  0
LINE
  8
0
  6
CONTINUOUS
 62
7
 10
-172.500000
 20
-73.675003
 11
-172.500000
 21
-62.174999
  0
LINE
  8
0
  6
CONTINUOUS
 62
7
 10
-180.100006
 20
-74.175003
 11
-180.100006
 21
-62.174999
  0
LINE
  8
0
  6
CONTINUOUS
 62
7
 10
-172.500000
 20
-73.675003
 11
-180.100006
 21
-73.675003
  0
LINE
  8
0
  6
CONTINUOUS
 62
7
 10
-239.000000
 20
-61.674999
 11
-230.347000
 21
-61.674999
  0
LINE
  8
0
  6
CONTINUOUS
 62
7
 10
-239.000000
 20
-52.174999
 11
-163.000000
 21
-52.174999
  0
LINE
  8
0
  6
CONTINUOUS
 62
7
 10
-239.000000
 20
-69.175003
 11
-239.000000
 21
-52.174999
  0
LINE
  8
0
  6
CONTINUOUS
 62
7
 10
-163.000000
 20
-69.175003
 11
-163.000000
 21
-52.174999
  0
LINE
  8
0
  6
CENTER
 62
2
 10
-216.000000
 20
-63.109299
 11
-216.000000
 21
-53.174999
  0
LINE
  8
0
  6
CENTER
 62
2
 10
-186.000000
 20
-63.609299
 11
-186.000000
 21
-53.674999
  0
LINE
  8
0
  6
CENTER
 62
2
 10
-220.565994
 20
-57.674999
 11
-211.723007
 21
-57.674999
  0
LINE
  8
0
  6
CENTER
 62
2
 10
-181.479996
 20
-57.674999
 11
-189.957993
 21
-57.674999
  0
LINE
  8
0
  6
CONTINUOUS
 62
7
 10
-228.199997
 20
-57.674999
 11
-219.000000
 21
-57.674999
  0
LINE
  8
0
  6
CONTINUOUS
 62
7
 10
-189.000000
 20
-57.674999
 11
-213.000000
 21
-57.674999
  0
LINE
  8
0
  6
CONTINUOUS
 62
7
 10
-173.800003
 20
-57.674999
 11
-183.000000
 21
-57.674999
  0
LINE
  8
0
  6
CONTINUOUS
 62
7
 10
-214.500000
 20
-99.875000
 11
-214.500000
 21
-131.462006
  0
LINE
  8
0
  6
CONTINUOUS
 62
7
 10
-206.899994
 20
-99.875000
 11
-214.500000
 21
-99.875000
  0
LINE
  8
0
  6
CONTINUOUS
 62
7
 10
-206.899994
 20
-131.475006
 11
-214.500000
 21
-131.475006
  0
LINE
  8
0
  6
CONTINUOUS
 62
7
 10
-171.653000
 20
-169.675003
 11
-163.000000
 21
-169.675003
  0
LINE
  8
0
  6
CONTINUOUS
 62
7
 10
-171.653000
 20
-61.674999
 11
-163.000000
 21
-61.674999
  0
LINE
  8
0
  6
CENTER
 62
2
 10
-178.000000
 20
-121.675003
 11
-178.000000
 21
-133.675003
  0
LINE
  8
0
  6
CENTER
 62
2
 10
-184.000000
 20
-127.675003
 11
-172.000000
 21
-127.675003
  0
LINE
  8
0
  6
CENTER
 62
2
 10
-178.000000
 20
-97.675003
 11
-178.000000
 21
-109.675003
  0
LINE
  8
0
  6
CENTER
 62
2
 10
-184.000000
 20
-103.675003
 11
-172.000000
 21
-103.675003
  0
LINE
  8
0
  6
CENTER
 62
2
 10
-183.500000
 20
-99.675003
 11
-183.500000
 21
-106.675003
  0
LINE
  8
0
  6
CENTER
 62
2
 10
-187.000000
 20
-103.175003
 11
-180.000000
 21
-103.175003
  0
LINE
  8
0
  6
CENTER
 62
2
 10
-203.500000
 20
-99.675003
 11
-203.500000
 21
-106.675003
  0
LINE
  8
0
  6
CENTER
 62
2
 10
-207.000000
 20
-103.175003
 11
-200.000000
 21
-103.175003
  0
LINE
  8
0
  6
CENTER
 62
2
 10
-183.500000
 20
-124.675003
 11
-183.500000
 21
-131.675003
  0
LINE
  8
0
  6
CENTER
 62
2
 10
-187.000000
 20
-128.175003
 11
-180.000000
 21
-128.175003
  0
LINE
  8
0
  6
CENTER
 62
2
 10
-203.500000
 20
-124.675003
 11
-203.500000
 21
-131.675003
  0
LINE
  8
0
  6
CENTER
 62
2
 10
-207.000000
 20
-128.175003
 11
-200.000000
 21
-128.175003
  0
LINE
  8
0
  6
CENTER
 62
2
 10
-224.000000
 20
-121.675003
 11
-224.000000
 21
-133.675003
  0
LINE
  8
0
  6
CENTER
 62
2
 10
-230.000000
 20
-127.675003
 11
-218.000000
 21
-127.675003
  0
LINE
  8
0
  6
CENTER
 62
2
 10
-224.000000
 20
-97.675003
 11
-224.000000
 21
-109.675003
  0
LINE
  8
0
  6
CENTER
 62
2
 10
-230.000000
 20
-103.675003
 11
-218.000000
 21
-103.675003
  0
LINE
  8
0
  6
CENTER
 62
2
 10
-186.000000
 20
-170.175003
 11
-186.000000
 21
-177.175003
  0
LINE
  8
0
  6
CENTER
 62
2
 10
-189.500000
 20
-173.675003
 11
-182.500000
 21
-173.675003
  0
LINE
  8
0
  6
CENTER
 62
2
 10
-188.500000
 20
-72.675003
 11
-188.500000
 21
-66.675003
  0
LINE
  8
0
  6
CENTER
 62
2
 10
-191.500000
 20
-69.675003
 11
-185.500000
 21
-69.675003
  0
LINE
  8
0
  6
CENTER
 62
2
 10
-198.500000
 20
-72.675003
 11
-198.500000
 21
-66.675003
  0
LINE
  8
0
  6
CENTER
 62
2
 10
-201.500000
 20
-69.675003
 11
-195.500000
 21
-69.675003
  0
LINE
  8
0
  6
CENTER
 62
2
 10
-216.000000
 20
-170.175003
 11
-216.000000
 21
-177.175003
  0
LINE
  8
0
  6
CENTER
 62
2
 10
-219.500000
 20
-173.675003
 11
-212.500000
 21
-173.675003
  0
LINE
  8
0
  6
CENTER
 62
2
 10
-224.000000
 20
-204.175003
 11
-224.000000
 21
-213.175003
  0
LINE
  8
0
  6
CENTER
 62
2
 10
-228.500000
 20
-208.675003
 11
-219.500000
 21
-208.675003
  0
LINE
  8
0
  6
CENTER
 62
2
 10
-231.000000
 20
-208.274994
 11
-231.000000
 21
-224.074997
  0
LINE
  8
0
  6
CENTER
 62
2
 10
-238.899994
 20
-216.175003
 11
-223.100006
 21
-216.175003
  0
LINE
  8
0
  6
CENTER
 62
2
 10
-178.000000
 20
-204.175003
 11
-178.000000
 21
-213.175003
  0
LINE
  8
0
  6
CENTER
 62
2
 10
-182.500000
 20
-208.675003
 11
-173.500000
 21
-208.675003
  0
LINE
  8
0
  6
CENTER
 62
2
 10
-171.000000
 20
-208.274994
 11
-171.000000
 21
-224.074997
  0
LINE
  8
0
  6
CENTER
 62
2
 10
-178.899994
 20
-216.175003
 11
-163.100006
 21
-216.175003
  0
LINE
  8
0
  6
CENTER
 62
2
 10
-178.000000
 20
-228.175003
 11
-178.000000
 21
-237.175003
  0
LINE
  8
0
  6
CENTER
 62
2
 10
-182.500000
 20
-232.675003
 11
-173.500000
 21
-232.675003
  0
LINE
  8
0
  6
CENTER
 62
2
 10
-224.000000
 20
-228.175003
 11
-224.000000
 21
-237.175003
  0
LINE
  8
0
  6
CENTER
 62
2
 10
-228.500000
 20
-232.675003
 11
-219.500000
 21
-232.675003
  0
LINE
  8
0
  6
CENTER
 62
2
 10
-263.500000
 20
-155.175003
 11
-263.500000
 21
-181.175003
  0
LINE
  8
0
  6
CENTER
 62
2
 10
-271.899994
 20
-171.175003
 11
-255.100006
 21
-171.175003
  0
LINE
  8
0
  6
CENTER
 62
2
 10
-273.500000
 20
-170.175003
 11
-273.500000
 21
-177.175003
  0
LINE
  8
0
  6
CENTER
 62
2
 10
-277.000000
 20
-173.675003
 11
-270.000000
 21
-173.675003
  0
LINE
  8
0
  6
CONTINUOUS
 62
7
 10
-131.000000
 20
-162.175003
 11
-146.000000
 21
-162.175003
  0
LINE
  8
0
  6
CONTINUOUS
 62
7
 10
-131.000000
 20
-166.175003
 11
-131.000000
 21
-169.675003
  0
LINE
  8
0
  6
CONTINUOUS
 62
7
 10
-131.000000
 20
-162.175003
 11
-131.000000
 21
-163.175003
  0
LINE
  8
0
  6
CONTINUOUS
 62
7
 10
-122.500000
 20
-157.175003
 11
-129.500000
 21
-157.175003
  0
LINE
  8
0
  6
CONTINUOUS
 62
7
 10
-122.500000
 20
-169.175003
 11
-131.000000
 21
-169.175003
  0
LINE
  8
0
  6
CONTINUOUS
 62
7
 10
-129.800003
 20
-157.475006
 11
-147.199997
 21
-157.475006
  0
LINE
  8
0
  6
CONTINUOUS
 62
7
 10
-129.500000
 20
-157.175003
 11
-129.800003
 21
-157.475006
  0
LINE
  8
0
  6
CONTINUOUS
 62
7
 10
-146.000000
 20
-166.175003
 11
-146.000000
 21
-169.675003
  0
LINE
  8
0
  6
CONTINUOUS
 62
7
 10
-146.000000
 20
-162.175003
 11
-146.000000
 21
-163.175003
  0
LINE
  8
0
  6
CONTINUOUS
 62
7
 10
-154.500000
 20
-157.175003
 11
-154.500000
 21
-169.175003
  0
LINE
  8
0
  6
CONTINUOUS
 62
7
 10
-154.500000
 20
-157.175003
 11
-147.500000
 21
-157.175003
  0
LINE
  8
0
  6
CONTINUOUS
 62
7
 10
-154.500000
 20
-169.175003
 11
-146.000000
 21
-169.175003
  0
LINE
  8
0
  6
CONTINUOUS
 62
7
 10
-147.500000
 20
-157.175003
 11
-147.199997
 21
-157.475006
  0
LINE
  8
0
  6
CONTINUOUS
 62
7
 10
-122.500000
 20
-157.175003
 11
-122.500000
 21
-169.175003
  0
LINE
  8
0
  6
CONTINUOUS
 62
7
 10
-155.000000
 20
-169.675003
 11
-146.000000
 21
-169.675003
  0
LINE
  8
0
  6
CONTINUOUS
 62
7
 10
-155.000000
 20
-179.175003
 11
-122.000000
 21
-179.175003
  0
LINE
  8
0
  6
CONTINUOUS
 62
7
 10
-122.000000
 20
-169.675003
 11
-131.000000
 21
-169.675003
  0
LINE
  8
0
  6
CONTINUOUS
 62
7
 10
-155.000000
 20
-169.675003
 11
-155.000000
 21
-179.175003
  0
LINE
  8
0
  6
CONTINUOUS
 62
7
 10
-122.000000
 20
-169.675003
 11
-122.000000
 21
-179.175003
  0
LINE
  8
0
  6
CENTER
 62
2
 10
-138.500000
 20
-155.175003
 11
-138.500000
 21
-181.175003
  0
LINE
  8
0
  6
CENTER
 62
2
 10
-130.100006
 20
-171.175003
 11
-146.899994
 21
-171.175003
  0
LINE
  8
0
  6
CENTER
 62
2
 10
-128.500000
 20
-170.175003
 11
-128.500000
 21
-177.175003
  0
LINE
  8
0
  6
CENTER
 62
2
 10
-125.000000
 20
-173.675003
 11
-132.000000
 21
-173.675003
  0
LINE
  8
0
  6
CENTER
 62
2
 10
-224.000000
 20
-171.675003
 11
-224.000000
 21
-181.175003
  0
LINE
  8
0
  6
DASHED
 62
2
 10
-220.000000
 20
-173.675003
 11
-220.000000
 21
-174.675003
  0
LINE
  8
0
  6
DASHED
 62
2
 10
-228.000000
 20
-173.675003
 11
-228.000000
 21
-174.675003
  0
LINE
  8
0
  6
DASHED
 62
2
 10
-226.500000
 20
-174.675003
 11
-226.500000
 21
-179.175003
  0
LINE
  8
0
  6
DASHED
 62
2
 10
-221.500000
 20
-174.675003
 11
-221.500000
 21
-179.175003
  0
LINE
  8
0
  6
DASHED
 62
2
 10
-226.100006
 20
-174.675003
 11
-226.100006
 21
-179.175003
  0
LINE
  8
0
  6
DASHED
 62
2
 10
-221.899994
 20
-174.675003
 11
-221.899994
 21
-179.175003
  0
LINE
  8
0
  6
DASHED
 62
2
 10
-228.000000
 20
-174.675003
 11
-220.000000
 21
-174.675003
  0
LINE
  8
0
  6
DASHED
 62
2
 10
-182.000000
 20
-173.675003
 11
-182.000000
 21
-174.675003
  0
LINE
  8
0
  6
DASHED
 62
2
 10
-182.000000
 20
-174.675003
 11
-174.000000
 21
-174.675003
  0
LINE
  8
0
  6
DASHED
 62
2
 10
-180.500000
 20
-174.675003
 11
-180.500000
 21
-179.175003
  0
LINE
  8
0
  6
DASHED
 62
2
 10
-180.100006
 20
-174.675003
 11
-180.100006
 21
-179.175003
  0
LINE
  8
0
  6
CENTER
 62
2
 10
-178.000000
 20
-171.675003
 11
-178.000000
 21
-181.175003
  0
LINE
  8
0
  6
DASHED
 62
2
 10
-175.899994
 20
-174.675003
 11
-175.899994
 21
-179.175003
  0
LINE
  8
0
  6
DASHED
 62
2
 10
-175.500000
 20
-174.675003
 11
-175.500000
 21
-179.175003
  0
LINE
  8
0
  6
DASHED
 62
2
 10
-174.000000
 20
-173.675003
 11
-174.000000
 21
-174.675003
  0
LINE
  8
0
  6
DASHED
 62
2
 10
-220.000000
 20
-57.674999
 11
-220.000000
 21
-56.674999
  0
LINE
  8
0
  6
DASHED
 62
2
 10
-220.000000
 20
-56.674999
 11
-228.000000
 21
-56.674999
  0
LINE
  8
0
  6
DASHED
 62
2
 10
-221.500000
 20
-56.674999
 11
-221.500000
 21
-52.174999
  0
LINE
  8
0
  6
DASHED
 62
2
 10
-221.899994
 20
-56.674999
 11
-221.899994
 21
-52.174999
  0
LINE
  8
0
  6
CENTER
 62
2
 10
-224.000000
 20
-59.674999
 11
-224.000000
 21
-50.174999
  0
LINE
  8
0
  6
DASHED
 62
2
 10
-226.100006
 20
-56.674999
 11
-226.100006
 21
-52.174999
  0
LINE
  8
0
  6
DASHED
 62
2
 10
-226.500000
 20
-56.674999
 11
-226.500000
 21
-52.174999
  0
LINE
  8
0
  6
DASHED
 62
2
 10
-228.000000
 20
-57.674999
 11
-228.000000
 21
-56.674999
  0
LINE
  8
0
  6
DASHED
 62
2
 10
-174.000000
 20
-57.674999
 11
-174.000000
 21
-56.674999
  0
LINE
  8
0
  6
DASHED
 62
2
 10
-174.000000
 20
-56.674999
 11
-182.000000
 21
-56.674999
  0
LINE
  8
0
  6
DASHED
 62
2
 10
-175.500000
 20
-56.674999
 11
-175.500000
 21
-52.174999
  0
LINE
  8
0
  6
DASHED
 62
2
 10
-175.899994
 20
-56.674999
 11
-175.899994
 21
-52.174999
  0
LINE
  8
0
  6
CENTER
 62
2
 10
-178.000000
 20
-59.674999
 11
-178.000000
 21
-50.174999
  0
LINE
  8
0
  6
DASHED
 62
2
 10
-180.100006
 20
-56.674999
 11
-180.100006
 21
-52.174999
  0
LINE
  8
0
  6
DASHED
 62
2
 10
-180.500000
 20
-56.674999
 11
-180.500000
 21
-52.174999
  0
LINE
  8
0
  6
DASHED
 62
2
 10
-182.000000
 20
-57.674999
 11
-182.000000
 21
-56.674999
  0
LINE
  8
0
  6
CENTER
 62
2
 10
-183.500000
 20
-72.175003
 11
-183.500000
 21
-76.175003
  0
LINE
  8
0
  6
CENTER
 62
2
 10
-203.500000
 20
-72.175003
 11
-203.500000
 21
-76.175003
  0
LINE
  8
0
  6
CENTER
 62
2
 10
-183.500000
 20
-155.175003
 11
-183.500000
 21
-159.175003
  0
LINE
  8
0
  6
CENTER
 62
2
 10
-203.500000
 20
-155.175003
 11
-203.500000
 21
-159.175003
  0
LINE
  8
0
  6
CENTER
 62
2
 10
-275.500000
 20
-177.175003
 11
-275.500000
 21
-181.175003
  0
LINE
  8
0
  6
CENTER
 62
2
 10
-251.500000
 20
-177.175003
 11
-251.500000
 21
-181.175003
  0
LINE
  8
0
  6
CENTER
 62
2
 10
-251.000000
 20
-155.175003
 11
-251.000000
 21
-159.175003
  0
LINE
  8
0
  6
CENTER
 62
2
 10
-276.000000
 20
-155.175003
 11
-276.000000
 21
-159.175003
  0
LINE
  8
0
  6
CENTER
 62
2
 10
-150.500000
 20
-177.175003
 11
-150.500000
 21
-181.175003
  0
LINE
  8
0
  6
CENTER
 62
2
 10
-126.500000
 20
-177.175003
 11
-126.500000
 21
-181.175003
  0
LINE
  8
0
  6
CENTER
 62
2
 10
-126.000000
 20
-155.175003
 11
-126.000000
 21
-159.175003
  0
LINE
  8
0
  6
CENTER
 62
2
 10
-151.000000
 20
-155.175003
 11
-151.000000
 21
-159.175003
  0
LINE
  8
0
  6
CONTINUOUS
 62
7
 10
101.000000
 20
-162.175003
 11
116.000000
 21
-162.175003
  0
LINE
  8
0
  6
CONTINUOUS
 62
7
 10
101.000000
 20
-166.175003
 11
101.000000
 21
-169.675003
  0
LINE
  8
0
  6
CONTINUOUS
 62
7
 10
101.000000
 20
-162.175003
 11
101.000000
 21
-163.175003
  0
LINE
  8
0
  6
CONTINUOUS
 62
7
 10
92.500000
 20
-157.175003
 11
99.500000
 21
-157.175003
  0
LINE
  8
0
  6
CONTINUOUS
 62
7
 10
92.500000
 20
-169.175003
 11
101.000000
 21
-169.175003
  0
LINE
  8
0
  6
CONTINUOUS
 62
7
 10
99.800003
 20
-157.475006
 11
117.199997
 21
-157.475006
  0
LINE
  8
0
  6
CONTINUOUS
 62
7
 10
99.500000
 20
-157.175003
 11
99.800003
 21
-157.475006
  0
LINE
  8
0
  6
CONTINUOUS
 62
7
 10
116.000000
 20
-166.175003
 11
116.000000
 21
-169.675003
  0
LINE
  8
0
  6
CONTINUOUS
 62
7
 10
116.000000
 20
-162.175003
 11
116.000000
 21
-163.175003
  0
LINE
  8
0
  6
CONTINUOUS
 62
7
 10
124.500000
 20
-157.175003
 11
124.500000
 21
-169.175003
  0
LINE
  8
0
  6
CONTINUOUS
 62
7
 10
124.500000
 20
-157.175003
 11
117.500000
 21
-157.175003
  0
LINE
  8
0
  6
CONTINUOUS
 62
7
 10
124.500000
 20
-169.175003
 11
116.000000
 21
-169.175003
  0
LINE
  8
0
  6
CONTINUOUS
 62
7
 10
117.500000
 20
-157.175003
 11
117.199997
 21
-157.475006
  0
LINE
  8
0
  6
CONTINUOUS
 62
7
 10
92.500000
 20
-157.175003
 11
92.500000
 21
-169.175003
  0
LINE
  8
0
  6
CONTINUOUS
 62
7
 10
125.000000
 20
-169.675003
 11
116.000000
 21
-169.675003
  0
LINE
  8
0
  6
CONTINUOUS
 62
7
 10
125.000000
 20
-179.175003
 11
92.000000
 21
-179.175003
  0
LINE
  8
0
  6
CONTINUOUS
 62
7
 10
92.000000
 20
-169.675003
 11
101.000000
 21
-169.675003
  0
LINE
  8
0
  6
CONTINUOUS
 62
7
 10
125.000000
 20
-169.675003
 11
125.000000
 21
-179.175003
  0
LINE
  8
0
  6
CONTINUOUS
 62
7
 10
92.000000
 20
-169.675003
 11
92.000000
 21
-179.175003
  0
LINE
  8
0
  6
CENTER
 62
2
 10
241.000000
 20
-115.675003
 11
131.000000
 21
-115.675003
  0
LINE
  8
0
  6
CONTINUOUS
 62
7
 10
167.149994
 20
-157.675003
 11
167.149994
 21
-169.175003
  0
LINE
  8
0
  6
CONTINUOUS
 62
7
 10
174.750000
 20
-157.175003
 11
174.750000
 21
-169.175003
  0
LINE
  8
0
  6
CONTINUOUS
 62
7
 10
174.750000
 20
-157.175003
 11
222.250000
 21
-157.175003
  0
LINE
  8
0
  6
CONTINUOUS
 62
7
 10
167.149994
 20
-169.175003
 11
229.850006
 21
-169.175003
  0
LINE
  8
0
  6
CONTINUOUS
 62
7
 10
167.149994
 20
-157.675003
 11
174.750000
 21
-157.675003
  0
LINE
  8
0
  6
CONTINUOUS
 62
7
 10
133.000000
 20
-162.175003
 11
167.149994
 21
-162.175003
  0
LINE
  8
0
  6
CONTINUOUS
 62
7
 10
229.850006
 20
-162.175003
 11
239.000000
 21
-162.175003
  0
LINE
  8
0
  6
CONTINUOUS
 62
7
 10
229.850006
 20
-157.675003
 11
229.850006
 21
-169.175003
  0
LINE
  8
0
  6
CONTINUOUS
 62
7
 10
222.250000
 20
-157.175003
 11
222.250000
 21
-169.175003
  0
LINE
  8
0
  6
CONTINUOUS
 62
7
 10
229.850006
 20
-157.675003
 11
222.250000
 21
-157.675003
  0
LINE
  8
0
  6
CONTINUOUS
 62
7
 10
133.000000
 20
-169.675003
 11
141.653000
 21
-169.675003
  0
LINE
  8
0
  6
CONTINUOUS
 62
7
 10
133.000000
 20
-179.175003
 11
239.000000
 21
-179.175003
  0
LINE
  8
0
  6
CONTINUOUS
 62
7
 10
133.000000
 20
-162.175003
 11
133.000000
 21
-179.175003
  0
LINE
  8
0
  6
CONTINUOUS
 62
7
 10
239.000000
 20
-162.175003
 11
239.000000
 21
-179.175003
  0
LINE
  8
0
  6
CONTINUOUS
 62
7
 10
174.750000
 20
-99.675003
 11
174.750000
 21
-131.675003
  0
LINE
  8
0
  6
CONTINUOUS
 62
7
 10
222.250000
 20
-99.675003
 11
174.750000
 21
-99.675003
  0
LINE
  8
0
  6
CONTINUOUS
 62
7
 10
222.250000
 20
-131.675003
 11
174.750000
 21
-131.675003
  0
LINE
  8
0
  6
CONTINUOUS
 62
7
 10
222.250000
 20
-99.675003
 11
222.250000
 21
-131.675003
  0
LINE
  8
0
  6
CONTINUOUS
 62
7
 10
222.250000
 20
-99.875000
 11
229.850006
 21
-99.875000
  0
LINE
  8
0
  6
CONTINUOUS
 62
7
 10
229.850006
 20
-99.875000
 11
229.850006
 21
-131.475006
  0
LINE
  8
0
  6
CONTINUOUS
 62
7
 10
222.250000
 20
-131.475006
 11
229.850006
 21
-131.475006
  0
LINE
  8
0
  6
CONTINUOUS
 62
7
 10
133.000000
 20
-108.175003
 11
167.149994
 21
-108.175003
  0
LINE
  8
0
  6
CONTINUOUS
 62
7
 10
229.850006
 20
-108.175003
 11
239.000000
 21
-108.175003
  0
LINE
  8
0
  6
CONTINUOUS
 62
7
 10
133.000000
 20
-123.175003
 11
167.149994
 21
-123.175003
  0
LINE
  8
0
  6
CONTINUOUS
 62
7
 10
229.850006
 20
-123.175003
 11
239.000000
 21
-123.175003
  0
LINE
  8
0
  6
CONTINUOUS
 62
7
 10
222.250000
 20
-124.675003
 11
174.750000
 21
-124.675003
  0
LINE
  8
0
  6
CONTINUOUS
 62
7
 10
222.250000
 20
-106.675003
 11
174.750000
 21
-106.675003
  0
LINE
  8
0
  6
CONTINUOUS
 62
7
 10
133.000000
 20
-99.175003
 11
239.000000
 21
-99.175003
  0
LINE
  8
0
  6
CONTINUOUS
 62
7
 10
133.000000
 20
-132.175003
 11
239.000000
 21
-132.175003
  0
LINE
  8
0
  6
CONTINUOUS
 62
7
 10
133.000000
 20
-132.175003
 11
133.000000
 21
-99.175003
  0
LINE
  8
0
  6
CONTINUOUS
 62
7
 10
239.000000
 20
-132.175003
 11
239.000000
 21
-99.175003
  0
LINE
  8
0
  6
CENTER
 62
2
 10
241.000000
 20
-220.675003
 11
131.000000
 21
-220.675003
  0
LINE
  8
0
  6
CONTINUOUS
 62
7
 10
133.000000
 20
-237.175003
 11
239.000000
 21
-237.175003
  0
LINE
  8
0
  6
CONTINUOUS
 62
7
 10
133.000000
 20
-204.175003
 11
239.000000
 21
-204.175003
  0
LINE
  8
0
  6
CONTINUOUS
 62
7
 10
133.000000
 20
-204.175003
 11
133.000000
 21
-237.175003
  0
LINE
  8
0
  6
CONTINUOUS
 62
7
 10
239.000000
 20
-204.175003
 11
239.000000
 21
-237.175003
  0
LINE
  8
0
  6
CONTINUOUS
 62
7
 10
143.800003
 20
-173.675003
 11
153.000000
 21
-173.675003
  0
LINE
  8
0
  6
CONTINUOUS
 62
7
 10
213.000000
 20
-173.675003
 11
159.000000
 21
-173.675003
  0
LINE
  8
0
  6
CONTINUOUS
 62
7
 10
228.199997
 20
-173.675003
 11
219.000000
 21
-173.675003
  0
LINE
  8
0
  6
CONTINUOUS
 62
7
 10
167.149994
 20
-73.675003
 11
167.149994
 21
-62.174999
  0
LINE
  8
0
  6
CONTINUOUS
 62
7
 10
174.750000
 20
-74.175003
 11
174.750000
 21
-62.174999
  0
LINE
  8
0
  6
CONTINUOUS
 62
7
 10
174.750000
 20
-74.175003
 11
222.250000
 21
-74.175003
  0
LINE
  8
0
  6
CONTINUOUS
 62
7
 10
167.149994
 20
-62.174999
 11
229.850006
 21
-62.174999
  0
LINE
  8
0
  6
CONTINUOUS
 62
7
 10
167.149994
 20
-73.675003
 11
174.750000
 21
-73.675003
  0
LINE
  8
0
  6
CONTINUOUS
 62
7
 10
133.000000
 20
-69.175003
 11
167.149994
 21
-69.175003
  0
LINE
  8
0
  6
CONTINUOUS
 62
7
 10
229.850006
 20
-69.175003
 11
239.000000
 21
-69.175003
  0
LINE
  8
0
  6
CONTINUOUS
 62
7
 10
229.850006
 20
-73.675003
 11
229.850006
 21
-62.174999
  0
LINE
  8
0
  6
CONTINUOUS
 62
7
 10
222.250000
 20
-74.175003
 11
222.250000
 21
-62.174999
  0
LINE
  8
0
  6
CONTINUOUS
 62
7
 10
229.850006
 20
-73.675003
 11
222.250000
 21
-73.675003
  0
LINE
  8
0
  6
CONTINUOUS
 62
7
 10
133.000000
 20
-61.674999
 11
141.653000
 21
-61.674999
  0
LINE
  8
0
  6
CONTINUOUS
 62
7
 10
133.000000
 20
-52.174999
 11
239.000000
 21
-52.174999
  0
LINE
  8
0
  6
CONTINUOUS
 62
7
 10
133.000000
 20
-69.175003
 11
133.000000
 21
-52.174999
  0
LINE
  8
0
  6
CONTINUOUS
 62
7
 10
239.000000
 20
-69.175003
 11
239.000000
 21
-52.174999
  0
LINE
  8
0
  6
CONTINUOUS
 62
7
 10
143.800003
 20
-57.674999
 11
153.000000
 21
-57.674999
  0
LINE
  8
0
  6
CONTINUOUS
 62
7
 10
213.000000
 20
-57.674999
 11
159.000000
 21
-57.674999
  0
LINE
  8
0
  6
CONTINUOUS
 62
7
 10
228.199997
 20
-57.674999
 11
219.000000
 21
-57.674999
  0
LINE
  8
0
  6
CONTINUOUS
 62
7
 10
167.149994
 20
-99.875000
 11
167.149994
 21
-131.462006
  0
LINE
  8
0
  6
CONTINUOUS
 62
7
 10
174.750000
 20
-131.475006
 11
167.149994
 21
-131.475006
  0
LINE
  8
0
  6
CONTINUOUS
 62
7
 10
174.750000
 20
-99.875000
 11
167.149994
 21
-99.875000
  0
LINE
  8
0
  6
CONTINUOUS
 62
7
 10
230.347000
 20
-61.674999
 11
239.000000
 21
-61.674999
  0
LINE
  8
0
  6
CONTINUOUS
 62
7
 10
230.347000
 20
-169.675003
 11
239.000000
 21
-169.675003
  0
LINE
  8
0
  6
CENTER
 62
2
 10
156.000000
 20
-54.174999
 11
156.000000
 21
-61.174999
  0
LINE
  8
0
  6
CENTER
 62
2
 10
152.500000
 20
-57.674999
 11
159.500000
 21
-57.674999
  0
LINE
  8
0
  6
CENTER
 62
2
 10
192.500000
 20
-165.175003
 11
192.500000
 21
-158.175003
  0
LINE
  8
0
  6
CENTER
 62
2
 10
189.000000
 20
-161.675003
 11
196.000000
 21
-161.675003
  0
LINE
  8
0
  6
CENTER
 62
2
 10
216.000000
 20
-54.174999
 11
216.000000
 21
-61.174999
  0
LINE
  8
0
  6
CENTER
 62
2
 10
212.500000
 20
-57.674999
 11
219.500000
 21
-57.674999
  0
LINE
  8
0
  6
CENTER
 62
2
 10
204.500000
 20
-165.175003
 11
204.500000
 21
-158.175003
  0
LINE
  8
0
  6
CENTER
 62
2
 10
201.000000
 20
-161.675003
 11
208.000000
 21
-161.675003
  0
LINE
  8
0
  6
CENTER
 62
2
 10
148.000000
 20
-97.675003
 11
148.000000
 21
-109.675003
  0
LINE
  8
0
  6
CENTER
 62
2
 10
142.000000
 20
-103.675003
 11
154.000000
 21
-103.675003
  0
LINE
  8
0
  6
CENTER
 62
2
 10
148.000000
 20
-121.675003
 11
148.000000
 21
-133.675003
  0
LINE
  8
0
  6
CENTER
 62
2
 10
142.000000
 20
-127.675003
 11
154.000000
 21
-127.675003
  0
LINE
  8
0
  6
CENTER
 62
2
 10
178.500000
 20
-99.675003
 11
178.500000
 21
-106.675003
  0
LINE
  8
0
  6
CENTER
 62
2
 10
175.000000
 20
-103.175003
 11
182.000000
 21
-103.175003
  0
LINE
  8
0
  6
CENTER
 62
2
 10
198.500000
 20
-99.675003
 11
198.500000
 21
-106.675003
  0
LINE
  8
0
  6
CENTER
 62
2
 10
195.000000
 20
-103.175003
 11
202.000000
 21
-103.175003
  0
LINE
  8
0
  6
CENTER
 62
2
 10
218.500000
 20
-99.675003
 11
218.500000
 21
-106.675003
  0
LINE
  8
0
  6
CENTER
 62
2
 10
215.000000
 20
-103.175003
 11
222.000000
 21
-103.175003
  0
LINE
  8
0
  6
CENTER
 62
2
 10
224.000000
 20
-97.675003
 11
224.000000
 21
-109.675003
  0
LINE
  8
0
  6
CENTER
 62
2
 10
218.000000
 20
-103.675003
 11
230.000000
 21
-103.675003
  0
LINE
  8
0
  6
CENTER
 62
2
 10
224.000000
 20
-121.675003
 11
224.000000
 21
-133.675003
  0
LINE
  8
0
  6
CENTER
 62
2
 10
218.000000
 20
-127.675003
 11
230.000000
 21
-127.675003
  0
LINE
  8
0
  6
CENTER
 62
2
 10
218.500000
 20
-124.675003
 11
218.500000
 21
-131.675003
  0
LINE
  8
0
  6
CENTER
 62
2
 10
215.000000
 20
-128.175003
 11
222.000000
 21
-128.175003
  0
LINE
  8
0
  6
CENTER
 62
2
 10
178.500000
 20
-124.675003
 11
178.500000
 21
-131.675003
  0
LINE
  8
0
  6
CENTER
 62
2
 10
175.000000
 20
-128.175003
 11
182.000000
 21
-128.175003
  0
LINE
  8
0
  6
CENTER
 62
2
 10
198.500000
 20
-124.675003
 11
198.500000
 21
-131.675003
  0
LINE
  8
0
  6
CENTER
 62
2
 10
195.000000
 20
-128.175003
 11
202.000000
 21
-128.175003
  0
LINE
  8
0
  6
CENTER
 62
2
 10
193.500000
 20
-72.675003
 11
193.500000
 21
-66.675003
  0
LINE
  8
0
  6
CENTER
 62
2
 10
190.500000
 20
-69.675003
 11
196.500000
 21
-69.675003
  0
LINE
  8
0
  6
CENTER
 62
2
 10
203.500000
 20
-72.675003
 11
203.500000
 21
-66.675003
  0
LINE
  8
0
  6
CENTER
 62
2
 10
200.500000
 20
-69.675003
 11
206.500000
 21
-69.675003
  0
LINE
  8
0
  6
CENTER
 62
2
 10
216.000000
 20
-170.175003
 11
216.000000
 21
-177.175003
  0
LINE
  8
0
  6
CENTER
 62
2
 10
212.500000
 20
-173.675003
 11
219.500000
 21
-173.675003
  0
LINE
  8
0
  6
CENTER
 62
2
 10
156.000000
 20
-170.175003
 11
156.000000
 21
-177.175003
  0
LINE
  8
0
  6
CENTER
 62
2
 10
152.500000
 20
-173.675003
 11
159.500000
 21
-173.675003
  0
LINE
  8
0
  6
CENTER
 62
2
 10
148.000000
 20
-204.175003
 11
148.000000
 21
-213.175003
  0
LINE
  8
0
  6
CENTER
 62
2
 10
143.500000
 20
-208.675003
 11
152.500000
 21
-208.675003
  0
LINE
  8
0
  6
CENTER
 62
2
 10
141.000000
 20
-208.274994
 11
141.000000
 21
-224.074997
  0
LINE
  8
0
  6
CENTER
 62
2
 10
133.100006
 20
-216.175003
 11
148.899994
 21
-216.175003
  0
LINE
  8
0
  6
CENTER
 62
2
 10
148.000000
 20
-228.175003
 11
148.000000
 21
-237.175003
  0
LINE
  8
0
  6
CENTER
 62
2
 10
143.500000
 20
-232.675003
 11
152.500000
 21
-232.675003
  0
LINE
  8
0
  6
CENTER
 62
2
 10
224.000000
 20
-204.175003
 11
224.000000
 21
-213.175003
  0
LINE
  8
0
  6
CENTER
 62
2
 10
219.500000
 20
-208.675003
 11
228.500000
 21
-208.675003
  0
LINE
  8
0
  6
CENTER
 62
2
 10
224.000000
 20
-228.175003
 11
224.000000
 21
-237.175003
  0
LINE
  8
0
  6
CENTER
 62
2
 10
219.500000
 20
-232.675003
 11
228.500000
 21
-232.675003
  0
LINE
  8
0
  6
CENTER
 62
2
 10
231.000000
 20
-208.274994
 11
231.000000
 21
-224.074997
  0
LINE
  8
0
  6
CENTER
 62
2
 10
223.100006
 20
-216.175003
 11
238.899994
 21
-216.175003
  0
LINE
  8
0
  6
CENTER
 62
2
 10
98.500000
 20
-170.175003
 11
98.500000
 21
-177.175003
  0
LINE
  8
0
  6
CENTER
 62
2
 10
95.000000
 20
-173.675003
 11
102.000000
 21
-173.675003
  0
LINE
  8
0
  6
CENTER
 62
2
 10
108.500000
 20
-155.175003
 11
108.500000
 21
-181.175003
  0
LINE
  8
0
  6
CENTER
 62
2
 10
100.099998
 20
-171.175003
 11
116.900002
 21
-171.175003
  0
LINE
  8
0
  6
CONTINUOUS
 62
7
 10
271.000000
 20
-162.175003
 11
256.000000
 21
-162.175003
  0
LINE
  8
0
  6
CONTINUOUS
 62
7
 10
271.000000
 20
-166.175003
 11
271.000000
 21
-169.675003
  0
LINE
  8
0
  6
CONTINUOUS
 62
7
 10
271.000000
 20
-162.175003
 11
271.000000
 21
-163.175003
  0
LINE
  8
0
  6
CONTINUOUS
 62
7
 10
279.500000
 20
-157.175003
 11
272.500000
 21
-157.175003
  0
LINE
  8
0
  6
CONTINUOUS
 62
7
 10
279.500000
 20
-169.175003
 11
271.000000
 21
-169.175003
  0
LINE
  8
0
  6
CONTINUOUS
 62
7
 10
272.200012
 20
-157.475006
 11
254.800003
 21
-157.475006
  0
LINE
  8
0
  6
CONTINUOUS
 62
7
 10
272.500000
 20
-157.175003
 11
272.200012
 21
-157.475006
  0
LINE
  8
0
  6
CONTINUOUS
 62
7
 10
256.000000
 20
-166.175003
 11
256.000000
 21
-169.675003
  0
LINE
  8
0
  6
CONTINUOUS
 62
7
 10
256.000000
 20
-162.175003
 11
256.000000
 21
-163.175003
  0
LINE
  8
0
  6
CONTINUOUS
 62
7
 10
247.500000
 20
-157.175003
 11
247.500000
 21
-169.175003
  0
LINE
  8
0
  6
CONTINUOUS
 62
7
 10
247.500000
 20
-157.175003
 11
254.500000
 21
-157.175003
  0
LINE
  8
0
  6
CONTINUOUS
 62
7
 10
247.500000
 20
-169.175003
 11
256.000000
 21
-169.175003
  0
LINE
  8
0
  6
CONTINUOUS
 62
7
 10
254.500000
 20
-157.175003
 11
254.800003
 21
-157.475006
  0
LINE
  8
0
  6
CONTINUOUS
 62
7
 10
279.500000
 20
-157.175003
 11
279.500000
 21
-169.175003
  0
LINE
  8
0
  6
CONTINUOUS
 62
7
 10
247.000000
 20
-169.675003
 11
256.000000
 21
-169.675003
  0
LINE
  8
0
  6
CONTINUOUS
 62
7
 10
247.000000
 20
-179.175003
 11
280.000000
 21
-179.175003
  0
LINE
  8
0
  6
CONTINUOUS
 62
7
 10
280.000000
 20
-169.675003
 11
271.000000
 21
-169.675003
  0
LINE
  8
0
  6
CONTINUOUS
 62
7
 10
247.000000
 20
-169.675003
 11
247.000000
 21
-179.175003
  0
LINE
  8
0
  6
CONTINUOUS
 62
7
 10
280.000000
 20
-169.675003
 11
280.000000
 21
-179.175003
  0
LINE
  8
0
  6
CENTER
 62
2
 10
273.500000
 20
-170.175003
 11
273.500000
 21
-177.175003
  0
LINE
  8
0
  6
CENTER
 62
2
 10
277.000000
 20
-173.675003
 11
270.000000
 21
-173.675003
  0
LINE
  8
0
  6
CENTER
 62
2
 10
263.500000
 20
-155.175003
 11
263.500000
 21
-181.175003
  0
LINE
  8
0
  6
CENTER
 62
2
 10
271.899994
 20
-171.175003
 11
255.100006
 21
-171.175003
  0
LINE
  8
0
  6
DASHED
 62
2
 10
152.000000
 20
-57.674999
 11
152.000000
 21
-56.674999
  0
LINE
  8
0
  6
DASHED
 62
2
 10
152.000000
 20
-56.674999
 11
144.000000
 21
-56.674999
  0
LINE
  8
0
  6
DASHED
 62
2
 10
150.500000
 20
-56.674999
 11
150.500000
 21
-52.174999
  0
LINE
  8
0
  6
DASHED
 62
2
 10
150.100006
 20
-56.674999
 11
150.100006
 21
-52.174999
  0
LINE
  8
0
  6
CENTER
 62
2
 10
148.000000
 20
-59.674999
 11
148.000000
 21
-50.174999
  0
LINE
  8
0
  6
DASHED
 62
2
 10
145.899994
 20
-56.674999
 11
145.899994
 21
-52.174999
  0
LINE
  8
0
  6
DASHED
 62
2
 10
145.500000
 20
-56.674999
 11
145.500000
 21
-52.174999
  0
LINE
  8
0
  6
DASHED
 62
2
 10
144.000000
 20
-57.674999
 11
144.000000
 21
-56.674999
  0
LINE
  8
0
  6
DASHED
 62
2
 10
228.000000
 20
-57.674999
 11
228.000000
 21
-56.674999
  0
LINE
  8
0
  6
DASHED
 62
2
 10
228.000000
 20
-56.674999
 11
220.000000
 21
-56.674999
  0
LINE
  8
0
  6
DASHED
 62
2
 10
226.500000
 20
-56.674999
 11
226.500000
 21
-52.174999
  0
LINE
  8
0
  6
DASHED
 62
2
 10
226.100006
 20
-56.674999
 11
226.100006
 21
-52.174999
  0
LINE
  8
0
  6
CENTER
 62
2
 10
224.000000
 20
-59.674999
 11
224.000000
 21
-50.174999
  0
LINE
  8
0
  6
DASHED
 62
2
 10
221.899994
 20
-56.674999
 11
221.899994
 21
-52.174999
  0
LINE
  8
0
  6
DASHED
 62
2
 10
221.500000
 20
-56.674999
 11
221.500000
 21
-52.174999
  0
LINE
  8
0
  6
DASHED
 62
2
 10
220.000000
 20
-57.674999
 11
220.000000
 21
-56.674999
  0
LINE
  8
0
  6
DASHED
 62
2
 10
144.000000
 20
-173.675003
 11
144.000000
 21
-174.675003
  0
LINE
  8
0
  6
DASHED
 62
2
 10
144.000000
 20
-174.675003
 11
152.000000
 21
-174.675003
  0
LINE
  8
0
  6
DASHED
 62
2
 10
145.500000
 20
-174.675003
 11
145.500000
 21
-179.175003
  0
LINE
  8
0
  6
DASHED
 62
2
 10
145.899994
 20
-174.675003
 11
145.899994
 21
-179.175003
  0
LINE
  8
0
  6
CENTER
 62
2
 10
148.000000
 20
-171.675003
 11
148.000000
 21
-181.175003
  0
LINE
  8
0
  6
DASHED
 62
2
 10
150.100006
 20
-174.675003
 11
150.100006
 21
-179.175003
  0
LINE
  8
0
  6
DASHED
 62
2
 10
150.500000
 20
-174.675003
 11
150.500000
 21
-179.175003
  0
LINE
  8
0
  6
DASHED
 62
2
 10
152.000000
 20
-173.675003
 11
152.000000
 21
-174.675003
  0
LINE
  8
0
  6
DASHED
 62
2
 10
220.000000
 20
-173.675003
 11
220.000000
 21
-174.675003
  0
LINE
  8
0
  6
DASHED
 62
2
 10
220.000000
 20
-174.675003
 11
228.000000
 21
-174.675003
  0
LINE
  8
0
  6
DASHED
 62
2
 10
221.500000
 20
-174.675003
 11
221.500000
 21
-179.175003
  0
LINE
  8
0
  6
DASHED
 62
2
 10
221.899994
 20
-174.675003
 11
221.899994
 21
-179.175003
  0
LINE
  8
0
  6
CENTER
 62
2
 10
224.000000
 20
-171.675003
 11
224.000000
 21
-181.175003
  0
LINE
  8
0
  6
DASHED
 62
2
 10
226.100006
 20
-174.675003
 11
226.100006
 21
-179.175003
  0
LINE
  8
0
  6
DASHED
 62
2
 10
226.500000
 20
-174.675003
 11
226.500000
 21
-179.175003
  0
LINE
  8
0
  6
DASHED
 62
2
 10
228.000000
 20
-173.675003
 11
228.000000
 21
-174.675003
  0
LINE
  8
0
  6
CENTER
 62
2
 10
276.000000
 20
-155.175003
 11
276.000000
 21
-159.175003
  0
LINE
  8
0
  6
CENTER
 62
2
 10
251.000000
 20
-155.175003
 11
251.000000
 21
-159.175003
  0
LINE
  8
0
  6
CENTER
 62
2
 10
275.500000
 20
-177.175003
 11
275.500000
 21
-181.175003
  0
LINE
  8
0
  6
CENTER
 62
2
 10
251.500000
 20
-177.175003
 11
251.500000
 21
-181.175003
  0
LINE
  8
0
  6
CENTER
 62
2
 10
96.500000
 20
-177.175003
 11
96.500000
 21
-181.175003
  0
LINE
  8
0
  6
CENTER
 62
2
 10
120.500000
 20
-177.175003
 11
120.500000
 21
-181.175003
  0
LINE
  8
0
  6
CENTER
 62
2
 10
121.000000
 20
-155.175003
 11
121.000000
 21
-159.175003
  0
LINE
  8
0
  6
CENTER
 62
2
 10
96.000000
 20
-155.175003
 11
96.000000
 21
-159.175003
  0
LINE
  8
0
  6
CENTER
 62
2
 10
218.500000
 20
-72.175003
 11
218.500000
 21
-76.175003
  0
LINE
  8
0
  6
CENTER
 62
2
 10
198.500000
 20
-72.175003
 11
198.500000
 21
-76.175003
  0
LINE
  8
0
  6
CENTER
 62
2
 10
178.500000
 20
-72.175003
 11
178.500000
 21
-76.175003
  0
LINE
  8
0
  6
CENTER
 62
2
 10
218.500000
 20
-155.175003
 11
218.500000
 21
-159.175003
  0
LINE
  8
0
  6
CENTER
 62
2
 10
198.500000
 20
-155.175003
 11
198.500000
 21
-159.175003
  0
LINE
  8
0
  6
CENTER
 62
2
 10
178.500000
 20
-155.175003
 11
178.500000
 21
-159.175003
  0
LINE
  8
0
  6
CONTINUOUS
 62
7
 10
-271.000000
 20
92.074997
 11
-256.000000
 21
92.074997
  0
LINE
  8
0
  6
CONTINUOUS
 62
7
 10
-271.000000
 20
88.074997
 11
-271.000000
 21
84.574997
  0
LINE
  8
0
  6
CONTINUOUS
 62
7
 10
-271.000000
 20
92.074997
 11
-271.000000
 21
91.074997
  0
LINE
  8
0
  6
CONTINUOUS
 62
7
 10
-279.500000
 20
97.074997
 11
-272.500000
 21
97.074997
  0
LINE
  8
0
  6
CONTINUOUS
 62
7
 10
-279.500000
 20
85.074997
 11
-271.000000
 21
85.074997
  0
LINE
  8
0
  6
CONTINUOUS
 62
7
 10
-272.200012
 20
96.775002
 11
-254.800003
 21
96.775002
  0
LINE
  8
0
  6
CONTINUOUS
 62
7
 10
-272.500000
 20
97.074997
 11
-272.200012
 21
96.775002
  0
LINE
  8
0
  6
CONTINUOUS
 62
7
 10
-256.000000
 20
88.074997
 11
-256.000000
 21
84.574997
  0
LINE
  8
0
  6
CONTINUOUS
 62
7
 10
-256.000000
 20
92.074997
 11
-256.000000
 21
91.074997
  0
LINE
  8
0
  6
CONTINUOUS
 62
7
 10
-247.500000
 20
97.074997
 11
-247.500000
 21
85.074997
  0
LINE
  8
0
  6
CONTINUOUS
 62
7
 10
-247.500000
 20
97.074997
 11
-254.500000
 21
97.074997
  0
LINE
  8
0
  6
CONTINUOUS
 62
7
 10
-247.500000
 20
85.074997
 11
-256.000000
 21
85.074997
  0
LINE
  8
0
  6
CONTINUOUS
 62
7
 10
-254.500000
 20
97.074997
 11
-254.800003
 21
96.775002
  0
LINE
  8
0
  6
CONTINUOUS
 62
7
 10
-279.500000
 20
97.074997
 11
-279.500000
 21
85.074997
  0
LINE
  8
0
  6
CONTINUOUS
 62
7
 10
-247.000000
 20
84.574997
 11
-256.000000
 21
84.574997
  0
LINE
  8
0
  6
CONTINUOUS
 62
7
 10
-247.000000
 20
75.074997
 11
-280.000000
 21
75.074997
  0
LINE
  8
0
  6
CONTINUOUS
 62
7
 10
-280.000000
 20
84.574997
 11
-271.000000
 21
84.574997
  0
LINE
  8
0
  6
CONTINUOUS
 62
7
 10
-247.000000
 20
84.574997
 11
-247.000000
 21
75.074997
  0
LINE
  8
0
  6
CONTINUOUS
 62
7
 10
-280.000000
 20
84.574997
 11
-280.000000
 21
75.074997
  0
LINE
  8
0
  6
CENTER
 62
2
 10
-161.000000
 20
138.574997
 11
-241.000000
 21
138.574997
  0
LINE
  8
0
  6
CONTINUOUS
 62
7
 10
-214.500000
 20
96.574997
 11
-214.500000
 21
85.074997
  0
LINE
  8
0
  6
CONTINUOUS
 62
7
 10
-206.899994
 20
97.074997
 11
-206.899994
 21
85.074997
  0
LINE
  8
0
  6
CONTINUOUS
 62
7
 10
-206.899994
 20
97.074997
 11
-180.100006
 21
97.074997
  0
LINE
  8
0
  6
CONTINUOUS
 62
7
 10
-214.500000
 20
85.074997
 11
-172.500000
 21
85.074997
  0
LINE
  8
0
  6
CONTINUOUS
 62
7
 10
-214.500000
 20
96.574997
 11
-206.899994
 21
96.574997
  0
LINE
  8
0
  6
CONTINUOUS
 62
7
 10
-239.000000
 20
92.074997
 11
-214.500000
 21
92.074997
  0
LINE
  8
0
  6
CONTINUOUS
 62
7
 10
-172.500000
 20
92.074997
 11
-163.000000
 21
92.074997
  0
LINE
  8
0
  6
CONTINUOUS
 62
7
 10
-172.500000
 20
96.574997
 11
-172.500000
 21
85.074997
  0
LINE
  8
0
  6
CONTINUOUS
 62
7
 10
-180.100006
 20
97.074997
 11
-180.100006
 21
85.074997
  0
LINE
  8
0
  6
CONTINUOUS
 62
7
 10
-172.500000
 20
96.574997
 11
-180.100006
 21
96.574997
  0
LINE
  8
0
  6
CONTINUOUS
 62
7
 10
-239.000000
 20
84.574997
 11
-230.347000
 21
84.574997
  0
LINE
  8
0
  6
CONTINUOUS
 62
7
 10
-239.000000
 20
75.074997
 11
-163.000000
 21
75.074997
  0
LINE
  8
0
  6
CONTINUOUS
 62
7
 10
-239.000000
 20
92.074997
 11
-239.000000
 21
75.074997
  0
LINE
  8
0
  6
CONTINUOUS
 62
7
 10
-163.000000
 20
92.074997
 11
-163.000000
 21
75.074997
  0
LINE
  8
0
  6
CONTINUOUS
 62
7
 10
-206.899994
 20
154.574997
 11
-206.899994
 21
122.574997
  0
LINE
  8
0
  6
CONTINUOUS
 62
7
 10
-180.100006
 20
154.574997
 11
-206.899994
 21
154.574997
  0
LINE
  8
0
  6
CONTINUOUS
 62
7
 10
-180.100006
 20
122.574997
 11
-206.899994
 21
122.574997
  0
LINE
  8
0
  6
CONTINUOUS
 62
7
 10
-180.100006
 20
154.574997
 11
-180.100006
 21
122.574997
  0
LINE
  8
0
  6
CONTINUOUS
 62
7
 10
-180.100006
 20
154.375000
 11
-172.500000
 21
154.375000
  0
LINE
  8
0
  6
CONTINUOUS
 62
7
 10
-172.500000
 20
154.375000
 11
-172.500000
 21
122.775002
  0
LINE
  8
0
  6
CONTINUOUS
 62
7
 10
-180.100006
 20
122.775002
 11
-172.500000
 21
122.775002
  0
LINE
  8
0
  6
CONTINUOUS
 62
7
 10
-239.000000
 20
146.074997
 11
-214.500000
 21
146.074997
  0
LINE
  8
0
  6
CONTINUOUS
 62
7
 10
-172.500000
 20
146.074997
 11
-163.000000
 21
146.074997
  0
LINE
  8
0
  6
CONTINUOUS
 62
7
 10
-239.000000
 20
131.074997
 11
-214.500000
 21
131.074997
  0
LINE
  8
0
  6
CONTINUOUS
 62
7
 10
-172.500000
 20
131.074997
 11
-163.000000
 21
131.074997
  0
LINE
  8
0
  6
CONTINUOUS
 62
7
 10
-180.100006
 20
129.574997
 11
-206.899994
 21
129.574997
  0
LINE
  8
0
  6
CONTINUOUS
 62
7
 10
-180.100006
 20
147.574997
 11
-206.899994
 21
147.574997
  0
LINE
  8
0
  6
CONTINUOUS
 62
7
 10
-239.000000
 20
155.074997
 11
-163.000000
 21
155.074997
  0
LINE
  8
0
  6
CONTINUOUS
 62
7
 10
-239.000000
 20
122.074997
 11
-163.000000
 21
122.074997
  0
LINE
  8
0
  6
CONTINUOUS
 62
7
 10
-239.000000
 20
122.074997
 11
-239.000000
 21
155.074997
  0
LINE
  8
0
  6
CONTINUOUS
 62
7
 10
-163.000000
 20
122.074997
 11
-163.000000
 21
155.074997
  0
LINE
  8
0
  6
CENTER
 62
2
 10
-161.000000
 20
33.575001
 11
-241.000000
 21
33.575001
  0
LINE
  8
0
  6
CONTINUOUS
 62
7
 10
-239.000000
 20
17.075001
 11
-163.000000
 21
17.075001
  0
LINE
  8
0
  6
CONTINUOUS
 62
7
 10
-239.000000
 20
50.075001
 11
-163.000000
 21
50.075001
  0
LINE
  8
0
  6
CONTINUOUS
 62
7
 10
-239.000000
 20
50.075001
 11
-239.000000
 21
17.075001
  0
LINE
  8
0
  6
CONTINUOUS
 62
7
 10
-163.000000
 20
50.075001
 11
-163.000000
 21
17.075001
  0
LINE
  8
0
  6
CONTINUOUS
 62
7
 10
-228.199997
 20
80.574997
 11
-219.000000
 21
80.574997
  0
LINE
  8
0
  6
CONTINUOUS
 62
7
 10
-189.000000
 20
80.574997
 11
-213.000000
 21
80.574997
  0
LINE
  8
0
  6
CONTINUOUS
 62
7
 10
-173.800003
 20
80.574997
 11
-183.000000
 21
80.574997
  0
LINE
  8
0
  6
CENTER
 62
2
 10
-199.500000
 20
182.074997
 11
-199.500000
 21
187.074997
  0
LINE
  8
0
  6
CENTER
 62
2
 10
-202.000000
 20
184.574997
 11
-197.000000
 21
184.574997
  0
LINE
  8
0
  6
CENTER
 62
2
 10
-187.500000
 20
182.074997
 11
-187.500000
 21
187.074997
  0
LINE
  8
0
  6
CENTER
 62
2
 10
-185.000000
 20
184.574997
 11
-190.000000
 21
184.574997
  0
LINE
  8
0
  6
CONTINUOUS
 62
7
 10
-214.500000
 20
180.574997
 11
-214.500000
 21
192.074997
  0
LINE
  8
0
  6
CONTINUOUS
 62
7
 10
-206.899994
 20
180.074997
 11
-206.899994
 21
192.074997
  0
LINE
  8
0
  6
CONTINUOUS
 62
7
 10
-206.899994
 20
180.074997
 11
-180.100006
 21
180.074997
  0
LINE
  8
0
  6
CONTINUOUS
 62
7
 10
-214.500000
 20
192.074997
 11
-172.500000
 21
192.074997
  0
LINE
  8
0
  6
CONTINUOUS
 62
7
 10
-214.500000
 20
180.574997
 11
-206.899994
 21
180.574997
  0
LINE
  8
0
  6
CONTINUOUS
 62
7
 10
-239.000000
 20
185.074997
 11
-214.500000
 21
185.074997
  0
LINE
  8
0
  6
CONTINUOUS
 62
7
 10
-172.500000
 20
185.074997
 11
-163.000000
 21
185.074997
  0
LINE
  8
0
  6
CONTINUOUS
 62
7
 10
-172.500000
 20
180.574997
 11
-172.500000
 21
192.074997
  0
LINE
  8
0
  6
CONTINUOUS
 62
7
 10
-180.100006
 20
180.074997
 11
-180.100006
 21
192.074997
  0
LINE
  8
0
  6
CONTINUOUS
 62
7
 10
-172.500000
 20
180.574997
 11
-180.100006
 21
180.574997
  0
LINE
  8
0
  6
CONTINUOUS
 62
7
 10
-239.000000
 20
192.574997
 11
-230.347000
 21
192.574997
  0
LINE
  8
0
  6
CONTINUOUS
 62
7
 10
-239.000000
 20
202.074997
 11
-163.000000
 21
202.074997
  0
LINE
  8
0
  6
CONTINUOUS
 62
7
 10
-239.000000
 20
185.074997
 11
-239.000000
 21
202.074997
  0
LINE
  8
0
  6
CONTINUOUS
 62
7
 10
-163.000000
 20
185.074997
 11
-163.000000
 21
202.074997
  0
LINE
  8
0
  6
CENTER
 62
2
 10
-216.000000
 20
191.141006
 11
-216.000000
 21
201.074997
  0
LINE
  8
0
  6
CENTER
 62
2
 10
-186.000000
 20
190.641006
 11
-186.000000
 21
200.574997
  0
LINE
  8
0
  6
CENTER
 62
2
 10
-220.565994
 20
196.574997
 11
-211.723007
 21
196.574997
  0
LINE
  8
0
  6
CENTER
 62
2
 10
-181.479996
 20
196.574997
 11
-189.957993
 21
196.574997
  0
LINE
  8
0
  6
CONTINUOUS
 62
7
 10
-228.199997
 20
196.574997
 11
-219.000000
 21
196.574997
  0
LINE
  8
0
  6
CONTINUOUS
 62
7
 10
-189.000000
 20
196.574997
 11
-213.000000
 21
196.574997
  0
LINE
  8
0
  6
CONTINUOUS
 62
7
 10
-173.800003
 20
196.574997
 11
-183.000000
 21
196.574997
  0
LINE
  8
0
  6
CONTINUOUS
 62
7
 10
-214.500000
 20
154.375000
 11
-214.500000
 21
122.787003
  0
LINE
  8
0
  6
CONTINUOUS
 62
7
 10
-206.899994
 20
154.375000
 11
-214.500000
 21
154.375000
  0
LINE
  8
0
  6
CONTINUOUS
 62
7
 10
-206.899994
 20
122.775002
 11
-214.500000
 21
122.775002
  0
LINE
  8
0
  6
CONTINUOUS
 62
7
 10
-171.653000
 20
84.574997
 11
-163.000000
 21
84.574997
  0
LINE
  8
0
  6
CONTINUOUS
 62
7
 10
-171.653000
 20
192.574997
 11
-163.000000
 21
192.574997
  0
LINE
  8
0
  6
CENTER
 62
2
 10
-178.000000
 20
132.574997
 11
-178.000000
 21
120.574997
  0
LINE
  8
0
  6
CENTER
 62
2
 10
-184.000000
 20
126.574997
 11
-172.000000
 21
126.574997
  0
LINE
  8
0
  6
CENTER
 62
2
 10
-178.000000
 20
156.574997
 11
-178.000000
 21
144.574997
  0
LINE
  8
0
  6
CENTER
 62
2
 10
-184.000000
 20
150.574997
 11
-172.000000
 21
150.574997
  0
LINE
  8
0
  6
CENTER
 62
2
 10
-183.500000
 20
154.574997
 11
-183.500000
 21
147.574997
  0
LINE
  8
0
  6
CENTER
 62
2
 10
-187.000000
 20
151.074997
 11
-180.000000
 21
151.074997
  0
LINE
  8
0
  6
CENTER
 62
2
 10
-203.500000
 20
154.574997
 11
-203.500000
 21
147.574997
  0
LINE
  8
0
  6
CENTER
 62
2
 10
-207.000000
 20
151.074997
 11
-200.000000
 21
151.074997
  0
LINE
  8
0
  6
CENTER
 62
2
 10
-183.500000
 20
129.574997
 11
-183.500000
 21
122.574997
  0
LINE
  8
0
  6
CENTER
 62
2
 10
-187.000000
 20
126.074997
 11
-180.000000
 21
126.074997
  0
LINE
  8
0
  6
CENTER
 62
2
 10
-203.500000
 20
129.574997
 11
-203.500000
 21
122.574997
  0
LINE
  8
0
  6
CENTER
 62
2
 10
-207.000000
 20
126.074997
 11
-200.000000
 21
126.074997
  0
LINE
  8
0
  6
CENTER
 62
2
 10
-224.000000
 20
132.574997
 11
-224.000000
 21
120.574997
  0
LINE
  8
0
  6
CENTER
 62
2
 10
-230.000000
 20
126.574997
 11
-218.000000
 21
126.574997
  0
LINE
  8
0
  6
CENTER
 62
2
 10
-224.000000
 20
156.574997
 11
-224.000000
 21
144.574997
  0
LINE
  8
0
  6
CENTER
 62
2
 10
-230.000000
 20
150.574997
 11
-218.000000
 21
150.574997
  0
LINE
  8
0
  6
CENTER
 62
2
 10
-186.000000
 20
84.074997
 11
-186.000000
 21
77.074997
  0
LINE
  8
0
  6
CENTER
 62
2
 10
-189.500000
 20
80.574997
 11
-182.500000
 21
80.574997
  0
LINE
  8
0
  6
CENTER
 62
2
 10
-188.500000
 20
95.574997
 11
-188.500000
 21
89.574997
  0
LINE
  8
0
  6
CENTER
 62
2
 10
-191.500000
 20
92.574997
 11
-185.500000
 21
92.574997
  0
LINE
  8
0
  6
CENTER
 62
2
 10
-198.500000
 20
95.574997
 11
-198.500000
 21
89.574997
  0
LINE
  8
0
  6
CENTER
 62
2
 10
-201.500000
 20
92.574997
 11
-195.500000
 21
92.574997
  0
LINE
  8
0
  6
CENTER
 62
2
 10
-216.000000
 20
84.074997
 11
-216.000000
 21
77.074997
  0
LINE
  8
0
  6
CENTER
 62
2
 10
-219.500000
 20
80.574997
 11
-212.500000
 21
80.574997
  0
LINE
  8
0
  6
CENTER
 62
2
 10
-224.000000
 20
50.075001
 11
-224.000000
 21
41.075001
  0
LINE
  8
0
  6
CENTER
 62
2
 10
-228.500000
 20
45.575001
 11
-219.500000
 21
45.575001
  0
LINE
  8
0
  6
CENTER
 62
2
 10
-231.000000
 20
45.974998
 11
-231.000000
 21
30.174999
  0
LINE
  8
0
  6
CENTER
 62
2
 10
-238.899994
 20
38.075001
 11
-223.100006
 21
38.075001
  0
LINE
  8
0
  6
CENTER
 62
2
 10
-178.000000
 20
50.075001
 11
-178.000000
 21
41.075001
  0
LINE
  8
0
  6
CENTER
 62
2
 10
-182.500000
 20
45.575001
 11
-173.500000
 21
45.575001
  0
LINE
  8
0
  6
CENTER
 62
2
 10
-171.000000
 20
45.974998
 11
-171.000000
 21
30.174999
  0
LINE
  8
0
  6
CENTER
 62
2
 10
-178.899994
 20
38.075001
 11
-163.100006
 21
38.075001
  0
LINE
  8
0
  6
CENTER
 62
2
 10
-178.000000
 20
26.075001
 11
-178.000000
 21
17.075001
  0
LINE
  8
0
  6
CENTER
 62
2
 10
-182.500000
 20
21.575001
 11
-173.500000
 21
21.575001
  0
LINE
  8
0
  6
CENTER
 62
2
 10
-224.000000
 20
26.075001
 11
-224.000000
 21
17.075001
  0
LINE
  8
0
  6
CENTER
 62
2
 10
-228.500000
 20
21.575001
 11
-219.500000
 21
21.575001
  0
LINE
  8
0
  6
CENTER
 62
2
 10
-263.500000
 20
99.074997
 11
-263.500000
 21
73.074997
  0
LINE
  8
0
  6
CENTER
 62
2
 10
-271.899994
 20
83.074997
 11
-255.100006
 21
83.074997
  0
LINE
  8
0
  6
CENTER
 62
2
 10
-273.500000
 20
84.074997
 11
-273.500000
 21
77.074997
  0
LINE
  8
0
  6
CENTER
 62
2
 10
-277.000000
 20
80.574997
 11
-270.000000
 21
80.574997
  0
LINE
  8
0
  6
CONTINUOUS
 62
7
 10
-131.000000
 20
92.074997
 11
-146.000000
 21
92.074997
  0
LINE
  8
0
  6
CONTINUOUS
 62
7
 10
-131.000000
 20
88.074997
 11
-131.000000
 21
84.574997
  0
LINE
  8
0
  6
CONTINUOUS
 62
7
 10
-131.000000
 20
92.074997
 11
-131.000000
 21
91.074997
  0
LINE
  8
0
  6
CONTINUOUS
 62
7
 10
-122.500000
 20
97.074997
 11
-129.500000
 21
97.074997
  0
LINE
  8
0
  6
CONTINUOUS
 62
7
 10
-122.500000
 20
85.074997
 11
-131.000000
 21
85.074997
  0
LINE
  8
0
  6
CONTINUOUS
 62
7
 10
-129.800003
 20
96.775002
 11
-147.199997
 21
96.775002
  0
LINE
  8
0
  6
CONTINUOUS
 62
7
 10
-129.500000
 20
97.074997
 11
-129.800003
 21
96.775002
  0
LINE
  8
0
  6
CONTINUOUS
 62
7
 10
-146.000000
 20
88.074997
 11
-146.000000
 21
84.574997
  0
LINE
  8
0
  6
CONTINUOUS
 62
7
 10
-146.000000
 20
92.074997
 11
-146.000000
 21
91.074997
  0
LINE
  8
0
  6
CONTINUOUS
 62
7
 10
-154.500000
 20
97.074997
 11
-154.500000
 21
85.074997
  0
LINE
  8
0
  6
CONTINUOUS
 62
7
 10
-154.500000
 20
97.074997
 11
-147.500000
 21
97.074997
  0
LINE
  8
0
  6
CONTINUOUS
 62
7
 10
-154.500000
 20
85.074997
 11
-146.000000
 21
85.074997
  0
LINE
  8
0
  6
CONTINUOUS
 62
7
 10
-147.500000
 20
97.074997
 11
-147.199997
 21
96.775002
  0
LINE
  8
0
  6
CONTINUOUS
 62
7
 10
-122.500000
 20
97.074997
 11
-122.500000
 21
85.074997
  0
LINE
  8
0
  6
CONTINUOUS
 62
7
 10
-155.000000
 20
84.574997
 11
-146.000000
 21
84.574997
  0
LINE
  8
0
  6
CONTINUOUS
 62
7
 10
-155.000000
 20
75.074997
 11
-122.000000
 21
75.074997
  0
LINE
  8
0
  6
CONTINUOUS
 62
7
 10
-122.000000
 20
84.574997
 11
-131.000000
 21
84.574997
  0
LINE
  8
0
  6
CONTINUOUS
 62
7
 10
-155.000000
 20
84.574997
 11
-155.000000
 21
75.074997
  0
LINE
  8
0
  6
CONTINUOUS
 62
7
 10
-122.000000
 20
84.574997
 11
-122.000000
 21
75.074997
  0
LINE
  8
0
  6
CENTER
 62
2
 10
-138.500000
 20
99.074997
 11
-138.500000
 21
73.074997
  0
LINE
  8
0
  6
CENTER
 62
2
 10
-130.100006
 20
83.074997
 11
-146.899994
 21
83.074997
  0
LINE
  8
0
  6
CENTER
 62
2
 10
-128.500000
 20
84.074997
 11
-128.500000
 21
77.074997
  0
LINE
  8
0
  6
CENTER
 62
2
 10
-125.000000
 20
80.574997
 11
-132.000000
 21
80.574997
  0
LINE
  8
0
  6
CENTER
 62
2
 10
-224.000000
 20
82.574997
 11
-224.000000
 21
73.074997
  0
LINE
  8
0
  6
DASHED
 62
2
 10
-220.000000
 20
80.574997
 11
-220.000000
 21
79.574997
  0
LINE
  8
0
  6
DASHED
 62
2
 10
-228.000000
 20
80.574997
 11
-228.000000
 21
79.574997
  0
LINE
  8
0
  6
DASHED
 62
2
 10
-226.500000
 20
79.574997
 11
-226.500000
 21
75.074997
  0
LINE
  8
0
  6
DASHED
 62
2
 10
-221.500000
 20
79.574997
 11
-221.500000
 21
75.074997
  0
LINE
  8
0
  6
DASHED
 62
2
 10
-226.100006
 20
79.574997
 11
-226.100006
 21
75.074997
  0
LINE
  8
0
  6
DASHED
 62
2
 10
-221.899994
 20
79.574997
 11
-221.899994
 21
75.074997
  0
LINE
  8
0
  6
DASHED
 62
2
 10
-228.000000
 20
79.574997
 11
-220.000000
 21
79.574997
  0
LINE
  8
0
  6
DASHED
 62
2
 10
-182.000000
 20
80.574997
 11
-182.000000
 21
79.574997
  0
LINE
  8
0
  6
DASHED
 62
2
 10
-182.000000
 20
79.574997
 11
-174.000000
 21
79.574997
  0
LINE
  8
0
  6
DASHED
 62
2
 10
-180.500000
 20
79.574997
 11
-180.500000
 21
75.074997
  0
LINE
  8
0
  6
DASHED
 62
2
 10
-180.100006
 20
79.574997
 11
-180.100006
 21
75.074997
  0
LINE
  8
0
  6
CENTER
 62
2
 10
-178.000000
 20
82.574997
 11
-178.000000
 21
73.074997
  0
LINE
  8
0
  6
DASHED
 62
2
 10
-175.899994
 20
79.574997
 11
-175.899994
 21
75.074997
  0
LINE
  8
0
  6
DASHED
 62
2
 10
-175.500000
 20
79.574997
 11
-175.500000
 21
75.074997
  0
LINE
  8
0
  6
DASHED
 62
2
 10
-174.000000
 20
80.574997
 11
-174.000000
 21
79.574997
  0
LINE
  8
0
  6
DASHED
 62
2
 10
-220.000000
 20
196.574997
 11
-220.000000
 21
197.574997
  0
LINE
  8
0
  6
DASHED
 62
2
 10
-220.000000
 20
197.574997
 11
-228.000000
 21
197.574997
  0
LINE
  8
0
  6
DASHED
 62
2
 10
-221.500000
 20
197.574997
 11
-221.500000
 21
202.074997
  0
LINE
  8
0
  6
DASHED
 62
2
 10
-221.899994
 20
197.574997
 11
-221.899994
 21
202.074997
  0
LINE
  8
0
  6
CENTER
 62
2
 10
-224.000000
 20
194.574997
 11
-224.000000
 21
204.074997
  0
LINE
  8
0
  6
DASHED
 62
2
 10
-226.100006
 20
197.574997
 11
-226.100006
 21
202.074997
  0
LINE
  8
0
  6
DASHED
 62
2
 10
-226.500000
 20
197.574997
 11
-226.500000
 21
202.074997
  0
LINE
  8
0
  6
DASHED
 62
2
 10
-228.000000
 20
196.574997
 11
-228.000000
 21
197.574997
  0
LINE
  8
0
  6
DASHED
 62
2
 10
-174.000000
 20
196.574997
 11
-174.000000
 21
197.574997
  0
LINE
  8
0
  6
DASHED
 62
2
 10
-174.000000
 20
197.574997
 11
-182.000000
 21
197.574997
  0
LINE
  8
0
  6
DASHED
 62
2
 10
-175.500000
 20
197.574997
 11
-175.500000
 21
202.074997
  0
LINE
  8
0
  6
DASHED
 62
2
 10
-175.899994
 20
197.574997
 11
-175.899994
 21
202.074997
  0
LINE
  8
0
  6
CENTER
 62
2
 10
-178.000000
 20
194.574997
 11
-178.000000
 21
204.074997
  0
LINE
  8
0
  6
DASHED
 62
2
 10
-180.100006
 20
197.574997
 11
-180.100006
 21
202.074997
  0
LINE
  8
0
  6
DASHED
 62
2
 10
-180.500000
 20
197.574997
 11
-180.500000
 21
202.074997
  0
LINE
  8
0
  6
DASHED
 62
2
 10
-182.000000
 20
196.574997
 11
-182.000000
 21
197.574997
  0
LINE
  8
0
  6
CENTER
 62
2
 10
-183.500000
 20
182.074997
 11
-183.500000
 21
178.074997
  0
LINE
  8
0
  6
CENTER
 62
2
 10
-203.500000
 20
182.074997
 11
-203.500000
 21
178.074997
  0
LINE
  8
0
  6
CENTER
 62
2
 10
-183.500000
 20
99.074997
 11
-183.500000
 21
95.074997
  0
LINE
  8
0
  6
CENTER
 62
2
 10
-203.500000
 20
99.074997
 11
-203.500000
 21
95.074997
  0
LINE
  8
0
  6
CENTER
 62
2
 10
-275.500000
 20
77.074997
 11
-275.500000
 21
73.074997
  0
LINE
  8
0
  6
CENTER
 62
2
 10
-251.500000
 20
77.074997
 11
-251.500000
 21
73.074997
  0
LINE
  8
0
  6
CENTER
 62
2
 10
-251.000000
 20
99.074997
 11
-251.000000
 21
95.074997
  0
LINE
  8
0
  6
CENTER
 62
2
 10
-276.000000
 20
99.074997
 11
-276.000000
 21
95.074997
  0
LINE
  8
0
  6
CENTER
 62
2
 10
-150.500000
 20
77.074997
 11
-150.500000
 21
73.074997
  0
LINE
  8
0
  6
CENTER
 62
2
 10
-126.500000
 20
77.074997
 11
-126.500000
 21
73.074997
  0
LINE
  8
0
  6
CENTER
 62
2
 10
-126.000000
 20
99.074997
 11
-126.000000
 21
95.074997
  0
LINE
  8
0
  6
CENTER
 62
2
 10
-151.000000
 20
99.074997
 11
-151.000000
 21
95.074997
  0
LINE
  8
0
  6
CONTINUOUS
 62
7
 10
101.000000
 20
92.074997
 11
116.000000
 21
92.074997
  0
LINE
  8
0
  6
CONTINUOUS
 62
7
 10
101.000000
 20
88.074997
 11
101.000000
 21
84.574997
  0
LINE
  8
0
  6
CONTINUOUS
 62
7
 10
101.000000
 20
92.074997
 11
101.000000
 21
91.074997
  0
LINE
  8
0
  6
CONTINUOUS
 62
7
 10
92.500000
 20
97.074997
 11
99.500000
 21
97.074997
  0
LINE
  8
0
  6
CONTINUOUS
 62
7
 10
92.500000
 20
85.074997
 11
101.000000
 21
85.074997
  0
LINE
  8
0
  6
CONTINUOUS
 62
7
 10
99.800003
 20
96.775002
 11
117.199997
 21
96.775002
  0
LINE
  8
0
  6
CONTINUOUS
 62
7
 10
99.500000
 20
97.074997
 11
99.800003
 21
96.775002
  0
LINE
  8
0
  6
CONTINUOUS
 62
7
 10
116.000000
 20
88.074997
 11
116.000000
 21
84.574997
  0
LINE
  8
0
  6
CONTINUOUS
 62
7
 10
116.000000
 20
92.074997
 11
116.000000
 21
91.074997
  0
LINE
  8
0
  6
CONTINUOUS
 62
7
 10
124.500000
 20
97.074997
 11
124.500000
 21
85.074997
  0
LINE
  8
0
  6
CONTINUOUS
 62
7
 10
124.500000
 20
97.074997
 11
117.500000
 21
97.074997
  0
LINE
  8
0
  6
CONTINUOUS
 62
7
 10
124.500000
 20
85.074997
 11
116.000000
 21
85.074997
  0
LINE
  8
0
  6
CONTINUOUS
 62
7
 10
117.500000
 20
97.074997
 11
117.199997
 21
96.775002
  0
LINE
  8
0
  6
CONTINUOUS
 62
7
 10
92.500000
 20
97.074997
 11
92.500000
 21
85.074997
  0
LINE
  8
0
  6
CONTINUOUS
 62
7
 10
125.000000
 20
84.574997
 11
116.000000
 21
84.574997
  0
LINE
  8
0
  6
CONTINUOUS
 62
7
 10
125.000000
 20
75.074997
 11
92.000000
 21
75.074997
  0
LINE
  8
0
  6
CONTINUOUS
 62
7
 10
92.000000
 20
84.574997
 11
101.000000
 21
84.574997
  0
LINE
  8
0
  6
CONTINUOUS
 62
7
 10
125.000000
 20
84.574997
 11
125.000000
 21
75.074997
  0
LINE
  8
0
  6
CONTINUOUS
 62
7
 10
92.000000
 20
84.574997
 11
92.000000
 21
75.074997
  0
LINE
  8
0
  6
CENTER
 62
2
 10
241.000000
 20
138.574997
 11
131.000000
 21
138.574997
  0
LINE
  8
0
  6
CONTINUOUS
 62
7
 10
167.149994
 20
96.574997
 11
167.149994
 21
85.074997
  0
LINE
  8
0
  6
CONTINUOUS
 62
7
 10
174.750000
 20
97.074997
 11
174.750000
 21
85.074997
  0
LINE
  8
0
  6
CONTINUOUS
 62
7
 10
174.750000
 20
97.074997
 11
222.250000
 21
97.074997
  0
LINE
  8
0
  6
CONTINUOUS
 62
7
 10
167.149994
 20
85.074997
 11
229.850006
 21
85.074997
  0
LINE
  8
0
  6
CONTINUOUS
 62
7
 10
167.149994
 20
96.574997
 11
174.750000
 21
96.574997
  0
LINE
  8
0
  6
CONTINUOUS
 62
7
 10
133.000000
 20
92.074997
 11
167.149994
 21
92.074997
  0
LINE
  8
0
  6
CONTINUOUS
 62
7
 10
229.850006
 20
92.074997
 11
239.000000
 21
92.074997
  0
LINE
  8
0
  6
CONTINUOUS
 62
7
 10
229.850006
 20
96.574997
 11
229.850006
 21
85.074997
  0
LINE
  8
0
  6
CONTINUOUS
 62
7
 10
222.250000
 20
97.074997
 11
222.250000
 21
85.074997
  0
LINE
  8
0
  6
CONTINUOUS
 62
7
 10
229.850006
 20
96.574997
 11
222.250000
 21
96.574997
  0
LINE
  8
0
  6
CONTINUOUS
 62
7
 10
133.000000
 20
84.574997
 11
141.653000
 21
84.574997
  0
LINE
  8
0
  6
CONTINUOUS
 62
7
 10
133.000000
 20
75.074997
 11
239.000000
 21
75.074997
  0
LINE
  8
0
  6
CONTINUOUS
 62
7
 10
133.000000
 20
92.074997
 11
133.000000
 21
75.074997
  0
LINE
  8
0
  6
CONTINUOUS
 62
7
 10
239.000000
 20
92.074997
 11
239.000000
 21
75.074997
  0
LINE
  8
0
  6
CONTINUOUS
 62
7
 10
174.750000
 20
154.574997
 11
174.750000
 21
122.574997
  0
LINE
  8
0
  6
CONTINUOUS
 62
7
 10
222.250000
 20
154.574997
 11
174.750000
 21
154.574997
  0
LINE
  8
0
  6
CONTINUOUS
 62
7
 10
222.250000
 20
122.574997
 11
174.750000
 21
122.574997
  0
LINE
  8
0
  6
CONTINUOUS
 62
7
 10
222.250000
 20
154.574997
 11
222.250000
 21
122.574997
  0
LINE
  8
0
  6
CONTINUOUS
 62
7
 10
222.250000
 20
154.375000
 11
229.850006
 21
154.375000
  0
LINE
  8
0
  6
CONTINUOUS
 62
7
 10
229.850006
 20
154.375000
 11
229.850006
 21
122.775002
  0
LINE
  8
0
  6
CONTINUOUS
 62
7
 10
222.250000
 20
122.775002
 11
229.850006
 21
122.775002
  0
LINE
  8
0
  6
CONTINUOUS
 62
7
 10
133.000000
 20
146.074997
 11
167.149994
 21
146.074997
  0
LINE
  8
0
  6
CONTINUOUS
 62
7
 10
229.850006
 20
146.074997
 11
239.000000
 21
146.074997
  0
LINE
  8
0
  6
CONTINUOUS
 62
7
 10
133.000000
 20
131.074997
 11
167.149994
 21
131.074997
  0
LINE
  8
0
  6
CONTINUOUS
 62
7
 10
229.850006
 20
131.074997
 11
239.000000
 21
131.074997
  0
LINE
  8
0
  6
CONTINUOUS
 62
7
 10
222.250000
 20
129.574997
 11
174.750000
 21
129.574997
  0
LINE
  8
0
  6
CONTINUOUS
 62
7
 10
222.250000
 20
147.574997
 11
174.750000
 21
147.574997
  0
LINE
  8
0
  6
CONTINUOUS
 62
7
 10
133.000000
 20
155.074997
 11
239.000000
 21
155.074997
  0
LINE
  8
0
  6
CONTINUOUS
 62
7
 10
133.000000
 20
122.074997
 11
239.000000
 21
122.074997
  0
LINE
  8
0
  6
CONTINUOUS
 62
7
 10
133.000000
 20
122.074997
 11
133.000000
 21
155.074997
  0
LINE
  8
0
  6
CONTINUOUS
 62
7
 10
239.000000
 20
122.074997
 11
239.000000
 21
155.074997
  0
LINE
  8
0
  6
CENTER
 62
2
 10
241.000000
 20
33.575001
 11
131.000000
 21
33.575001
  0
LINE
  8
0
  6
CONTINUOUS
 62
7
 10
133.000000
 20
17.075001
 11
239.000000
 21
17.075001
  0
LINE
  8
0
  6
CONTINUOUS
 62
7
 10
133.000000
 20
50.075001
 11
239.000000
 21
50.075001
  0
LINE
  8
0
  6
CONTINUOUS
 62
7
 10
133.000000
 20
50.075001
 11
133.000000
 21
17.075001
  0
LINE
  8
0
  6
CONTINUOUS
 62
7
 10
239.000000
 20
50.075001
 11
239.000000
 21
17.075001
  0
LINE
  8
0
  6
CONTINUOUS
 62
7
 10
143.800003
 20
80.574997
 11
153.000000
 21
80.574997
  0
LINE
  8
0
  6
CONTINUOUS
 62
7
 10
213.000000
 20
80.574997
 11
159.000000
 21
80.574997
  0
LINE
  8
0
  6
CONTINUOUS
 62
7
 10
228.199997
 20
80.574997
 11
219.000000
 21
80.574997
  0
LINE
  8
0
  6
CONTINUOUS
 62
7
 10
167.149994
 20
180.574997
 11
167.149994
 21
192.074997
  0
LINE
  8
0
  6
CONTINUOUS
 62
7
 10
174.750000
 20
180.074997
 11
174.750000
 21
192.074997
  0
LINE
  8
0
  6
CONTINUOUS
 62
7
 10
174.750000
 20
180.074997
 11
222.250000
 21
180.074997
  0
LINE
  8
0
  6
CONTINUOUS
 62
7
 10
167.149994
 20
192.074997
 11
229.850006
 21
192.074997
  0
LINE
  8
0
  6
CONTINUOUS
 62
7
 10
167.149994
 20
180.574997
 11
174.750000
 21
180.574997
  0
LINE
  8
0
  6
CONTINUOUS
 62
7
 10
133.000000
 20
185.074997
 11
167.149994
 21
185.074997
  0
LINE
  8
0
  6
CONTINUOUS
 62
7
 10
229.850006
 20
185.074997
 11
239.000000
 21
185.074997
  0
LINE
  8
0
  6
CONTINUOUS
 62
7
 10
229.850006
 20
180.574997
 11
229.850006
 21
192.074997
  0
LINE
  8
0
  6
CONTINUOUS
 62
7
 10
222.250000
 20
180.074997
 11
222.250000
 21
192.074997
  0
LINE
  8
0
  6
CONTINUOUS
 62
7
 10
229.850006
 20
180.574997
 11
222.250000
 21
180.574997
  0
LINE
  8
0
  6
CONTINUOUS
 62
7
 10
133.000000
 20
192.574997
 11
141.653000
 21
192.574997
  0
LINE
  8
0
  6
CONTINUOUS
 62
7
 10
133.000000
 20
202.074997
 11
239.000000
 21
202.074997
  0
LINE
  8
0
  6
CONTINUOUS
 62
7
 10
133.000000
 20
185.074997
 11
133.000000
 21
202.074997
  0
LINE
  8
0
  6
CONTINUOUS
 62
7
 10
239.000000
 20
185.074997
 11
239.000000
 21
202.074997
  0
LINE
  8
0
  6
CONTINUOUS
 62
7
 10
143.800003
 20
196.574997
 11
153.000000
 21
196.574997
  0
LINE
  8
0
  6
CONTINUOUS
 62
7
 10
213.000000
 20
196.574997
 11
159.000000
 21
196.574997
  0
LINE
  8
0
  6
CONTINUOUS
 62
7
 10
228.199997
 20
196.574997
 11
219.000000
 21
196.574997
  0
LINE
  8
0
  6
CONTINUOUS
 62
7
 10
167.149994
 20
154.375000
 11
167.149994
 21
122.787003
  0
LINE
  8
0
  6
CONTINUOUS
 62
7
 10
174.750000
 20
122.775002
 11
167.149994
 21
122.775002
  0
LINE
  8
0
  6
CONTINUOUS
 62
7
 10
174.750000
 20
154.375000
 11
167.149994
 21
154.375000
  0
LINE
  8
0
  6
CONTINUOUS
 62
7
 10
230.347000
 20
192.574997
 11
239.000000
 21
192.574997
  0
LINE
  8
0
  6
CONTINUOUS
 62
7
 10
230.347000
 20
84.574997
 11
239.000000
 21
84.574997
  0
LINE
  8
0
  6
CENTER
 62
2
 10
156.000000
 20
200.074997
 11
156.000000
 21
193.074997
  0
LINE
  8
0
  6
CENTER
 62
2
 10
152.500000
 20
196.574997
 11
159.500000
 21
196.574997
  0
LINE
  8
0
  6
CENTER
 62
2
 10
192.500000
 20
188.074997
 11
192.500000
 21
181.074997
  0
LINE
  8
0
  6
CENTER
 62
2
 10
189.000000
 20
184.574997
 11
196.000000
 21
184.574997
  0
LINE
  8
0
  6
CENTER
 62
2
 10
216.000000
 20
200.074997
 11
216.000000
 21
193.074997
  0
LINE
  8
0
  6
CENTER
 62
2
 10
212.500000
 20
196.574997
 11
219.500000
 21
196.574997
  0
LINE
  8
0
  6
CENTER
 62
2
 10
204.500000
 20
188.074997
 11
204.500000
 21
181.074997
  0
LINE
  8
0
  6
CENTER
 62
2
 10
201.000000
 20
184.574997
 11
208.000000
 21
184.574997
  0
LINE
  8
0
  6
CENTER
 62
2
 10
148.000000
 20
156.574997
 11
148.000000
 21
144.574997
  0
LINE
  8
0
  6
CENTER
 62
2
 10
142.000000
 20
150.574997
 11
154.000000
 21
150.574997
  0
LINE
  8
0
  6
CENTER
 62
2
 10
148.000000
 20
132.574997
 11
148.000000
 21
120.574997
  0
LINE
  8
0
  6
CENTER
 62
2
 10
142.000000
 20
126.574997
 11
154.000000
 21
126.574997
  0
LINE
  8
0
  6
CENTER
 62
2
 10
178.500000
 20
154.574997
 11
178.500000
 21
147.574997
  0
LINE
  8
0
  6
CENTER
 62
2
 10
175.000000
 20
151.074997
 11
182.000000
 21
151.074997
  0
LINE
  8
0
  6
CENTER
 62
2
 10
198.500000
 20
154.574997
 11
198.500000
 21
147.574997
  0
LINE
  8
0
  6
CENTER
 62
2
 10
195.000000
 20
151.074997
 11
202.000000
 21
151.074997
  0
LINE
  8
0
  6
CENTER
 62
2
 10
218.500000
 20
154.574997
 11
218.500000
 21
147.574997
  0
LINE
  8
0
  6
CENTER
 62
2
 10
215.000000
 20
151.074997
 11
222.000000
 21
151.074997
  0
LINE
  8
0
  6
CENTER
 62
2
 10
224.000000
 20
156.574997
 11
224.000000
 21
144.574997
  0
LINE
  8
0
  6
CENTER
 62
2
 10
218.000000
 20
150.574997
 11
230.000000
 21
150.574997
  0
LINE
  8
0
  6
CENTER
 62
2
 10
224.000000
 20
132.574997
 11
224.000000
 21
120.574997
  0
LINE
  8
0
  6
CENTER
 62
2
 10
218.000000
 20
126.574997
 11
230.000000
 21
126.574997
  0
LINE
  8
0
  6
CENTER
 62
2
 10
218.500000
 20
129.574997
 11
218.500000
 21
122.574997
  0
LINE
  8
0
  6
CENTER
 62
2
 10
215.000000
 20
126.074997
 11
222.000000
 21
126.074997
  0
LINE
  8
0
  6
CENTER
 62
2
 10
178.500000
 20
129.574997
 11
178.500000
 21
122.574997
  0
LINE
  8
0
  6
CENTER
 62
2
 10
175.000000
 20
126.074997
 11
182.000000
 21
126.074997
  0
LINE
  8
0
  6
CENTER
 62
2
 10
198.500000
 20
129.574997
 11
198.500000
 21
122.574997
  0
LINE
  8
0
  6
CENTER
 62
2
 10
195.000000
 20
126.074997
 11
202.000000
 21
126.074997
  0
LINE
  8
0
  6
CENTER
 62
2
 10
193.500000
 20
95.574997
 11
193.500000
 21
89.574997
  0
LINE
  8
0
  6
CENTER
 62
2
 10
190.500000
 20
92.574997
 11
196.500000
 21
92.574997
  0
LINE
  8
0
  6
CENTER
 62
2
 10
203.500000
 20
95.574997
 11
203.500000
 21
89.574997
  0
LINE
  8
0
  6
CENTER
 62
2
 10
200.500000
 20
92.574997
 11
206.500000
 21
92.574997
  0
LINE
  8
0
  6
CENTER
 62
2
 10
216.000000
 20
84.074997
 11
216.000000
 21
77.074997
  0
LINE
  8
0
  6
CENTER
 62
2
 10
212.500000
 20
80.574997
 11
219.500000
 21
80.574997
  0
LINE
  8
0
  6
CENTER
 62
2
 10
156.000000
 20
84.074997
 11
156.000000
 21
77.074997
  0
LINE
  8
0
  6
CENTER
 62
2
 10
152.500000
 20
80.574997
 11
159.500000
 21
80.574997
  0
LINE
  8
0
  6
CENTER
 62
2
 10
148.000000
 20
50.075001
 11
148.000000
 21
41.075001
  0
LINE
  8
0
  6
CENTER
 62
2
 10
143.500000
 20
45.575001
 11
152.500000
 21
45.575001
  0
LINE
  8
0
  6
CENTER
 62
2
 10
141.000000
 20
45.974998
 11
141.000000
 21
30.174999
  0
LINE
  8
0
  6
CENTER
 62
2
 10
133.100006
 20
38.075001
 11
148.899994
 21
38.075001
  0
LINE
  8
0
  6
CENTER
 62
2
 10
148.000000
 20
26.075001
 11
148.000000
 21
17.075001
  0
LINE
  8
0
  6
CENTER
 62
2
 10
143.500000
 20
21.575001
 11
152.500000
 21
21.575001
  0
LINE
  8
0
  6
CENTER
 62
2
 10
224.000000
 20
50.075001
 11
224.000000
 21
41.075001
  0
LINE
  8
0
  6
CENTER
 62
2
 10
219.500000
 20
45.575001
 11
228.500000
 21
45.575001
  0
LINE
  8
0
  6
CENTER
 62
2
 10
224.000000
 20
26.075001
 11
224.000000
 21
17.075001
  0
LINE
  8
0
  6
CENTER
 62
2
 10
219.500000
 20
21.575001
 11
228.500000
 21
21.575001
  0
LINE
  8
0
  6
CENTER
 62
2
 10
231.000000
 20
45.974998
 11
231.000000
 21
30.174999
  0
LINE
  8
0
  6
CENTER
 62
2
 10
223.100006
 20
38.075001
 11
238.899994
 21
38.075001
  0
LINE
  8
0
  6
CENTER
 62
2
 10
98.500000
 20
84.074997
 11
98.500000
 21
77.074997
  0
LINE
  8
0
  6
CENTER
 62
2
 10
95.000000
 20
80.574997
 11
102.000000
 21
80.574997
  0
LINE
  8
0
  6
CENTER
 62
2
 10
108.500000
 20
99.074997
 11
108.500000
 21
73.074997
  0
LINE
  8
0
  6
CENTER
 62
2
 10
100.099998
 20
83.074997
 11
116.900002
 21
83.074997
  0
LINE
  8
0
  6
CONTINUOUS
 62
7
 10
271.000000
 20
92.074997
 11
256.000000
 21
92.074997
  0
LINE
  8
0
  6
CONTINUOUS
 62
7
 10
271.000000
 20
88.074997
 11
271.000000
 21
84.574997
  0
LINE
  8
0
  6
CONTINUOUS
 62
7
 10
271.000000
 20
92.074997
 11
271.000000
 21
91.074997
  0
LINE
  8
0
  6
CONTINUOUS
 62
7
 10
279.500000
 20
97.074997
 11
272.500000
 21
97.074997
  0
LINE
  8
0
  6
CONTINUOUS
 62
7
 10
279.500000
 20
85.074997
 11
271.000000
 21
85.074997
  0
LINE
  8
0
  6
CONTINUOUS
 62
7
 10
272.200012
 20
96.775002
 11
254.800003
 21
96.775002
  0
LINE
  8
0
  6
CONTINUOUS
 62
7
 10
272.500000
 20
97.074997
 11
272.200012
 21
96.775002
  0
LINE
  8
0
  6
CONTINUOUS
 62
7
 10
256.000000
 20
88.074997
 11
256.000000
 21
84.574997
  0
LINE
  8
0
  6
CONTINUOUS
 62
7
 10
256.000000
 20
92.074997
 11
256.000000
 21
91.074997
  0
LINE
  8
0
  6
CONTINUOUS
 62
7
 10
247.500000
 20
97.074997
 11
247.500000
 21
85.074997
  0
LINE
  8
0
  6
CONTINUOUS
 62
7
 10
247.500000
 20
97.074997
 11
254.500000
 21
97.074997
  0
LINE
  8
0
  6
CONTINUOUS
 62
7
 10
247.500000
 20
85.074997
 11
256.000000
 21
85.074997
  0
LINE
  8
0
  6
CONTINUOUS
 62
7
 10
254.500000
 20
97.074997
 11
254.800003
 21
96.775002
  0
LINE
  8
0
  6
CONTINUOUS
 62
7
 10
279.500000
 20
97.074997
 11
279.500000
 21
85.074997
  0
LINE
  8
0
  6
CONTINUOUS
 62
7
 10
247.000000
 20
84.574997
 11
256.000000
 21
84.574997
  0
LINE
  8
0
  6
CONTINUOUS
 62
7
 10
247.000000
 20
75.074997
 11
280.000000
 21
75.074997
  0
LINE
  8
0
  6
CONTINUOUS
 62
7
 10
280.000000
 20
84.574997
 11
271.000000
 21
84.574997
  0
LINE
  8
0
  6
CONTINUOUS
 62
7
 10
247.000000
 20
84.574997
 11
247.000000
 21
75.074997
  0
LINE
  8
0
  6
CONTINUOUS
 62
7
 10
280.000000
 20
84.574997
 11
280.000000
 21
75.074997
  0
LINE
  8
0
  6
CENTER
 62
2
 10
273.500000
 20
84.074997
 11
273.500000
 21
77.074997
  0
LINE
  8
0
  6
CENTER
 62
2
 10
277.000000
 20
80.574997
 11
270.000000
 21
80.574997
  0
LINE
  8
0
  6
CENTER
 62
2
 10
263.500000
 20
99.074997
 11
263.500000
 21
73.074997
  0
LINE
  8
0
  6
CENTER
 62
2
 10
271.899994
 20
83.074997
 11
255.100006
 21
83.074997
  0
LINE
  8
0
  6
DASHED
 62
2
 10
152.000000
 20
196.574997
 11
152.000000
 21
197.574997
  0
LINE
  8
0
  6
DASHED
 62
2
 10
152.000000
 20
197.574997
 11
144.000000
 21
197.574997
  0
LINE
  8
0
  6
DASHED
 62
2
 10
150.500000
 20
197.574997
 11
150.500000
 21
202.074997
  0
LINE
  8
0
  6
DASHED
 62
2
 10
150.100006
 20
197.574997
 11
150.100006
 21
202.074997
  0
LINE
  8
0
  6
CENTER
 62
2
 10
148.000000
 20
194.574997
 11
148.000000
 21
204.074997
  0
LINE
  8
0
  6
DASHED
 62
2
 10
145.899994
 20
197.574997
 11
145.899994
 21
202.074997
  0
LINE
  8
0
  6
DASHED
 62
2
 10
145.500000
 20
197.574997
 11
145.500000
 21
202.074997
  0
LINE
  8
0
  6
DASHED
 62
2
 10
144.000000
 20
196.574997
 11
144.000000
 21
197.574997
  0
LINE
  8
0
  6
DASHED
 62
2
 10
228.000000
 20
196.574997
 11
228.000000
 21
197.574997
  0
LINE
  8
0
  6
DASHED
 62
2
 10
228.000000
 20
197.574997
 11
220.000000
 21
197.574997
  0
LINE
  8
0
  6
DASHED
 62
2
 10
226.500000
 20
197.574997
 11
226.500000
 21
202.074997
  0
LINE
  8
0
  6
DASHED
 62
2
 10
226.100006
 20
197.574997
 11
226.100006
 21
202.074997
  0
LINE
  8
0
  6
CENTER
 62
2
 10
224.000000
 20
194.574997
 11
224.000000
 21
204.074997
  0
LINE
  8
0
  6
DASHED
 62
2
 10
221.899994
 20
197.574997
 11
221.899994
 21
202.074997
  0
LINE
  8
0
  6
DASHED
 62
2
 10
221.500000
 20
197.574997
 11
221.500000
 21
202.074997
  0
LINE
  8
0
  6
DASHED
 62
2
 10
220.000000
 20
196.574997
 11
220.000000
 21
197.574997
  0
LINE
  8
0
  6
DASHED
 62
2
 10
144.000000
 20
80.574997
 11
144.000000
 21
79.574997
  0
LINE
  8
0
  6
DASHED
 62
2
 10
144.000000
 20
79.574997
 11
152.000000
 21
79.574997
  0
LINE
  8
0
  6
DASHED
 62
2
 10
145.500000
 20
79.574997
 11
145.500000
 21
75.074997
  0
LINE
  8
0
  6
DASHED
 62
2
 10
145.899994
 20
79.574997
 11
145.899994
 21
75.074997
  0
LINE
  8
0
  6
CENTER
 62
2
 10
148.000000
 20
82.574997
 11
148.000000
 21
73.074997
  0
LINE
  8
0
  6
DASHED
 62
2
 10
150.100006
 20
79.574997
 11
150.100006
 21
75.074997
  0
LINE
  8
0
  6
DASHED
 62
2
 10
150.500000
 20
79.574997
 11
150.500000
 21
75.074997
  0
LINE
  8
0
  6
DASHED
 62
2
 10
152.000000
 20
80.574997
 11
152.000000
 21
79.574997
  0
LINE
  8
0
  6
DASHED
 62
2
 10
220.000000
 20
80.574997
 11
220.000000
 21
79.574997
  0
LINE
  8
0
  6
DASHED
 62
2
 10
220.000000
 20
79.574997
 11
228.000000
 21
79.574997
  0
LINE
  8
0
  6
DASHED
 62
2
 10
221.500000
 20
79.574997
 11
221.500000
 21
75.074997
  0
LINE
  8
0
  6
DASHED
 62
2
 10
221.899994
 20
79.574997
 11
221.899994
 21
75.074997
  0
LINE
  8
0
  6
CENTER
 62
2
 10
224.000000
 20
82.574997
 11
224.000000
 21
73.074997
  0
LINE
  8
0
  6
DASHED
 62
2
 10
226.100006
 20
79.574997
 11
226.100006
 21
75.074997
  0
LINE
  8
0
  6
DASHED
 62
2
 10
226.500000
 20
79.574997
 11
226.500000
 21
75.074997
  0
LINE
  8
0
  6
DASHED
 62
2
 10
228.000000
 20
80.574997
 11
228.000000
 21
79.574997
  0
LINE
  8
0
  6
CENTER
 62
2
 10
276.000000
 20
99.074997
 11
276.000000
 21
95.074997
  0
LINE
  8
0
  6
CENTER
 62
2
 10
251.000000
 20
99.074997
 11
251.000000
 21
95.074997
  0
LINE
  8
0
  6
CENTER
 62
2
 10
275.500000
 20
77.074997
 11
275.500000
 21
73.074997
  0
LINE
  8
0
  6
CENTER
 62
2
 10
251.500000
 20
77.074997
 11
251.500000
 21
73.074997
  0
LINE
  8
0
  6
CENTER
 62
2
 10
96.500000
 20
77.074997
 11
96.500000
 21
73.074997
  0
LINE
  8
0
  6
CENTER
 62
2
 10
120.500000
 20
77.074997
 11
120.500000
 21
73.074997
  0
LINE
  8
0
  6
CENTER
 62
2
 10
121.000000
 20
99.074997
 11
121.000000
 21
95.074997
  0
LINE
  8
0
  6
CENTER
 62
2
 10
96.000000
 20
99.074997
 11
96.000000
 21
95.074997
  0
LINE
  8
0
  6
CENTER
 62
2
 10
218.500000
 20
182.074997
 11
218.500000
 21
178.074997
  0
LINE
  8
0
  6
CENTER
 62
2
 10
198.500000
 20
182.074997
 11
198.500000
 21
178.074997
  0
LINE
  8
0
  6
CENTER
 62
2
 10
178.500000
 20
182.074997
 11
178.500000
 21
178.074997
  0
LINE
  8
0
  6
CENTER
 62
2
 10
218.500000
 20
99.074997
 11
218.500000
 21
95.074997
  0
LINE
  8
0
  6
CENTER
 62
2
 10
198.500000
 20
99.074997
 11
198.500000
 21
95.074997
  0
LINE
  8
0
  6
CENTER
 62
2
 10
178.500000
 20
99.074997
 11
178.500000
 21
95.074997
  0
LINE
  8
0
  6
CENTER
 62
2
 10
-233.000000
 20
85.074997
 11
-233.000000
 21
76.074997
  0
LINE
  8
0
  6
CENTER
 62
2
 10
-237.500000
 20
80.574997
 11
-228.500000
 21
80.574997
  0
LINE
  8
0
  6
CENTER
 62
2
 10
-169.000000
 20
85.074997
 11
-169.000000
 21
76.074997
  0
LINE
  8
0
  6
CENTER
 62
2
 10
-173.500000
 20
80.574997
 11
-164.500000
 21
80.574997
  0
LINE
  8
0
  6
CENTER
 62
2
 10
139.000000
 20
85.074997
 11
139.000000
 21
76.074997
  0
LINE
  8
0
  6
CENTER
 62
2
 10
134.500000
 20
80.574997
 11
143.500000
 21
80.574997
  0
LINE
  8
0
  6
CENTER
 62
2
 10
233.000000
 20
85.074997
 11
233.000000
 21
76.074997
  0
LINE
  8
0
  6
CENTER
 62
2
 10
228.500000
 20
80.574997
 11
237.500000
 21
80.574997
  0
LINE
  8
0
  6
CENTER
 62
2
 10
-233.000000
 20
-169.175003
 11
-233.000000
 21
-178.175003
  0
LINE
  8
0
  6
CENTER
 62
2
 10
-237.500000
 20
-173.675003
 11
-228.500000
 21
-173.675003
  0
LINE
  8
0
  6
CENTER
 62
2
 10
-169.000000
 20
-169.175003
 11
-169.000000
 21
-178.175003
  0
LINE
  8
0
  6
CENTER
 62
2
 10
-173.500000
 20
-173.675003
 11
-164.500000
 21
-173.675003
  0
LINE
  8
0
  6
CENTER
 62
2
 10
139.000000
 20
-169.175003
 11
139.000000
 21
-178.175003
  0
LINE
  8
0
  6
CENTER
 62
2
 10
134.500000
 20
-173.675003
 11
143.500000
 21
-173.675003
  0
LINE
  8
0
  6
CENTER
 62
2
 10
233.000000
 20
-169.175003
 11
233.000000
 21
-178.175003
  0
LINE
  8
0
  6
CENTER
 62
2
 10
228.500000
 20
-173.675003
 11
237.500000
 21
-173.675003
  0
LINE
  8
0
  6
CONTINUOUS
 62
7
 10
0.274994
 20
276.250000
 11
0.274994
 21
-276.750000
  0
LINE
  8
0
  6
CONTINUOUS
 62
7
 10
-399.250000
 20
-0.250000
 11
399.799988
 21
-0.250000
  0
CIRCLE
  8
0
  6
CONTINUOUS
 62
7
 10
-263.500000
 20
-171.175003
 40
6.400000
  0
ARC
  8
0
  6
CONTINUOUS
 62
7
 10
-255.199997
 20
-164.675003
 40
1.700010
 50
118.071999
 51
241.925995
  0
ARC
  8
0
  6
CONTINUOUS
 62
7
 10
-271.799988
 20
-164.675003
 40
1.699990
 50
298.071014
 51
61.925301
  0
CIRCLE
  8
0
  6
CONTINUOUS
 62
2
 10
-273.500000
 20
-173.675003
 40
1.500000
  0
CIRCLE
  8
0
  6
CONTINUOUS
 62
7
 10
-273.500000
 20
-173.675003
 40
1.250000
  0
CIRCLE
  8
0
  6
CONTINUOUS
 62
2
 10
-216.000000
 20
-173.675003
 40
1.500000
  0
CIRCLE
  8
0
  6
CONTINUOUS
 62
7
 10
-216.000000
 20
-173.675003
 40
1.250000
  0
CIRCLE
  8
0
  6
CONTINUOUS
 62
7
 10
-186.000000
 20
-173.675003
 40
1.250000
  0
CIRCLE
  8
0
  6
CONTINUOUS
 62
2
 10
-186.000000
 20
-173.675003
 40
1.500000
  0
CIRCLE
  8
0
  6
CONTINUOUS
 62
2
 10
-183.500000
 20
-103.175003
 40
1.500000
  0
CIRCLE
  8
0
  6
CONTINUOUS
 62
7
 10
-183.500000
 20
-103.175003
 40
1.200000
  0
CIRCLE
  8
0
  6
CONTINUOUS
 62
2
 10
-183.500000
 20
-128.175003
 40
1.500000
  0
CIRCLE
  8
0
  6
CONTINUOUS
 62
7
 10
-183.500000
 20
-128.175003
 40
1.200000
  0
CIRCLE
  8
0
  6
CONTINUOUS
 62
7
 10
-224.000000
 20
-103.675003
 40
4.000000
  0
CIRCLE
  8
0
  6
CONTINUOUS
 62
2
 10
-224.000000
 20
-103.675003
 40
2.500000
  0
CIRCLE
  8
0
  6
CONTINUOUS
 62
7
 10
-224.000000
 20
-103.675003
 40
2.100000
  0
CIRCLE
  8
0
  6
CONTINUOUS
 62
7
 10
-224.000000
 20
-127.675003
 40
4.000000
  0
CIRCLE
  8
0
  6
CONTINUOUS
 62
2
 10
-224.000000
 20
-127.675003
 40
2.500000
  0
CIRCLE
  8
0
  6
CONTINUOUS
 62
7
 10
-224.000000
 20
-127.675003
 40
2.100000
  0
ARC
  8
0
  6
CONTINUOUS
 62
7
 10
-216.000000
 20
-173.675003
 40
3.000000
 50
0.000000
 51
180.000000
  0
ARC
  8
0
  6
CONTINUOUS
 62
7
 10
-186.000000
 20
-173.675003
 40
3.000000
 50
0.000000
 51
180.000000
  0
CIRCLE
  8
0
  6
CONTINUOUS
 62
2
 10
-224.000000
 20
-232.675003
 40
2.500000
  0
CIRCLE
  8
0
  6
CONTINUOUS
 62
7
 10
-224.000000
 20
-232.675003
 40
2.100000
  0
CIRCLE
  8
0
  6
CONTINUOUS
 62
2
 10
-224.000000
 20
-208.675003
 40
2.500000
  0
CIRCLE
  8
0
  6
CONTINUOUS
 62
7
 10
-224.000000
 20
-208.675003
 40
2.100000
  0
CIRCLE
  8
0
  6
CONTINUOUS
 62
7
 10
-178.000000
 20
-208.675003
 40
2.100000
  0
CIRCLE
  8
0
  6
CONTINUOUS
 62
2
 10
-178.000000
 20
-232.675003
 40
2.500000
  0
CIRCLE
  8
0
  6
CONTINUOUS
 62
7
 10
-178.000000
 20
-232.675003
 40
2.100000
  0
CIRCLE
  8
0
  6
CONTINUOUS
 62
2
 10
-178.000000
 20
-208.675003
 40
2.500000
  0
CIRCLE
  8
0
  6
CONTINUOUS
 62
7
 10
-171.000000
 20
-216.175003
 40
5.900000
  0
ARC
  8
0
  6
CONTINUOUS
 62
7
 10
-233.000000
 20
-173.675003
 40
4.800000
 50
0.000000
 51
56.442600
  0
ARC
  8
0
  6
CONTINUOUS
 62
7
 10
-169.000000
 20
-173.675003
 40
4.800000
 50
123.556999
 51
180.000000
  0
CIRCLE
  8
0
  6
CONTINUOUS
 62
7
 10
-231.000000
 20
-216.175003
 40
5.900000
  0
ARC
  8
0
  6
DASHED
 62
2
 10
-178.000000
 20
-127.675003
 40
2.500000
 50
216.869995
 51
143.130005
  0
CIRCLE
  8
0
  6
DASHED
 62
2
 10
-178.000000
 20
-127.675003
 40
2.100000
  0
CIRCLE
  8
0
  6
DASHED
 62
2
 10
-178.000000
 20
-127.675003
 40
4.000000
  0
CIRCLE
  8
0
  6
DASHED
 62
2
 10
-178.000000
 20
-103.675003
 40
4.000000
  0
CIRCLE
  8
0
  6
DASHED
 62
2
 10
-178.000000
 20
-103.675003
 40
2.500000
  0
CIRCLE
  8
0
  6
DASHED
 62
2
 10
-178.000000
 20
-103.675003
 40
2.100000
  0
CIRCLE
  8
0
  6
CONTINUOUS
 62
2
 10
-198.500000
 20
-69.675003
 40
1.000000
  0
CIRCLE
  8
0
  6
CONTINUOUS
 62
2
 10
-188.500000
 20
-69.675003
 40
1.000000
  0
CIRCLE
  8
0
  6
CONTINUOUS
 62
7
 10
-188.500000
 20
-69.675003
 40
0.800000
  0
CIRCLE
  8
0
  6
CONTINUOUS
 62
7
 10
-198.500000
 20
-69.675003
 40
0.800000
  0
CIRCLE
  8
0
  6
CONTINUOUS
 62
2
 10
-199.500000
 20
-161.675003
 40
1.500000
  0
CIRCLE
  8
0
  6
CONTINUOUS
 62
2
 10
-187.500000
 20
-161.675003
 40
1.500000
  0
CIRCLE
  8
0
  6
CONTINUOUS
 62
7
 10
-199.500000
 20
-161.675003
 40
1.250000
  0
CIRCLE
  8
0
  6
CONTINUOUS
 62
7
 10
-187.500000
 20
-161.675003
 40
1.250000
  0
CIRCLE
  8
0
  6
CONTINUOUS
 62
7
 10
-203.500000
 20
-103.175003
 40
1.200000
  0
CIRCLE
  8
0
  6
CONTINUOUS
 62
2
 10
-203.500000
 20
-103.175003
 40
1.500000
  0
CIRCLE
  8
0
  6
CONTINUOUS
 62
7
 10
-203.500000
 20
-128.175003
 40
1.200000
  0
CIRCLE
  8
0
  6
CONTINUOUS
 62
2
 10
-203.500000
 20
-128.175003
 40
1.500000
  0
CIRCLE
  8
0
  6
CONTINUOUS
 62
2
 10
-186.000000
 20
-57.674999
 40
1.500000
  0
ARC
  8
0
  6
CONTINUOUS
 62
7
 10
-169.000000
 20
-57.674999
 40
4.800000
 50
180.000000
 51
236.442993
  0
ARC
  8
0
  6
CONTINUOUS
 62
7
 10
-216.000000
 20
-57.674999
 40
3.000000
 50
180.000000
 51
0.000000
  0
CIRCLE
  8
0
  6
CONTINUOUS
 62
7
 10
-216.000000
 20
-57.674999
 40
1.250000
  0
CIRCLE
  8
0
  6
CONTINUOUS
 62
7
 10
-186.000000
 20
-57.674999
 40
1.250000
  0
ARC
  8
0
  6
CONTINUOUS
 62
7
 10
-233.000000
 20
-57.674999
 40
4.800000
 50
303.557007
 51
0.000000
  0
ARC
  8
0
  6
CONTINUOUS
 62
7
 10
-186.000000
 20
-57.674999
 40
3.000000
 50
180.000000
 51
0.000000
  0
CIRCLE
  8
0
  6
CONTINUOUS
 62
2
 10
-216.000000
 20
-57.674999
 40
1.500000
  0
CIRCLE
  8
0
  6
CONTINUOUS
 62
7
 10
-138.500000
 20
-171.175003
 40
6.400000
  0
ARC
  8
0
  6
CONTINUOUS
 62
7
 10
-146.800003
 20
-164.675003
 40
1.700000
 50
298.074005
 51
61.928101
  0
ARC
  8
0
  6
CONTINUOUS
 62
7
 10
-130.199997
 20
-164.675003
 40
1.699990
 50
118.074997
 51
241.929001
  0
CIRCLE
  8
0
  6
CONTINUOUS
 62
2
 10
-128.500000
 20
-173.675003
 40
1.500000
  0
CIRCLE
  8
0
  6
CONTINUOUS
 62
7
 10
-128.500000
 20
-173.675003
 40
1.250000
  0
CIRCLE
  8
0
  6
CONTINUOUS
 62
7
 10
108.500000
 20
-171.175003
 40
6.400000
  0
ARC
  8
0
  6
CONTINUOUS
 62
7
 10
116.800003
 20
-164.675003
 40
1.700010
 50
118.071999
 51
241.925995
  0
ARC
  8
0
  6
CONTINUOUS
 62
7
 10
100.199997
 20
-164.675003
 40
1.699990
 50
298.071014
 51
61.925098
  0
CIRCLE
  8
0
  6
CONTINUOUS
 62
2
 10
98.500000
 20
-173.675003
 40
1.500000
  0
CIRCLE
  8
0
  6
CONTINUOUS
 62
7
 10
98.500000
 20
-173.675003
 40
1.250000
  0
CIRCLE
  8
0
  6
CONTINUOUS
 62
2
 10
156.000000
 20
-173.675003
 40
1.500000
  0
CIRCLE
  8
0
  6
CONTINUOUS
 62
7
 10
156.000000
 20
-173.675003
 40
1.250000
  0
CIRCLE
  8
0
  6
CONTINUOUS
 62
7
 10
216.000000
 20
-173.675003
 40
1.250000
  0
CIRCLE
  8
0
  6
CONTINUOUS
 62
2
 10
216.000000
 20
-173.675003
 40
1.500000
  0
CIRCLE
  8
0
  6
CONTINUOUS
 62
2
 10
198.500000
 20
-103.175003
 40
1.500000
  0
CIRCLE
  8
0
  6
CONTINUOUS
 62
7
 10
198.500000
 20
-103.175003
 40
1.200000
  0
CIRCLE
  8
0
  6
CONTINUOUS
 62
2
 10
198.500000
 20
-128.175003
 40
1.500000
  0
CIRCLE
  8
0
  6
CONTINUOUS
 62
7
 10
198.500000
 20
-128.175003
 40
1.200000
  0
CIRCLE
  8
0
  6
CONTINUOUS
 62
2
 10
218.500000
 20
-103.175003
 40
1.500000
  0
CIRCLE
  8
0
  6
CONTINUOUS
 62
7
 10
218.500000
 20
-103.175003
 40
1.200000
  0
CIRCLE
  8
0
  6
CONTINUOUS
 62
2
 10
218.500000
 20
-128.175003
 40
1.500000
  0
CIRCLE
  8
0
  6
CONTINUOUS
 62
7
 10
218.500000
 20
-128.175003
 40
1.200000
  0
CIRCLE
  8
0
  6
CONTINUOUS
 62
7
 10
148.000000
 20
-103.675003
 40
4.000000
  0
CIRCLE
  8
0
  6
CONTINUOUS
 62
2
 10
148.000000
 20
-103.675003
 40
2.500000
  0
CIRCLE
  8
0
  6
CONTINUOUS
 62
7
 10
148.000000
 20
-103.675003
 40
2.100000
  0
CIRCLE
  8
0
  6
CONTINUOUS
 62
7
 10
148.000000
 20
-127.675003
 40
4.000000
  0
CIRCLE
  8
0
  6
CONTINUOUS
 62
2
 10
148.000000
 20
-127.675003
 40
2.500000
  0
CIRCLE
  8
0
  6
CONTINUOUS
 62
7
 10
148.000000
 20
-127.675003
 40
2.100000
  0
ARC
  8
0
  6
CONTINUOUS
 62
7
 10
156.000000
 20
-173.675003
 40
3.000000
 50
0.000000
 51
180.000000
  0
ARC
  8
0
  6
CONTINUOUS
 62
7
 10
216.000000
 20
-173.675003
 40
3.000000
 50
0.000000
 51
180.000000
  0
CIRCLE
  8
0
  6
CONTINUOUS
 62
2
 10
148.000000
 20
-232.675003
 40
2.500000
  0
CIRCLE
  8
0
  6
CONTINUOUS
 62
7
 10
148.000000
 20
-232.675003
 40
2.100000
  0
CIRCLE
  8
0
  6
CONTINUOUS
 62
2
 10
148.000000
 20
-208.675003
 40
2.500000
  0
CIRCLE
  8
0
  6
CONTINUOUS
 62
7
 10
148.000000
 20
-208.675003
 40
2.100000
  0
CIRCLE
  8
0
  6
CONTINUOUS
 62
7
 10
224.000000
 20
-208.675003
 40
2.100000
  0
CIRCLE
  8
0
  6
CONTINUOUS
 62
2
 10
224.000000
 20
-232.675003
 40
2.500000
  0
CIRCLE
  8
0
  6
CONTINUOUS
 62
7
 10
224.000000
 20
-232.675003
 40
2.100000
  0
CIRCLE
  8
0
  6
CONTINUOUS
 62
2
 10
224.000000
 20
-208.675003
 40
2.500000
  0
CIRCLE
  8
0
  6
CONTINUOUS
 62
7
 10
231.000000
 20
-216.175003
 40
5.900000
  0
ARC
  8
0
  6
CONTINUOUS
 62
7
 10
139.000000
 20
-173.675003
 40
4.800000
 50
0.000000
 51
56.442600
  0
ARC
  8
0
  6
CONTINUOUS
 62
7
 10
233.000000
 20
-173.675003
 40
4.800000
 50
123.556999
 51
180.000000
  0
CIRCLE
  8
0
  6
CONTINUOUS
 62
7
 10
141.000000
 20
-216.175003
 40
5.900000
  0
CIRCLE
  8
0
  6
DASHED
 62
2
 10
224.000000
 20
-127.675003
 40
2.500000
  0
CIRCLE
  8
0
  6
DASHED
 62
2
 10
224.000000
 20
-127.675003
 40
2.100000
  0
CIRCLE
  8
0
  6
DASHED
 62
2
 10
224.000000
 20
-127.675003
 40
4.000000
  0
CIRCLE
  8
0
  6
DASHED
 62
2
 10
224.000000
 20
-103.675003
 40
4.000000
  0
CIRCLE
  8
0
  6
DASHED
 62
2
 10
224.000000
 20
-103.675003
 40
2.500000
  0
CIRCLE
  8
0
  6
DASHED
 62
2
 10
224.000000
 20
-103.675003
 40
2.100000
  0
CIRCLE
  8
0
  6
CONTINUOUS
 62
2
 10
193.500000
 20
-69.675003
 40
1.000000
  0
CIRCLE
  8
0
  6
CONTINUOUS
 62
2
 10
203.500000
 20
-69.675003
 40
1.000000
  0
CIRCLE
  8
0
  6
CONTINUOUS
 62
7
 10
203.500000
 20
-69.675003
 40
0.800000
  0
CIRCLE
  8
0
  6
CONTINUOUS
 62
7
 10
193.500000
 20
-69.675003
 40
0.800000
  0
CIRCLE
  8
0
  6
CONTINUOUS
 62
2
 10
192.500000
 20
-161.675003
 40
1.500000
  0
CIRCLE
  8
0
  6
CONTINUOUS
 62
2
 10
204.500000
 20
-161.675003
 40
1.500000
  0
CIRCLE
  8
0
  6
CONTINUOUS
 62
7
 10
192.500000
 20
-161.675003
 40
1.250000
  0
CIRCLE
  8
0
  6
CONTINUOUS
 62
7
 10
204.500000
 20
-161.675003
 40
1.250000
  0
CIRCLE
  8
0
  6
CONTINUOUS
 62
7
 10
178.500000
 20
-103.175003
 40
1.200000
  0
CIRCLE
  8
0
  6
CONTINUOUS
 62
2
 10
178.500000
 20
-103.175003
 40
1.500000
  0
CIRCLE
  8
0
  6
CONTINUOUS
 62
7
 10
178.500000
 20
-128.175003
 40
1.200000
  0
CIRCLE
  8
0
  6
CONTINUOUS
 62
2
 10
178.500000
 20
-128.175003
 40
1.500000
  0
CIRCLE
  8
0
  6
CONTINUOUS
 62
2
 10
216.000000
 20
-57.674999
 40
1.500000
  0
ARC
  8
0
  6
CONTINUOUS
 62
7
 10
233.000000
 20
-57.674999
 40
4.800000
 50
180.000000
 51
236.442993
  0
ARC
  8
0
  6
CONTINUOUS
 62
7
 10
156.000000
 20
-57.674999
 40
3.000000
 50
180.000000
 51
0.000000
  0
CIRCLE
  8
0
  6
CONTINUOUS
 62
7
 10
156.000000
 20
-57.674999
 40
1.250000
  0
CIRCLE
  8
0
  6
CONTINUOUS
 62
7
 10
216.000000
 20
-57.674999
 40
1.250000
  0
ARC
  8
0
  6
CONTINUOUS
 62
7
 10
139.000000
 20
-57.674999
 40
4.800000
 50
303.557007
 51
0.000000
  0
ARC
  8
0
  6
CONTINUOUS
 62
7
 10
216.000000
 20
-57.674999
 40
3.000000
 50
180.000000
 51
0.000000
  0
CIRCLE
  8
0
  6
CONTINUOUS
 62
2
 10
156.000000
 20
-57.674999
 40
1.500000
  0
CIRCLE
  8
0
  6
CONTINUOUS
 62
7
 10
263.500000
 20
-171.175003
 40
6.400000
  0
ARC
  8
0
  6
CONTINUOUS
 62
7
 10
255.199997
 20
-164.675003
 40
1.700010
 50
298.074005
 51
61.928101
  0
ARC
  8
0
  6
CONTINUOUS
 62
7
 10
271.799988
 20
-164.675003
 40
1.699980
 50
118.074997
 51
241.929001
  0
CIRCLE
  8
0
  6
CONTINUOUS
 62
2
 10
273.500000
 20
-173.675003
 40
1.500000
  0
CIRCLE
  8
0
  6
CONTINUOUS
 62
7
 10
273.500000
 20
-173.675003
 40
1.250000
  0
CIRCLE
  8
0
  6
CONTINUOUS
 62
7
 10
273.500000
 20
80.574997
 40
1.250000
  0
ARC
  8
0
  6
CONTINUOUS
 62
7
 10
271.799988
 20
89.574997
 40
1.699990
 50
118.074997
 51
241.929001
  0
CIRCLE
  8
0
  6
CONTINUOUS
 62
2
 10
273.500000
 20
80.574997
 40
1.500000
  0
CIRCLE
  8
0
  6
CONTINUOUS
 62
7
 10
-263.500000
 20
83.074997
 40
6.400000
  0
ARC
  8
0
  6
CONTINUOUS
 62
7
 10
-255.199997
 20
89.574997
 40
1.700010
 50
118.071999
 51
241.925995
  0
ARC
  8
0
  6
CONTINUOUS
 62
7
 10
-271.799988
 20
89.574997
 40
1.699990
 50
298.071014
 51
61.925499
  0
CIRCLE
  8
0
  6
CONTINUOUS
 62
2
 10
-273.500000
 20
80.574997
 40
1.500000
  0
CIRCLE
  8
0
  6
CONTINUOUS
 62
7
 10
-273.500000
 20
80.574997
 40
1.250000
  0
CIRCLE
  8
0
  6
CONTINUOUS
 62
2
 10
-216.000000
 20
80.574997
 40
1.500000
  0
CIRCLE
  8
0
  6
CONTINUOUS
 62
7
 10
-216.000000
 20
80.574997
 40
1.250000
  0
CIRCLE
  8
0
  6
CONTINUOUS
 62
7
 10
-186.000000
 20
80.574997
 40
1.250000
  0
CIRCLE
  8
0
  6
CONTINUOUS
 62
2
 10
-186.000000
 20
80.574997
 40
1.500000
  0
CIRCLE
  8
0
  6
CONTINUOUS
 62
2
 10
-183.500000
 20
151.074997
 40
1.500000
  0
CIRCLE
  8
0
  6
CONTINUOUS
 62
7
 10
-183.500000
 20
151.074997
 40
1.200000
  0
CIRCLE
  8
0
  6
CONTINUOUS
 62
2
 10
-183.500000
 20
126.074997
 40
1.500000
  0
CIRCLE
  8
0
  6
CONTINUOUS
 62
7
 10
-183.500000
 20
126.074997
 40
1.200000
  0
CIRCLE
  8
0
  6
CONTINUOUS
 62
7
 10
-224.000000
 20
150.574997
 40
4.000000
  0
CIRCLE
  8
0
  6
CONTINUOUS
 62
2
 10
-224.000000
 20
150.574997
 40
2.500000
  0
CIRCLE
  8
0
  6
CONTINUOUS
 62
7
 10
-224.000000
 20
150.574997
 40
2.100000
  0
CIRCLE
  8
0
  6
CONTINUOUS
 62
7
 10
-224.000000
 20
126.574997
 40
4.000000
  0
CIRCLE
  8
0
  6
CONTINUOUS
 62
2
 10
-224.000000
 20
126.574997
 40
2.500000
  0
CIRCLE
  8
0
  6
CONTINUOUS
 62
7
 10
-224.000000
 20
126.574997
 40
2.100000
  0
ARC
  8
0
  6
CONTINUOUS
 62
7
 10
-216.000000
 20
80.574997
 40
3.000000
 50
0.000000
 51
180.000000
  0
ARC
  8
0
  6
CONTINUOUS
 62
7
 10
-186.000000
 20
80.574997
 40
3.000000
 50
0.000000
 51
180.000000
  0
CIRCLE
  8
0
  6
CONTINUOUS
 62
2
 10
-224.000000
 20
21.575001
 40
2.500000
  0
CIRCLE
  8
0
  6
CONTINUOUS
 62
7
 10
-224.000000
 20
21.575001
 40
2.100000
  0
CIRCLE
  8
0
  6
CONTINUOUS
 62
2
 10
-224.000000
 20
45.575001
 40
2.500000
  0
CIRCLE
  8
0
  6
CONTINUOUS
 62
7
 10
-224.000000
 20
45.575001
 40
2.100000
  0
CIRCLE
  8
0
  6
CONTINUOUS
 62
7
 10
-178.000000
 20
45.575001
 40
2.100000
  0
CIRCLE
  8
0
  6
CONTINUOUS
 62
2
 10
-178.000000
 20
21.575001
 40
2.500000
  0
CIRCLE
  8
0
  6
CONTINUOUS
 62
7
 10
-178.000000
 20
21.575001
 40
2.100000
  0
CIRCLE
  8
0
  6
CONTINUOUS
 62
2
 10
-178.000000
 20
45.575001
 40
2.500000
  0
CIRCLE
  8
0
  6
CONTINUOUS
 62
7
 10
-171.000000
 20
38.075001
 40
5.900000
  0
ARC
  8
0
  6
CONTINUOUS
 62
7
 10
-233.000000
 20
80.574997
 40
4.800000
 50
0.000000
 51
56.442600
  0
ARC
  8
0
  6
CONTINUOUS
 62
7
 10
-169.000000
 20
80.574997
 40
4.800000
 50
123.556999
 51
180.000000
  0
CIRCLE
  8
0
  6
CONTINUOUS
 62
7
 10
-231.000000
 20
38.075001
 40
5.900000
  0
ARC
  8
0
  6
DASHED
 62
2
 10
-178.000000
 20
126.574997
 40
2.500000
 50
216.869995
 51
143.130005
  0
CIRCLE
  8
0
  6
DASHED
 62
2
 10
-178.000000
 20
126.574997
 40
2.100000
  0
CIRCLE
  8
0
  6
DASHED
 62
2
 10
-178.000000
 20
126.574997
 40
4.000000
  0
CIRCLE
  8
0
  6
DASHED
 62
2
 10
-178.000000
 20
150.574997
 40
4.000000
  0
CIRCLE
  8
0
  6
DASHED
 62
2
 10
-178.000000
 20
150.574997
 40
2.500000
  0
CIRCLE
  8
0
  6
DASHED
 62
2
 10
-178.000000
 20
150.574997
 40
2.100000
  0
CIRCLE
  8
0
  6
CONTINUOUS
 62
2
 10
-198.500000
 20
92.574997
 40
1.000000
  0
CIRCLE
  8
0
  6
CONTINUOUS
 62
2
 10
-188.500000
 20
92.574997
 40
1.000000
  0
CIRCLE
  8
0
  6
CONTINUOUS
 62
7
 10
-188.500000
 20
92.574997
 40
0.800000
  0
CIRCLE
  8
0
  6
CONTINUOUS
 62
7
 10
-198.500000
 20
92.574997
 40
0.800000
  0
CIRCLE
  8
0
  6
CONTINUOUS
 62
2
 10
-199.500000
 20
184.574997
 40
1.500000
  0
CIRCLE
  8
0
  6
CONTINUOUS
 62
2
 10
-187.500000
 20
184.574997
 40
1.500000
  0
CIRCLE
  8
0
  6
CONTINUOUS
 62
7
 10
-199.500000
 20
184.574997
 40
1.250000
  0
CIRCLE
  8
0
  6
CONTINUOUS
 62
7
 10
-187.500000
 20
184.574997
 40
1.250000
  0
CIRCLE
  8
0
  6
CONTINUOUS
 62
7
 10
-203.500000
 20
151.074997
 40
1.200000
  0
CIRCLE
  8
0
  6
CONTINUOUS
 62
2
 10
-203.500000
 20
151.074997
 40
1.500000
  0
CIRCLE
  8
0
  6
CONTINUOUS
 62
7
 10
-203.500000
 20
126.074997
 40
1.200000
  0
CIRCLE
  8
0
  6
CONTINUOUS
 62
2
 10
-203.500000
 20
126.074997
 40
1.500000
  0
CIRCLE
  8
0
  6
CONTINUOUS
 62
2
 10
-186.000000
 20
196.574997
 40
1.500000
  0
ARC
  8
0
  6
CONTINUOUS
 62
7
 10
-169.000000
 20
196.574997
 40
4.800000
 50
180.000000
 51
236.442993
  0
ARC
  8
0
  6
CONTINUOUS
 62
7
 10
-216.000000
 20
196.574997
 40
3.000000
 50
180.000000
 51
0.000000
  0
CIRCLE
  8
0
  6
CONTINUOUS
 62
7
 10
-216.000000
 20
196.574997
 40
1.250000
  0
CIRCLE
  8
0
  6
CONTINUOUS
 62
7
 10
-186.000000
 20
196.574997
 40
1.250000
  0
ARC
  8
0
  6
CONTINUOUS
 62
7
 10
-233.000000
 20
196.574997
 40
4.800000
 50
303.557007
 51
0.000000
  0
ARC
  8
0
  6
CONTINUOUS
 62
7
 10
-186.000000
 20
196.574997
 40
3.000000
 50
180.000000
 51
0.000000
  0
CIRCLE
  8
0
  6
CONTINUOUS
 62
2
 10
-216.000000
 20
196.574997
 40
1.500000
  0
CIRCLE
  8
0
  6
CONTINUOUS
 62
7
 10
-138.500000
 20
83.074997
 40
6.400000
  0
ARC
  8
0
  6
CONTINUOUS
 62
7
 10
-146.800003
 20
89.574997
 40
1.700010
 50
298.074005
 51
61.928101
  0
ARC
  8
0
  6
CONTINUOUS
 62
7
 10
-130.199997
 20
89.574997
 40
1.700000
 50
118.074997
 51
241.929001
  0
CIRCLE
  8
0
  6
CONTINUOUS
 62
2
 10
-128.500000
 20
80.574997
 40
1.500000
  0
CIRCLE
  8
0
  6
CONTINUOUS
 62
7
 10
-128.500000
 20
80.574997
 40
1.250000
  0
CIRCLE
  8
0
  6
CONTINUOUS
 62
7
 10
108.500000
 20
83.074997
 40
6.400000
  0
ARC
  8
0
  6
CONTINUOUS
 62
7
 10
116.800003
 20
89.574997
 40
1.700010
 50
118.071999
 51
241.925995
  0
ARC
  8
0
  6
CONTINUOUS
 62
7
 10
100.199997
 20
89.574997
 40
1.699990
 50
298.071014
 51
61.925201
  0
CIRCLE
  8
0
  6
CONTINUOUS
 62
2
 10
98.500000
 20
80.574997
 40
1.500000
  0
CIRCLE
  8
0
  6
CONTINUOUS
 62
7
 10
98.500000
 20
80.574997
 40
1.250000
  0
CIRCLE
  8
0
  6
CONTINUOUS
 62
2
 10
156.000000
 20
80.574997
 40
1.500000
  0
CIRCLE
  8
0
  6
CONTINUOUS
 62
7
 10
156.000000
 20
80.574997
 40
1.250000
  0
CIRCLE
  8
0
  6
CONTINUOUS
 62
7
 10
216.000000
 20
80.574997
 40
1.250000
  0
CIRCLE
  8
0
  6
CONTINUOUS
 62
2
 10
216.000000
 20
80.574997
 40
1.500000
  0
CIRCLE
  8
0
  6
CONTINUOUS
 62
2
 10
198.500000
 20
151.074997
 40
1.500000
  0
CIRCLE
  8
0
  6
CONTINUOUS
 62
7
 10
198.500000
 20
151.074997
 40
1.200000
  0
CIRCLE
  8
0
  6
CONTINUOUS
 62
2
 10
198.500000
 20
126.074997
 40
1.500000
  0
CIRCLE
  8
0
  6
CONTINUOUS
 62
7
 10
198.500000
 20
126.074997
 40
1.200000
  0
CIRCLE
  8
0
  6
CONTINUOUS
 62
2
 10
218.500000
 20
151.074997
 40
1.500000
  0
CIRCLE
  8
0
  6
CONTINUOUS
 62
7
 10
218.500000
 20
151.074997
 40
1.200000
  0
CIRCLE
  8
0
  6
CONTINUOUS
 62
2
 10
218.500000
 20
126.074997
 40
1.500000
  0
CIRCLE
  8
0
  6
CONTINUOUS
 62
7
 10
218.500000
 20
126.074997
 40
1.200000
  0
CIRCLE
  8
0
  6
CONTINUOUS
 62
7
 10
148.000000
 20
150.574997
 40
4.000000
  0
CIRCLE
  8
0
  6
CONTINUOUS
 62
2
 10
148.000000
 20
150.574997
 40
2.500000
  0
CIRCLE
  8
0
  6
CONTINUOUS
 62
7
 10
148.000000
 20
150.574997
 40
2.100000
  0
CIRCLE
  8
0
  6
CONTINUOUS
 62
7
 10
148.000000
 20
126.574997
 40
4.000000
  0
CIRCLE
  8
0
  6
CONTINUOUS
 62
2
 10
148.000000
 20
126.574997
 40
2.500000
  0
CIRCLE
  8
0
  6
CONTINUOUS
 62
7
 10
148.000000
 20
126.574997
 40
2.100000
  0
ARC
  8
0
  6
CONTINUOUS
 62
7
 10
156.000000
 20
80.574997
 40
3.000000
 50
0.000000
 51
180.000000
  0
ARC
  8
0
  6
CONTINUOUS
 62
7
 10
216.000000
 20
80.574997
 40
3.000000
 50
0.000000
 51
180.000000
  0
CIRCLE
  8
0
  6
CONTINUOUS
 62
2
 10
148.000000
 20
21.575001
 40
2.500000
  0
CIRCLE
  8
0
  6
CONTINUOUS
 62
7
 10
148.000000
 20
21.575001
 40
2.100000
  0
CIRCLE
  8
0
  6
CONTINUOUS
 62
2
 10
148.000000
 20
45.575001
 40
2.500000
  0
CIRCLE
  8
0
  6
CONTINUOUS
 62
7
 10
148.000000
 20
45.575001
 40
2.100000
  0
CIRCLE
  8
0
  6
CONTINUOUS
 62
7
 10
224.000000
 20
45.575001
 40
2.100000
  0
CIRCLE
  8
0
  6
CONTINUOUS
 62
2
 10
224.000000
 20
21.575001
 40
2.500000
  0
CIRCLE
  8
0
  6
CONTINUOUS
 62
7
 10
224.000000
 20
21.575001
 40
2.100000
  0
CIRCLE
  8
0
  6
CONTINUOUS
 62
2
 10
224.000000
 20
45.575001
 40
2.500000
  0
CIRCLE
  8
0
  6
CONTINUOUS
 62
7
 10
231.000000
 20
38.075001
 40
5.900000
  0
ARC
  8
0
  6
CONTINUOUS
 62
7
 10
139.000000
 20
80.574997
 40
4.800000
 50
0.000000
 51
56.442600
  0
ARC
  8
0
  6
CONTINUOUS
 62
7
 10
233.000000
 20
80.574997
 40
4.800000
 50
123.556999
 51
180.000000
  0
CIRCLE
  8
0
  6
CONTINUOUS
 62
7
 10
141.000000
 20
38.075001
 40
5.900000
  0
CIRCLE
  8
0
  6
DASHED
 62
2
 10
224.000000
 20
126.574997
 40
2.500000
  0
CIRCLE
  8
0
  6
DASHED
 62
2
 10
224.000000
 20
126.574997
 40
2.100000
  0
CIRCLE
  8
0
  6
DASHED
 62
2
 10
224.000000
 20
126.574997
 40
4.000000
  0
CIRCLE
  8
0
  6
DASHED
 62
2
 10
224.000000
 20
150.574997
 40
4.000000
  0
CIRCLE
  8
0
  6
DASHED
 62
2
 10
224.000000
 20
150.574997
 40
2.500000
  0
CIRCLE
  8
0
  6
DASHED
 62
2
 10
224.000000
 20
150.574997
 40
2.100000
  0
CIRCLE
  8
0
  6
CONTINUOUS
 62
2
 10
193.500000
 20
92.574997
 40
1.000000
  0
CIRCLE
  8
0
  6
CONTINUOUS
 62
2
 10
203.500000
 20
92.574997
 40
1.000000
  0
CIRCLE
  8
0
  6
CONTINUOUS
 62
7
 10
203.500000
 20
92.574997
 40
0.800000
  0
CIRCLE
  8
0
  6
CONTINUOUS
 62
7
 10
193.500000
 20
92.574997
 40
0.800000
  0
CIRCLE
  8
0
  6
CONTINUOUS
 62
2
 10
192.500000
 20
184.574997
 40
1.500000
  0
CIRCLE
  8
0
  6
CONTINUOUS
 62
2
 10
204.500000
 20
184.574997
 40
1.500000
  0
CIRCLE
  8
0
  6
CONTINUOUS
 62
7
 10
192.500000
 20
184.574997
 40
1.250000
  0
CIRCLE
  8
0
  6
CONTINUOUS
 62
7
 10
204.500000
 20
184.574997
 40
1.250000
  0
CIRCLE
  8
0
  6
CONTINUOUS
 62
7
 10
178.500000
 20
151.074997
 40
1.200000
  0
CIRCLE
  8
0
  6
CONTINUOUS
 62
2
 10
178.500000
 20
151.074997
 40
1.500000
  0
CIRCLE
  8
0
  6
CONTINUOUS
 62
7
 10
178.500000
 20
126.074997
 40
1.200000
  0
CIRCLE
  8
0
  6
CONTINUOUS
 62
2
 10
178.500000
 20
126.074997
 40
1.500000
  0
CIRCLE
  8
0
  6
CONTINUOUS
 62
2
 10
216.000000
 20
196.574997
 40
1.500000
  0
ARC
  8
0
  6
CONTINUOUS
 62
7
 10
233.000000
 20
196.574997
 40
4.800000
 50
180.000000
 51
236.442993
  0
ARC
  8
0
  6
CONTINUOUS
 62
7
 10
156.000000
 20
196.574997
 40
3.000000
 50
180.000000
 51
0.000000
  0
CIRCLE
  8
0
  6
CONTINUOUS
 62
7
 10
156.000000
 20
196.574997
 40
1.250000
  0
CIRCLE
  8
0
  6
CONTINUOUS
 62
7
 10
216.000000
 20
196.574997
 40
1.250000
  0
ARC
  8
0
  6
CONTINUOUS
 62
7
 10
139.000000
 20
196.574997
 40
4.800000
 50
303.557007
 51
0.000000
  0
ARC
  8
0
  6
CONTINUOUS
 62
7
 10
216.000000
 20
196.574997
 40
3.000000
 50
180.000000
 51
0.000000
  0
CIRCLE
  8
0
  6
CONTINUOUS
 62
2
 10
156.000000
 20
196.574997
 40
1.500000
  0
CIRCLE
  8
0
  6
CONTINUOUS
 62
7
 10
263.500000
 20
83.074997
 40
6.400000
  0
ARC
  8
0
  6
CONTINUOUS
 62
7
 10
255.199997
 20
89.574997
 40
1.700020
 50
298.074005
 51
61.928101
  0
CIRCLE
  8
0
  6
CONTINUOUS
 62
2
 10
-233.000000
 20
80.574997
 40
2.500000
  0
CIRCLE
  8
0
  6
CONTINUOUS
 62
7
 10
-233.000000
 20
80.574997
 40
2.100000
  0
CIRCLE
  8
0
  6
CONTINUOUS
 62
2
 10
-169.000000
 20
80.574997
 40
2.500000
  0
CIRCLE
  8
0
  6
CONTINUOUS
 62
7
 10
-169.000000
 20
80.574997
 40
2.100000
  0
CIRCLE
  8
0
  6
CONTINUOUS
 62
2
 10
139.000000
 20
80.574997
 40
2.500000
  0
CIRCLE
  8
0
  6
CONTINUOUS
 62
7
 10
139.000000
 20
80.574997
 40
2.100000
  0
CIRCLE
  8
0
  6
CONTINUOUS
 62
2
 10
233.000000
 20
80.574997
 40
2.500000
  0
CIRCLE
  8
0
  6
CONTINUOUS
 62
7
 10
233.000000
 20
80.574997
 40
2.100000
  0
CIRCLE
  8
0
  6
CONTINUOUS
 62
2
 10
-233.000000
 20
-173.675003
 40
2.500000
  0
CIRCLE
  8
0
  6
CONTINUOUS
 62
7
 10
-233.000000
 20
-173.675003
 40
2.100000
  0
CIRCLE
  8
0
  6
CONTINUOUS
 62
2
 10
-169.000000
 20
-173.675003
 40
2.500000
  0
CIRCLE
  8
0
  6
CONTINUOUS
 62
7
 10
-169.000000
 20
-173.675003
 40
2.100000
  0
CIRCLE
  8
0
  6
CONTINUOUS
 62
2
 10
139.000000
 20
-173.675003
 40
2.500000
  0
CIRCLE
  8
0
  6
CONTINUOUS
 62
7
 10
139.000000
 20
-173.675003
 40
2.100000
  0
CIRCLE
  8
0
  6
CONTINUOUS
 62
2
 10
233.000000
 20
-173.675003
 40
2.500000
  0
CIRCLE
  8
0
  6
CONTINUOUS
 62
7
 10
233.000000
 20
-173.675003
 40
2.100000
  0
TEXT
  8
0
 62
7
 10
249.264832
 20
-267.375000
 40
12.500000
  1
KOGANEI CORP.
 50
0.000000
 41
0.771525
 51
0.000000
  7
STANDARD
  0
TEXT
  8
0
 62
7
 10
292.414673
 20
261.500000
 40
9.000000
  1
Ver.1.0
 50
0.000000
 41
1.010331
 51
0.000000
  7
STANDARD
  0
TEXT
  8
0
 62
7
 10
15.774433
 20
229.000000
 40
9.000000
  1
MODEL:APT-SD12-25-TP
 50
0.000000
 41
0.777876
 51
0.000000
  7
STANDARD
  0
TEXT
  8
0
 62
7
 10
-351.135315
 20
261.500000
 40
9.000000
  1
AP TABLE
 50
0.000000
 41
0.775607
 51
0.000000
  7
STANDARD
  0
TEXT
  8
0
 62
7
 10
15.774433
 20
-22.500000
 40
9.000000
  1
MODEL:APT-GT12-25-TP
 50
0.000000
 41
0.777876
 51
0.000000
  7
STANDARD
  0
TEXT
  8
0
 62
7
 10
-383.750580
 20
229.000000
 40
9.000000
  1
MODEL:APT-SD12-15-TP
 50
0.000000
 41
0.792552
 51
0.000000
  7
STANDARD
  0
TEXT
  8
0
 62
7
 10
-383.750580
 20
-22.500000
 40
9.000000
  1
MODEL:APT-GT12-15-TP
 50
0.000000
 41
0.792552
 51
0.000000
  7
STANDARD
  0
ENDSEC
  0
EOF
