  0
SECTION
  2
HEADER
  0
ENDSEC
  0
SECTION
  2
TABLES
  0
TABLE
  2
LTYPE
 70
     4
  0
LTYPE
  2
CONTINUOUS
 70
    64
  3
Solid line
 72
    65
 73
     0
 40
0.000000
  0
LTYPE
  2
DASHED
 70
    64
  3
__ __ __ __ __ __ __ __ __ __ __ __ __ __ __
 72
    65
 73
     2
 40
3.500000
 49
2.000000
 49
-1.500000
  0
LTYPE
  2
CENTER
 70
    64
  3
____ _ ____ _ ____ _ ____ _ ____ _ ____ _ ____
 72
    65
 73
     4
 40
17.500000
 49
13.000000
 49
-1.500000
 49
1.500000
 49
-1.500000
  0
LTYPE
  2
PHANTOM
 70
    64
  3
_____ _ _ _____ _ _ _____ _ _ _____ _ _ ____  
 72
    65
 73
     6
 40
15.500000
 49
8.000000
 49
-1.500000
 49
1.500000
 49
-1.500000
 49
1.500000
 49
-1.500000
  0
ENDTAB
  0
TABLE
  2
LAYER
 70
     1
  0
LAYER
  2
0
 70
     0
 62
     7
  6
CONTINUOUS
  0
ENDTAB
  0
TABLE
  2
STYLE
 70
     1
  0
STYLE
  2
STANDARD
 70
     0
 40
0.000000
 41
1.000000
 50
0.000000
 71
     0
 42
0.200000
  3
txt
  4
BIGFONT
  0
ENDTAB
  0
TABLE
  2
VIEW
 70
     0
  0
ENDTAB
  0
ENDSEC
  0
SECTION
  2
BLOCKS
  0
ENDSEC
  0
SECTION
  2
ENTITIES
  0
LINE
  8
0
  6
CONTINUOUS
 62
7
 10
-281.250000
 20
195.500000
 11
282.100006
 21
195.500000
  0
LINE
  8
0
  6
CONTINUOUS
 62
7
 10
-281.250000
 20
195.500000
 11
-281.250000
 21
-195.000000
  0
LINE
  8
0
  6
CONTINUOUS
 62
7
 10
282.100006
 20
195.500000
 11
282.100006
 21
-195.000000
  0
LINE
  8
0
  6
CONTINUOUS
 62
7
 10
-281.250000
 20
-195.000000
 11
282.100006
 21
-195.000000
  0
LINE
  8
0
  6
CONTINUOUS
 62
7
 10
162.100006
 20
-175.000000
 11
162.100006
 21
-195.000000
  0
LINE
  8
0
  6
CONTINUOUS
 62
7
 10
162.100006
 20
-175.000000
 11
282.100006
 21
-175.000000
  0
LINE
  8
0
  6
CONTINUOUS
 62
7
 10
162.100006
 20
175.500000
 11
282.100006
 21
175.500000
  0
LINE
  8
0
  6
CONTINUOUS
 62
7
 10
-281.250000
 20
175.500000
 11
-161.250000
 21
175.500000
  0
LINE
  8
0
  6
CONTINUOUS
 62
7
 10
162.100006
 20
195.500000
 11
162.100006
 21
175.500000
  0
LINE
  8
0
  6
CONTINUOUS
 62
7
 10
-161.250000
 20
195.500000
 11
-161.250000
 21
175.500000
  0
LINE
  8
0
  6
CONTINUOUS
 62
7
 10
-188.000000
 20
-97.000000
 11
-188.000000
 21
-56.000000
  0
LINE
  8
0
  6
CONTINUOUS
 62
7
 10
-92.000000
 20
-97.000000
 11
-92.000000
 21
-56.000000
  0
LINE
  8
0
  6
CONTINUOUS
 62
7
 10
-188.000000
 20
-56.000000
 11
-92.000000
 21
-56.000000
  0
LINE
  8
0
  6
CENTER
 62
2
 10
-190.000000
 20
-76.500000
 11
-90.000000
 21
-76.500000
  0
LINE
  8
0
  6
CONTINUOUS
 62
7
 10
-188.000000
 20
-39.000000
 11
-92.000000
 21
-39.000000
  0
LINE
  8
0
  6
CONTINUOUS
 62
7
 10
-188.000000
 20
-19.000000
 11
-155.000000
 21
-19.000000
  0
LINE
  8
0
  6
CONTINUOUS
 62
7
 10
-188.000000
 20
-19.000000
 11
-188.000000
 21
-39.000000
  0
LINE
  8
0
  6
CONTINUOUS
 62
7
 10
-92.000000
 20
-19.000000
 11
-92.000000
 21
-39.000000
  0
LINE
  8
0
  6
CONTINUOUS
 62
7
 10
-105.000000
 20
-19.000000
 11
-92.000000
 21
-19.000000
  0
LINE
  8
0
  6
CONTINUOUS
 62
7
 10
-92.000000
 20
-26.500000
 11
-188.000000
 21
-26.500000
  0
LINE
  8
0
  6
CONTINUOUS
 62
7
 10
-112.699997
 20
-25.000000
 11
-112.699997
 21
-9.999990
  0
LINE
  8
0
  6
CONTINUOUS
 62
7
 10
-147.300003
 20
-9.999990
 11
-112.699997
 21
-9.999990
  0
LINE
  8
0
  6
CONTINUOUS
 62
7
 10
-147.300003
 20
-25.000000
 11
-147.300003
 21
-9.999990
  0
LINE
  8
0
  6
CONTINUOUS
 62
7
 10
-105.000000
 20
-25.000000
 11
-105.000000
 21
-10.700000
  0
LINE
  8
0
  6
CONTINUOUS
 62
7
 10
-112.699997
 20
-10.700000
 11
-105.000000
 21
-10.700000
  0
LINE
  8
0
  6
CONTINUOUS
 62
7
 10
-155.000000
 20
-25.000000
 11
-155.000000
 21
-10.700000
  0
LINE
  8
0
  6
CONTINUOUS
 62
7
 10
-147.300003
 20
-10.700000
 11
-155.000000
 21
-10.700000
  0
LINE
  8
0
  6
CONTINUOUS
 62
7
 10
-155.000000
 20
-25.000000
 11
-105.000000
 21
-25.000000
  0
LINE
  8
0
  6
CONTINUOUS
 62
7
 10
-188.000000
 20
-97.000000
 11
-92.000000
 21
-97.000000
  0
LINE
  8
0
  6
CENTER
 62
2
 10
-157.000000
 20
-24.959999
 11
-157.000000
 21
-33.040001
  0
LINE
  8
0
  6
CENTER
 62
2
 10
-161.039993
 20
-29.000000
 11
-152.960007
 21
-29.000000
  0
LINE
  8
0
  6
CENTER
 62
2
 10
-123.000000
 20
-24.959999
 11
-123.000000
 21
-33.040001
  0
LINE
  8
0
  6
CENTER
 62
2
 10
-127.040001
 20
-29.000000
 11
-118.959999
 21
-29.000000
  0
LINE
  8
0
  6
CENTER
 62
2
 10
-135.000000
 20
-13.460000
 11
-135.000000
 21
-20.540001
  0
LINE
  8
0
  6
CENTER
 62
2
 10
-138.539993
 20
-17.000000
 11
-131.460007
 21
-17.000000
  0
LINE
  8
0
  6
CENTER
 62
2
 10
-125.000000
 20
-13.460000
 11
-125.000000
 21
-20.540001
  0
LINE
  8
0
  6
CENTER
 62
2
 10
-128.539993
 20
-17.000000
 11
-121.459999
 21
-17.000000
  0
LINE
  8
0
  6
CENTER
 62
2
 10
-172.500000
 20
-55.959999
 11
-172.500000
 21
-67.040001
  0
LINE
  8
0
  6
CENTER
 62
2
 10
-178.039993
 20
-61.500000
 11
-166.960007
 21
-61.500000
  0
LINE
  8
0
  6
CENTER
 62
2
 10
-180.500000
 20
-75.559998
 11
-180.500000
 21
-92.440002
  0
LINE
  8
0
  6
CENTER
 62
2
 10
-188.940002
 20
-84.000000
 11
-172.059998
 21
-84.000000
  0
LINE
  8
0
  6
CENTER
 62
2
 10
-172.500000
 20
-85.959999
 11
-172.500000
 21
-97.040001
  0
LINE
  8
0
  6
CENTER
 62
2
 10
-178.039993
 20
-91.500000
 11
-166.960007
 21
-91.500000
  0
LINE
  8
0
  6
CENTER
 62
2
 10
-107.500000
 20
-85.959999
 11
-107.500000
 21
-97.040001
  0
LINE
  8
0
  6
CENTER
 62
2
 10
-113.040001
 20
-91.500000
 11
-101.959999
 21
-91.500000
  0
LINE
  8
0
  6
CENTER
 62
2
 10
-107.500000
 20
-55.959999
 11
-107.500000
 21
-67.040001
  0
LINE
  8
0
  6
CENTER
 62
2
 10
-113.040001
 20
-61.500000
 11
-101.959999
 21
-61.500000
  0
LINE
  8
0
  6
CENTER
 62
2
 10
-99.500000
 20
-60.560001
 11
-99.500000
 21
-77.440002
  0
LINE
  8
0
  6
CENTER
 62
2
 10
-107.940002
 20
-69.000000
 11
-91.059998
 21
-69.000000
  0
LINE
  8
0
  6
CONTINUOUS
 62
7
 10
-185.500000
 20
-97.500000
 11
-177.500000
 21
-97.500000
  0
LINE
  8
0
  6
CONTINUOUS
 62
7
 10
-185.000000
 20
-100.500000
 11
-178.000000
 21
-100.500000
  0
LINE
  8
0
  6
CENTER
 62
2
 10
-181.500000
 20
-101.598999
 11
-181.500000
 21
-95.385696
  0
LINE
  8
0
  6
CONTINUOUS
 62
7
 10
-185.500000
 20
-97.500000
 11
-185.500000
 21
-97.000000
  0
LINE
  8
0
  6
CONTINUOUS
 62
7
 10
-177.500000
 20
-97.500000
 11
-177.500000
 21
-97.000000
  0
LINE
  8
0
  6
CONTINUOUS
 62
7
 10
-181.500000
 20
-97.500000
 11
-181.500000
 21
-100.500000
  0
LINE
  8
0
  6
CONTINUOUS
 62
7
 10
11.500000
 20
-26.500000
 11
22.000000
 21
-26.500000
  0
LINE
  8
0
  6
CONTINUOUS
 62
7
 10
52.500000
 20
-26.500000
 11
42.000000
 21
-26.500000
  0
LINE
  8
0
  6
CONTINUOUS
 62
7
 10
42.000000
 20
-19.000000
 11
42.000000
 21
-20.513399
  0
LINE
  8
0
  6
CONTINUOUS
 62
7
 10
42.000000
 20
-23.486601
 11
42.000000
 21
-26.500000
  0
LINE
  8
0
  6
CONTINUOUS
 62
7
 10
11.500000
 20
-39.000000
 11
52.500000
 21
-39.000000
  0
LINE
  8
0
  6
CONTINUOUS
 62
7
 10
22.000000
 20
-19.000000
 11
42.000000
 21
-19.000000
  0
LINE
  8
0
  6
CENTER
 62
2
 10
32.000000
 20
-8.499990
 11
32.000000
 21
-40.500000
  0
LINE
  8
0
  6
CONTINUOUS
 62
7
 10
40.000000
 20
-22.600000
 11
40.000000
 21
-21.400000
  0
LINE
  8
0
  6
CONTINUOUS
 62
7
 10
40.000000
 20
-21.400000
 11
40.906700
 21
-21.240101
  0
LINE
  8
0
  6
CONTINUOUS
 62
7
 10
40.000000
 20
-22.600000
 11
40.906700
 21
-22.759899
  0
LINE
  8
0
  6
CONTINUOUS
 62
7
 10
24.000000
 20
-22.600000
 11
24.000000
 21
-21.400000
  0
LINE
  8
0
  6
CONTINUOUS
 62
7
 10
24.000000
 20
-21.400000
 11
23.093300
 21
-21.240101
  0
LINE
  8
0
  6
CONTINUOUS
 62
7
 10
24.000000
 20
-22.600000
 11
23.093300
 21
-22.759899
  0
LINE
  8
0
  6
CONTINUOUS
 62
7
 10
12.000000
 20
-25.000000
 11
22.000000
 21
-25.000000
  0
LINE
  8
0
  6
CONTINUOUS
 62
7
 10
42.000000
 20
-25.000000
 11
52.000000
 21
-25.000000
  0
LINE
  8
0
  6
CONTINUOUS
 62
7
 10
22.099899
 20
-10.600000
 11
41.900002
 21
-10.600000
  0
LINE
  8
0
  6
CONTINUOUS
 62
7
 10
52.000000
 20
-25.000000
 11
52.000000
 21
-9.999990
  0
LINE
  8
0
  6
CONTINUOUS
 62
7
 10
42.500000
 20
-9.999990
 11
52.000000
 21
-9.999990
  0
LINE
  8
0
  6
CONTINUOUS
 62
7
 10
42.500000
 20
-10.000000
 11
41.900002
 21
-10.600000
  0
LINE
  8
0
  6
CONTINUOUS
 62
7
 10
12.000000
 20
-25.000000
 11
12.000000
 21
-9.999990
  0
LINE
  8
0
  6
CENTER
 62
2
 10
20.959999
 20
-29.000000
 11
43.040001
 21
-29.000000
  0
LINE
  8
0
  6
CONTINUOUS
 62
7
 10
7.999980
 20
-36.541500
 11
7.999980
 21
-28.458500
  0
LINE
  8
0
  6
CONTINUOUS
 62
7
 10
7.999980
 20
-36.541500
 11
11.500000
 21
-36.541500
  0
LINE
  8
0
  6
CONTINUOUS
 62
7
 10
7.999980
 20
-34.562901
 11
11.000000
 21
-34.562901
  0
LINE
  8
0
  6
CENTER
 62
2
 10
6.511670
 20
-32.500000
 11
12.459900
 21
-32.500000
  0
LINE
  8
0
  6
CONTINUOUS
 62
7
 10
7.999980
 20
-30.437201
 11
11.000000
 21
-30.437201
  0
LINE
  8
0
  6
CONTINUOUS
 62
7
 10
7.999980
 20
-28.458500
 11
11.500000
 21
-28.458500
  0
LINE
  8
0
  6
CONTINUOUS
 62
7
 10
11.000000
 20
-36.541500
 11
11.000000
 21
-28.458500
  0
LINE
  8
0
  6
CONTINUOUS
 62
7
 10
34.309399
 20
-14.200000
 11
33.154701
 21
-12.200000
  0
LINE
  8
0
  6
CONTINUOUS
 62
7
 10
30.845301
 20
-16.200001
 11
29.690599
 21
-14.200000
  0
LINE
  8
0
  6
CONTINUOUS
 62
7
 10
30.845301
 20
-16.200001
 11
33.154701
 21
-16.200001
  0
LINE
  8
0
  6
CONTINUOUS
 62
7
 10
30.845301
 20
-12.200000
 11
33.154701
 21
-12.200000
  0
LINE
  8
0
  6
CONTINUOUS
 62
7
 10
33.154701
 20
-16.200001
 11
34.309399
 21
-14.200000
  0
LINE
  8
0
  6
CONTINUOUS
 62
7
 10
29.690599
 20
-14.200000
 11
30.845200
 21
-12.200000
  0
LINE
  8
0
  6
CENTER
 62
2
 10
28.190599
 20
-14.200000
 11
35.809399
 21
-14.200000
  0
LINE
  8
0
  6
CONTINUOUS
 62
7
 10
-158.735992
 20
-12.200000
 11
-155.000000
 21
-12.200000
  0
LINE
  8
0
  6
CONTINUOUS
 62
7
 10
-158.735992
 20
-14.200000
 11
-155.000000
 21
-14.200000
  0
LINE
  8
0
  6
CONTINUOUS
 62
7
 10
-158.735992
 20
-16.200001
 11
-155.000000
 21
-16.200001
  0
LINE
  8
0
  6
CONTINUOUS
 62
7
 10
21.500000
 20
-9.999980
 11
22.100000
 21
-10.600000
  0
LINE
  8
0
  6
CONTINUOUS
 62
7
 10
21.500000
 20
-9.999990
 11
12.000000
 21
-9.999990
  0
LINE
  8
0
  6
CONTINUOUS
 62
7
 10
22.000000
 20
-19.000000
 11
22.000000
 21
-20.513399
  0
LINE
  8
0
  6
CONTINUOUS
 62
7
 10
22.000000
 20
-23.486601
 11
22.000000
 21
-26.500000
  0
LINE
  8
0
  6
CONTINUOUS
 62
7
 10
11.500000
 20
-26.500000
 11
11.500000
 21
-39.000000
  0
LINE
  8
0
  6
CONTINUOUS
 62
7
 10
52.500000
 20
-26.500000
 11
52.500000
 21
-39.000000
  0
LINE
  8
0
  6
CONTINUOUS
 62
7
 10
-185.000000
 20
-97.500000
 11
-185.000000
 21
-100.500000
  0
LINE
  8
0
  6
CONTINUOUS
 62
7
 10
-178.000000
 20
-97.500000
 11
-178.000000
 21
-100.500000
  0
LINE
  8
0
  6
CONTINUOUS
 62
7
 10
-94.500000
 20
-97.500000
 11
-102.500000
 21
-97.500000
  0
LINE
  8
0
  6
CONTINUOUS
 62
7
 10
-95.000000
 20
-100.500000
 11
-102.000000
 21
-100.500000
  0
LINE
  8
0
  6
CENTER
 62
2
 10
-98.500000
 20
-101.598999
 11
-98.500000
 21
-95.385696
  0
LINE
  8
0
  6
CONTINUOUS
 62
7
 10
-94.500000
 20
-97.500000
 11
-94.500000
 21
-97.000000
  0
LINE
  8
0
  6
CONTINUOUS
 62
7
 10
-102.500000
 20
-97.500000
 11
-102.500000
 21
-97.000000
  0
LINE
  8
0
  6
CONTINUOUS
 62
7
 10
-98.500000
 20
-97.500000
 11
-98.500000
 21
-100.500000
  0
LINE
  8
0
  6
CONTINUOUS
 62
7
 10
-95.000000
 20
-97.500000
 11
-95.000000
 21
-100.500000
  0
LINE
  8
0
  6
CONTINUOUS
 62
7
 10
-102.000000
 20
-97.500000
 11
-102.000000
 21
-100.500000
  0
LINE
  8
0
  6
CONTINUOUS
 62
7
 10
-158.735992
 20
-12.200000
 11
-158.735992
 21
-16.200001
  0
LINE
  8
0
  6
CENTER
 62
2
 10
-190.000000
 20
27.500000
 11
-90.730301
 21
27.500000
  0
LINE
  8
0
  6
CONTINUOUS
 62
7
 10
-188.000000
 20
48.000000
 11
-188.000000
 21
7.000010
  0
LINE
  8
0
  6
CONTINUOUS
 62
7
 10
-92.000000
 20
48.000000
 11
-92.000000
 21
7.000010
  0
LINE
  8
0
  6
CONTINUOUS
 62
7
 10
-188.000000
 20
17.500000
 11
-155.000000
 21
17.500000
  0
LINE
  8
0
  6
CONTINUOUS
 62
7
 10
-188.000000
 20
37.500000
 11
-155.000000
 21
37.500000
  0
LINE
  8
0
  6
CONTINUOUS
 62
7
 10
-105.000000
 20
37.500000
 11
-92.000000
 21
37.500000
  0
LINE
  8
0
  6
CONTINUOUS
 62
7
 10
-105.000000
 20
17.500000
 11
-92.000000
 21
17.500000
  0
LINE
  8
0
  6
CONTINUOUS
 62
7
 10
-188.000000
 20
7.000010
 11
-92.000000
 21
7.000010
  0
LINE
  8
0
  6
CONTINUOUS
 62
7
 10
-147.300003
 20
7.500010
 11
-147.300003
 21
47.500000
  0
LINE
  8
0
  6
CONTINUOUS
 62
7
 10
-112.699997
 20
7.500010
 11
-112.699997
 21
47.500000
  0
LINE
  8
0
  6
CONTINUOUS
 62
7
 10
-105.000000
 20
7.900000
 11
-105.000000
 21
47.099998
  0
LINE
  8
0
  6
CONTINUOUS
 62
7
 10
-112.699997
 20
7.900000
 11
-105.000000
 21
7.900000
  0
LINE
  8
0
  6
CONTINUOUS
 62
7
 10
-147.300003
 20
7.900000
 11
-155.000000
 21
7.900000
  0
LINE
  8
0
  6
CONTINUOUS
 62
7
 10
-188.000000
 20
48.000000
 11
-92.000000
 21
48.000000
  0
LINE
  8
0
  6
CONTINUOUS
 62
7
 10
-188.000000
 20
94.000000
 11
-92.000000
 21
94.000000
  0
LINE
  8
0
  6
CONTINUOUS
 62
7
 10
-188.000000
 20
74.000000
 11
-155.000000
 21
74.000000
  0
LINE
  8
0
  6
CONTINUOUS
 62
7
 10
-188.000000
 20
74.000000
 11
-188.000000
 21
94.000000
  0
LINE
  8
0
  6
CONTINUOUS
 62
7
 10
-92.000000
 20
74.000000
 11
-92.000000
 21
94.000000
  0
LINE
  8
0
  6
CONTINUOUS
 62
7
 10
-105.000000
 20
74.000000
 11
-92.000000
 21
74.000000
  0
LINE
  8
0
  6
CONTINUOUS
 62
7
 10
-92.000000
 20
81.500000
 11
-188.000000
 21
81.500000
  0
LINE
  8
0
  6
CENTER
 62
2
 10
-151.500000
 20
89.000000
 11
-158.500000
 21
89.000000
  0
LINE
  8
0
  6
CENTER
 62
2
 10
-155.000000
 20
92.500000
 11
-155.000000
 21
85.500000
  0
LINE
  8
0
  6
CENTER
 62
2
 10
-128.500000
 20
72.000000
 11
-121.500000
 21
72.000000
  0
LINE
  8
0
  6
CENTER
 62
2
 10
-125.000000
 20
75.500000
 11
-125.000000
 21
68.500000
  0
LINE
  8
0
  6
CENTER
 62
2
 10
-131.500000
 20
72.000000
 11
-138.500000
 21
72.000000
  0
LINE
  8
0
  6
CENTER
 62
2
 10
-135.000000
 20
75.500000
 11
-135.000000
 21
68.500000
  0
LINE
  8
0
  6
CONTINUOUS
 62
7
 10
-112.699997
 20
47.099998
 11
-105.000000
 21
47.099998
  0
LINE
  8
0
  6
CONTINUOUS
 62
7
 10
-147.300003
 20
47.099998
 11
-155.000000
 21
47.099998
  0
LINE
  8
0
  6
CONTINUOUS
 62
7
 10
-155.000000
 20
80.000000
 11
-105.000000
 21
80.000000
  0
LINE
  8
0
  6
CONTINUOUS
 62
7
 10
-112.699997
 20
80.000000
 11
-112.699997
 21
65.000000
  0
LINE
  8
0
  6
CONTINUOUS
 62
7
 10
-147.300003
 20
65.000000
 11
-112.699997
 21
65.000000
  0
LINE
  8
0
  6
CONTINUOUS
 62
7
 10
-147.300003
 20
80.000000
 11
-147.300003
 21
65.000000
  0
LINE
  8
0
  6
CONTINUOUS
 62
7
 10
-155.000000
 20
80.000000
 11
-155.000000
 21
65.699997
  0
LINE
  8
0
  6
CONTINUOUS
 62
7
 10
-147.300003
 20
65.699997
 11
-155.000000
 21
65.699997
  0
LINE
  8
0
  6
CONTINUOUS
 62
7
 10
-105.000000
 20
80.000000
 11
-105.000000
 21
65.699997
  0
LINE
  8
0
  6
CONTINUOUS
 62
7
 10
-112.699997
 20
65.699997
 11
-105.000000
 21
65.699997
  0
LINE
  8
0
  6
CENTER
 62
2
 10
-161.500000
 20
89.000000
 11
-168.500000
 21
89.000000
  0
LINE
  8
0
  6
CENTER
 62
2
 10
-165.000000
 20
92.500000
 11
-165.000000
 21
85.500000
  0
LINE
  8
0
  6
CENTER
 62
2
 10
-128.500000
 20
89.000000
 11
-121.500000
 21
89.000000
  0
LINE
  8
0
  6
CENTER
 62
2
 10
-125.000000
 20
92.500000
 11
-125.000000
 21
85.500000
  0
LINE
  8
0
  6
CONTINUOUS
 62
7
 10
-147.300003
 20
7.500010
 11
-112.699997
 21
7.500010
  0
LINE
  8
0
  6
CONTINUOUS
 62
7
 10
-147.300003
 20
47.500000
 11
-112.699997
 21
47.500000
  0
LINE
  8
0
  6
CONTINUOUS
 62
7
 10
-95.000000
 20
89.520699
 11
-95.000000
 21
85.479301
  0
LINE
  8
0
  6
CONTINUOUS
 62
7
 10
-102.000000
 20
89.520699
 11
-98.500000
 21
91.541397
  0
LINE
  8
0
  6
CONTINUOUS
 62
7
 10
-98.500000
 20
83.458504
 11
-95.000000
 21
85.479202
  0
LINE
  8
0
  6
CONTINUOUS
 62
7
 10
-102.000000
 20
85.479301
 11
-98.500000
 21
83.458504
  0
LINE
  8
0
  6
CONTINUOUS
 62
7
 10
-96.317001
 20
90.281097
 11
-99.817001
 21
84.218903
  0
LINE
  8
0
  6
CONTINUOUS
 62
7
 10
-97.182999
 20
90.781097
 11
-100.682999
 21
84.718903
  0
LINE
  8
0
  6
CONTINUOUS
 62
7
 10
-98.500099
 20
91.541397
 11
-95.000000
 21
89.520699
  0
LINE
  8
0
  6
CONTINUOUS
 62
7
 10
-102.000000
 20
85.479301
 11
-102.000000
 21
89.520699
  0
LINE
  8
0
  6
CENTER
 62
2
 10
-98.500000
 20
94.040001
 11
-98.500000
 21
80.959999
  0
LINE
  8
0
  6
CENTER
 62
2
 10
-105.040001
 20
87.500000
 11
-91.959999
 21
87.500000
  0
LINE
  8
0
  6
CONTINUOUS
 62
7
 10
-178.000000
 20
89.520699
 11
-178.000000
 21
85.479301
  0
LINE
  8
0
  6
CONTINUOUS
 62
7
 10
-185.000000
 20
89.520699
 11
-181.500000
 21
91.541397
  0
LINE
  8
0
  6
CONTINUOUS
 62
7
 10
-181.500000
 20
83.458504
 11
-178.000000
 21
85.479202
  0
LINE
  8
0
  6
CONTINUOUS
 62
7
 10
-185.000000
 20
85.479301
 11
-181.500000
 21
83.458603
  0
LINE
  8
0
  6
CONTINUOUS
 62
7
 10
-179.317001
 20
90.280998
 11
-182.817001
 21
84.218903
  0
LINE
  8
0
  6
CONTINUOUS
 62
7
 10
-180.182999
 20
90.781097
 11
-183.682999
 21
84.718903
  0
LINE
  8
0
  6
CONTINUOUS
 62
7
 10
-181.500000
 20
91.541496
 11
-178.000000
 21
89.520699
  0
LINE
  8
0
  6
CONTINUOUS
 62
7
 10
-185.000000
 20
85.479301
 11
-185.000000
 21
89.520699
  0
LINE
  8
0
  6
CENTER
 62
2
 10
-181.500000
 20
94.040001
 11
-181.500000
 21
80.959999
  0
LINE
  8
0
  6
CENTER
 62
2
 10
-188.039993
 20
87.500000
 11
-174.960007
 21
87.500000
  0
LINE
  8
0
  6
CENTER
 62
2
 10
-172.500000
 20
49.790001
 11
-172.500000
 21
35.209999
  0
LINE
  8
0
  6
CENTER
 62
2
 10
-179.789993
 20
42.500000
 11
-165.210007
 21
42.500000
  0
LINE
  8
0
  6
CENTER
 62
2
 10
-172.500000
 20
19.790001
 11
-172.500000
 21
5.209990
  0
LINE
  8
0
  6
CENTER
 62
2
 10
-179.789993
 20
12.500000
 11
-165.210007
 21
12.500000
  0
LINE
  8
0
  6
CENTER
 62
2
 10
-142.500000
 20
47.040001
 11
-142.500000
 21
37.959999
  0
LINE
  8
0
  6
CENTER
 62
2
 10
-147.039993
 20
42.500000
 11
-137.960007
 21
42.500000
  0
LINE
  8
0
  6
CENTER
 62
2
 10
-117.500000
 20
47.040001
 11
-117.500000
 21
37.959999
  0
LINE
  8
0
  6
CENTER
 62
2
 10
-122.040001
 20
42.500000
 11
-112.959999
 21
42.500000
  0
LINE
  8
0
  6
CENTER
 62
2
 10
-142.500000
 20
17.040001
 11
-142.500000
 21
7.960000
  0
LINE
  8
0
  6
CENTER
 62
2
 10
-147.039993
 20
12.500000
 11
-137.960007
 21
12.500000
  0
LINE
  8
0
  6
CENTER
 62
2
 10
-117.500000
 20
17.040001
 11
-117.500000
 21
7.960000
  0
LINE
  8
0
  6
CENTER
 62
2
 10
-122.040001
 20
12.500000
 11
-112.959999
 21
12.500000
  0
LINE
  8
0
  6
CENTER
 62
2
 10
-107.500000
 20
19.790001
 11
-107.500000
 21
5.209990
  0
LINE
  8
0
  6
CENTER
 62
2
 10
-114.790001
 20
12.500000
 11
-100.209999
 21
12.500000
  0
LINE
  8
0
  6
CENTER
 62
2
 10
-107.500000
 20
35.209999
 11
-107.500000
 21
49.790001
  0
LINE
  8
0
  6
CENTER
 62
2
 10
-114.790001
 20
42.500000
 11
-100.209999
 21
42.500000
  0
LINE
  8
0
  6
CONTINUOUS
 62
7
 10
-155.000000
 20
7.900000
 11
-155.000000
 21
47.099998
  0
LINE
  8
0
  6
CONTINUOUS
 62
7
 10
-158.414993
 20
29.809401
 11
-155.000000
 21
29.809401
  0
LINE
  8
0
  6
CONTINUOUS
 62
7
 10
-158.414993
 20
28.654699
 11
-155.000000
 21
28.654699
  0
LINE
  8
0
  6
CONTINUOUS
 62
7
 10
-158.414993
 20
26.345301
 11
-155.000000
 21
26.345301
  0
LINE
  8
0
  6
CONTINUOUS
 62
7
 10
-158.414993
 20
25.190599
 11
-155.000000
 21
25.190599
  0
LINE
  8
0
  6
CONTINUOUS
 62
7
 10
-158.735992
 20
71.199997
 11
-155.000000
 21
71.199997
  0
LINE
  8
0
  6
CONTINUOUS
 62
7
 10
-158.735992
 20
69.199997
 11
-155.000000
 21
69.199997
  0
LINE
  8
0
  6
CONTINUOUS
 62
7
 10
-158.735992
 20
67.199997
 11
-155.000000
 21
67.199997
  0
LINE
  8
0
  6
CENTER
 62
2
 10
-118.500000
 20
89.000000
 11
-111.500000
 21
89.000000
  0
LINE
  8
0
  6
CENTER
 62
2
 10
-115.000000
 20
92.500000
 11
-115.000000
 21
85.500000
  0
LINE
  8
0
  6
CONTINUOUS
 62
7
 10
-178.000000
 20
48.500000
 11
-178.000000
 21
51.500000
  0
LINE
  8
0
  6
CONTINUOUS
 62
7
 10
-185.500000
 20
48.500000
 11
-177.500000
 21
48.500000
  0
LINE
  8
0
  6
CONTINUOUS
 62
7
 10
-185.000000
 20
51.500000
 11
-178.000000
 21
51.500000
  0
LINE
  8
0
  6
CENTER
 62
2
 10
-181.500000
 20
52.598999
 11
-181.500000
 21
46.385700
  0
LINE
  8
0
  6
CONTINUOUS
 62
7
 10
-185.500000
 20
48.500000
 11
-185.500000
 21
48.000000
  0
LINE
  8
0
  6
CONTINUOUS
 62
7
 10
-177.500000
 20
48.500000
 11
-177.500000
 21
48.000000
  0
LINE
  8
0
  6
CONTINUOUS
 62
7
 10
-181.500000
 20
48.500000
 11
-181.500000
 21
51.500000
  0
LINE
  8
0
  6
CONTINUOUS
 62
7
 10
-185.000000
 20
48.500000
 11
-185.000000
 21
51.500000
  0
LINE
  8
0
  6
CONTINUOUS
 62
7
 10
-98.500000
 20
48.500000
 11
-98.500000
 21
51.500000
  0
LINE
  8
0
  6
CONTINUOUS
 62
7
 10
-95.000000
 20
48.500000
 11
-95.000000
 21
51.500000
  0
LINE
  8
0
  6
CONTINUOUS
 62
7
 10
-102.000000
 20
48.500000
 11
-102.000000
 21
51.500000
  0
LINE
  8
0
  6
CONTINUOUS
 62
7
 10
-94.500000
 20
48.500000
 11
-102.500000
 21
48.500000
  0
LINE
  8
0
  6
CONTINUOUS
 62
7
 10
-95.000000
 20
51.500000
 11
-102.000000
 21
51.500000
  0
LINE
  8
0
  6
CENTER
 62
2
 10
-98.500000
 20
52.598999
 11
-98.500000
 21
46.385700
  0
LINE
  8
0
  6
CONTINUOUS
 62
7
 10
-94.500000
 20
48.500000
 11
-94.500000
 21
48.000000
  0
LINE
  8
0
  6
CONTINUOUS
 62
7
 10
-102.500000
 20
48.500000
 11
-102.500000
 21
48.000000
  0
LINE
  8
0
  6
CONTINUOUS
 62
7
 10
-158.414993
 20
29.809401
 11
-158.414993
 21
25.190599
  0
LINE
  8
0
  6
CONTINUOUS
 62
7
 10
-158.735992
 20
71.199997
 11
-158.735992
 21
67.199997
  0
LINE
  8
0
  6
CONTINUOUS
 62
7
 10
-147.300003
 20
38.000000
 11
-112.699997
 21
38.000000
  0
LINE
  8
0
  6
CONTINUOUS
 62
7
 10
-147.300003
 20
17.000000
 11
-112.699997
 21
17.000000
  0
LINE
  8
0
  6
CONTINUOUS
 62
7
 10
-266.500000
 20
-26.500000
 11
-256.000000
 21
-26.500000
  0
LINE
  8
0
  6
CONTINUOUS
 62
7
 10
-225.500000
 20
-26.500000
 11
-236.000000
 21
-26.500000
  0
LINE
  8
0
  6
CONTINUOUS
 62
7
 10
-236.000000
 20
-19.000000
 11
-236.000000
 21
-20.513399
  0
LINE
  8
0
  6
CONTINUOUS
 62
7
 10
-236.000000
 20
-23.486601
 11
-236.000000
 21
-26.500000
  0
LINE
  8
0
  6
CONTINUOUS
 62
7
 10
-266.500000
 20
-39.000000
 11
-225.500000
 21
-39.000000
  0
LINE
  8
0
  6
CONTINUOUS
 62
7
 10
-256.000000
 20
-19.000000
 11
-236.000000
 21
-19.000000
  0
LINE
  8
0
  6
CENTER
 62
2
 10
-246.000000
 20
-8.499990
 11
-246.000000
 21
-40.500000
  0
LINE
  8
0
  6
CONTINUOUS
 62
7
 10
-238.000000
 20
-22.600000
 11
-238.000000
 21
-21.400000
  0
LINE
  8
0
  6
CONTINUOUS
 62
7
 10
-238.000000
 20
-21.400000
 11
-237.093002
 21
-21.240101
  0
LINE
  8
0
  6
CONTINUOUS
 62
7
 10
-238.000000
 20
-22.600000
 11
-237.093002
 21
-22.759800
  0
LINE
  8
0
  6
CONTINUOUS
 62
7
 10
-254.000000
 20
-22.600000
 11
-254.000000
 21
-21.400000
  0
LINE
  8
0
  6
CONTINUOUS
 62
7
 10
-254.000000
 20
-21.400000
 11
-254.906998
 21
-21.240101
  0
LINE
  8
0
  6
CONTINUOUS
 62
7
 10
-254.000000
 20
-22.600000
 11
-254.906998
 21
-22.759899
  0
LINE
  8
0
  6
CONTINUOUS
 62
7
 10
-266.000000
 20
-25.000000
 11
-256.000000
 21
-25.000000
  0
LINE
  8
0
  6
CONTINUOUS
 62
7
 10
-236.000000
 20
-25.000000
 11
-226.000000
 21
-25.000000
  0
LINE
  8
0
  6
CONTINUOUS
 62
7
 10
-255.899994
 20
-10.600000
 11
-236.100006
 21
-10.600000
  0
LINE
  8
0
  6
CONTINUOUS
 62
7
 10
-226.000000
 20
-25.000000
 11
-226.000000
 21
-9.999990
  0
LINE
  8
0
  6
CONTINUOUS
 62
7
 10
-235.500000
 20
-9.999990
 11
-226.000000
 21
-9.999990
  0
LINE
  8
0
  6
CONTINUOUS
 62
7
 10
-235.500000
 20
-10.000000
 11
-236.100006
 21
-10.600000
  0
LINE
  8
0
  6
CONTINUOUS
 62
7
 10
-266.000000
 20
-25.000000
 11
-266.000000
 21
-9.999990
  0
LINE
  8
0
  6
CENTER
 62
2
 10
-257.040009
 20
-29.000000
 11
-234.960007
 21
-29.000000
  0
LINE
  8
0
  6
CONTINUOUS
 62
7
 10
-270.000000
 20
-36.541500
 11
-270.000000
 21
-28.458599
  0
LINE
  8
0
  6
CONTINUOUS
 62
7
 10
-270.000000
 20
-36.541500
 11
-266.500000
 21
-36.541500
  0
LINE
  8
0
  6
CONTINUOUS
 62
7
 10
-270.000000
 20
-34.562901
 11
-267.000000
 21
-34.562901
  0
LINE
  8
0
  6
CENTER
 62
2
 10
-271.488007
 20
-32.500000
 11
-265.540009
 21
-32.500000
  0
LINE
  8
0
  6
CONTINUOUS
 62
7
 10
-270.000000
 20
-30.437201
 11
-267.000000
 21
-30.437201
  0
LINE
  8
0
  6
CONTINUOUS
 62
7
 10
-270.000000
 20
-28.458599
 11
-266.500000
 21
-28.458599
  0
LINE
  8
0
  6
CONTINUOUS
 62
7
 10
-267.000000
 20
-36.541500
 11
-267.000000
 21
-28.458599
  0
LINE
  8
0
  6
CONTINUOUS
 62
7
 10
-243.690994
 20
-14.200000
 11
-244.845001
 21
-12.200000
  0
LINE
  8
0
  6
CONTINUOUS
 62
7
 10
-247.154999
 20
-16.200001
 11
-248.309006
 21
-14.200000
  0
LINE
  8
0
  6
CONTINUOUS
 62
7
 10
-247.154999
 20
-16.200001
 11
-244.845001
 21
-16.200001
  0
LINE
  8
0
  6
CONTINUOUS
 62
7
 10
-247.154999
 20
-12.200000
 11
-244.845001
 21
-12.200000
  0
LINE
  8
0
  6
CONTINUOUS
 62
7
 10
-244.845001
 20
-16.200001
 11
-243.690994
 21
-14.200000
  0
LINE
  8
0
  6
CONTINUOUS
 62
7
 10
-248.309006
 20
-14.200000
 11
-247.154999
 21
-12.200000
  0
LINE
  8
0
  6
CENTER
 62
2
 10
-249.809006
 20
-14.200000
 11
-242.190994
 21
-14.200000
  0
LINE
  8
0
  6
CONTINUOUS
 62
7
 10
-256.500000
 20
-10.000000
 11
-255.899994
 21
-10.600000
  0
LINE
  8
0
  6
CONTINUOUS
 62
7
 10
-256.500000
 20
-9.999990
 11
-266.000000
 21
-9.999990
  0
LINE
  8
0
  6
CONTINUOUS
 62
7
 10
-256.000000
 20
-19.000000
 11
-256.000000
 21
-20.513399
  0
LINE
  8
0
  6
CONTINUOUS
 62
7
 10
-256.000000
 20
-23.486601
 11
-256.000000
 21
-26.500000
  0
LINE
  8
0
  6
CONTINUOUS
 62
7
 10
-266.500000
 20
-26.500000
 11
-266.500000
 21
-39.000000
  0
LINE
  8
0
  6
CONTINUOUS
 62
7
 10
-225.500000
 20
-26.500000
 11
-225.500000
 21
-39.000000
  0
LINE
  8
0
  6
CONTINUOUS
 62
7
 10
77.000000
 20
-97.000000
 11
203.000000
 21
-97.000000
  0
LINE
  8
0
  6
CONTINUOUS
 62
7
 10
77.000000
 20
-97.000000
 11
77.000000
 21
-56.000000
  0
LINE
  8
0
  6
CONTINUOUS
 62
7
 10
203.000000
 20
-97.000000
 11
203.000000
 21
-56.000000
  0
LINE
  8
0
  6
CONTINUOUS
 62
7
 10
77.000000
 20
-56.000000
 11
203.000000
 21
-56.000000
  0
LINE
  8
0
  6
CENTER
 62
2
 10
75.000000
 20
-76.500000
 11
205.000000
 21
-76.500000
  0
LINE
  8
0
  6
CENTER
 62
2
 10
75.000000
 20
27.500000
 11
205.000000
 21
27.500000
  0
LINE
  8
0
  6
CONTINUOUS
 62
7
 10
77.000000
 20
48.000000
 11
77.000000
 21
7.000000
  0
LINE
  8
0
  6
CONTINUOUS
 62
7
 10
203.000000
 20
48.000000
 11
203.000000
 21
7.000000
  0
LINE
  8
0
  6
CONTINUOUS
 62
7
 10
128.850006
 20
7.500010
 11
181.149994
 21
7.500010
  0
LINE
  8
0
  6
CONTINUOUS
 62
7
 10
128.850006
 20
47.500000
 11
181.149994
 21
47.500000
  0
LINE
  8
0
  6
CONTINUOUS
 62
7
 10
77.000000
 20
17.500000
 11
121.000000
 21
17.500000
  0
LINE
  8
0
  6
CONTINUOUS
 62
7
 10
77.000000
 20
37.500000
 11
121.000000
 21
37.500000
  0
LINE
  8
0
  6
CONTINUOUS
 62
7
 10
189.000000
 20
37.500000
 11
203.000000
 21
37.500000
  0
LINE
  8
0
  6
CONTINUOUS
 62
7
 10
189.000000
 20
17.500000
 11
203.000000
 21
17.500000
  0
LINE
  8
0
  6
CONTINUOUS
 62
7
 10
77.000000
 20
7.000000
 11
203.000000
 21
7.000000
  0
LINE
  8
0
  6
CONTINUOUS
 62
7
 10
77.000000
 20
48.000000
 11
203.000000
 21
48.000000
  0
LINE
  8
0
  6
CONTINUOUS
 62
7
 10
77.000000
 20
-39.000000
 11
203.000000
 21
-39.000000
  0
LINE
  8
0
  6
CONTINUOUS
 62
7
 10
77.000000
 20
-19.000000
 11
121.000000
 21
-19.000000
  0
LINE
  8
0
  6
CONTINUOUS
 62
7
 10
77.000000
 20
-19.000000
 11
77.000000
 21
-39.000000
  0
LINE
  8
0
  6
CONTINUOUS
 62
7
 10
203.000000
 20
-19.000000
 11
203.000000
 21
-39.000000
  0
LINE
  8
0
  6
CONTINUOUS
 62
7
 10
189.000000
 20
-19.000000
 11
203.000000
 21
-19.000000
  0
LINE
  8
0
  6
CONTINUOUS
 62
7
 10
203.000000
 20
-26.500000
 11
77.000000
 21
-26.500000
  0
LINE
  8
0
  6
CONTINUOUS
 62
7
 10
77.000000
 20
94.000000
 11
203.000000
 21
94.000000
  0
LINE
  8
0
  6
CONTINUOUS
 62
7
 10
77.000000
 20
74.000000
 11
121.000000
 21
74.000000
  0
LINE
  8
0
  6
CONTINUOUS
 62
7
 10
77.000000
 20
74.000000
 11
77.000000
 21
94.000000
  0
LINE
  8
0
  6
CONTINUOUS
 62
7
 10
203.000000
 20
74.000000
 11
203.000000
 21
94.000000
  0
LINE
  8
0
  6
CONTINUOUS
 62
7
 10
189.000000
 20
74.000000
 11
203.000000
 21
74.000000
  0
LINE
  8
0
  6
CONTINUOUS
 62
7
 10
203.000000
 20
81.500000
 11
77.000000
 21
81.500000
  0
LINE
  8
0
  6
CONTINUOUS
 62
7
 10
128.850006
 20
7.500010
 11
128.850006
 21
47.500000
  0
LINE
  8
0
  6
CONTINUOUS
 62
7
 10
181.149994
 20
7.500010
 11
181.149994
 21
47.500000
  0
LINE
  8
0
  6
CONTINUOUS
 62
7
 10
189.000000
 20
7.899990
 11
189.000000
 21
47.099998
  0
LINE
  8
0
  6
CONTINUOUS
 62
7
 10
121.000000
 20
7.899990
 11
121.000000
 21
47.099998
  0
LINE
  8
0
  6
CONTINUOUS
 62
7
 10
181.149994
 20
47.099998
 11
189.000000
 21
47.099998
  0
LINE
  8
0
  6
CONTINUOUS
 62
7
 10
181.149994
 20
7.899990
 11
189.000000
 21
7.899990
  0
LINE
  8
0
  6
CONTINUOUS
 62
7
 10
128.850006
 20
7.899990
 11
121.000000
 21
7.899990
  0
LINE
  8
0
  6
CONTINUOUS
 62
7
 10
128.850006
 20
47.099998
 11
121.000000
 21
47.099998
  0
LINE
  8
0
  6
CONTINUOUS
 62
7
 10
181.149994
 20
-25.000000
 11
181.149994
 21
-9.999990
  0
LINE
  8
0
  6
CONTINUOUS
 62
7
 10
128.850006
 20
-9.999990
 11
181.149994
 21
-9.999990
  0
LINE
  8
0
  6
CONTINUOUS
 62
7
 10
121.000000
 20
-25.000000
 11
189.000000
 21
-25.000000
  0
LINE
  8
0
  6
CONTINUOUS
 62
7
 10
128.850006
 20
-25.000000
 11
128.850006
 21
-9.999990
  0
LINE
  8
0
  6
CONTINUOUS
 62
7
 10
189.000000
 20
-25.000000
 11
189.000000
 21
-10.700000
  0
LINE
  8
0
  6
CONTINUOUS
 62
7
 10
181.149994
 20
-10.700000
 11
189.000000
 21
-10.700000
  0
LINE
  8
0
  6
CONTINUOUS
 62
7
 10
121.000000
 20
-25.000000
 11
121.000000
 21
-10.700000
  0
LINE
  8
0
  6
CONTINUOUS
 62
7
 10
128.850006
 20
-10.700000
 11
121.000000
 21
-10.700000
  0
LINE
  8
0
  6
CONTINUOUS
 62
7
 10
181.149994
 20
80.000000
 11
181.149994
 21
65.000000
  0
LINE
  8
0
  6
CONTINUOUS
 62
7
 10
128.850006
 20
65.000000
 11
181.149994
 21
65.000000
  0
LINE
  8
0
  6
CONTINUOUS
 62
7
 10
121.000000
 20
80.000000
 11
189.000000
 21
80.000000
  0
LINE
  8
0
  6
CONTINUOUS
 62
7
 10
128.850006
 20
80.000000
 11
128.850006
 21
65.000000
  0
LINE
  8
0
  6
CONTINUOUS
 62
7
 10
121.000000
 20
80.000000
 11
121.000000
 21
65.699997
  0
LINE
  8
0
  6
CONTINUOUS
 62
7
 10
128.850006
 20
65.699997
 11
121.000000
 21
65.699997
  0
LINE
  8
0
  6
CONTINUOUS
 62
7
 10
189.000000
 20
80.000000
 11
189.000000
 21
65.699997
  0
LINE
  8
0
  6
CONTINUOUS
 62
7
 10
181.149994
 20
65.699997
 11
189.000000
 21
65.699997
  0
LINE
  8
0
  6
CENTER
 62
2
 10
120.000000
 20
93.540001
 11
120.000000
 21
84.459999
  0
LINE
  8
0
  6
CENTER
 62
2
 10
115.459999
 20
89.000000
 11
124.540001
 21
89.000000
  0
LINE
  8
0
  6
CENTER
 62
2
 10
160.000000
 20
93.540001
 11
160.000000
 21
84.459999
  0
LINE
  8
0
  6
CENTER
 62
2
 10
155.460007
 20
89.000000
 11
164.539993
 21
89.000000
  0
LINE
  8
0
  6
CENTER
 62
2
 10
160.000000
 20
76.540001
 11
160.000000
 21
67.459999
  0
LINE
  8
0
  6
CENTER
 62
2
 10
155.460007
 20
72.000000
 11
164.539993
 21
72.000000
  0
LINE
  8
0
  6
CENTER
 62
2
 10
150.000000
 20
76.540001
 11
150.000000
 21
67.459999
  0
LINE
  8
0
  6
CENTER
 62
2
 10
145.460007
 20
72.000000
 11
154.539993
 21
72.000000
  0
LINE
  8
0
  6
CENTER
 62
2
 10
92.500000
 20
49.790001
 11
92.500000
 21
35.209999
  0
LINE
  8
0
  6
CENTER
 62
2
 10
85.209999
 20
42.500000
 11
99.790001
 21
42.500000
  0
LINE
  8
0
  6
CENTER
 62
2
 10
92.500000
 20
19.790001
 11
92.500000
 21
5.210010
  0
LINE
  8
0
  6
CENTER
 62
2
 10
85.209999
 20
12.500000
 11
99.790001
 21
12.500000
  0
LINE
  8
0
  6
CENTER
 62
2
 10
135.000000
 20
47.040001
 11
135.000000
 21
37.959999
  0
LINE
  8
0
  6
CENTER
 62
2
 10
130.460007
 20
42.500000
 11
139.539993
 21
42.500000
  0
LINE
  8
0
  6
CENTER
 62
2
 10
135.000000
 20
17.040001
 11
135.000000
 21
7.960000
  0
LINE
  8
0
  6
CENTER
 62
2
 10
130.460007
 20
12.500000
 11
139.539993
 21
12.500000
  0
LINE
  8
0
  6
CENTER
 62
2
 10
155.000000
 20
47.040001
 11
155.000000
 21
37.959999
  0
LINE
  8
0
  6
CENTER
 62
2
 10
150.460007
 20
42.500000
 11
159.539993
 21
42.500000
  0
LINE
  8
0
  6
CENTER
 62
2
 10
155.000000
 20
17.040001
 11
155.000000
 21
7.960000
  0
LINE
  8
0
  6
CENTER
 62
2
 10
150.460007
 20
12.500000
 11
159.539993
 21
12.500000
  0
LINE
  8
0
  6
CENTER
 62
2
 10
175.000000
 20
17.040001
 11
175.000000
 21
7.960000
  0
LINE
  8
0
  6
CENTER
 62
2
 10
170.460007
 20
12.500000
 11
179.539993
 21
12.500000
  0
LINE
  8
0
  6
CENTER
 62
2
 10
175.000000
 20
47.040001
 11
175.000000
 21
37.959999
  0
LINE
  8
0
  6
CENTER
 62
2
 10
170.460007
 20
42.500000
 11
179.539993
 21
42.500000
  0
LINE
  8
0
  6
CENTER
 62
2
 10
187.500000
 20
19.790001
 11
187.500000
 21
5.210010
  0
LINE
  8
0
  6
CENTER
 62
2
 10
180.210007
 20
12.500000
 11
194.789993
 21
12.500000
  0
LINE
  8
0
  6
CENTER
 62
2
 10
117.500000
 20
-24.959999
 11
117.500000
 21
-33.040001
  0
LINE
  8
0
  6
CENTER
 62
2
 10
113.459999
 20
-29.000000
 11
121.540001
 21
-29.000000
  0
LINE
  8
0
  6
CENTER
 62
2
 10
162.500000
 20
-24.959999
 11
162.500000
 21
-33.040001
  0
LINE
  8
0
  6
CENTER
 62
2
 10
158.460007
 20
-29.000000
 11
166.539993
 21
-29.000000
  0
LINE
  8
0
  6
CENTER
 62
2
 10
150.000000
 20
-13.460000
 11
150.000000
 21
-20.540001
  0
LINE
  8
0
  6
CENTER
 62
2
 10
146.460007
 20
-17.000000
 11
153.539993
 21
-17.000000
  0
LINE
  8
0
  6
CENTER
 62
2
 10
160.000000
 20
-13.460000
 11
160.000000
 21
-20.540001
  0
LINE
  8
0
  6
CENTER
 62
2
 10
156.460007
 20
-17.000000
 11
163.539993
 21
-17.000000
  0
LINE
  8
0
  6
CENTER
 62
2
 10
92.500000
 20
-55.959999
 11
92.500000
 21
-67.040001
  0
LINE
  8
0
  6
CENTER
 62
2
 10
86.959999
 20
-61.500000
 11
98.040001
 21
-61.500000
  0
LINE
  8
0
  6
CENTER
 62
2
 10
84.500000
 20
-75.559998
 11
84.500000
 21
-92.440002
  0
LINE
  8
0
  6
CENTER
 62
2
 10
76.059998
 20
-84.000000
 11
92.940002
 21
-84.000000
  0
LINE
  8
0
  6
CENTER
 62
2
 10
92.500000
 20
-85.959999
 11
92.500000
 21
-97.040001
  0
LINE
  8
0
  6
CENTER
 62
2
 10
86.959999
 20
-91.500000
 11
98.040001
 21
-91.500000
  0
LINE
  8
0
  6
CENTER
 62
2
 10
187.500000
 20
-85.959999
 11
187.500000
 21
-97.040001
  0
LINE
  8
0
  6
CENTER
 62
2
 10
181.960007
 20
-91.500000
 11
193.039993
 21
-91.500000
  0
LINE
  8
0
  6
CENTER
 62
2
 10
187.500000
 20
-55.959999
 11
187.500000
 21
-67.040001
  0
LINE
  8
0
  6
CENTER
 62
2
 10
181.960007
 20
-61.500000
 11
193.039993
 21
-61.500000
  0
LINE
  8
0
  6
CENTER
 62
2
 10
195.500000
 20
-60.560001
 11
195.500000
 21
-77.440002
  0
LINE
  8
0
  6
CENTER
 62
2
 10
187.059998
 20
-69.000000
 11
203.940002
 21
-69.000000
  0
LINE
  8
0
  6
CONTINUOUS
 62
7
 10
87.000000
 20
89.520699
 11
87.000000
 21
85.479301
  0
LINE
  8
0
  6
CONTINUOUS
 62
7
 10
80.000000
 20
89.520699
 11
83.500000
 21
91.541397
  0
LINE
  8
0
  6
CONTINUOUS
 62
7
 10
83.500000
 20
83.458504
 11
87.000000
 21
85.479301
  0
LINE
  8
0
  6
CONTINUOUS
 62
7
 10
80.000000
 20
85.479301
 11
83.500000
 21
83.458504
  0
LINE
  8
0
  6
CONTINUOUS
 62
7
 10
85.682999
 20
90.281097
 11
82.182999
 21
84.218903
  0
LINE
  8
0
  6
CONTINUOUS
 62
7
 10
84.817001
 20
90.781097
 11
81.317001
 21
84.718903
  0
LINE
  8
0
  6
CONTINUOUS
 62
7
 10
83.500000
 20
91.541397
 11
87.000000
 21
89.520699
  0
LINE
  8
0
  6
CONTINUOUS
 62
7
 10
80.000000
 20
85.479301
 11
80.000000
 21
89.520699
  0
LINE
  8
0
  6
CENTER
 62
2
 10
83.500000
 20
94.040001
 11
83.500000
 21
80.959999
  0
LINE
  8
0
  6
CENTER
 62
2
 10
76.959999
 20
87.500000
 11
90.040001
 21
87.500000
  0
LINE
  8
0
  6
CENTER
 62
2
 10
187.500000
 20
35.209999
 11
187.500000
 21
49.790001
  0
LINE
  8
0
  6
CENTER
 62
2
 10
180.210007
 20
42.500000
 11
194.789993
 21
42.500000
  0
LINE
  8
0
  6
CONTINUOUS
 62
7
 10
200.000000
 20
89.520699
 11
200.000000
 21
85.479301
  0
LINE
  8
0
  6
CONTINUOUS
 62
7
 10
193.000000
 20
89.520699
 11
196.500000
 21
91.541496
  0
LINE
  8
0
  6
CONTINUOUS
 62
7
 10
196.500000
 20
83.458504
 11
200.000000
 21
85.479301
  0
LINE
  8
0
  6
CONTINUOUS
 62
7
 10
193.000000
 20
85.479301
 11
196.500000
 21
83.458603
  0
LINE
  8
0
  6
CONTINUOUS
 62
7
 10
198.682999
 20
90.281097
 11
195.182999
 21
84.218903
  0
LINE
  8
0
  6
CONTINUOUS
 62
7
 10
197.817001
 20
90.781097
 11
194.317001
 21
84.718903
  0
LINE
  8
0
  6
CONTINUOUS
 62
7
 10
196.500000
 20
91.541397
 11
200.000000
 21
89.520699
  0
LINE
  8
0
  6
CONTINUOUS
 62
7
 10
193.000000
 20
85.479301
 11
193.000000
 21
89.520699
  0
LINE
  8
0
  6
CENTER
 62
2
 10
196.500000
 20
94.040001
 11
196.500000
 21
80.959999
  0
LINE
  8
0
  6
CENTER
 62
2
 10
189.960007
 20
87.500000
 11
203.039993
 21
87.500000
  0
LINE
  8
0
  6
CONTINUOUS
 62
7
 10
117.264000
 20
-12.200000
 11
121.000000
 21
-12.200000
  0
LINE
  8
0
  6
CONTINUOUS
 62
7
 10
117.264000
 20
-14.200000
 11
121.000000
 21
-14.200000
  0
LINE
  8
0
  6
CONTINUOUS
 62
7
 10
117.264000
 20
-16.200001
 11
121.000000
 21
-16.200001
  0
LINE
  8
0
  6
CONTINUOUS
 62
7
 10
117.264000
 20
71.199997
 11
121.000000
 21
71.199997
  0
LINE
  8
0
  6
CONTINUOUS
 62
7
 10
117.264000
 20
69.199997
 11
121.000000
 21
69.199997
  0
LINE
  8
0
  6
CONTINUOUS
 62
7
 10
117.264000
 20
67.199997
 11
121.000000
 21
67.199997
  0
LINE
  8
0
  6
CONTINUOUS
 62
7
 10
117.584999
 20
29.809401
 11
121.000000
 21
29.809401
  0
LINE
  8
0
  6
CONTINUOUS
 62
7
 10
117.584999
 20
28.654699
 11
121.000000
 21
28.654699
  0
LINE
  8
0
  6
CONTINUOUS
 62
7
 10
117.584999
 20
26.345301
 11
121.000000
 21
26.345301
  0
LINE
  8
0
  6
CONTINUOUS
 62
7
 10
117.584999
 20
25.190599
 11
121.000000
 21
25.190599
  0
LINE
  8
0
  6
CONTINUOUS
 62
7
 10
87.000000
 20
-97.500000
 11
87.000000
 21
-100.500000
  0
LINE
  8
0
  6
CONTINUOUS
 62
7
 10
80.000000
 20
-97.500000
 11
80.000000
 21
-100.500000
  0
LINE
  8
0
  6
CONTINUOUS
 62
7
 10
79.500000
 20
-97.500000
 11
87.500000
 21
-97.500000
  0
LINE
  8
0
  6
CONTINUOUS
 62
7
 10
80.000000
 20
-100.500000
 11
87.000000
 21
-100.500000
  0
LINE
  8
0
  6
CENTER
 62
2
 10
83.500000
 20
-101.598999
 11
83.500000
 21
-95.385696
  0
LINE
  8
0
  6
CONTINUOUS
 62
7
 10
79.500000
 20
-97.500000
 11
79.500000
 21
-97.000000
  0
LINE
  8
0
  6
CONTINUOUS
 62
7
 10
87.500000
 20
-97.500000
 11
87.500000
 21
-97.000000
  0
LINE
  8
0
  6
CONTINUOUS
 62
7
 10
83.500000
 20
-97.500000
 11
83.500000
 21
-100.500000
  0
LINE
  8
0
  6
CONTINUOUS
 62
7
 10
193.000000
 20
-97.500000
 11
193.000000
 21
-100.500000
  0
LINE
  8
0
  6
CONTINUOUS
 62
7
 10
200.000000
 20
-97.500000
 11
200.000000
 21
-100.500000
  0
LINE
  8
0
  6
CONTINUOUS
 62
7
 10
200.500000
 20
-97.500000
 11
192.500000
 21
-97.500000
  0
LINE
  8
0
  6
CONTINUOUS
 62
7
 10
200.000000
 20
-100.500000
 11
193.000000
 21
-100.500000
  0
LINE
  8
0
  6
CENTER
 62
2
 10
196.500000
 20
-101.598999
 11
196.500000
 21
-95.385696
  0
LINE
  8
0
  6
CONTINUOUS
 62
7
 10
200.500000
 20
-97.500000
 11
200.500000
 21
-97.000000
  0
LINE
  8
0
  6
CONTINUOUS
 62
7
 10
192.500000
 20
-97.500000
 11
192.500000
 21
-97.000000
  0
LINE
  8
0
  6
CONTINUOUS
 62
7
 10
196.500000
 20
-97.500000
 11
196.500000
 21
-100.500000
  0
LINE
  8
0
  6
CONTINUOUS
 62
7
 10
117.264000
 20
-12.200000
 11
117.264000
 21
-16.200001
  0
LINE
  8
0
  6
CONTINUOUS
 62
7
 10
117.264000
 20
71.199997
 11
117.264000
 21
67.199997
  0
LINE
  8
0
  6
CENTER
 62
2
 10
110.000000
 20
93.540001
 11
110.000000
 21
84.459999
  0
LINE
  8
0
  6
CENTER
 62
2
 10
105.459999
 20
89.000000
 11
114.540001
 21
89.000000
  0
LINE
  8
0
  6
CENTER
 62
2
 10
170.000000
 20
93.540001
 11
170.000000
 21
84.459999
  0
LINE
  8
0
  6
CENTER
 62
2
 10
165.460007
 20
89.000000
 11
174.539993
 21
89.000000
  0
LINE
  8
0
  6
CONTINUOUS
 62
7
 10
80.000000
 20
48.500000
 11
80.000000
 21
51.500000
  0
LINE
  8
0
  6
CONTINUOUS
 62
7
 10
87.000000
 20
48.500000
 11
87.000000
 21
51.500000
  0
LINE
  8
0
  6
CONTINUOUS
 62
7
 10
79.500000
 20
48.500000
 11
87.500000
 21
48.500000
  0
LINE
  8
0
  6
CONTINUOUS
 62
7
 10
80.000000
 20
51.500000
 11
87.000000
 21
51.500000
  0
LINE
  8
0
  6
CENTER
 62
2
 10
83.500000
 20
52.598999
 11
83.500000
 21
46.385700
  0
LINE
  8
0
  6
CONTINUOUS
 62
7
 10
79.500000
 20
48.500000
 11
79.500000
 21
48.000000
  0
LINE
  8
0
  6
CONTINUOUS
 62
7
 10
87.500000
 20
48.500000
 11
87.500000
 21
48.000000
  0
LINE
  8
0
  6
CONTINUOUS
 62
7
 10
83.500000
 20
48.500000
 11
83.500000
 21
51.500000
  0
LINE
  8
0
  6
CONTINUOUS
 62
7
 10
200.000000
 20
48.500000
 11
200.000000
 21
51.500000
  0
LINE
  8
0
  6
CONTINUOUS
 62
7
 10
193.000000
 20
48.500000
 11
193.000000
 21
51.500000
  0
LINE
  8
0
  6
CONTINUOUS
 62
7
 10
200.500000
 20
48.500000
 11
192.500000
 21
48.500000
  0
LINE
  8
0
  6
CONTINUOUS
 62
7
 10
200.000000
 20
51.500000
 11
193.000000
 21
51.500000
  0
LINE
  8
0
  6
CENTER
 62
2
 10
196.500000
 20
52.598999
 11
196.500000
 21
46.385700
  0
LINE
  8
0
  6
CONTINUOUS
 62
7
 10
200.500000
 20
48.500000
 11
200.500000
 21
48.000000
  0
LINE
  8
0
  6
CONTINUOUS
 62
7
 10
192.500000
 20
48.500000
 11
192.500000
 21
48.000000
  0
LINE
  8
0
  6
CONTINUOUS
 62
7
 10
196.500000
 20
48.500000
 11
196.500000
 21
51.500000
  0
LINE
  8
0
  6
CONTINUOUS
 62
7
 10
117.584999
 20
29.809401
 11
117.584999
 21
25.190599
  0
LINE
  8
0
  6
CONTINUOUS
 62
7
 10
128.850006
 20
38.000000
 11
181.149994
 21
38.000000
  0
LINE
  8
0
  6
CONTINUOUS
 62
7
 10
128.850006
 20
17.000000
 11
181.149994
 21
17.000000
  0
LINE
  8
0
  6
CONTINUOUS
 62
7
 10
268.500000
 20
-26.500000
 11
258.000000
 21
-26.500000
  0
LINE
  8
0
  6
CONTINUOUS
 62
7
 10
227.500000
 20
-26.500000
 11
238.000000
 21
-26.500000
  0
LINE
  8
0
  6
CONTINUOUS
 62
7
 10
238.000000
 20
-19.000000
 11
238.000000
 21
-20.513399
  0
LINE
  8
0
  6
CONTINUOUS
 62
7
 10
238.000000
 20
-23.486601
 11
238.000000
 21
-26.500000
  0
LINE
  8
0
  6
CONTINUOUS
 62
7
 10
268.500000
 20
-39.000000
 11
227.500000
 21
-39.000000
  0
LINE
  8
0
  6
CONTINUOUS
 62
7
 10
258.000000
 20
-19.000000
 11
238.000000
 21
-19.000000
  0
LINE
  8
0
  6
CENTER
 62
2
 10
248.000000
 20
-8.499990
 11
248.000000
 21
-40.500000
  0
LINE
  8
0
  6
CONTINUOUS
 62
7
 10
240.000000
 20
-22.600000
 11
240.000000
 21
-21.400000
  0
LINE
  8
0
  6
CONTINUOUS
 62
7
 10
240.000000
 20
-21.400000
 11
239.093002
 21
-21.240101
  0
LINE
  8
0
  6
CONTINUOUS
 62
7
 10
240.000000
 20
-22.600000
 11
239.093002
 21
-22.759899
  0
LINE
  8
0
  6
CONTINUOUS
 62
7
 10
256.000000
 20
-22.600000
 11
256.000000
 21
-21.400000
  0
LINE
  8
0
  6
CONTINUOUS
 62
7
 10
256.000000
 20
-21.400000
 11
256.907013
 21
-21.240101
  0
LINE
  8
0
  6
CONTINUOUS
 62
7
 10
256.000000
 20
-22.600000
 11
256.907013
 21
-22.759899
  0
LINE
  8
0
  6
CONTINUOUS
 62
7
 10
268.000000
 20
-25.000000
 11
258.000000
 21
-25.000000
  0
LINE
  8
0
  6
CONTINUOUS
 62
7
 10
238.000000
 20
-25.000000
 11
228.000000
 21
-25.000000
  0
LINE
  8
0
  6
CONTINUOUS
 62
7
 10
257.899994
 20
-10.600000
 11
238.100006
 21
-10.600000
  0
LINE
  8
0
  6
CONTINUOUS
 62
7
 10
228.000000
 20
-25.000000
 11
228.000000
 21
-9.999990
  0
LINE
  8
0
  6
CONTINUOUS
 62
7
 10
237.500000
 20
-9.999990
 11
228.000000
 21
-9.999990
  0
LINE
  8
0
  6
CONTINUOUS
 62
7
 10
237.500000
 20
-10.000000
 11
238.100006
 21
-10.600100
  0
LINE
  8
0
  6
CONTINUOUS
 62
7
 10
268.000000
 20
-25.000000
 11
268.000000
 21
-9.999990
  0
LINE
  8
0
  6
CENTER
 62
2
 10
259.040009
 20
-29.000000
 11
236.960007
 21
-29.000000
  0
LINE
  8
0
  6
CONTINUOUS
 62
7
 10
272.000000
 20
-36.541500
 11
272.000000
 21
-28.458500
  0
LINE
  8
0
  6
CONTINUOUS
 62
7
 10
272.000000
 20
-36.541500
 11
268.500000
 21
-36.541500
  0
LINE
  8
0
  6
CONTINUOUS
 62
7
 10
272.000000
 20
-34.562901
 11
269.000000
 21
-34.562901
  0
LINE
  8
0
  6
CENTER
 62
2
 10
273.488007
 20
-32.500000
 11
267.540009
 21
-32.500000
  0
LINE
  8
0
  6
CONTINUOUS
 62
7
 10
272.000000
 20
-30.437201
 11
269.000000
 21
-30.437201
  0
LINE
  8
0
  6
CONTINUOUS
 62
7
 10
272.000000
 20
-28.458500
 11
268.500000
 21
-28.458500
  0
LINE
  8
0
  6
CONTINUOUS
 62
7
 10
269.000000
 20
-36.541500
 11
269.000000
 21
-28.458500
  0
LINE
  8
0
  6
CONTINUOUS
 62
7
 10
245.690994
 20
-14.200000
 11
246.845001
 21
-12.200000
  0
LINE
  8
0
  6
CONTINUOUS
 62
7
 10
249.154999
 20
-16.199900
 11
250.309006
 21
-14.199900
  0
LINE
  8
0
  6
CONTINUOUS
 62
7
 10
249.154999
 20
-16.200001
 11
246.845001
 21
-16.200001
  0
LINE
  8
0
  6
CONTINUOUS
 62
7
 10
249.154999
 20
-12.200000
 11
246.845001
 21
-12.200000
  0
LINE
  8
0
  6
CONTINUOUS
 62
7
 10
246.845001
 20
-16.200001
 11
245.690994
 21
-14.200000
  0
LINE
  8
0
  6
CONTINUOUS
 62
7
 10
250.309006
 20
-14.200000
 11
249.154999
 21
-12.200000
  0
LINE
  8
0
  6
CENTER
 62
2
 10
251.809006
 20
-14.200000
 11
244.190994
 21
-14.200000
  0
LINE
  8
0
  6
CONTINUOUS
 62
7
 10
258.500000
 20
-9.999960
 11
257.899994
 21
-10.600000
  0
LINE
  8
0
  6
CONTINUOUS
 62
7
 10
258.500000
 20
-9.999990
 11
268.000000
 21
-9.999990
  0
LINE
  8
0
  6
CONTINUOUS
 62
7
 10
258.000000
 20
-19.000000
 11
258.000000
 21
-20.513399
  0
LINE
  8
0
  6
CONTINUOUS
 62
7
 10
258.000000
 20
-23.486601
 11
258.000000
 21
-26.500000
  0
LINE
  8
0
  6
CONTINUOUS
 62
7
 10
268.500000
 20
-26.500000
 11
268.500000
 21
-39.000000
  0
LINE
  8
0
  6
CONTINUOUS
 62
7
 10
227.500000
 20
-26.500000
 11
227.500000
 21
-39.000000
  0
LINE
  8
0
  6
CONTINUOUS
 62
7
 10
-13.500000
 20
-26.500000
 11
-24.000000
 21
-26.500000
  0
LINE
  8
0
  6
CONTINUOUS
 62
7
 10
-54.500000
 20
-26.500000
 11
-44.000000
 21
-26.500000
  0
LINE
  8
0
  6
CONTINUOUS
 62
7
 10
-44.000000
 20
-19.000000
 11
-44.000000
 21
-20.513399
  0
LINE
  8
0
  6
CONTINUOUS
 62
7
 10
-44.000000
 20
-23.486601
 11
-44.000000
 21
-26.500000
  0
LINE
  8
0
  6
CONTINUOUS
 62
7
 10
-13.500000
 20
-39.000000
 11
-54.500000
 21
-39.000000
  0
LINE
  8
0
  6
CONTINUOUS
 62
7
 10
-24.000000
 20
-19.000000
 11
-44.000000
 21
-19.000000
  0
LINE
  8
0
  6
CENTER
 62
2
 10
-34.000000
 20
-8.499990
 11
-34.000000
 21
-40.500000
  0
LINE
  8
0
  6
CONTINUOUS
 62
7
 10
-42.000000
 20
-22.600000
 11
-42.000000
 21
-21.400000
  0
LINE
  8
0
  6
CONTINUOUS
 62
7
 10
-42.000000
 20
-21.400000
 11
-42.906700
 21
-21.240101
  0
LINE
  8
0
  6
CONTINUOUS
 62
7
 10
-42.000000
 20
-22.600000
 11
-42.906700
 21
-22.759800
  0
LINE
  8
0
  6
CONTINUOUS
 62
7
 10
-26.000000
 20
-22.600000
 11
-26.000000
 21
-21.400000
  0
LINE
  8
0
  6
CONTINUOUS
 62
7
 10
-26.000000
 20
-21.400000
 11
-25.093300
 21
-21.240101
  0
LINE
  8
0
  6
CONTINUOUS
 62
7
 10
-26.000000
 20
-22.600000
 11
-25.093300
 21
-22.759899
  0
LINE
  8
0
  6
CONTINUOUS
 62
7
 10
-14.000000
 20
-25.000000
 11
-24.000000
 21
-25.000000
  0
LINE
  8
0
  6
CONTINUOUS
 62
7
 10
-44.000000
 20
-25.000000
 11
-54.000000
 21
-25.000000
  0
LINE
  8
0
  6
CONTINUOUS
 62
7
 10
-24.100000
 20
-10.600000
 11
-43.900002
 21
-10.600000
  0
LINE
  8
0
  6
CONTINUOUS
 62
7
 10
-54.000000
 20
-25.000000
 11
-54.000000
 21
-9.999990
  0
LINE
  8
0
  6
CONTINUOUS
 62
7
 10
-44.500000
 20
-9.999990
 11
-54.000000
 21
-9.999990
  0
LINE
  8
0
  6
CONTINUOUS
 62
7
 10
-44.500000
 20
-10.000000
 11
-43.900002
 21
-10.600000
  0
LINE
  8
0
  6
CONTINUOUS
 62
7
 10
-14.000000
 20
-25.000000
 11
-14.000000
 21
-9.999990
  0
LINE
  8
0
  6
CENTER
 62
2
 10
-22.959999
 20
-29.000000
 11
-45.040001
 21
-29.000000
  0
LINE
  8
0
  6
CONTINUOUS
 62
7
 10
-10.000000
 20
-36.541500
 11
-10.000000
 21
-28.458599
  0
LINE
  8
0
  6
CONTINUOUS
 62
7
 10
-10.000000
 20
-36.541500
 11
-13.500000
 21
-36.541500
  0
LINE
  8
0
  6
CONTINUOUS
 62
7
 10
-10.000000
 20
-34.562901
 11
-13.000000
 21
-34.562901
  0
LINE
  8
0
  6
CENTER
 62
2
 10
-8.511730
 20
-32.500000
 11
-14.460000
 21
-32.500000
  0
LINE
  8
0
  6
CONTINUOUS
 62
7
 10
-10.000000
 20
-30.437201
 11
-13.000000
 21
-30.437201
  0
LINE
  8
0
  6
CONTINUOUS
 62
7
 10
-10.000000
 20
-28.458599
 11
-13.500000
 21
-28.458599
  0
LINE
  8
0
  6
CONTINUOUS
 62
7
 10
-13.000000
 20
-36.541500
 11
-13.000000
 21
-28.458599
  0
LINE
  8
0
  6
CONTINUOUS
 62
7
 10
-36.309399
 20
-14.200000
 11
-35.154701
 21
-12.200000
  0
LINE
  8
0
  6
CONTINUOUS
 62
7
 10
-32.845299
 20
-16.200001
 11
-31.690599
 21
-14.200000
  0
LINE
  8
0
  6
CONTINUOUS
 62
7
 10
-32.845299
 20
-16.200001
 11
-35.154701
 21
-16.200001
  0
LINE
  8
0
  6
CONTINUOUS
 62
7
 10
-32.845299
 20
-12.200000
 11
-35.154701
 21
-12.200000
  0
LINE
  8
0
  6
CONTINUOUS
 62
7
 10
-35.154701
 20
-16.200001
 11
-36.309399
 21
-14.200000
  0
LINE
  8
0
  6
CONTINUOUS
 62
7
 10
-31.690599
 20
-14.200000
 11
-32.845299
 21
-12.200000
  0
LINE
  8
0
  6
CENTER
 62
2
 10
-30.190599
 20
-14.200000
 11
-37.809399
 21
-14.200000
  0
LINE
  8
0
  6
CONTINUOUS
 62
7
 10
-23.500000
 20
-9.999990
 11
-24.100000
 21
-10.600000
  0
LINE
  8
0
  6
CONTINUOUS
 62
7
 10
-23.500000
 20
-9.999990
 11
-14.000000
 21
-9.999990
  0
LINE
  8
0
  6
CONTINUOUS
 62
7
 10
-24.000000
 20
-19.000000
 11
-24.000000
 21
-20.513399
  0
LINE
  8
0
  6
CONTINUOUS
 62
7
 10
-24.000000
 20
-23.486601
 11
-24.000000
 21
-26.500000
  0
LINE
  8
0
  6
CONTINUOUS
 62
7
 10
-13.500000
 20
-26.500000
 11
-13.500000
 21
-39.000000
  0
LINE
  8
0
  6
CONTINUOUS
 62
7
 10
-54.500000
 20
-26.500000
 11
-54.500000
 21
-39.000000
  0
LINE
  8
0
  6
CENTER
 62
2
 10
-181.500000
 20
-28.000000
 11
-181.500000
 21
-37.000000
  0
LINE
  8
0
  6
CENTER
 62
2
 10
-186.000000
 20
-32.500000
 11
-177.000000
 21
-32.500000
  0
LINE
  8
0
  6
CENTER
 62
2
 10
-98.500000
 20
-28.000000
 11
-98.500000
 21
-37.000000
  0
LINE
  8
0
  6
CENTER
 62
2
 10
-103.000000
 20
-32.500000
 11
-94.000000
 21
-32.500000
  0
LINE
  8
0
  6
CENTER
 62
2
 10
83.500000
 20
-28.000000
 11
83.500000
 21
-37.000000
  0
LINE
  8
0
  6
CENTER
 62
2
 10
79.000000
 20
-32.500000
 11
88.000000
 21
-32.500000
  0
LINE
  8
0
  6
CENTER
 62
2
 10
196.500000
 20
-28.000000
 11
196.500000
 21
-37.000000
  0
LINE
  8
0
  6
CENTER
 62
2
 10
192.000000
 20
-32.500000
 11
201.000000
 21
-32.500000
  0
LINE
  8
0
  6
CENTER
 62
2
 10
-261.000000
 20
-37.000000
 11
-261.000000
 21
-41.000000
  0
LINE
  8
0
  6
CENTER
 62
2
 10
-261.000000
 20
-7.999990
 11
-261.000000
 21
-12.000000
  0
LINE
  8
0
  6
CENTER
 62
2
 10
-231.000000
 20
-7.999990
 11
-231.000000
 21
-12.000000
  0
LINE
  8
0
  6
CENTER
 62
2
 10
-231.000000
 20
-37.000000
 11
-231.000000
 21
-41.000000
  0
LINE
  8
0
  6
CENTER
 62
2
 10
-49.000000
 20
-37.000000
 11
-49.000000
 21
-41.000000
  0
LINE
  8
0
  6
CENTER
 62
2
 10
-49.000000
 20
-7.999990
 11
-49.000000
 21
-12.000000
  0
LINE
  8
0
  6
CENTER
 62
2
 10
-19.000000
 20
-7.999990
 11
-19.000000
 21
-12.000000
  0
LINE
  8
0
  6
CENTER
 62
2
 10
-19.000000
 20
-37.000000
 11
-19.000000
 21
-41.000000
  0
LINE
  8
0
  6
CENTER
 62
2
 10
233.000000
 20
-37.000000
 11
233.000000
 21
-41.000000
  0
LINE
  8
0
  6
CENTER
 62
2
 10
233.000000
 20
-7.999990
 11
233.000000
 21
-12.000000
  0
LINE
  8
0
  6
CENTER
 62
2
 10
263.000000
 20
-7.999990
 11
263.000000
 21
-12.000000
  0
LINE
  8
0
  6
CENTER
 62
2
 10
263.000000
 20
-37.000000
 11
263.000000
 21
-41.000000
  0
LINE
  8
0
  6
CENTER
 62
2
 10
17.000000
 20
-37.000000
 11
17.000000
 21
-41.000000
  0
LINE
  8
0
  6
CENTER
 62
2
 10
17.000000
 20
-7.999990
 11
17.000000
 21
-12.000000
  0
LINE
  8
0
  6
CENTER
 62
2
 10
47.000000
 20
-7.999990
 11
47.000000
 21
-12.000000
  0
LINE
  8
0
  6
CENTER
 62
2
 10
47.000000
 20
-37.000000
 11
47.000000
 21
-41.000000
  0
LINE
  8
0
  6
CENTER
 62
2
 10
-142.500000
 20
67.000000
 11
-142.500000
 21
63.000000
  0
LINE
  8
0
  6
CENTER
 62
2
 10
-117.500000
 20
67.000000
 11
-117.500000
 21
63.000000
  0
LINE
  8
0
  6
CENTER
 62
2
 10
-142.500000
 20
-7.999990
 11
-142.500000
 21
-12.000000
  0
LINE
  8
0
  6
CENTER
 62
2
 10
-117.500000
 20
-7.999990
 11
-117.500000
 21
-12.000000
  0
LINE
  8
0
  6
CENTER
 62
2
 10
135.000000
 20
67.000000
 11
135.000000
 21
63.000000
  0
LINE
  8
0
  6
CENTER
 62
2
 10
155.000000
 20
67.000000
 11
155.000000
 21
63.000000
  0
LINE
  8
0
  6
CENTER
 62
2
 10
175.000000
 20
67.000000
 11
175.000000
 21
63.000000
  0
LINE
  8
0
  6
CENTER
 62
2
 10
135.000000
 20
-7.999990
 11
135.000000
 21
-12.000000
  0
LINE
  8
0
  6
CENTER
 62
2
 10
155.000000
 20
-7.999990
 11
155.000000
 21
-12.000000
  0
LINE
  8
0
  6
CENTER
 62
2
 10
175.000000
 20
-7.999990
 11
175.000000
 21
-12.000000
  0
LINE
  8
0
  6
CONTINUOUS
 62
7
 10
0.424988
 20
195.500000
 11
0.424988
 21
-195.000000
  0
CIRCLE
  8
0
  6
CONTINUOUS
 62
7
 10
-172.500000
 20
-91.500000
 40
2.500000
  0
CIRCLE
  8
0
  6
CONTINUOUS
 62
2
 10
-172.500000
 20
-91.500000
 40
3.000000
  0
CIRCLE
  8
0
  6
CONTINUOUS
 62
2
 10
-107.500000
 20
-91.500000
 40
3.000000
  0
CIRCLE
  8
0
  6
CONTINUOUS
 62
7
 10
-107.500000
 20
-91.500000
 40
2.500000
  0
CIRCLE
  8
0
  6
CONTINUOUS
 62
7
 10
-107.500000
 20
-61.500000
 40
2.500000
  0
CIRCLE
  8
0
  6
CONTINUOUS
 62
2
 10
-107.500000
 20
-61.500000
 40
3.000000
  0
CIRCLE
  8
0
  6
CONTINUOUS
 62
7
 10
-172.500000
 20
-61.500000
 40
2.500000
  0
CIRCLE
  8
0
  6
CONTINUOUS
 62
2
 10
-172.500000
 20
-61.500000
 40
3.000000
  0
CIRCLE
  8
0
  6
CONTINUOUS
 62
7
 10
-180.500000
 20
-84.000000
 40
5.900000
  0
CIRCLE
  8
0
  6
CONTINUOUS
 62
7
 10
-99.500000
 20
-69.000000
 40
5.900000
  0
CIRCLE
  8
0
  6
CONTINUOUS
 62
2
 10
-123.000000
 20
-29.000000
 40
1.500000
  0
CIRCLE
  8
0
  6
CONTINUOUS
 62
7
 10
-123.000000
 20
-29.000000
 40
1.250000
  0
CIRCLE
  8
0
  6
CONTINUOUS
 62
7
 10
-157.000000
 20
-29.000000
 40
1.250000
  0
CIRCLE
  8
0
  6
CONTINUOUS
 62
2
 10
-157.000000
 20
-29.000000
 40
1.500000
  0
CIRCLE
  8
0
  6
CONTINUOUS
 62
7
 10
-125.000000
 20
-17.000000
 40
0.800000
  0
CIRCLE
  8
0
  6
CONTINUOUS
 62
2
 10
-125.000000
 20
-17.000000
 40
1.000000
  0
CIRCLE
  8
0
  6
CONTINUOUS
 62
2
 10
-135.000000
 20
-17.000000
 40
1.000000
  0
CIRCLE
  8
0
  6
CONTINUOUS
 62
7
 10
-135.000000
 20
-17.000000
 40
0.800000
  0
ARC
  8
0
  6
CONTINUOUS
 62
7
 10
42.200001
 20
-22.000000
 40
1.500010
 50
210.436005
 51
262.335999
  0
ARC
  8
0
  6
CONTINUOUS
 62
7
 10
42.200001
 20
-22.000000
 40
1.499990
 50
97.661598
 51
149.561996
  0
ARC
  8
0
  6
CONTINUOUS
 62
7
 10
21.799999
 20
-22.000000
 40
1.500010
 50
277.661011
 51
329.562012
  0
ARC
  8
0
  6
CONTINUOUS
 62
7
 10
21.799999
 20
-22.000000
 40
1.500000
 50
30.436399
 51
82.337303
  0
CIRCLE
  8
0
  6
CONTINUOUS
 62
7
 10
32.000000
 20
-29.000000
 40
8.500000
  0
CIRCLE
  8
0
  6
CONTINUOUS
 62
7
 10
32.000000
 20
-14.200000
 40
0.400000
  0
ARC
  8
0
  6
CONTINUOUS
 62
7
 10
-156.500000
 20
-14.200000
 40
3.000000
 50
138.190002
 51
221.809998
  0
CIRCLE
  8
0
  6
CONTINUOUS
 62
2
 10
-117.500000
 20
42.500000
 40
2.000000
  0
CIRCLE
  8
0
  6
CONTINUOUS
 62
7
 10
-117.500000
 20
42.500000
 40
1.650000
  0
CIRCLE
  8
0
  6
CONTINUOUS
 62
2
 10
-142.500000
 20
42.500000
 40
2.000000
  0
CIRCLE
  8
0
  6
CONTINUOUS
 62
7
 10
-142.500000
 20
42.500000
 40
1.650000
  0
CIRCLE
  8
0
  6
CONTINUOUS
 62
2
 10
-117.500000
 20
12.500000
 40
2.000000
  0
CIRCLE
  8
0
  6
CONTINUOUS
 62
7
 10
-117.500000
 20
12.500000
 40
1.650000
  0
CIRCLE
  8
0
  6
CONTINUOUS
 62
2
 10
-142.500000
 20
12.500000
 40
2.000000
  0
CIRCLE
  8
0
  6
CONTINUOUS
 62
7
 10
-142.500000
 20
12.500000
 40
1.650000
  0
CIRCLE
  8
0
  6
CONTINUOUS
 62
7
 10
-172.500000
 20
12.500000
 40
4.750000
  0
CIRCLE
  8
0
  6
CONTINUOUS
 62
2
 10
-172.500000
 20
12.500000
 40
3.000000
  0
ARC
  8
0
  6
CONTINUOUS
 62
2
 10
-107.500000
 20
12.500000
 40
3.000000
 50
326.441986
 51
33.557598
  0
ARC
  8
0
  6
CONTINUOUS
 62
7
 10
-107.500000
 20
12.500000
 40
4.750000
 50
301.756989
 51
58.243198
  0
CIRCLE
  8
0
  6
CONTINUOUS
 62
2
 10
-172.500000
 20
42.500000
 40
3.000000
  0
CIRCLE
  8
0
  6
CONTINUOUS
 62
7
 10
-172.500000
 20
42.500000
 40
4.750000
  0
CIRCLE
  8
0
  6
CONTINUOUS
 62
7
 10
-155.000000
 20
89.000000
 40
1.650000
  0
CIRCLE
  8
0
  6
CONTINUOUS
 62
2
 10
-155.000000
 20
89.000000
 40
2.000000
  0
CIRCLE
  8
0
  6
CONTINUOUS
 62
2
 10
-125.000000
 20
72.000000
 40
2.000000
  0
CIRCLE
  8
0
  6
CONTINUOUS
 62
7
 10
-125.000000
 20
72.000000
 40
1.650000
  0
CIRCLE
  8
0
  6
CONTINUOUS
 62
2
 10
-135.000000
 20
72.000000
 40
2.000000
  0
CIRCLE
  8
0
  6
CONTINUOUS
 62
7
 10
-135.000000
 20
72.000000
 40
1.650000
  0
CIRCLE
  8
0
  6
CONTINUOUS
 62
7
 10
-165.000000
 20
89.000000
 40
1.650000
  0
CIRCLE
  8
0
  6
CONTINUOUS
 62
2
 10
-165.000000
 20
89.000000
 40
2.000000
  0
CIRCLE
  8
0
  6
CONTINUOUS
 62
2
 10
-125.000000
 20
89.000000
 40
2.000000
  0
CIRCLE
  8
0
  6
CONTINUOUS
 62
7
 10
-125.000000
 20
89.000000
 40
1.650000
  0
CIRCLE
  8
0
  6
CONTINUOUS
 62
7
 10
-98.500000
 20
87.500000
 40
4.000000
  0
CIRCLE
  8
0
  6
CONTINUOUS
 62
7
 10
-181.500000
 20
87.500000
 40
4.000000
  0
ARC
  8
0
  6
DASHED
 62
2
 10
-107.500000
 20
12.500000
 40
4.750000
 50
58.243198
 51
301.756989
  0
ARC
  8
0
  6
DASHED
 62
2
 10
-107.500000
 20
12.500000
 40
3.000000
 50
33.557598
 51
326.441986
  0
ARC
  8
0
  6
DASHED
 62
2
 10
-107.500000
 20
42.500000
 40
4.750000
 50
58.243301
 51
301.756989
  0
ARC
  8
0
  6
DASHED
 62
2
 10
-107.500000
 20
42.500000
 40
3.000000
 50
33.557598
 51
326.441986
  0
ARC
  8
0
  6
CONTINUOUS
 62
7
 10
-107.500000
 20
42.500000
 40
4.750000
 50
301.756989
 51
58.243301
  0
ARC
  8
0
  6
CONTINUOUS
 62
2
 10
-107.500000
 20
42.500000
 40
3.000000
 50
326.441986
 51
33.557598
  0
ARC
  8
0
  6
CONTINUOUS
 62
7
 10
-156.500000
 20
69.199997
 40
3.000000
 50
138.190002
 51
221.809998
  0
ARC
  8
0
  6
CONTINUOUS
 62
7
 10
-156.500000
 20
27.500000
 40
3.000000
 50
129.664001
 51
230.335999
  0
CIRCLE
  8
0
  6
CONTINUOUS
 62
2
 10
-115.000000
 20
89.000000
 40
2.000000
  0
CIRCLE
  8
0
  6
CONTINUOUS
 62
7
 10
-115.000000
 20
89.000000
 40
1.650000
  0
ARC
  8
0
  6
CONTINUOUS
 62
7
 10
-235.800003
 20
-22.000000
 40
1.500010
 50
210.436005
 51
262.335999
  0
ARC
  8
0
  6
CONTINUOUS
 62
7
 10
-235.800003
 20
-22.000000
 40
1.499990
 50
97.661598
 51
149.561996
  0
ARC
  8
0
  6
CONTINUOUS
 62
7
 10
-256.200012
 20
-22.000000
 40
1.500000
 50
277.660004
 51
329.561005
  0
ARC
  8
0
  6
CONTINUOUS
 62
7
 10
-256.200012
 20
-22.000000
 40
1.500000
 50
30.436399
 51
82.337303
  0
CIRCLE
  8
0
  6
CONTINUOUS
 62
7
 10
-246.000000
 20
-29.000000
 40
8.500000
  0
CIRCLE
  8
0
  6
CONTINUOUS
 62
7
 10
-246.000000
 20
-14.200000
 40
0.400000
  0
CIRCLE
  8
0
  6
CONTINUOUS
 62
7
 10
92.500000
 20
-91.500000
 40
2.500000
  0
CIRCLE
  8
0
  6
CONTINUOUS
 62
2
 10
92.500000
 20
-91.500000
 40
3.000000
  0
CIRCLE
  8
0
  6
CONTINUOUS
 62
2
 10
187.500000
 20
-91.500000
 40
3.000000
  0
CIRCLE
  8
0
  6
CONTINUOUS
 62
7
 10
187.500000
 20
-91.500000
 40
2.500000
  0
CIRCLE
  8
0
  6
CONTINUOUS
 62
7
 10
187.500000
 20
-61.500000
 40
2.500000
  0
CIRCLE
  8
0
  6
CONTINUOUS
 62
2
 10
187.500000
 20
-61.500000
 40
3.000000
  0
CIRCLE
  8
0
  6
CONTINUOUS
 62
7
 10
92.500000
 20
-61.500000
 40
2.500000
  0
CIRCLE
  8
0
  6
CONTINUOUS
 62
2
 10
92.500000
 20
-61.500000
 40
3.000000
  0
CIRCLE
  8
0
  6
CONTINUOUS
 62
7
 10
84.500000
 20
-84.000000
 40
5.900000
  0
CIRCLE
  8
0
  6
CONTINUOUS
 62
7
 10
195.500000
 20
-69.000000
 40
5.900000
  0
CIRCLE
  8
0
  6
CONTINUOUS
 62
2
 10
175.000000
 20
42.500000
 40
2.000000
  0
CIRCLE
  8
0
  6
CONTINUOUS
 62
7
 10
175.000000
 20
42.500000
 40
1.650000
  0
CIRCLE
  8
0
  6
CONTINUOUS
 62
2
 10
175.000000
 20
12.500000
 40
2.000000
  0
CIRCLE
  8
0
  6
CONTINUOUS
 62
7
 10
175.000000
 20
12.500000
 40
1.650000
  0
CIRCLE
  8
0
  6
CONTINUOUS
 62
7
 10
92.500000
 20
12.500000
 40
4.750000
  0
CIRCLE
  8
0
  6
CONTINUOUS
 62
2
 10
92.500000
 20
12.500000
 40
3.000000
  0
ARC
  8
0
  6
DASHED
 62
2
 10
187.500000
 20
12.500000
 40
3.000000
 50
60.000000
 51
300.000000
  0
ARC
  8
0
  6
DASHED
 62
2
 10
187.500000
 20
12.500000
 40
4.750000
 50
71.591698
 51
284.437012
  0
CIRCLE
  8
0
  6
CONTINUOUS
 62
2
 10
92.500000
 20
42.500000
 40
3.000000
  0
CIRCLE
  8
0
  6
CONTINUOUS
 62
7
 10
92.500000
 20
42.500000
 40
4.750000
  0
CIRCLE
  8
0
  6
CONTINUOUS
 62
2
 10
162.500000
 20
-29.000000
 40
1.500000
  0
CIRCLE
  8
0
  6
CONTINUOUS
 62
7
 10
162.500000
 20
-29.000000
 40
1.250000
  0
CIRCLE
  8
0
  6
CONTINUOUS
 62
7
 10
117.500000
 20
-29.000000
 40
1.250000
  0
CIRCLE
  8
0
  6
CONTINUOUS
 62
2
 10
117.500000
 20
-29.000000
 40
1.500000
  0
CIRCLE
  8
0
  6
CONTINUOUS
 62
7
 10
160.000000
 20
-17.000000
 40
0.800000
  0
CIRCLE
  8
0
  6
CONTINUOUS
 62
2
 10
160.000000
 20
-17.000000
 40
1.000000
  0
CIRCLE
  8
0
  6
CONTINUOUS
 62
2
 10
150.000000
 20
-17.000000
 40
1.000000
  0
CIRCLE
  8
0
  6
CONTINUOUS
 62
7
 10
150.000000
 20
-17.000000
 40
0.800000
  0
CIRCLE
  8
0
  6
CONTINUOUS
 62
2
 10
160.000000
 20
72.000000
 40
2.000000
  0
CIRCLE
  8
0
  6
CONTINUOUS
 62
7
 10
160.000000
 20
72.000000
 40
1.650000
  0
CIRCLE
  8
0
  6
CONTINUOUS
 62
2
 10
150.000000
 20
72.000000
 40
2.000000
  0
CIRCLE
  8
0
  6
CONTINUOUS
 62
7
 10
150.000000
 20
72.000000
 40
1.650000
  0
CIRCLE
  8
0
  6
CONTINUOUS
 62
2
 10
135.000000
 20
12.500000
 40
2.000000
  0
CIRCLE
  8
0
  6
CONTINUOUS
 62
7
 10
135.000000
 20
12.500000
 40
1.650000
  0
CIRCLE
  8
0
  6
CONTINUOUS
 62
2
 10
135.000000
 20
42.500000
 40
2.000000
  0
CIRCLE
  8
0
  6
CONTINUOUS
 62
7
 10
135.000000
 20
42.500000
 40
1.650000
  0
CIRCLE
  8
0
  6
CONTINUOUS
 62
2
 10
155.000000
 20
12.500000
 40
2.000000
  0
CIRCLE
  8
0
  6
CONTINUOUS
 62
7
 10
155.000000
 20
12.500000
 40
1.650000
  0
CIRCLE
  8
0
  6
CONTINUOUS
 62
2
 10
155.000000
 20
42.500000
 40
2.000000
  0
CIRCLE
  8
0
  6
CONTINUOUS
 62
7
 10
155.000000
 20
42.500000
 40
1.650000
  0
CIRCLE
  8
0
  6
CONTINUOUS
 62
7
 10
120.000000
 20
89.000000
 40
1.650000
  0
CIRCLE
  8
0
  6
CONTINUOUS
 62
2
 10
120.000000
 20
89.000000
 40
2.000000
  0
CIRCLE
  8
0
  6
CONTINUOUS
 62
2
 10
160.000000
 20
89.000000
 40
2.000000
  0
CIRCLE
  8
0
  6
CONTINUOUS
 62
7
 10
160.000000
 20
89.000000
 40
1.650000
  0
CIRCLE
  8
0
  6
CONTINUOUS
 62
7
 10
83.500000
 20
87.500000
 40
4.000000
  0
ARC
  8
0
  6
CONTINUOUS
 62
2
 10
187.500000
 20
12.500000
 40
3.000000
 50
300.000000
 51
60.000000
  0
ARC
  8
0
  6
CONTINUOUS
 62
7
 10
187.500000
 20
12.500000
 40
4.750000
 50
288.407990
 51
71.591698
  0
ARC
  8
0
  6
CONTINUOUS
 62
7
 10
187.500000
 20
42.500000
 40
4.750000
 50
288.407990
 51
71.591698
  0
ARC
  8
0
  6
CONTINUOUS
 62
2
 10
187.500000
 20
42.500000
 40
3.000000
 50
300.000000
 51
60.000000
  0
ARC
  8
0
  6
DASHED
 62
2
 10
187.500000
 20
42.500000
 40
3.000000
 50
60.000000
 51
300.000000
  0
ARC
  8
0
  6
DASHED
 62
2
 10
187.500000
 20
42.500000
 40
4.750000
 50
75.563004
 51
288.407990
  0
CIRCLE
  8
0
  6
CONTINUOUS
 62
7
 10
196.500000
 20
87.500000
 40
4.000000
  0
ARC
  8
0
  6
CONTINUOUS
 62
7
 10
119.500000
 20
-14.200000
 40
3.000000
 50
138.190002
 51
221.809998
  0
ARC
  8
0
  6
CONTINUOUS
 62
7
 10
119.500000
 20
69.199997
 40
3.000000
 50
138.190002
 51
221.809998
  0
ARC
  8
0
  6
CONTINUOUS
 62
7
 10
119.500000
 20
27.500000
 40
3.000000
 50
129.664001
 51
230.335999
  0
CIRCLE
  8
0
  6
CONTINUOUS
 62
7
 10
110.000000
 20
89.000000
 40
1.650000
  0
CIRCLE
  8
0
  6
CONTINUOUS
 62
2
 10
110.000000
 20
89.000000
 40
2.000000
  0
CIRCLE
  8
0
  6
CONTINUOUS
 62
2
 10
170.000000
 20
89.000000
 40
2.000000
  0
CIRCLE
  8
0
  6
CONTINUOUS
 62
7
 10
170.000000
 20
89.000000
 40
1.650000
  0
CIRCLE
  8
0
  6
CONTINUOUS
 62
7
 10
248.000000
 20
-14.200000
 40
0.400000
  0
ARC
  8
0
  6
CONTINUOUS
 62
7
 10
237.800003
 20
-22.000000
 40
1.500010
 50
277.664001
 51
329.563995
  0
ARC
  8
0
  6
CONTINUOUS
 62
7
 10
237.800003
 20
-22.000000
 40
1.499990
 50
30.437799
 51
82.338402
  0
ARC
  8
0
  6
CONTINUOUS
 62
7
 10
258.200012
 20
-22.000000
 40
1.500010
 50
210.438004
 51
262.339996
  0
ARC
  8
0
  6
CONTINUOUS
 62
7
 10
258.200012
 20
-22.000000
 40
1.500000
 50
97.662697
 51
149.563004
  0
CIRCLE
  8
0
  6
CONTINUOUS
 62
7
 10
248.000000
 20
-29.000000
 40
8.500000
  0
CIRCLE
  8
0
  6
CONTINUOUS
 62
7
 10
-34.000000
 20
-14.200000
 40
0.400000
  0
ARC
  8
0
  6
CONTINUOUS
 62
7
 10
-44.200001
 20
-22.000000
 40
1.500010
 50
277.664001
 51
329.563995
  0
ARC
  8
0
  6
CONTINUOUS
 62
7
 10
-44.200001
 20
-22.000000
 40
1.499990
 50
30.437599
 51
82.338402
  0
ARC
  8
0
  6
CONTINUOUS
 62
7
 10
-23.799999
 20
-22.000000
 40
1.500010
 50
210.438004
 51
262.338989
  0
ARC
  8
0
  6
CONTINUOUS
 62
7
 10
-23.799999
 20
-22.000000
 40
1.500000
 50
97.662697
 51
149.563995
  0
CIRCLE
  8
0
  6
CONTINUOUS
 62
7
 10
-34.000000
 20
-29.000000
 40
8.500000
  0
CIRCLE
  8
0
  6
CONTINUOUS
 62
2
 10
-181.500000
 20
-32.500000
 40
2.500000
  0
CIRCLE
  8
0
  6
CONTINUOUS
 62
7
 10
-181.500000
 20
-32.500000
 40
2.100000
  0
CIRCLE
  8
0
  6
CONTINUOUS
 62
2
 10
-98.500000
 20
-32.500000
 40
2.500000
  0
CIRCLE
  8
0
  6
CONTINUOUS
 62
7
 10
-98.500000
 20
-32.500000
 40
2.100000
  0
CIRCLE
  8
0
  6
CONTINUOUS
 62
2
 10
83.500000
 20
-32.500000
 40
2.500000
  0
CIRCLE
  8
0
  6
CONTINUOUS
 62
7
 10
83.500000
 20
-32.500000
 40
2.100000
  0
CIRCLE
  8
0
  6
CONTINUOUS
 62
2
 10
196.500000
 20
-32.500000
 40
2.500000
  0
CIRCLE
  8
0
  6
CONTINUOUS
 62
7
 10
196.500000
 20
-32.500000
 40
2.100000
  0
CIRCLE
  8
0
  6
CONTINUOUS
 62
7
 10
92.500000
 20
12.500000
 40
2.650000
  0
CIRCLE
  8
0
  6
CONTINUOUS
 62
7
 10
92.500000
 20
42.500000
 40
2.650000
  0
ARC
  8
0
  6
CONTINUOUS
 62
7
 10
187.500000
 20
42.500000
 40
2.650000
 50
304.473999
 51
55.525700
  0
ARC
  8
0
  6
DASHED
 62
2
 10
187.500000
 20
42.500000
 40
2.650000
 50
55.525700
 51
304.473999
  0
ARC
  8
0
  6
CONTINUOUS
 62
7
 10
187.500000
 20
12.500000
 40
2.650000
 50
304.473999
 51
55.525600
  0
ARC
  8
0
  6
DASHED
 62
2
 10
187.500000
 20
12.500000
 40
2.650000
 50
55.525600
 51
304.473999
  0
CIRCLE
  8
0
  6
CONTINUOUS
 62
7
 10
-172.500000
 20
12.500000
 40
2.650000
  0
CIRCLE
  8
0
  6
CONTINUOUS
 62
7
 10
-172.500000
 20
42.500000
 40
2.650000
  0
CIRCLE
  8
0
  6
DASHED
 62
2
 10
-107.500000
 20
42.500000
 40
2.650000
  0
CIRCLE
  8
0
  6
DASHED
 62
2
 10
-107.500000
 20
12.500000
 40
2.650000
  0
TEXT
  8
0
 62
7
 10
202.930283
 20
183.925003
 40
6.300000
  1
Ver.1.0
 50
0.000000
 41
1.010330
 51
0.000000
  7
STANDARD
  0
TEXT
  8
0
 62
7
 10
172.714691
 20
-187.250000
 40
9.000000
  1
KOGANEI CORP.
 50
0.000000
 41
0.771524
 51
0.000000
  7
STANDARD
  0
TEXT
  8
0
 62
7
 10
-243.569717
 20
183.925003
 40
6.300000
  1
AP TABLE
 50
0.000000
 41
0.775607
 51
0.000000
  7
STANDARD
  0
TEXT
  8
0
 62
7
 10
12.274609
 20
158.925003
 40
6.300000
  1
MODEL:APT-SD16-30-TP
 50
0.000000
 41
0.785144
 51
0.000000
  7
STANDARD
  0
TEXT
  8
0
 62
7
 10
-269.400391
 20
158.925003
 40
6.300000
  1
MODEL:APT-SD16-20-TP
 50
0.000000
 41
0.785144
 51
0.000000
  7
STANDARD
  0
ENDSEC
  0
EOF
