  0
SECTION
  2
HEADER
  0
ENDSEC
  0
SECTION
  2
TABLES
  0
TABLE
  2
LTYPE
 70
     4
  0
LTYPE
  2
CONTINUOUS
 70
    64
  3
Solid line
 72
    65
 73
     0
 40
0.000000
  0
LTYPE
  2
DASHED
 70
    64
  3
__ __ __ __ __ __ __ __ __ __ __ __ __ __ __
 72
    65
 73
     2
 40
3.500000
 49
2.000000
 49
-1.500000
  0
LTYPE
  2
CENTER
 70
    64
  3
____ _ ____ _ ____ _ ____ _ ____ _ ____ _ ____
 72
    65
 73
     4
 40
17.500000
 49
13.000000
 49
-1.500000
 49
1.500000
 49
-1.500000
  0
LTYPE
  2
PHANTOM
 70
    64
  3
_____ _ _ _____ _ _ _____ _ _ _____ _ _ ____  
 72
    65
 73
     6
 40
15.500000
 49
8.000000
 49
-1.500000
 49
1.500000
 49
-1.500000
 49
1.500000
 49
-1.500000
  0
ENDTAB
  0
TABLE
  2
LAYER
 70
     1
  0
LAYER
  2
0
 70
     0
 62
     7
  6
CONTINUOUS
  0
ENDTAB
  0
TABLE
  2
STYLE
 70
     1
  0
STYLE
  2
STANDARD
 70
     0
 40
0.000000
 41
1.000000
 50
0.000000
 71
     0
 42
0.200000
  3
txt
  4
BIGFONT
  0
ENDTAB
  0
TABLE
  2
VIEW
 70
     0
  0
ENDTAB
  0
ENDSEC
  0
SECTION
  2
BLOCKS
  0
ENDSEC
  0
SECTION
  2
ENTITIES
  0
LINE
  8
0
  6
CONTINUOUS
 62
7
 10
-281.250000
 20
195.500000
 11
282.100006
 21
195.500000
  0
LINE
  8
0
  6
CONTINUOUS
 62
7
 10
-281.250000
 20
195.500000
 11
-281.250000
 21
-195.000000
  0
LINE
  8
0
  6
CONTINUOUS
 62
7
 10
282.100006
 20
195.500000
 11
282.100006
 21
-195.000000
  0
LINE
  8
0
  6
CONTINUOUS
 62
7
 10
-281.250000
 20
-195.000000
 11
282.100006
 21
-195.000000
  0
LINE
  8
0
  6
CONTINUOUS
 62
7
 10
162.100006
 20
-175.000000
 11
162.100006
 21
-195.000000
  0
LINE
  8
0
  6
CONTINUOUS
 62
7
 10
162.100006
 20
-175.000000
 11
282.100006
 21
-175.000000
  0
LINE
  8
0
  6
CONTINUOUS
 62
7
 10
162.100006
 20
175.500000
 11
282.100006
 21
175.500000
  0
LINE
  8
0
  6
CONTINUOUS
 62
7
 10
-281.250000
 20
175.500000
 11
-161.250000
 21
175.500000
  0
LINE
  8
0
  6
CONTINUOUS
 62
7
 10
162.100006
 20
195.500000
 11
162.100006
 21
175.500000
  0
LINE
  8
0
  6
CONTINUOUS
 62
7
 10
-161.250000
 20
195.500000
 11
-161.250000
 21
175.500000
  0
LINE
  8
0
  6
CONTINUOUS
 62
7
 10
-188.000000
 20
-92.000000
 11
-188.000000
 21
-51.000000
  0
LINE
  8
0
  6
CONTINUOUS
 62
7
 10
-92.000000
 20
-92.000000
 11
-92.000000
 21
-51.000000
  0
LINE
  8
0
  6
CONTINUOUS
 62
7
 10
-188.000000
 20
-51.000000
 11
-92.000000
 21
-51.000000
  0
LINE
  8
0
  6
CENTER
 62
2
 10
-190.000000
 20
-71.500000
 11
-90.000000
 21
-71.500000
  0
LINE
  8
0
  6
CONTINUOUS
 62
7
 10
-188.000000
 20
-40.000000
 11
-92.000000
 21
-40.000000
  0
LINE
  8
0
  6
CONTINUOUS
 62
7
 10
-188.000000
 20
-20.000000
 11
-155.000000
 21
-20.000000
  0
LINE
  8
0
  6
CONTINUOUS
 62
7
 10
-188.000000
 20
-20.000000
 11
-188.000000
 21
-40.000000
  0
LINE
  8
0
  6
CONTINUOUS
 62
7
 10
-92.000000
 20
-20.000000
 11
-92.000000
 21
-40.000000
  0
LINE
  8
0
  6
CONTINUOUS
 62
7
 10
-105.000000
 20
-20.000000
 11
-92.000000
 21
-20.000000
  0
LINE
  8
0
  6
CONTINUOUS
 62
7
 10
-92.000000
 20
-27.500000
 11
-188.000000
 21
-27.500000
  0
LINE
  8
0
  6
CONTINUOUS
 62
7
 10
-112.699997
 20
-26.000000
 11
-112.699997
 21
-11.000000
  0
LINE
  8
0
  6
CONTINUOUS
 62
7
 10
-147.300003
 20
-11.000000
 11
-112.699997
 21
-11.000000
  0
LINE
  8
0
  6
CONTINUOUS
 62
7
 10
-155.000000
 20
-26.000000
 11
-105.000000
 21
-26.000000
  0
LINE
  8
0
  6
CONTINUOUS
 62
7
 10
-147.300003
 20
-26.000000
 11
-147.300003
 21
-11.000000
  0
LINE
  8
0
  6
CONTINUOUS
 62
7
 10
-105.000000
 20
-26.000000
 11
-105.000000
 21
-11.700000
  0
LINE
  8
0
  6
CONTINUOUS
 62
7
 10
-112.699997
 20
-11.700000
 11
-105.000000
 21
-11.700000
  0
LINE
  8
0
  6
CONTINUOUS
 62
7
 10
-155.000000
 20
-26.000000
 11
-155.000000
 21
-11.700000
  0
LINE
  8
0
  6
CONTINUOUS
 62
7
 10
-147.300003
 20
-11.700000
 11
-155.000000
 21
-11.700000
  0
LINE
  8
0
  6
CONTINUOUS
 62
7
 10
-188.000000
 20
-92.000000
 11
-92.000000
 21
-92.000000
  0
LINE
  8
0
  6
CENTER
 62
2
 10
-157.000000
 20
-25.959999
 11
-157.000000
 21
-34.040001
  0
LINE
  8
0
  6
CENTER
 62
2
 10
-161.039993
 20
-30.000000
 11
-152.960007
 21
-30.000000
  0
LINE
  8
0
  6
CENTER
 62
2
 10
-123.000000
 20
-25.959999
 11
-123.000000
 21
-34.040001
  0
LINE
  8
0
  6
CENTER
 62
2
 10
-127.040001
 20
-30.000000
 11
-118.959999
 21
-30.000000
  0
LINE
  8
0
  6
CENTER
 62
2
 10
-135.000000
 20
-14.460000
 11
-135.000000
 21
-21.540001
  0
LINE
  8
0
  6
CENTER
 62
2
 10
-138.539993
 20
-18.000000
 11
-131.460007
 21
-18.000000
  0
LINE
  8
0
  6
CENTER
 62
2
 10
-125.000000
 20
-14.460000
 11
-125.000000
 21
-21.540001
  0
LINE
  8
0
  6
CENTER
 62
2
 10
-128.539993
 20
-18.000000
 11
-121.459999
 21
-18.000000
  0
LINE
  8
0
  6
CENTER
 62
2
 10
-172.500000
 20
-50.959999
 11
-172.500000
 21
-62.040001
  0
LINE
  8
0
  6
CENTER
 62
2
 10
-178.039993
 20
-56.500000
 11
-166.960007
 21
-56.500000
  0
LINE
  8
0
  6
CENTER
 62
2
 10
-180.500000
 20
-70.559998
 11
-180.500000
 21
-87.440002
  0
LINE
  8
0
  6
CENTER
 62
2
 10
-188.940002
 20
-79.000000
 11
-172.059998
 21
-79.000000
  0
LINE
  8
0
  6
CENTER
 62
2
 10
-172.500000
 20
-80.959999
 11
-172.500000
 21
-92.040001
  0
LINE
  8
0
  6
CENTER
 62
2
 10
-178.039993
 20
-86.500000
 11
-166.960007
 21
-86.500000
  0
LINE
  8
0
  6
CENTER
 62
2
 10
-107.500000
 20
-80.959999
 11
-107.500000
 21
-92.040001
  0
LINE
  8
0
  6
CENTER
 62
2
 10
-113.040001
 20
-86.500000
 11
-101.959999
 21
-86.500000
  0
LINE
  8
0
  6
CENTER
 62
2
 10
-107.500000
 20
-50.959999
 11
-107.500000
 21
-62.040001
  0
LINE
  8
0
  6
CENTER
 62
2
 10
-113.040001
 20
-56.500000
 11
-101.959999
 21
-56.500000
  0
LINE
  8
0
  6
CENTER
 62
2
 10
-99.500000
 20
-55.560001
 11
-99.500000
 21
-72.440002
  0
LINE
  8
0
  6
CENTER
 62
2
 10
-107.940002
 20
-64.000000
 11
-91.059998
 21
-64.000000
  0
LINE
  8
0
  6
CONTINUOUS
 62
7
 10
-185.500000
 20
-92.500000
 11
-177.500000
 21
-92.500000
  0
LINE
  8
0
  6
CONTINUOUS
 62
7
 10
-185.000000
 20
-95.500000
 11
-178.000000
 21
-95.500000
  0
LINE
  8
0
  6
CENTER
 62
2
 10
-181.500000
 20
-96.598999
 11
-181.500000
 21
-90.385696
  0
LINE
  8
0
  6
CONTINUOUS
 62
7
 10
-185.500000
 20
-92.500000
 11
-185.500000
 21
-92.000000
  0
LINE
  8
0
  6
CONTINUOUS
 62
7
 10
-177.500000
 20
-92.500000
 11
-177.500000
 21
-92.000000
  0
LINE
  8
0
  6
CONTINUOUS
 62
7
 10
-181.500000
 20
-92.500000
 11
-181.500000
 21
-95.500000
  0
LINE
  8
0
  6
CONTINUOUS
 62
7
 10
-158.735992
 20
-13.200000
 11
-155.000000
 21
-13.200000
  0
LINE
  8
0
  6
CONTINUOUS
 62
7
 10
-158.735992
 20
-15.200000
 11
-155.000000
 21
-15.200000
  0
LINE
  8
0
  6
CONTINUOUS
 62
7
 10
-158.735992
 20
-17.200001
 11
-155.000000
 21
-17.200001
  0
LINE
  8
0
  6
CONTINUOUS
 62
7
 10
-185.000000
 20
-92.500000
 11
-185.000000
 21
-95.500000
  0
LINE
  8
0
  6
CONTINUOUS
 62
7
 10
-178.000000
 20
-92.500000
 11
-178.000000
 21
-106.000000
  0
LINE
  8
0
  6
CONTINUOUS
 62
7
 10
-158.735992
 20
-13.200000
 11
-158.735992
 21
-17.200001
  0
LINE
  8
0
  6
CENTER
 62
2
 10
-190.000000
 20
19.500000
 11
-90.730301
 21
19.500000
  0
LINE
  8
0
  6
CONTINUOUS
 62
7
 10
-188.000000
 20
40.000000
 11
-188.000000
 21
-0.999992
  0
LINE
  8
0
  6
CONTINUOUS
 62
7
 10
-92.000000
 20
40.000000
 11
-92.000000
 21
-0.999992
  0
LINE
  8
0
  6
CONTINUOUS
 62
7
 10
-188.000000
 20
9.500010
 11
-155.000000
 21
9.500010
  0
LINE
  8
0
  6
CONTINUOUS
 62
7
 10
-188.000000
 20
29.500000
 11
-155.000000
 21
29.500000
  0
LINE
  8
0
  6
CONTINUOUS
 62
7
 10
-105.000000
 20
29.500000
 11
-92.000000
 21
29.500000
  0
LINE
  8
0
  6
CONTINUOUS
 62
7
 10
-105.000000
 20
9.500010
 11
-92.000000
 21
9.500010
  0
LINE
  8
0
  6
CONTINUOUS
 62
7
 10
-188.000000
 20
-0.999992
 11
-92.000000
 21
-0.999992
  0
LINE
  8
0
  6
CONTINUOUS
 62
7
 10
-147.300003
 20
-0.499992
 11
-147.300003
 21
39.500000
  0
LINE
  8
0
  6
CONTINUOUS
 62
7
 10
-112.699997
 20
-0.499992
 11
-112.699997
 21
39.500000
  0
LINE
  8
0
  6
CONTINUOUS
 62
7
 10
-105.000000
 20
-0.099998
 11
-105.000000
 21
39.099998
  0
LINE
  8
0
  6
CONTINUOUS
 62
7
 10
-112.699997
 20
-0.099998
 11
-105.000000
 21
-0.099998
  0
LINE
  8
0
  6
CONTINUOUS
 62
7
 10
-147.300003
 20
-0.099998
 11
-155.000000
 21
-0.099998
  0
LINE
  8
0
  6
CONTINUOUS
 62
7
 10
-188.000000
 20
89.000000
 11
-92.000000
 21
89.000000
  0
LINE
  8
0
  6
CONTINUOUS
 62
7
 10
-188.000000
 20
75.000000
 11
-188.000000
 21
89.000000
  0
LINE
  8
0
  6
CONTINUOUS
 62
7
 10
-92.000000
 20
75.000000
 11
-92.000000
 21
89.000000
  0
LINE
  8
0
  6
CONTINUOUS
 62
7
 10
-92.000000
 20
76.500000
 11
-102.000000
 21
76.500000
  0
LINE
  8
0
  6
CONTINUOUS
 62
7
 10
-112.699997
 20
39.099998
 11
-105.000000
 21
39.099998
  0
LINE
  8
0
  6
CONTINUOUS
 62
7
 10
-147.300003
 20
39.099998
 11
-155.000000
 21
39.099998
  0
LINE
  8
0
  6
CONTINUOUS
 62
7
 10
-112.699997
 20
65.000000
 11
-112.699997
 21
60.000000
  0
LINE
  8
0
  6
CONTINUOUS
 62
7
 10
-147.300003
 20
60.000000
 11
-112.699997
 21
60.000000
  0
LINE
  8
0
  6
CONTINUOUS
 62
7
 10
-155.000000
 20
75.000000
 11
-140.000000
 21
75.000000
  0
LINE
  8
0
  6
CONTINUOUS
 62
7
 10
-147.300003
 20
75.000000
 11
-147.300003
 21
60.000000
  0
LINE
  8
0
  6
CONTINUOUS
 62
7
 10
-155.000000
 20
75.000000
 11
-155.000000
 21
71.500000
  0
LINE
  8
0
  6
CONTINUOUS
 62
7
 10
-147.300003
 20
60.700001
 11
-155.000000
 21
60.700001
  0
LINE
  8
0
  6
CONTINUOUS
 62
7
 10
-112.699997
 20
60.700001
 11
-105.000000
 21
60.700001
  0
LINE
  8
0
  6
CONTINUOUS
 62
7
 10
-147.300003
 20
-0.499992
 11
-112.699997
 21
-0.499992
  0
LINE
  8
0
  6
CONTINUOUS
 62
7
 10
-147.300003
 20
39.500000
 11
-112.699997
 21
39.500000
  0
LINE
  8
0
  6
CONTINUOUS
 62
7
 10
-95.000000
 20
84.520699
 11
-95.000000
 21
80.479301
  0
LINE
  8
0
  6
CONTINUOUS
 62
7
 10
-102.000000
 20
84.520699
 11
-98.500000
 21
86.541496
  0
LINE
  8
0
  6
CONTINUOUS
 62
7
 10
-98.500000
 20
78.458504
 11
-95.000000
 21
80.479301
  0
LINE
  8
0
  6
CONTINUOUS
 62
7
 10
-102.000000
 20
80.479301
 11
-98.500000
 21
78.458504
  0
LINE
  8
0
  6
CONTINUOUS
 62
7
 10
-96.317001
 20
85.281097
 11
-99.817001
 21
79.218903
  0
LINE
  8
0
  6
CONTINUOUS
 62
7
 10
-97.182999
 20
85.781097
 11
-100.682999
 21
79.718903
  0
LINE
  8
0
  6
CONTINUOUS
 62
7
 10
-98.500000
 20
86.541397
 11
-95.000000
 21
84.520699
  0
LINE
  8
0
  6
CONTINUOUS
 62
7
 10
-102.000000
 20
80.479301
 11
-102.000000
 21
84.520699
  0
LINE
  8
0
  6
CENTER
 62
2
 10
-98.500000
 20
89.040001
 11
-98.500000
 21
75.959999
  0
LINE
  8
0
  6
CENTER
 62
2
 10
-105.040001
 20
82.500000
 11
-91.959999
 21
82.500000
  0
LINE
  8
0
  6
CONTINUOUS
 62
7
 10
-178.000000
 20
84.520699
 11
-178.000000
 21
80.479301
  0
LINE
  8
0
  6
CONTINUOUS
 62
7
 10
-185.000000
 20
84.520699
 11
-181.500000
 21
86.541397
  0
LINE
  8
0
  6
CONTINUOUS
 62
7
 10
-181.500000
 20
78.458504
 11
-178.000000
 21
80.479301
  0
LINE
  8
0
  6
CONTINUOUS
 62
7
 10
-185.000000
 20
80.479301
 11
-181.500000
 21
78.458603
  0
LINE
  8
0
  6
CONTINUOUS
 62
7
 10
-179.317001
 20
85.281097
 11
-182.817001
 21
79.218903
  0
LINE
  8
0
  6
CONTINUOUS
 62
7
 10
-180.182999
 20
85.781097
 11
-183.682999
 21
79.718903
  0
LINE
  8
0
  6
CONTINUOUS
 62
7
 10
-181.500000
 20
86.541496
 11
-178.000000
 21
84.520699
  0
LINE
  8
0
  6
CONTINUOUS
 62
7
 10
-185.000000
 20
80.479301
 11
-185.000000
 21
84.520699
  0
LINE
  8
0
  6
CENTER
 62
2
 10
-181.500000
 20
89.040001
 11
-181.500000
 21
75.959999
  0
LINE
  8
0
  6
CENTER
 62
2
 10
-188.039993
 20
82.500000
 11
-174.960007
 21
82.500000
  0
LINE
  8
0
  6
CENTER
 62
2
 10
-172.500000
 20
41.790001
 11
-172.500000
 21
27.209999
  0
LINE
  8
0
  6
CENTER
 62
2
 10
-179.789993
 20
34.500000
 11
-165.210007
 21
34.500000
  0
LINE
  8
0
  6
CENTER
 62
2
 10
-172.500000
 20
11.790000
 11
-172.500000
 21
-2.790010
  0
LINE
  8
0
  6
CENTER
 62
2
 10
-179.789993
 20
4.500010
 11
-165.210007
 21
4.500010
  0
LINE
  8
0
  6
CENTER
 62
2
 10
-142.500000
 20
39.040001
 11
-142.500000
 21
29.959999
  0
LINE
  8
0
  6
CENTER
 62
2
 10
-147.039993
 20
34.500000
 11
-137.960007
 21
34.500000
  0
LINE
  8
0
  6
CENTER
 62
2
 10
-117.500000
 20
39.040001
 11
-117.500000
 21
29.959999
  0
LINE
  8
0
  6
CENTER
 62
2
 10
-122.040001
 20
34.500000
 11
-112.959999
 21
34.500000
  0
LINE
  8
0
  6
CENTER
 62
2
 10
-142.500000
 20
9.040000
 11
-142.500000
 21
-0.040001
  0
LINE
  8
0
  6
CENTER
 62
2
 10
-147.039993
 20
4.500010
 11
-137.960007
 21
4.500010
  0
LINE
  8
0
  6
CENTER
 62
2
 10
-117.500000
 20
9.040000
 11
-117.500000
 21
-0.040001
  0
LINE
  8
0
  6
CENTER
 62
2
 10
-122.040001
 20
4.500010
 11
-112.959999
 21
4.500010
  0
LINE
  8
0
  6
CENTER
 62
2
 10
-107.500000
 20
11.790000
 11
-107.500000
 21
-2.790010
  0
LINE
  8
0
  6
CENTER
 62
2
 10
-114.790001
 20
4.500010
 11
-100.209999
 21
4.500010
  0
LINE
  8
0
  6
CENTER
 62
2
 10
-107.500000
 20
27.209999
 11
-107.500000
 21
41.790001
  0
LINE
  8
0
  6
CENTER
 62
2
 10
-114.790001
 20
34.500000
 11
-100.209999
 21
34.500000
  0
LINE
  8
0
  6
CONTINUOUS
 62
7
 10
-155.000000
 20
-0.099998
 11
-155.000000
 21
39.099998
  0
LINE
  8
0
  6
CONTINUOUS
 62
7
 10
-158.414993
 20
21.809401
 11
-155.000000
 21
21.809401
  0
LINE
  8
0
  6
CONTINUOUS
 62
7
 10
-158.414993
 20
20.654699
 11
-155.000000
 21
20.654699
  0
LINE
  8
0
  6
CONTINUOUS
 62
7
 10
-158.414993
 20
18.345301
 11
-155.000000
 21
18.345301
  0
LINE
  8
0
  6
CONTINUOUS
 62
7
 10
-158.414993
 20
17.190599
 11
-155.000000
 21
17.190599
  0
LINE
  8
0
  6
CONTINUOUS
 62
7
 10
-158.735992
 20
66.199997
 11
-155.000000
 21
66.199997
  0
LINE
  8
0
  6
CONTINUOUS
 62
7
 10
-158.735992
 20
64.199997
 11
-155.000000
 21
64.199997
  0
LINE
  8
0
  6
CONTINUOUS
 62
7
 10
-158.735992
 20
62.200001
 11
-155.000000
 21
62.200001
  0
LINE
  8
0
  6
CONTINUOUS
 62
7
 10
-185.500000
 20
40.500000
 11
-177.500000
 21
40.500000
  0
LINE
  8
0
  6
CENTER
 62
2
 10
-181.500000
 20
44.598999
 11
-181.500000
 21
38.385700
  0
LINE
  8
0
  6
CONTINUOUS
 62
7
 10
-185.500000
 20
40.500000
 11
-185.500000
 21
40.000000
  0
LINE
  8
0
  6
CONTINUOUS
 62
7
 10
-177.500000
 20
40.500000
 11
-177.500000
 21
40.000000
  0
LINE
  8
0
  6
CONTINUOUS
 62
7
 10
-181.500000
 20
40.500000
 11
-181.500000
 21
42.500000
  0
LINE
  8
0
  6
CONTINUOUS
 62
7
 10
-185.000000
 20
40.500000
 11
-185.000000
 21
42.500000
  0
LINE
  8
0
  6
CONTINUOUS
 62
7
 10
-158.414993
 20
21.809401
 11
-158.414993
 21
17.190599
  0
LINE
  8
0
  6
CONTINUOUS
 62
7
 10
-158.735992
 20
66.199997
 11
-158.735992
 21
62.200001
  0
LINE
  8
0
  6
CONTINUOUS
 62
7
 10
-147.300003
 20
30.000000
 11
-112.699997
 21
30.000000
  0
LINE
  8
0
  6
CONTINUOUS
 62
7
 10
-147.300003
 20
9.000000
 11
-112.699997
 21
9.000000
  0
LINE
  8
0
  6
CONTINUOUS
 62
7
 10
21.500000
 20
-27.500000
 11
32.000000
 21
-27.500000
  0
LINE
  8
0
  6
CONTINUOUS
 62
7
 10
62.500000
 20
-27.500000
 11
52.000000
 21
-27.500000
  0
LINE
  8
0
  6
CONTINUOUS
 62
7
 10
52.000000
 20
-20.000000
 11
52.000000
 21
-21.513399
  0
LINE
  8
0
  6
CONTINUOUS
 62
7
 10
52.000000
 20
-24.486601
 11
52.000000
 21
-27.500000
  0
LINE
  8
0
  6
CONTINUOUS
 62
7
 10
21.500000
 20
-40.000000
 11
62.500000
 21
-40.000000
  0
LINE
  8
0
  6
CONTINUOUS
 62
7
 10
32.000000
 20
-20.000000
 11
52.000000
 21
-20.000000
  0
LINE
  8
0
  6
CENTER
 62
2
 10
42.000000
 20
-9.500000
 11
42.000000
 21
-41.500000
  0
LINE
  8
0
  6
CONTINUOUS
 62
7
 10
50.000000
 20
-23.600000
 11
50.000000
 21
-22.400000
  0
LINE
  8
0
  6
CONTINUOUS
 62
7
 10
50.000000
 20
-22.400000
 11
50.906700
 21
-22.240101
  0
LINE
  8
0
  6
CONTINUOUS
 62
7
 10
50.000000
 20
-23.600000
 11
50.906700
 21
-23.759800
  0
LINE
  8
0
  6
CONTINUOUS
 62
7
 10
34.000000
 20
-23.600000
 11
34.000000
 21
-22.400000
  0
LINE
  8
0
  6
CONTINUOUS
 62
7
 10
34.000000
 20
-22.400000
 11
33.093300
 21
-22.240101
  0
LINE
  8
0
  6
CONTINUOUS
 62
7
 10
34.000000
 20
-23.600000
 11
33.093300
 21
-23.759899
  0
LINE
  8
0
  6
CONTINUOUS
 62
7
 10
22.000000
 20
-26.000000
 11
32.000000
 21
-26.000000
  0
LINE
  8
0
  6
CONTINUOUS
 62
7
 10
52.000000
 20
-26.000000
 11
62.000000
 21
-26.000000
  0
LINE
  8
0
  6
CONTINUOUS
 62
7
 10
32.099899
 20
-11.600000
 11
51.900002
 21
-11.600000
  0
LINE
  8
0
  6
CONTINUOUS
 62
7
 10
62.000000
 20
-26.000000
 11
62.000000
 21
-11.000000
  0
LINE
  8
0
  6
CONTINUOUS
 62
7
 10
52.500000
 20
-11.000000
 11
62.000000
 21
-11.000000
  0
LINE
  8
0
  6
CONTINUOUS
 62
7
 10
52.500000
 20
-11.000000
 11
51.900002
 21
-11.600000
  0
LINE
  8
0
  6
CONTINUOUS
 62
7
 10
22.000000
 20
-26.000000
 11
22.000000
 21
-11.000000
  0
LINE
  8
0
  6
CENTER
 62
2
 10
30.959999
 20
-30.000000
 11
53.040001
 21
-30.000000
  0
LINE
  8
0
  6
CONTINUOUS
 62
7
 10
18.000000
 20
-37.541500
 11
18.000000
 21
-29.458599
  0
LINE
  8
0
  6
CONTINUOUS
 62
7
 10
18.000000
 20
-37.541500
 11
21.500000
 21
-37.541500
  0
LINE
  8
0
  6
CONTINUOUS
 62
7
 10
18.000000
 20
-35.562901
 11
21.000000
 21
-35.562901
  0
LINE
  8
0
  6
CENTER
 62
2
 10
16.511700
 20
-33.500000
 11
22.459999
 21
-33.500000
  0
LINE
  8
0
  6
CONTINUOUS
 62
7
 10
18.000000
 20
-31.437201
 11
21.000000
 21
-31.437201
  0
LINE
  8
0
  6
CONTINUOUS
 62
7
 10
18.000000
 20
-29.458599
 11
21.500000
 21
-29.458599
  0
LINE
  8
0
  6
CONTINUOUS
 62
7
 10
21.000000
 20
-37.541500
 11
21.000000
 21
-29.458599
  0
LINE
  8
0
  6
CONTINUOUS
 62
7
 10
44.309399
 20
-15.199900
 11
43.154701
 21
-13.199900
  0
LINE
  8
0
  6
CONTINUOUS
 62
7
 10
40.845200
 20
-17.200001
 11
39.690601
 21
-15.200000
  0
LINE
  8
0
  6
CONTINUOUS
 62
7
 10
40.845299
 20
-17.200001
 11
43.154701
 21
-17.200001
  0
LINE
  8
0
  6
CONTINUOUS
 62
7
 10
40.845299
 20
-13.200000
 11
43.154701
 21
-13.200000
  0
LINE
  8
0
  6
CONTINUOUS
 62
7
 10
43.154701
 20
-17.200001
 11
44.309399
 21
-15.200000
  0
LINE
  8
0
  6
CONTINUOUS
 62
7
 10
39.690601
 20
-15.200000
 11
40.845299
 21
-13.200000
  0
LINE
  8
0
  6
CENTER
 62
2
 10
38.190601
 20
-15.200000
 11
45.809399
 21
-15.200000
  0
LINE
  8
0
  6
CONTINUOUS
 62
7
 10
31.500000
 20
-11.000000
 11
32.099998
 21
-11.600000
  0
LINE
  8
0
  6
CONTINUOUS
 62
7
 10
31.499901
 20
-11.000000
 11
21.999901
 21
-11.000000
  0
LINE
  8
0
  6
CONTINUOUS
 62
7
 10
32.000000
 20
-20.000000
 11
32.000000
 21
-21.513399
  0
LINE
  8
0
  6
CONTINUOUS
 62
7
 10
32.000000
 20
-24.486601
 11
32.000000
 21
-27.500000
  0
LINE
  8
0
  6
CONTINUOUS
 62
7
 10
62.500000
 20
-27.500000
 11
62.500000
 21
-40.000000
  0
LINE
  8
0
  6
CONTINUOUS
 62
7
 10
77.000000
 20
-92.000000
 11
203.000000
 21
-92.000000
  0
LINE
  8
0
  6
CONTINUOUS
 62
7
 10
77.000000
 20
-92.000000
 11
77.000000
 21
-51.000000
  0
LINE
  8
0
  6
CONTINUOUS
 62
7
 10
203.000000
 20
-92.000000
 11
203.000000
 21
-51.000000
  0
LINE
  8
0
  6
CONTINUOUS
 62
7
 10
77.000000
 20
-51.000000
 11
203.000000
 21
-51.000000
  0
LINE
  8
0
  6
CENTER
 62
2
 10
75.000000
 20
-71.500000
 11
205.000000
 21
-71.500000
  0
LINE
  8
0
  6
CENTER
 62
2
 10
75.000000
 20
19.500000
 11
205.000000
 21
19.500000
  0
LINE
  8
0
  6
CONTINUOUS
 62
7
 10
77.000000
 20
40.000000
 11
77.000000
 21
-1.000000
  0
LINE
  8
0
  6
CONTINUOUS
 62
7
 10
203.000000
 20
40.000000
 11
203.000000
 21
-1.000000
  0
LINE
  8
0
  6
CONTINUOUS
 62
7
 10
128.850006
 20
-0.500000
 11
181.149994
 21
-0.500000
  0
LINE
  8
0
  6
CONTINUOUS
 62
7
 10
128.850006
 20
39.500000
 11
181.149994
 21
39.500000
  0
LINE
  8
0
  6
CONTINUOUS
 62
7
 10
77.000000
 20
9.500000
 11
121.000000
 21
9.500000
  0
LINE
  8
0
  6
CONTINUOUS
 62
7
 10
77.000000
 20
29.500000
 11
121.000000
 21
29.500000
  0
LINE
  8
0
  6
CONTINUOUS
 62
7
 10
189.000000
 20
29.500000
 11
203.000000
 21
29.500000
  0
LINE
  8
0
  6
CONTINUOUS
 62
7
 10
189.000000
 20
9.500000
 11
203.000000
 21
9.500000
  0
LINE
  8
0
  6
CONTINUOUS
 62
7
 10
77.000000
 20
-1.000000
 11
203.000000
 21
-1.000000
  0
LINE
  8
0
  6
CONTINUOUS
 62
7
 10
77.000000
 20
-40.000000
 11
203.000000
 21
-40.000000
  0
LINE
  8
0
  6
CONTINUOUS
 62
7
 10
77.000000
 20
-20.000000
 11
121.000000
 21
-20.000000
  0
LINE
  8
0
  6
CONTINUOUS
 62
7
 10
77.000000
 20
-20.000000
 11
77.000000
 21
-40.000000
  0
LINE
  8
0
  6
CONTINUOUS
 62
7
 10
203.000000
 20
-20.000000
 11
203.000000
 21
-40.000000
  0
LINE
  8
0
  6
CONTINUOUS
 62
7
 10
189.000000
 20
-20.000000
 11
203.000000
 21
-20.000000
  0
LINE
  8
0
  6
CONTINUOUS
 62
7
 10
203.000000
 20
-27.500000
 11
77.000000
 21
-27.500000
  0
LINE
  8
0
  6
CONTINUOUS
 62
7
 10
77.000000
 20
89.000000
 11
203.000000
 21
89.000000
  0
LINE
  8
0
  6
CONTINUOUS
 62
7
 10
77.000000
 20
74.500000
 11
77.000000
 21
89.000000
  0
LINE
  8
0
  6
CONTINUOUS
 62
7
 10
203.000000
 20
74.500000
 11
203.000000
 21
89.000000
  0
LINE
  8
0
  6
CONTINUOUS
 62
7
 10
203.000000
 20
76.500000
 11
183.000000
 21
76.500000
  0
LINE
  8
0
  6
CONTINUOUS
 62
7
 10
128.850006
 20
-0.500000
 11
128.850006
 21
39.500000
  0
LINE
  8
0
  6
CONTINUOUS
 62
7
 10
181.149994
 20
-0.500000
 11
181.149994
 21
39.500000
  0
LINE
  8
0
  6
CONTINUOUS
 62
7
 10
189.000000
 20
-0.100006
 11
189.000000
 21
39.099998
  0
LINE
  8
0
  6
CONTINUOUS
 62
7
 10
121.000000
 20
-0.100006
 11
121.000000
 21
39.099998
  0
LINE
  8
0
  6
CONTINUOUS
 62
7
 10
181.149994
 20
39.099998
 11
189.000000
 21
39.099998
  0
LINE
  8
0
  6
CONTINUOUS
 62
7
 10
181.149994
 20
-0.100006
 11
189.000000
 21
-0.100006
  0
LINE
  8
0
  6
CONTINUOUS
 62
7
 10
128.850006
 20
-0.100006
 11
121.000000
 21
-0.100006
  0
LINE
  8
0
  6
CONTINUOUS
 62
7
 10
128.850006
 20
39.099998
 11
121.000000
 21
39.099998
  0
LINE
  8
0
  6
CONTINUOUS
 62
7
 10
181.149994
 20
-26.000000
 11
181.149994
 21
-11.000000
  0
LINE
  8
0
  6
CONTINUOUS
 62
7
 10
128.850006
 20
-11.000000
 11
181.149994
 21
-11.000000
  0
LINE
  8
0
  6
CONTINUOUS
 62
7
 10
121.000000
 20
-26.000000
 11
189.000000
 21
-26.000000
  0
LINE
  8
0
  6
CONTINUOUS
 62
7
 10
128.850006
 20
-26.000000
 11
128.850006
 21
-11.000000
  0
LINE
  8
0
  6
CONTINUOUS
 62
7
 10
189.000000
 20
-26.000000
 11
189.000000
 21
-11.700000
  0
LINE
  8
0
  6
CONTINUOUS
 62
7
 10
181.149994
 20
-11.700000
 11
189.000000
 21
-11.700000
  0
LINE
  8
0
  6
CONTINUOUS
 62
7
 10
121.000000
 20
-26.000000
 11
121.000000
 21
-11.700000
  0
LINE
  8
0
  6
CONTINUOUS
 62
7
 10
128.850006
 20
-11.700000
 11
121.000000
 21
-11.700000
  0
LINE
  8
0
  6
CONTINUOUS
 62
7
 10
181.149994
 20
62.942501
 11
181.149994
 21
60.000000
  0
LINE
  8
0
  6
CONTINUOUS
 62
7
 10
128.850006
 20
60.000000
 11
181.149994
 21
60.000000
  0
LINE
  8
0
  6
CONTINUOUS
 62
7
 10
121.000000
 20
75.000000
 11
145.000000
 21
75.000000
  0
LINE
  8
0
  6
CONTINUOUS
 62
7
 10
128.850006
 20
75.000000
 11
128.850006
 21
60.000000
  0
LINE
  8
0
  6
CONTINUOUS
 62
7
 10
121.000000
 20
75.000000
 11
121.000000
 21
71.500000
  0
LINE
  8
0
  6
CONTINUOUS
 62
7
 10
128.850006
 20
60.700001
 11
121.000000
 21
60.700001
  0
LINE
  8
0
  6
CONTINUOUS
 62
7
 10
189.000000
 20
65.000000
 11
189.000000
 21
60.700001
  0
LINE
  8
0
  6
CONTINUOUS
 62
7
 10
181.149994
 20
60.700001
 11
189.000000
 21
60.700001
  0
LINE
  8
0
  6
CENTER
 62
2
 10
92.500000
 20
41.790001
 11
92.500000
 21
27.209999
  0
LINE
  8
0
  6
CENTER
 62
2
 10
85.209999
 20
34.500000
 11
99.790001
 21
34.500000
  0
LINE
  8
0
  6
CENTER
 62
2
 10
92.500000
 20
11.790000
 11
92.500000
 21
-2.789990
  0
LINE
  8
0
  6
CENTER
 62
2
 10
85.209999
 20
4.500000
 11
99.790001
 21
4.500000
  0
LINE
  8
0
  6
CENTER
 62
2
 10
135.000000
 20
39.040001
 11
135.000000
 21
29.959999
  0
LINE
  8
0
  6
CENTER
 62
2
 10
130.460007
 20
34.500000
 11
139.539993
 21
34.500000
  0
LINE
  8
0
  6
CENTER
 62
2
 10
135.000000
 20
9.040010
 11
135.000000
 21
-0.040009
  0
LINE
  8
0
  6
CENTER
 62
2
 10
130.460007
 20
4.500000
 11
139.539993
 21
4.500000
  0
LINE
  8
0
  6
CENTER
 62
2
 10
155.000000
 20
39.040001
 11
155.000000
 21
29.959999
  0
LINE
  8
0
  6
CENTER
 62
2
 10
150.460007
 20
34.500000
 11
159.539993
 21
34.500000
  0
LINE
  8
0
  6
CENTER
 62
2
 10
155.000000
 20
9.040010
 11
155.000000
 21
-0.040009
  0
LINE
  8
0
  6
CENTER
 62
2
 10
150.460007
 20
4.500000
 11
159.539993
 21
4.500000
  0
LINE
  8
0
  6
CENTER
 62
2
 10
175.000000
 20
9.040010
 11
175.000000
 21
-0.040009
  0
LINE
  8
0
  6
CENTER
 62
2
 10
170.460007
 20
4.500000
 11
179.539993
 21
4.500000
  0
LINE
  8
0
  6
CENTER
 62
2
 10
175.000000
 20
39.040001
 11
175.000000
 21
29.959999
  0
LINE
  8
0
  6
CENTER
 62
2
 10
170.460007
 20
34.500000
 11
179.539993
 21
34.500000
  0
LINE
  8
0
  6
CENTER
 62
2
 10
187.500000
 20
11.790000
 11
187.500000
 21
-2.789990
  0
LINE
  8
0
  6
CENTER
 62
2
 10
180.210007
 20
4.500000
 11
194.789993
 21
4.500000
  0
LINE
  8
0
  6
CENTER
 62
2
 10
117.500000
 20
-25.959999
 11
117.500000
 21
-34.040001
  0
LINE
  8
0
  6
CENTER
 62
2
 10
113.459999
 20
-30.000000
 11
121.540001
 21
-30.000000
  0
LINE
  8
0
  6
CENTER
 62
2
 10
162.500000
 20
-25.959999
 11
162.500000
 21
-34.040001
  0
LINE
  8
0
  6
CENTER
 62
2
 10
158.460007
 20
-30.000000
 11
166.539993
 21
-30.000000
  0
LINE
  8
0
  6
CENTER
 62
2
 10
150.000000
 20
-14.460000
 11
150.000000
 21
-21.540001
  0
LINE
  8
0
  6
CENTER
 62
2
 10
146.460007
 20
-18.000000
 11
153.539993
 21
-18.000000
  0
LINE
  8
0
  6
CENTER
 62
2
 10
160.000000
 20
-14.460000
 11
160.000000
 21
-21.540001
  0
LINE
  8
0
  6
CENTER
 62
2
 10
156.460007
 20
-18.000000
 11
163.539993
 21
-18.000000
  0
LINE
  8
0
  6
CENTER
 62
2
 10
92.500000
 20
-50.959999
 11
92.500000
 21
-62.040001
  0
LINE
  8
0
  6
CENTER
 62
2
 10
86.959999
 20
-56.500000
 11
98.040001
 21
-56.500000
  0
LINE
  8
0
  6
CENTER
 62
2
 10
84.500000
 20
-70.559998
 11
84.500000
 21
-87.440002
  0
LINE
  8
0
  6
CENTER
 62
2
 10
76.059998
 20
-79.000000
 11
92.940002
 21
-79.000000
  0
LINE
  8
0
  6
CENTER
 62
2
 10
92.500000
 20
-80.959999
 11
92.500000
 21
-92.040001
  0
LINE
  8
0
  6
CENTER
 62
2
 10
86.959999
 20
-86.500000
 11
98.040001
 21
-86.500000
  0
LINE
  8
0
  6
CENTER
 62
2
 10
187.500000
 20
-80.959999
 11
187.500000
 21
-92.040001
  0
LINE
  8
0
  6
CENTER
 62
2
 10
181.960007
 20
-86.500000
 11
193.039993
 21
-86.500000
  0
LINE
  8
0
  6
CENTER
 62
2
 10
187.500000
 20
-50.959999
 11
187.500000
 21
-62.040001
  0
LINE
  8
0
  6
CENTER
 62
2
 10
181.960007
 20
-56.500000
 11
193.039993
 21
-56.500000
  0
LINE
  8
0
  6
CENTER
 62
2
 10
195.500000
 20
-55.560001
 11
195.500000
 21
-72.440002
  0
LINE
  8
0
  6
CENTER
 62
2
 10
187.059998
 20
-64.000000
 11
203.940002
 21
-64.000000
  0
LINE
  8
0
  6
CONTINUOUS
 62
7
 10
87.000000
 20
84.520699
 11
87.000000
 21
80.479301
  0
LINE
  8
0
  6
CONTINUOUS
 62
7
 10
80.000000
 20
84.520699
 11
83.500000
 21
86.541397
  0
LINE
  8
0
  6
CONTINUOUS
 62
7
 10
83.500000
 20
78.458504
 11
87.000000
 21
80.479301
  0
LINE
  8
0
  6
CONTINUOUS
 62
7
 10
80.000000
 20
80.479301
 11
83.500000
 21
78.458504
  0
LINE
  8
0
  6
CONTINUOUS
 62
7
 10
85.682999
 20
85.281097
 11
82.182999
 21
79.218903
  0
LINE
  8
0
  6
CONTINUOUS
 62
7
 10
84.817001
 20
85.781097
 11
81.317001
 21
79.718903
  0
LINE
  8
0
  6
CONTINUOUS
 62
7
 10
83.500000
 20
86.541496
 11
87.000000
 21
84.520699
  0
LINE
  8
0
  6
CONTINUOUS
 62
7
 10
80.000000
 20
80.479301
 11
80.000000
 21
84.520699
  0
LINE
  8
0
  6
CENTER
 62
2
 10
83.500000
 20
89.040001
 11
83.500000
 21
75.959999
  0
LINE
  8
0
  6
CENTER
 62
2
 10
76.959999
 20
82.500000
 11
90.040001
 21
82.500000
  0
LINE
  8
0
  6
CENTER
 62
2
 10
187.500000
 20
27.209999
 11
187.500000
 21
41.790001
  0
LINE
  8
0
  6
CENTER
 62
2
 10
180.210007
 20
34.500000
 11
194.789993
 21
34.500000
  0
LINE
  8
0
  6
CONTINUOUS
 62
7
 10
200.000000
 20
84.520699
 11
200.000000
 21
80.479301
  0
LINE
  8
0
  6
CONTINUOUS
 62
7
 10
193.000000
 20
84.520798
 11
196.500000
 21
86.541496
  0
LINE
  8
0
  6
CONTINUOUS
 62
7
 10
196.500000
 20
78.458603
 11
200.000000
 21
80.479301
  0
LINE
  8
0
  6
CONTINUOUS
 62
7
 10
193.000000
 20
80.479202
 11
196.500000
 21
78.458504
  0
LINE
  8
0
  6
CONTINUOUS
 62
7
 10
198.682999
 20
85.281097
 11
195.182999
 21
79.218903
  0
LINE
  8
0
  6
CONTINUOUS
 62
7
 10
197.817001
 20
85.781097
 11
194.317001
 21
79.718903
  0
LINE
  8
0
  6
CONTINUOUS
 62
7
 10
196.500000
 20
86.541496
 11
200.000000
 21
84.520699
  0
LINE
  8
0
  6
CONTINUOUS
 62
7
 10
193.000000
 20
80.479301
 11
193.000000
 21
84.520699
  0
LINE
  8
0
  6
CENTER
 62
2
 10
196.500000
 20
89.040001
 11
196.500000
 21
75.959999
  0
LINE
  8
0
  6
CENTER
 62
2
 10
189.960007
 20
82.500000
 11
203.039993
 21
82.500000
  0
LINE
  8
0
  6
CONTINUOUS
 62
7
 10
117.264000
 20
-13.200000
 11
121.000000
 21
-13.200000
  0
LINE
  8
0
  6
CONTINUOUS
 62
7
 10
117.264000
 20
-15.200000
 11
121.000000
 21
-15.200000
  0
LINE
  8
0
  6
CONTINUOUS
 62
7
 10
117.264000
 20
-17.200001
 11
121.000000
 21
-17.200001
  0
LINE
  8
0
  6
CONTINUOUS
 62
7
 10
117.264000
 20
66.199997
 11
121.000000
 21
66.199997
  0
LINE
  8
0
  6
CONTINUOUS
 62
7
 10
117.264000
 20
64.199997
 11
121.000000
 21
64.199997
  0
LINE
  8
0
  6
CONTINUOUS
 62
7
 10
117.264000
 20
62.200001
 11
121.000000
 21
62.200001
  0
LINE
  8
0
  6
CONTINUOUS
 62
7
 10
117.584999
 20
21.809401
 11
121.000000
 21
21.809401
  0
LINE
  8
0
  6
CONTINUOUS
 62
7
 10
117.584999
 20
20.654699
 11
121.000000
 21
20.654699
  0
LINE
  8
0
  6
CONTINUOUS
 62
7
 10
117.584999
 20
18.345301
 11
121.000000
 21
18.345301
  0
LINE
  8
0
  6
CONTINUOUS
 62
7
 10
117.584999
 20
17.190599
 11
121.000000
 21
17.190599
  0
LINE
  8
0
  6
CONTINUOUS
 62
7
 10
87.000000
 20
-92.500000
 11
87.000000
 21
-95.500000
  0
LINE
  8
0
  6
CONTINUOUS
 62
7
 10
80.000000
 20
-92.500000
 11
80.000000
 21
-95.500000
  0
LINE
  8
0
  6
CONTINUOUS
 62
7
 10
79.500000
 20
-92.500000
 11
87.500000
 21
-92.500000
  0
LINE
  8
0
  6
CONTINUOUS
 62
7
 10
80.000000
 20
-95.500000
 11
87.000000
 21
-95.500000
  0
LINE
  8
0
  6
CENTER
 62
2
 10
83.500000
 20
-96.598999
 11
83.500000
 21
-90.385696
  0
LINE
  8
0
  6
CONTINUOUS
 62
7
 10
79.500000
 20
-92.500000
 11
79.500000
 21
-92.000000
  0
LINE
  8
0
  6
CONTINUOUS
 62
7
 10
87.500000
 20
-92.500000
 11
87.500000
 21
-92.000000
  0
LINE
  8
0
  6
CONTINUOUS
 62
7
 10
83.500000
 20
-92.500000
 11
83.500000
 21
-95.500000
  0
LINE
  8
0
  6
CONTINUOUS
 62
7
 10
193.000000
 20
-92.500000
 11
193.000000
 21
-95.500000
  0
LINE
  8
0
  6
CONTINUOUS
 62
7
 10
200.000000
 20
-92.500000
 11
200.000000
 21
-95.500000
  0
LINE
  8
0
  6
CONTINUOUS
 62
7
 10
200.500000
 20
-92.500000
 11
192.500000
 21
-92.500000
  0
LINE
  8
0
  6
CONTINUOUS
 62
7
 10
200.000000
 20
-95.500000
 11
193.000000
 21
-95.500000
  0
LINE
  8
0
  6
CENTER
 62
2
 10
196.500000
 20
-96.598999
 11
196.500000
 21
-90.385696
  0
LINE
  8
0
  6
CONTINUOUS
 62
7
 10
200.500000
 20
-92.500000
 11
200.500000
 21
-92.000000
  0
LINE
  8
0
  6
CONTINUOUS
 62
7
 10
192.500000
 20
-92.500000
 11
192.500000
 21
-92.000000
  0
LINE
  8
0
  6
CONTINUOUS
 62
7
 10
196.500000
 20
-92.500000
 11
196.500000
 21
-95.500000
  0
LINE
  8
0
  6
CONTINUOUS
 62
7
 10
117.264000
 20
-13.200000
 11
117.264000
 21
-17.200001
  0
LINE
  8
0
  6
CONTINUOUS
 62
7
 10
117.264000
 20
66.199997
 11
117.264000
 21
62.200001
  0
LINE
  8
0
  6
CONTINUOUS
 62
7
 10
200.000000
 20
40.500000
 11
200.000000
 21
42.500000
  0
LINE
  8
0
  6
CONTINUOUS
 62
7
 10
193.000000
 20
40.500000
 11
193.000000
 21
42.500000
  0
LINE
  8
0
  6
CONTINUOUS
 62
7
 10
200.500000
 20
40.500000
 11
192.500000
 21
40.500000
  0
LINE
  8
0
  6
CENTER
 62
2
 10
196.500000
 20
44.598999
 11
196.500000
 21
38.385700
  0
LINE
  8
0
  6
CONTINUOUS
 62
7
 10
200.500000
 20
40.500000
 11
200.500000
 21
40.000000
  0
LINE
  8
0
  6
CONTINUOUS
 62
7
 10
192.500000
 20
40.500000
 11
192.500000
 21
40.000000
  0
LINE
  8
0
  6
CONTINUOUS
 62
7
 10
196.500000
 20
40.500000
 11
196.500000
 21
42.500000
  0
LINE
  8
0
  6
CONTINUOUS
 62
7
 10
117.584999
 20
21.809401
 11
117.584999
 21
17.190599
  0
LINE
  8
0
  6
CONTINUOUS
 62
7
 10
128.850006
 20
30.000000
 11
181.149994
 21
30.000000
  0
LINE
  8
0
  6
CONTINUOUS
 62
7
 10
128.850006
 20
9.000000
 11
181.149994
 21
9.000000
  0
LINE
  8
0
  6
CONTINUOUS
 62
7
 10
21.500000
 20
-13.500000
 11
21.500000
 21
-40.000000
  0
LINE
  8
0
  6
CONTINUOUS
 62
7
 10
6.500000
 20
-39.500000
 11
21.499901
 21
-39.500000
  0
LINE
  8
0
  6
CONTINUOUS
 62
7
 10
10.000000
 20
-12.500000
 11
21.999901
 21
-12.500000
  0
LINE
  8
0
  6
CONTINUOUS
 62
7
 10
10.000000
 20
-13.500000
 11
10.000000
 21
-12.500000
  0
LINE
  8
0
  6
CONTINUOUS
 62
7
 10
6.500000
 20
-13.500000
 11
6.500000
 21
-39.500000
  0
LINE
  8
0
  6
CONTINUOUS
 62
7
 10
6.500000
 20
-13.500000
 11
21.499901
 21
-13.500000
  0
LINE
  8
0
  6
CONTINUOUS
 62
7
 10
18.943399
 20
-21.750000
 11
16.216600
 21
-21.750000
  0
LINE
  8
0
  6
CONTINUOUS
 62
7
 10
18.943399
 20
-20.250000
 11
16.216600
 21
-20.250000
  0
LINE
  8
0
  6
CONTINUOUS
 62
7
 10
11.783400
 20
-20.250000
 11
9.056640
 21
-20.250000
  0
LINE
  8
0
  6
CONTINUOUS
 62
7
 10
11.783400
 20
-21.750000
 11
9.056640
 21
-21.750000
  0
LINE
  8
0
  6
CONTINUOUS
 62
7
 10
14.776100
 20
-13.942500
 11
19.723801
 21
-16.799101
  0
LINE
  8
0
  6
CONTINUOUS
 62
7
 10
8.276100
 20
-16.799101
 11
13.223800
 21
-13.942500
  0
LINE
  8
0
  6
CONTINUOUS
 62
7
 10
13.223900
 20
-28.057400
 11
8.276120
 21
-25.200899
  0
LINE
  8
0
  6
CONTINUOUS
 62
7
 10
19.723801
 20
-25.200899
 11
14.776100
 21
-28.057400
  0
LINE
  8
0
  6
CONTINUOUS
 62
7
 10
7.500000
 20
-23.856600
 11
7.500000
 21
-18.143400
  0
LINE
  8
0
  6
CONTINUOUS
 62
7
 10
20.499901
 20
-18.143400
 11
20.499901
 21
-23.874300
  0
LINE
  8
0
  6
CENTER
 62
2
 10
23.039900
 20
-21.000000
 11
4.960020
 21
-21.000000
  0
LINE
  8
0
  6
CENTER
 62
2
 10
14.000000
 20
-11.960000
 11
14.000000
 21
-30.040001
  0
LINE
  8
0
  6
CENTER
 62
2
 10
-170.653000
 20
-99.500000
 11
-204.998001
 21
-99.500000
  0
LINE
  8
0
  6
CONTINUOUS
 62
7
 10
-196.500000
 20
-104.000000
 11
-202.000000
 21
-104.000000
  0
LINE
  8
0
  6
CONTINUOUS
 62
7
 10
-196.500000
 20
-95.000000
 11
-202.000000
 21
-95.000000
  0
LINE
  8
0
  6
CONTINUOUS
 62
7
 10
-196.500000
 20
-104.500000
 11
-196.500000
 21
-94.500000
  0
LINE
  8
0
  6
CONTINUOUS
 62
7
 10
-178.000000
 20
-104.000000
 11
-196.500000
 21
-104.000000
  0
LINE
  8
0
  6
CONTINUOUS
 62
7
 10
-178.000000
 20
-104.500000
 11
-196.500000
 21
-104.500000
  0
LINE
  8
0
  6
CONTINUOUS
 62
7
 10
-185.000000
 20
-95.000000
 11
-196.500000
 21
-95.000000
  0
LINE
  8
0
  6
CONTINUOUS
 62
7
 10
-185.000000
 20
-94.500000
 11
-196.500000
 21
-94.500000
  0
LINE
  8
0
  6
CONTINUOUS
 62
7
 10
-202.000000
 20
-104.000000
 11
-202.000000
 21
-95.000000
  0
LINE
  8
0
  6
CONTINUOUS
 62
7
 10
-178.000000
 20
-106.000000
 11
-175.000000
 21
-106.000000
  0
LINE
  8
0
  6
CONTINUOUS
 62
7
 10
-178.000000
 20
-105.223999
 11
-175.000000
 21
-105.223999
  0
LINE
  8
0
  6
CONTINUOUS
 62
7
 10
-175.000000
 20
-92.000000
 11
-175.000000
 21
-107.000000
  0
LINE
  8
0
  6
CONTINUOUS
 62
7
 10
-178.000000
 20
-98.723900
 11
-175.000000
 21
-98.723900
  0
LINE
  8
0
  6
CONTINUOUS
 62
7
 10
-178.000000
 20
-100.276001
 11
-175.000000
 21
-100.276001
  0
LINE
  8
0
  6
CONTINUOUS
 62
7
 10
-178.000000
 20
-93.000000
 11
-175.000000
 21
-93.000000
  0
LINE
  8
0
  6
CONTINUOUS
 62
7
 10
-178.000000
 20
-93.776100
 11
-175.000000
 21
-93.776100
  0
LINE
  8
0
  6
CONTINUOUS
 62
7
 10
-140.000000
 20
-92.000000
 11
-140.000000
 21
-103.500000
  0
LINE
  8
0
  6
CONTINUOUS
 62
7
 10
-140.000000
 20
-103.500000
 11
-130.000000
 21
-103.500000
  0
LINE
  8
0
  6
CONTINUOUS
 62
7
 10
-150.000000
 20
-92.000000
 11
-150.000000
 21
-107.000000
  0
LINE
  8
0
  6
CONTINUOUS
 62
7
 10
-175.000000
 20
-107.000000
 11
-150.000000
 21
-107.000000
  0
LINE
  8
0
  6
CONTINUOUS
 62
7
 10
-102.000000
 20
-93.000000
 11
-105.000000
 21
-93.000000
  0
LINE
  8
0
  6
CONTINUOUS
 62
7
 10
-102.000000
 20
-93.776100
 11
-105.000000
 21
-93.776100
  0
LINE
  8
0
  6
CONTINUOUS
 62
7
 10
-105.000000
 20
-107.000000
 11
-130.000000
 21
-107.000000
  0
LINE
  8
0
  6
CONTINUOUS
 62
7
 10
-130.000000
 20
-92.000000
 11
-130.000000
 21
-107.000000
  0
LINE
  8
0
  6
CONTINUOUS
 62
7
 10
-94.500000
 20
-92.500000
 11
-102.500000
 21
-92.500000
  0
LINE
  8
0
  6
CONTINUOUS
 62
7
 10
-95.000000
 20
-95.500000
 11
-102.000000
 21
-95.500000
  0
LINE
  8
0
  6
CENTER
 62
2
 10
-98.500000
 20
-96.598999
 11
-98.500000
 21
-90.385696
  0
LINE
  8
0
  6
CONTINUOUS
 62
7
 10
-94.500000
 20
-92.500000
 11
-94.500000
 21
-92.000000
  0
LINE
  8
0
  6
CONTINUOUS
 62
7
 10
-102.500000
 20
-92.500000
 11
-102.500000
 21
-92.000000
  0
LINE
  8
0
  6
CONTINUOUS
 62
7
 10
-98.500000
 20
-92.500000
 11
-98.500000
 21
-95.500000
  0
LINE
  8
0
  6
CONTINUOUS
 62
7
 10
-95.000000
 20
-92.500000
 11
-95.000000
 21
-95.500000
  0
LINE
  8
0
  6
CONTINUOUS
 62
7
 10
-102.000000
 20
-92.500000
 11
-102.000000
 21
-106.000000
  0
LINE
  8
0
  6
CENTER
 62
2
 10
-109.348000
 20
-99.500000
 11
-75.002098
 21
-99.500000
  0
LINE
  8
0
  6
CONTINUOUS
 62
7
 10
-83.500000
 20
-104.000000
 11
-78.000000
 21
-104.000000
  0
LINE
  8
0
  6
CONTINUOUS
 62
7
 10
-83.500000
 20
-95.000000
 11
-78.000000
 21
-95.000000
  0
LINE
  8
0
  6
CONTINUOUS
 62
7
 10
-83.500000
 20
-104.500000
 11
-83.500000
 21
-94.500000
  0
LINE
  8
0
  6
CONTINUOUS
 62
7
 10
-102.000000
 20
-104.000000
 11
-83.500000
 21
-104.000000
  0
LINE
  8
0
  6
CONTINUOUS
 62
7
 10
-102.000000
 20
-104.500000
 11
-83.500000
 21
-104.500000
  0
LINE
  8
0
  6
CONTINUOUS
 62
7
 10
-95.000000
 20
-95.000000
 11
-83.500000
 21
-95.000000
  0
LINE
  8
0
  6
CONTINUOUS
 62
7
 10
-95.000000
 20
-94.500000
 11
-83.500000
 21
-94.500000
  0
LINE
  8
0
  6
CONTINUOUS
 62
7
 10
-78.000000
 20
-104.000000
 11
-78.000000
 21
-95.000000
  0
LINE
  8
0
  6
CONTINUOUS
 62
7
 10
-102.000000
 20
-106.000000
 11
-105.000000
 21
-106.000000
  0
LINE
  8
0
  6
CONTINUOUS
 62
7
 10
-102.000000
 20
-105.223999
 11
-105.000000
 21
-105.223999
  0
LINE
  8
0
  6
CONTINUOUS
 62
7
 10
-105.000000
 20
-92.000000
 11
-105.000000
 21
-107.000000
  0
LINE
  8
0
  6
CONTINUOUS
 62
7
 10
-102.000000
 20
-98.723900
 11
-105.000000
 21
-98.723900
  0
LINE
  8
0
  6
CONTINUOUS
 62
7
 10
-102.000000
 20
-100.276001
 11
-105.000000
 21
-100.276001
  0
LINE
  8
0
  6
CONTINUOUS
 62
7
 10
-196.500000
 20
-16.500000
 11
-202.000000
 21
-16.500000
  0
LINE
  8
0
  6
CONTINUOUS
 62
7
 10
-196.500000
 20
-16.000000
 11
-196.500000
 21
-26.000000
  0
LINE
  8
0
  6
CONTINUOUS
 62
7
 10
-178.000000
 20
-16.500000
 11
-196.500000
 21
-16.500000
  0
LINE
  8
0
  6
CONTINUOUS
 62
7
 10
-178.000000
 20
-16.000000
 11
-196.500000
 21
-16.000000
  0
LINE
  8
0
  6
CONTINUOUS
 62
7
 10
-202.000000
 20
-16.500000
 11
-202.000000
 21
-20.250000
  0
LINE
  8
0
  6
CONTINUOUS
 62
7
 10
-202.000000
 20
-21.750000
 11
-202.000000
 21
-25.500000
  0
LINE
  8
0
  6
CONTINUOUS
 62
7
 10
-201.000000
 20
-21.750000
 11
-202.000000
 21
-21.750000
  0
LINE
  8
0
  6
CONTINUOUS
 62
7
 10
-201.000000
 20
-20.250000
 11
-202.000000
 21
-20.250000
  0
LINE
  8
0
  6
CONTINUOUS
 62
7
 10
-201.000000
 20
-20.250000
 11
-201.000000
 21
-21.750000
  0
LINE
  8
0
  6
CENTER
 62
2
 10
-184.026993
 20
-21.000000
 11
-204.000000
 21
-21.000000
  0
LINE
  8
0
  6
CONTINUOUS
 62
7
 10
-196.500000
 20
-25.500000
 11
-202.000000
 21
-25.500000
  0
LINE
  8
0
  6
CONTINUOUS
 62
7
 10
-188.000000
 20
-26.000000
 11
-196.500000
 21
-26.000000
  0
LINE
  8
0
  6
CONTINUOUS
 62
7
 10
-202.000000
 20
-25.500000
 11
-202.000000
 21
-21.750000
  0
LINE
  8
0
  6
CONTINUOUS
 62
7
 10
-188.000000
 20
-25.500000
 11
-196.500000
 21
-25.500000
  0
LINE
  8
0
  6
CONTINUOUS
 62
7
 10
-175.000000
 20
-13.500000
 11
-175.000000
 21
-20.000000
  0
LINE
  8
0
  6
CONTINUOUS
 62
7
 10
-175.000000
 20
-13.500000
 11
-175.000000
 21
-20.000000
  0
LINE
  8
0
  6
CONTINUOUS
 62
7
 10
-168.000000
 20
-13.500000
 11
-175.000000
 21
-13.500000
  0
LINE
  8
0
  6
CONTINUOUS
 62
7
 10
-168.000000
 20
-13.500000
 11
-168.000000
 21
-20.000000
  0
LINE
  8
0
  6
CONTINUOUS
 62
7
 10
-160.000000
 20
-14.500000
 11
-167.000000
 21
-14.500000
  0
LINE
  8
0
  6
CONTINUOUS
 62
7
 10
-167.000000
 20
-14.500000
 11
-167.000000
 21
-20.000000
  0
LINE
  8
0
  6
CONTINUOUS
 62
7
 10
-167.000000
 20
-16.000000
 11
-168.000000
 21
-16.000000
  0
LINE
  8
0
  6
CONTINUOUS
 62
7
 10
-178.000000
 20
-20.000000
 11
-178.000000
 21
-13.942600
  0
LINE
  8
0
  6
CONTINUOUS
 62
7
 10
-175.000000
 20
-16.799101
 11
-178.000000
 21
-16.799101
  0
LINE
  8
0
  6
CONTINUOUS
 62
7
 10
-175.000000
 20
-18.143400
 11
-178.000000
 21
-18.143400
  0
LINE
  8
0
  6
CONTINUOUS
 62
7
 10
-175.000000
 20
-13.942600
 11
-178.000000
 21
-13.942600
  0
LINE
  8
0
  6
CONTINUOUS
 62
7
 10
-160.000000
 20
-14.500000
 11
-160.000000
 21
-20.000000
  0
LINE
  8
0
  6
CONTINUOUS
 62
7
 10
-155.000000
 20
-19.500000
 11
-160.000000
 21
-19.500000
  0
LINE
  8
0
  6
CONTINUOUS
 62
7
 10
-83.500000
 20
-16.500000
 11
-78.000000
 21
-16.500000
  0
LINE
  8
0
  6
CONTINUOUS
 62
7
 10
-83.500000
 20
-16.000000
 11
-83.500000
 21
-26.000000
  0
LINE
  8
0
  6
CONTINUOUS
 62
7
 10
-102.000000
 20
-16.500000
 11
-83.500000
 21
-16.500000
  0
LINE
  8
0
  6
CONTINUOUS
 62
7
 10
-102.000000
 20
-16.000000
 11
-83.500000
 21
-16.000000
  0
LINE
  8
0
  6
CONTINUOUS
 62
7
 10
-78.000000
 20
-16.500000
 11
-78.000000
 21
-20.250000
  0
LINE
  8
0
  6
CONTINUOUS
 62
7
 10
-78.000000
 20
-21.750000
 11
-78.000000
 21
-25.500000
  0
LINE
  8
0
  6
CONTINUOUS
 62
7
 10
-79.000000
 20
-21.750000
 11
-78.000000
 21
-21.750000
  0
LINE
  8
0
  6
CONTINUOUS
 62
7
 10
-79.000000
 20
-20.250000
 11
-78.000000
 21
-20.250000
  0
LINE
  8
0
  6
CONTINUOUS
 62
7
 10
-79.000000
 20
-20.250000
 11
-79.000000
 21
-21.750000
  0
LINE
  8
0
  6
CENTER
 62
2
 10
-95.972702
 20
-21.000000
 11
-76.000000
 21
-21.000000
  0
LINE
  8
0
  6
CONTINUOUS
 62
7
 10
-83.500000
 20
-25.500000
 11
-78.000000
 21
-25.500000
  0
LINE
  8
0
  6
CONTINUOUS
 62
7
 10
-92.000000
 20
-26.000000
 11
-83.500000
 21
-26.000000
  0
LINE
  8
0
  6
CONTINUOUS
 62
7
 10
-78.000000
 20
-25.500000
 11
-78.000000
 21
-21.750000
  0
LINE
  8
0
  6
CONTINUOUS
 62
7
 10
-92.000000
 20
-25.500000
 11
-83.500000
 21
-25.500000
  0
LINE
  8
0
  6
CONTINUOUS
 62
7
 10
-102.000000
 20
-20.000000
 11
-102.000000
 21
-13.942600
  0
LINE
  8
0
  6
CONTINUOUS
 62
7
 10
-105.000000
 20
-16.799101
 11
-102.000000
 21
-16.799101
  0
LINE
  8
0
  6
CONTINUOUS
 62
7
 10
-105.000000
 20
-18.143400
 11
-102.000000
 21
-18.143400
  0
LINE
  8
0
  6
CONTINUOUS
 62
7
 10
-105.000000
 20
-13.942600
 11
-102.000000
 21
-13.942600
  0
LINE
  8
0
  6
CONTINUOUS
 62
7
 10
-178.000000
 20
48.276199
 11
-175.000000
 21
48.276199
  0
LINE
  8
0
  6
CONTINUOUS
 62
7
 10
-188.000000
 20
40.000000
 11
-140.000000
 21
40.000000
  0
LINE
  8
0
  6
CENTER
 62
2
 10
125.064003
 20
70.000000
 11
71.000000
 21
70.000000
  0
LINE
  8
0
  6
CONTINUOUS
 62
7
 10
-196.500000
 20
43.000000
 11
-202.000000
 21
43.000000
  0
LINE
  8
0
  6
CONTINUOUS
 62
7
 10
-196.500000
 20
52.000000
 11
-202.000000
 21
52.000000
  0
LINE
  8
0
  6
CONTINUOUS
 62
7
 10
-196.500000
 20
42.500000
 11
-196.500000
 21
52.500000
  0
LINE
  8
0
  6
CONTINUOUS
 62
7
 10
-178.000000
 20
43.000000
 11
-196.500000
 21
43.000000
  0
LINE
  8
0
  6
CONTINUOUS
 62
7
 10
-178.000000
 20
42.500000
 11
-196.500000
 21
42.500000
  0
LINE
  8
0
  6
CONTINUOUS
 62
7
 10
-177.955994
 20
52.000000
 11
-196.500000
 21
52.000000
  0
LINE
  8
0
  6
CONTINUOUS
 62
7
 10
-178.000000
 20
52.500000
 11
-196.500000
 21
52.500000
  0
LINE
  8
0
  6
CONTINUOUS
 62
7
 10
-202.000000
 20
74.500000
 11
-202.000000
 21
70.750000
  0
LINE
  8
0
  6
CONTINUOUS
 62
7
 10
-202.000000
 20
69.250000
 11
-202.000000
 21
65.500000
  0
LINE
  8
0
  6
CONTINUOUS
 62
7
 10
-201.000000
 20
69.250000
 11
-202.000000
 21
69.250000
  0
LINE
  8
0
  6
CONTINUOUS
 62
7
 10
-201.000000
 20
70.750000
 11
-202.000000
 21
70.750000
  0
LINE
  8
0
  6
CONTINUOUS
 62
7
 10
-201.000000
 20
70.750000
 11
-201.000000
 21
69.250000
  0
LINE
  8
0
  6
CONTINUOUS
 62
7
 10
-178.000000
 20
46.723900
 11
-175.000000
 21
46.723900
  0
LINE
  8
0
  6
CONTINUOUS
 62
7
 10
-160.000000
 20
41.000000
 11
-167.000000
 21
41.000000
  0
LINE
  8
0
  6
CONTINUOUS
 62
7
 10
-160.000000
 20
54.000000
 11
-167.000000
 21
54.000000
  0
LINE
  8
0
  6
CONTINUOUS
 62
7
 10
-178.000000
 20
54.000000
 11
-178.000000
 21
40.500000
  0
LINE
  8
0
  6
CONTINUOUS
 62
7
 10
122.000000
 20
68.500000
 11
115.000000
 21
68.500000
  0
LINE
  8
0
  6
CONTINUOUS
 62
7
 10
122.000000
 20
71.500000
 11
115.000000
 21
71.500000
  0
LINE
  8
0
  6
CONTINUOUS
 62
7
 10
-160.000000
 20
41.000000
 11
-160.000000
 21
54.000000
  0
LINE
  8
0
  6
CONTINUOUS
 62
7
 10
-167.000000
 20
41.000000
 11
-167.000000
 21
54.000000
  0
LINE
  8
0
  6
CONTINUOUS
 62
7
 10
-167.000000
 20
52.500000
 11
-168.000000
 21
52.500000
  0
LINE
  8
0
  6
CONTINUOUS
 62
7
 10
122.000000
 20
68.500000
 11
122.000000
 21
71.500000
  0
LINE
  8
0
  6
CONTINUOUS
 62
7
 10
-167.000000
 20
42.500000
 11
-168.000000
 21
42.500000
  0
LINE
  8
0
  6
CONTINUOUS
 62
7
 10
-150.000000
 20
55.000000
 11
-150.000000
 21
40.000000
  0
LINE
  8
0
  6
CONTINUOUS
 62
7
 10
-175.000000
 20
55.000000
 11
-150.000000
 21
55.000000
  0
LINE
  8
0
  6
CONTINUOUS
 62
7
 10
-175.000000
 20
55.000000
 11
-175.000000
 21
40.000000
  0
LINE
  8
0
  6
CONTINUOUS
 62
7
 10
-168.000000
 20
55.000000
 11
-168.000000
 21
40.000000
  0
LINE
  8
0
  6
CONTINUOUS
 62
7
 10
-178.000000
 20
54.000000
 11
-175.000000
 21
54.000000
  0
LINE
  8
0
  6
CONTINUOUS
 62
7
 10
-178.000000
 20
53.223900
 11
-175.000000
 21
53.223900
  0
LINE
  8
0
  6
CONTINUOUS
 62
7
 10
-178.000000
 20
41.776199
 11
-175.000000
 21
41.776199
  0
LINE
  8
0
  6
CONTINUOUS
 62
7
 10
-178.000000
 20
41.000000
 11
-175.000000
 21
41.000000
  0
LINE
  8
0
  6
CONTINUOUS
 62
7
 10
-140.000000
 20
51.500000
 11
-140.000000
 21
39.500000
  0
LINE
  8
0
  6
CONTINUOUS
 62
7
 10
-140.000000
 20
51.500000
 11
-120.000000
 21
51.500000
  0
LINE
  8
0
  6
CONTINUOUS
 62
7
 10
-120.000000
 20
40.000000
 11
-92.000000
 21
40.000000
  0
LINE
  8
0
  6
CONTINUOUS
 62
7
 10
-102.000000
 20
53.223900
 11
-105.000000
 21
53.223900
  0
LINE
  8
0
  6
CONTINUOUS
 62
7
 10
-94.500000
 20
40.500000
 11
-102.500000
 21
40.500000
  0
LINE
  8
0
  6
CONTINUOUS
 62
7
 10
-94.500000
 20
40.500000
 11
-94.500000
 21
40.000000
  0
LINE
  8
0
  6
CONTINUOUS
 62
7
 10
-95.000000
 20
40.500000
 11
-95.000000
 21
42.500000
  0
LINE
  8
0
  6
CONTINUOUS
 62
7
 10
-102.000000
 20
41.776199
 11
-105.000000
 21
41.776199
  0
LINE
  8
0
  6
CENTER
 62
2
 10
-122.825996
 20
47.500000
 11
-76.000000
 21
47.500000
  0
LINE
  8
0
  6
CONTINUOUS
 62
7
 10
-83.500000
 20
43.000000
 11
-78.000000
 21
43.000000
  0
LINE
  8
0
  6
CONTINUOUS
 62
7
 10
-83.500000
 20
52.000000
 11
-78.000000
 21
52.000000
  0
LINE
  8
0
  6
CONTINUOUS
 62
7
 10
-83.500000
 20
42.500000
 11
-83.500000
 21
52.500000
  0
LINE
  8
0
  6
CONTINUOUS
 62
7
 10
-102.000000
 20
43.000000
 11
-83.500000
 21
43.000000
  0
LINE
  8
0
  6
CONTINUOUS
 62
7
 10
-102.000000
 20
42.500000
 11
-83.500000
 21
42.500000
  0
LINE
  8
0
  6
CONTINUOUS
 62
7
 10
-102.043999
 20
52.000000
 11
-83.500000
 21
52.000000
  0
LINE
  8
0
  6
CONTINUOUS
 62
7
 10
-102.000000
 20
52.500000
 11
-83.500000
 21
52.500000
  0
LINE
  8
0
  6
CONTINUOUS
 62
7
 10
-78.000000
 20
74.500000
 11
-78.000000
 21
70.750000
  0
LINE
  8
0
  6
CONTINUOUS
 62
7
 10
-78.000000
 20
69.250000
 11
-78.000000
 21
65.500000
  0
LINE
  8
0
  6
CONTINUOUS
 62
7
 10
-79.000000
 20
69.250000
 11
-78.000000
 21
69.250000
  0
LINE
  8
0
  6
CONTINUOUS
 62
7
 10
-79.000000
 20
70.750000
 11
-78.000000
 21
70.750000
  0
LINE
  8
0
  6
CONTINUOUS
 62
7
 10
-79.000000
 20
70.750000
 11
-79.000000
 21
69.250000
  0
LINE
  8
0
  6
CONTINUOUS
 62
7
 10
-102.000000
 20
41.000000
 11
-105.000000
 21
41.000000
  0
LINE
  8
0
  6
CENTER
 62
2
 10
-98.500000
 20
44.598999
 11
-98.500000
 21
38.385700
  0
LINE
  8
0
  6
CONTINUOUS
 62
7
 10
-102.500000
 20
40.500000
 11
-102.500000
 21
40.000000
  0
LINE
  8
0
  6
CONTINUOUS
 62
7
 10
-98.500000
 20
40.500000
 11
-98.500000
 21
42.500000
  0
LINE
  8
0
  6
CONTINUOUS
 62
7
 10
-102.000000
 20
48.276199
 11
-105.000000
 21
48.276199
  0
LINE
  8
0
  6
CONTINUOUS
 62
7
 10
-102.000000
 20
46.723900
 11
-105.000000
 21
46.723900
  0
LINE
  8
0
  6
CONTINUOUS
 62
7
 10
-120.000000
 20
41.000000
 11
-113.000000
 21
41.000000
  0
LINE
  8
0
  6
CONTINUOUS
 62
7
 10
-120.000000
 20
54.000000
 11
-113.000000
 21
54.000000
  0
LINE
  8
0
  6
CONTINUOUS
 62
7
 10
-102.000000
 20
54.000000
 11
-102.000000
 21
40.500000
  0
LINE
  8
0
  6
CONTINUOUS
 62
7
 10
-105.000000
 20
55.000000
 11
-105.000000
 21
40.000000
  0
LINE
  8
0
  6
CONTINUOUS
 62
7
 10
-102.000000
 20
54.000000
 11
-105.000000
 21
54.000000
  0
LINE
  8
0
  6
CONTINUOUS
 62
7
 10
-120.000000
 20
39.500000
 11
-120.000000
 21
54.000000
  0
LINE
  8
0
  6
CONTINUOUS
 62
7
 10
-113.000000
 20
41.000000
 11
-113.000000
 21
54.000000
  0
LINE
  8
0
  6
CONTINUOUS
 62
7
 10
-113.000000
 20
52.500000
 11
-112.000000
 21
52.500000
  0
LINE
  8
0
  6
CONTINUOUS
 62
7
 10
-112.000000
 20
55.000000
 11
-112.000000
 21
40.000000
  0
LINE
  8
0
  6
CONTINUOUS
 62
7
 10
-113.000000
 20
42.500000
 11
-112.000000
 21
42.500000
  0
LINE
  8
0
  6
CONTINUOUS
 62
7
 10
-130.000000
 20
55.000000
 11
-130.000000
 21
51.500000
  0
LINE
  8
0
  6
CONTINUOUS
 62
7
 10
-105.000000
 20
55.000000
 11
-130.000000
 21
55.000000
  0
LINE
  8
0
  6
CONTINUOUS
 62
7
 10
-175.000000
 20
62.500000
 11
-175.000000
 21
88.500000
  0
LINE
  8
0
  6
CONTINUOUS
 62
7
 10
-168.000000
 20
62.500000
 11
-175.000000
 21
62.500000
  0
LINE
  8
0
  6
CONTINUOUS
 62
7
 10
-168.000000
 20
62.500000
 11
-168.000000
 21
76.000000
  0
LINE
  8
0
  6
CONTINUOUS
 62
7
 10
-167.000000
 20
63.500000
 11
-167.000000
 21
76.500000
  0
LINE
  8
0
  6
CONTINUOUS
 62
7
 10
-167.000000
 20
75.000000
 11
-168.000000
 21
75.000000
  0
LINE
  8
0
  6
CENTER
 62
2
 10
-149.936005
 20
70.000000
 11
-204.000000
 21
70.000000
  0
LINE
  8
0
  6
CONTINUOUS
 62
7
 10
-196.500000
 20
65.500000
 11
-202.000000
 21
65.500000
  0
LINE
  8
0
  6
CONTINUOUS
 62
7
 10
-196.500000
 20
74.500000
 11
-202.000000
 21
74.500000
  0
LINE
  8
0
  6
CONTINUOUS
 62
7
 10
-196.500000
 20
65.000000
 11
-196.500000
 21
75.000000
  0
LINE
  8
0
  6
CONTINUOUS
 62
7
 10
-178.000000
 20
65.500000
 11
-196.500000
 21
65.500000
  0
LINE
  8
0
  6
CONTINUOUS
 62
7
 10
-178.000000
 20
65.000000
 11
-196.500000
 21
65.000000
  0
LINE
  8
0
  6
CONTINUOUS
 62
7
 10
-178.000000
 20
74.500000
 11
-196.500000
 21
74.500000
  0
LINE
  8
0
  6
CONTINUOUS
 62
7
 10
-178.000000
 20
75.000000
 11
-196.500000
 21
75.000000
  0
LINE
  8
0
  6
CONTINUOUS
 62
7
 10
-202.000000
 20
52.000000
 11
-202.000000
 21
43.000000
  0
LINE
  8
0
  6
CONTINUOUS
 62
7
 10
-178.000000
 20
77.057404
 11
-178.000000
 21
62.942501
  0
LINE
  8
0
  6
CONTINUOUS
 62
7
 10
-175.000000
 20
65.799103
 11
-178.000000
 21
65.799103
  0
LINE
  8
0
  6
CONTINUOUS
 62
7
 10
-175.000000
 20
67.143402
 11
-178.000000
 21
67.143402
  0
LINE
  8
0
  6
CONTINUOUS
 62
7
 10
-175.000000
 20
72.856598
 11
-178.000000
 21
72.856598
  0
LINE
  8
0
  6
CONTINUOUS
 62
7
 10
-175.000000
 20
77.057404
 11
-178.000000
 21
77.057404
  0
LINE
  8
0
  6
CONTINUOUS
 62
7
 10
-175.000000
 20
74.200897
 11
-178.000000
 21
74.200897
  0
LINE
  8
0
  6
CONTINUOUS
 62
7
 10
-175.000000
 20
62.942501
 11
-178.000000
 21
62.942501
  0
LINE
  8
0
  6
CONTINUOUS
 62
7
 10
-153.000000
 20
71.500000
 11
-160.000000
 21
71.500000
  0
LINE
  8
0
  6
CONTINUOUS
 62
7
 10
-153.000000
 20
68.500000
 11
-160.000000
 21
68.500000
  0
LINE
  8
0
  6
CONTINUOUS
 62
7
 10
-160.000000
 20
63.500000
 11
-160.000000
 21
76.500000
  0
LINE
  8
0
  6
CONTINUOUS
 62
7
 10
-167.000000
 20
65.000000
 11
-168.000000
 21
65.000000
  0
LINE
  8
0
  6
CONTINUOUS
 62
7
 10
-160.000000
 20
63.500000
 11
-167.000000
 21
63.500000
  0
LINE
  8
0
  6
CONTINUOUS
 62
7
 10
-150.000000
 20
88.500000
 11
-175.000000
 21
88.500000
  0
LINE
  8
0
  6
CONTINUOUS
 62
7
 10
-150.000000
 20
78.500000
 11
-150.000000
 21
88.500000
  0
LINE
  8
0
  6
CONTINUOUS
 62
7
 10
-150.000000
 20
78.500000
 11
-165.500000
 21
78.500000
  0
LINE
  8
0
  6
CONTINUOUS
 62
7
 10
-153.000000
 20
68.500000
 11
-153.000000
 21
71.500000
  0
LINE
  8
0
  6
CONTINUOUS
 62
7
 10
-140.000000
 20
61.500000
 11
-140.000000
 21
75.500000
  0
LINE
  8
0
  6
CONTINUOUS
 62
7
 10
-120.000000
 20
75.500000
 11
-140.000000
 21
75.500000
  0
LINE
  8
0
  6
CONTINUOUS
 62
7
 10
-120.000000
 20
61.500000
 11
-140.000000
 21
61.500000
  0
LINE
  8
0
  6
CONTINUOUS
 62
7
 10
-178.000000
 20
76.500000
 11
-188.000000
 21
76.500000
  0
LINE
  8
0
  6
CENTER
 62
2
 10
-123.377998
 20
70.000000
 11
-76.000000
 21
70.000000
  0
LINE
  8
0
  6
CONTINUOUS
 62
7
 10
-83.500000
 20
65.500000
 11
-78.000000
 21
65.500000
  0
LINE
  8
0
  6
CONTINUOUS
 62
7
 10
-83.500000
 20
74.500000
 11
-78.000000
 21
74.500000
  0
LINE
  8
0
  6
CONTINUOUS
 62
7
 10
-83.500000
 20
65.000000
 11
-83.500000
 21
75.000000
  0
LINE
  8
0
  6
CONTINUOUS
 62
7
 10
-102.000000
 20
65.500000
 11
-83.500000
 21
65.500000
  0
LINE
  8
0
  6
CONTINUOUS
 62
7
 10
-102.000000
 20
65.000000
 11
-83.500000
 21
65.000000
  0
LINE
  8
0
  6
CONTINUOUS
 62
7
 10
-102.000000
 20
74.500000
 11
-83.500000
 21
74.500000
  0
LINE
  8
0
  6
CONTINUOUS
 62
7
 10
-102.000000
 20
75.000000
 11
-83.500000
 21
75.000000
  0
LINE
  8
0
  6
CONTINUOUS
 62
7
 10
-78.000000
 20
52.000000
 11
-78.000000
 21
43.000000
  0
LINE
  8
0
  6
CONTINUOUS
 62
7
 10
-105.000000
 20
60.700001
 11
-105.000000
 21
88.500000
  0
LINE
  8
0
  6
CONTINUOUS
 62
7
 10
-112.000000
 20
62.500000
 11
-105.000000
 21
62.500000
  0
LINE
  8
0
  6
CONTINUOUS
 62
7
 10
-102.000000
 20
77.057404
 11
-102.000000
 21
62.942501
  0
LINE
  8
0
  6
CONTINUOUS
 62
7
 10
-105.000000
 20
65.799103
 11
-102.000000
 21
65.799103
  0
LINE
  8
0
  6
CONTINUOUS
 62
7
 10
-105.000000
 20
67.143402
 11
-102.000000
 21
67.143402
  0
LINE
  8
0
  6
CONTINUOUS
 62
7
 10
-105.000000
 20
72.856598
 11
-102.000000
 21
72.856598
  0
LINE
  8
0
  6
CONTINUOUS
 62
7
 10
-105.000000
 20
77.057404
 11
-102.000000
 21
77.057404
  0
LINE
  8
0
  6
CONTINUOUS
 62
7
 10
-105.000000
 20
74.200897
 11
-102.000000
 21
74.200897
  0
LINE
  8
0
  6
CONTINUOUS
 62
7
 10
-105.000000
 20
62.942501
 11
-102.000000
 21
62.942501
  0
LINE
  8
0
  6
CONTINUOUS
 62
7
 10
-130.000000
 20
88.500000
 11
-105.000000
 21
88.500000
  0
LINE
  8
0
  6
CONTINUOUS
 62
7
 10
-130.000000
 20
78.500000
 11
-130.000000
 21
88.500000
  0
LINE
  8
0
  6
CONTINUOUS
 62
7
 10
-130.000000
 20
78.500000
 11
-114.500000
 21
78.500000
  0
LINE
  8
0
  6
CONTINUOUS
 62
7
 10
-112.000000
 20
62.500000
 11
-112.000000
 21
76.000000
  0
LINE
  8
0
  6
CONTINUOUS
 62
7
 10
-113.000000
 20
65.000000
 11
-112.000000
 21
65.000000
  0
LINE
  8
0
  6
CONTINUOUS
 62
7
 10
-113.000000
 20
75.000000
 11
-112.000000
 21
75.000000
  0
LINE
  8
0
  6
CONTINUOUS
 62
7
 10
-113.000000
 20
63.500000
 11
-113.000000
 21
76.500000
  0
LINE
  8
0
  6
CONTINUOUS
 62
7
 10
-120.000000
 20
61.500000
 11
-120.000000
 21
76.500000
  0
LINE
  8
0
  6
CONTINUOUS
 62
7
 10
-120.000000
 20
63.500000
 11
-113.000000
 21
63.500000
  0
LINE
  8
0
  6
CONTINUOUS
 62
7
 10
-155.000000
 20
68.500000
 11
-155.000000
 21
60.700001
  0
LINE
  8
0
  6
CONTINUOUS
 62
7
 10
-112.000000
 20
76.500000
 11
-167.949997
 21
76.500000
  0
LINE
  8
0
  6
CONTINUOUS
 62
7
 10
258.500000
 20
-27.500000
 11
248.000000
 21
-27.500000
  0
LINE
  8
0
  6
CONTINUOUS
 62
7
 10
217.500000
 20
-27.500000
 11
228.000000
 21
-27.500000
  0
LINE
  8
0
  6
CONTINUOUS
 62
7
 10
228.000000
 20
-20.000000
 11
228.000000
 21
-21.513399
  0
LINE
  8
0
  6
CONTINUOUS
 62
7
 10
228.000000
 20
-24.486601
 11
228.000000
 21
-27.500000
  0
LINE
  8
0
  6
CONTINUOUS
 62
7
 10
258.500000
 20
-40.000000
 11
217.500000
 21
-40.000000
  0
LINE
  8
0
  6
CONTINUOUS
 62
7
 10
248.000000
 20
-20.000000
 11
228.000000
 21
-20.000000
  0
LINE
  8
0
  6
CENTER
 62
2
 10
238.000000
 20
-9.500000
 11
238.000000
 21
-41.500000
  0
LINE
  8
0
  6
CONTINUOUS
 62
7
 10
230.000000
 20
-23.600000
 11
230.000000
 21
-22.400000
  0
LINE
  8
0
  6
CONTINUOUS
 62
7
 10
230.000000
 20
-22.400000
 11
229.093002
 21
-22.240101
  0
LINE
  8
0
  6
CONTINUOUS
 62
7
 10
230.000000
 20
-23.600000
 11
229.093002
 21
-23.759899
  0
LINE
  8
0
  6
CONTINUOUS
 62
7
 10
246.000000
 20
-23.600000
 11
246.000000
 21
-22.400000
  0
LINE
  8
0
  6
CONTINUOUS
 62
7
 10
246.000000
 20
-22.400000
 11
246.906998
 21
-22.240101
  0
LINE
  8
0
  6
CONTINUOUS
 62
7
 10
246.000000
 20
-23.600000
 11
246.906998
 21
-23.759899
  0
LINE
  8
0
  6
CONTINUOUS
 62
7
 10
258.000000
 20
-26.000000
 11
248.000000
 21
-26.000000
  0
LINE
  8
0
  6
CONTINUOUS
 62
7
 10
228.000000
 20
-26.000000
 11
218.000000
 21
-26.000000
  0
LINE
  8
0
  6
CONTINUOUS
 62
7
 10
247.899994
 20
-11.600000
 11
228.100006
 21
-11.600000
  0
LINE
  8
0
  6
CONTINUOUS
 62
7
 10
218.000000
 20
-26.000000
 11
218.000000
 21
-11.000000
  0
LINE
  8
0
  6
CONTINUOUS
 62
7
 10
227.500000
 20
-11.000000
 11
218.000000
 21
-11.000000
  0
LINE
  8
0
  6
CONTINUOUS
 62
7
 10
227.500000
 20
-11.000000
 11
228.100006
 21
-11.600000
  0
LINE
  8
0
  6
CONTINUOUS
 62
7
 10
258.000000
 20
-26.000000
 11
258.000000
 21
-11.000000
  0
LINE
  8
0
  6
CENTER
 62
2
 10
249.039993
 20
-30.000000
 11
226.960007
 21
-30.000000
  0
LINE
  8
0
  6
CONTINUOUS
 62
7
 10
262.000000
 20
-37.541500
 11
262.000000
 21
-29.458599
  0
LINE
  8
0
  6
CONTINUOUS
 62
7
 10
262.000000
 20
-37.541500
 11
258.500000
 21
-37.541500
  0
LINE
  8
0
  6
CONTINUOUS
 62
7
 10
262.000000
 20
-35.562901
 11
259.000000
 21
-35.562901
  0
LINE
  8
0
  6
CENTER
 62
2
 10
263.488007
 20
-33.500000
 11
257.540009
 21
-33.500000
  0
LINE
  8
0
  6
CONTINUOUS
 62
7
 10
262.000000
 20
-31.437201
 11
259.000000
 21
-31.437201
  0
LINE
  8
0
  6
CONTINUOUS
 62
7
 10
262.000000
 20
-29.458599
 11
258.500000
 21
-29.458599
  0
LINE
  8
0
  6
CONTINUOUS
 62
7
 10
259.000000
 20
-37.541500
 11
259.000000
 21
-29.458599
  0
LINE
  8
0
  6
CONTINUOUS
 62
7
 10
235.690994
 20
-15.199900
 11
236.845001
 21
-13.199900
  0
LINE
  8
0
  6
CONTINUOUS
 62
7
 10
239.154999
 20
-17.200001
 11
240.309006
 21
-15.200000
  0
LINE
  8
0
  6
CONTINUOUS
 62
7
 10
239.154999
 20
-17.200001
 11
236.845001
 21
-17.200001
  0
LINE
  8
0
  6
CONTINUOUS
 62
7
 10
239.154999
 20
-13.200000
 11
236.845001
 21
-13.200000
  0
LINE
  8
0
  6
CONTINUOUS
 62
7
 10
236.845001
 20
-17.200001
 11
235.690994
 21
-15.200000
  0
LINE
  8
0
  6
CONTINUOUS
 62
7
 10
240.309006
 20
-15.200000
 11
239.154999
 21
-13.200000
  0
LINE
  8
0
  6
CENTER
 62
2
 10
241.809006
 20
-15.200000
 11
234.190994
 21
-15.200000
  0
LINE
  8
0
  6
CONTINUOUS
 62
7
 10
248.500000
 20
-11.000000
 11
247.899994
 21
-11.600000
  0
LINE
  8
0
  6
CONTINUOUS
 62
7
 10
248.500000
 20
-11.000000
 11
258.000000
 21
-11.000000
  0
LINE
  8
0
  6
CONTINUOUS
 62
7
 10
248.000000
 20
-20.000000
 11
248.000000
 21
-21.513399
  0
LINE
  8
0
  6
CONTINUOUS
 62
7
 10
248.000000
 20
-24.486601
 11
248.000000
 21
-27.500000
  0
LINE
  8
0
  6
CONTINUOUS
 62
7
 10
217.500000
 20
-27.500000
 11
217.500000
 21
-40.000000
  0
LINE
  8
0
  6
CONTINUOUS
 62
7
 10
258.500000
 20
-13.500000
 11
258.500000
 21
-40.000000
  0
LINE
  8
0
  6
CONTINUOUS
 62
7
 10
273.500000
 20
-39.500000
 11
258.500000
 21
-39.500000
  0
LINE
  8
0
  6
CONTINUOUS
 62
7
 10
270.000000
 20
-12.500000
 11
258.000000
 21
-12.500000
  0
LINE
  8
0
  6
CONTINUOUS
 62
7
 10
270.000000
 20
-13.500000
 11
270.000000
 21
-12.500000
  0
LINE
  8
0
  6
CONTINUOUS
 62
7
 10
273.500000
 20
-13.500000
 11
273.500000
 21
-39.500000
  0
LINE
  8
0
  6
CONTINUOUS
 62
7
 10
273.500000
 20
-13.500000
 11
258.500000
 21
-13.500000
  0
LINE
  8
0
  6
CONTINUOUS
 62
7
 10
261.057007
 20
-21.750000
 11
263.782990
 21
-21.750000
  0
LINE
  8
0
  6
CONTINUOUS
 62
7
 10
261.057007
 20
-20.250000
 11
263.782990
 21
-20.250000
  0
LINE
  8
0
  6
CONTINUOUS
 62
7
 10
268.217010
 20
-20.250000
 11
270.942993
 21
-20.250000
  0
LINE
  8
0
  6
CONTINUOUS
 62
7
 10
268.217010
 20
-21.750000
 11
270.942993
 21
-21.750000
  0
LINE
  8
0
  6
CONTINUOUS
 62
7
 10
265.223999
 20
-13.942500
 11
260.276001
 21
-16.799101
  0
LINE
  8
0
  6
CONTINUOUS
 62
7
 10
271.723999
 20
-16.799200
 11
266.776001
 21
-13.942600
  0
LINE
  8
0
  6
CONTINUOUS
 62
7
 10
266.776001
 20
-28.057400
 11
271.723999
 21
-25.200800
  0
LINE
  8
0
  6
CONTINUOUS
 62
7
 10
260.276001
 20
-25.200899
 11
265.223999
 21
-28.057501
  0
LINE
  8
0
  6
CONTINUOUS
 62
7
 10
272.500000
 20
-23.856600
 11
272.500000
 21
-18.143400
  0
LINE
  8
0
  6
CONTINUOUS
 62
7
 10
259.500000
 20
-18.143400
 11
259.500000
 21
-23.874300
  0
LINE
  8
0
  6
CENTER
 62
2
 10
256.959991
 20
-21.000000
 11
275.040009
 21
-21.000000
  0
LINE
  8
0
  6
CENTER
 62
2
 10
266.000000
 20
-11.960000
 11
266.000000
 21
-30.040001
  0
LINE
  8
0
  6
CONTINUOUS
 62
7
 10
207.000000
 20
-104.000000
 11
207.000000
 21
-95.000000
  0
LINE
  8
0
  6
CONTINUOUS
 62
7
 10
183.000000
 20
-94.500000
 11
193.000000
 21
-94.500000
  0
LINE
  8
0
  6
CONTINUOUS
 62
7
 10
145.000000
 20
-92.000000
 11
145.000000
 21
-103.500000
  0
LINE
  8
0
  6
CONTINUOUS
 62
7
 10
145.000000
 20
-103.500000
 11
155.000000
 21
-103.500000
  0
LINE
  8
0
  6
CONTINUOUS
 62
7
 10
183.000000
 20
-93.000000
 11
180.000000
 21
-93.000000
  0
LINE
  8
0
  6
CONTINUOUS
 62
7
 10
183.000000
 20
-93.776100
 11
180.000000
 21
-93.776100
  0
LINE
  8
0
  6
CONTINUOUS
 62
7
 10
180.000000
 20
-107.000000
 11
155.000000
 21
-107.000000
  0
LINE
  8
0
  6
CONTINUOUS
 62
7
 10
155.000000
 20
-92.000000
 11
155.000000
 21
-107.000000
  0
LINE
  8
0
  6
CENTER
 62
2
 10
175.651993
 20
-99.500000
 11
209.998001
 21
-99.500000
  0
LINE
  8
0
  6
CONTINUOUS
 62
7
 10
183.000000
 20
-106.000000
 11
180.000000
 21
-106.000000
  0
LINE
  8
0
  6
CONTINUOUS
 62
7
 10
183.000000
 20
-105.223999
 11
180.000000
 21
-105.223999
  0
LINE
  8
0
  6
CONTINUOUS
 62
7
 10
180.000000
 20
-92.000000
 11
180.000000
 21
-107.000000
  0
LINE
  8
0
  6
CONTINUOUS
 62
7
 10
183.000000
 20
-98.723900
 11
180.000000
 21
-98.723900
  0
LINE
  8
0
  6
CONTINUOUS
 62
7
 10
183.000000
 20
-100.276001
 11
180.000000
 21
-100.276001
  0
LINE
  8
0
  6
CONTINUOUS
 62
7
 10
183.000000
 20
-92.000000
 11
183.000000
 21
-106.000000
  0
LINE
  8
0
  6
CONTINUOUS
 62
7
 10
201.500000
 20
-104.000000
 11
207.000000
 21
-104.000000
  0
LINE
  8
0
  6
CONTINUOUS
 62
7
 10
201.500000
 20
-95.000000
 11
207.000000
 21
-95.000000
  0
LINE
  8
0
  6
CONTINUOUS
 62
7
 10
201.500000
 20
-104.500000
 11
201.500000
 21
-94.500000
  0
LINE
  8
0
  6
CONTINUOUS
 62
7
 10
183.000000
 20
-104.000000
 11
201.500000
 21
-104.000000
  0
LINE
  8
0
  6
CONTINUOUS
 62
7
 10
183.000000
 20
-104.500000
 11
201.500000
 21
-104.500000
  0
LINE
  8
0
  6
CONTINUOUS
 62
7
 10
183.000000
 20
-95.000000
 11
193.000000
 21
-95.000000
  0
LINE
  8
0
  6
CONTINUOUS
 62
7
 10
200.000000
 20
-94.500000
 11
201.500000
 21
-94.500000
  0
LINE
  8
0
  6
CONTINUOUS
 62
7
 10
200.000000
 20
-95.000000
 11
201.500000
 21
-95.000000
  0
LINE
  8
0
  6
CONTINUOUS
 62
7
 10
73.000000
 20
-104.000000
 11
73.000000
 21
-95.000000
  0
LINE
  8
0
  6
CONTINUOUS
 62
7
 10
97.000000
 20
-94.500000
 11
87.000000
 21
-94.500000
  0
LINE
  8
0
  6
CONTINUOUS
 62
7
 10
97.000000
 20
-93.000000
 11
100.000000
 21
-93.000000
  0
LINE
  8
0
  6
CONTINUOUS
 62
7
 10
97.000000
 20
-93.776100
 11
100.000000
 21
-93.776100
  0
LINE
  8
0
  6
CONTINUOUS
 62
7
 10
100.000000
 20
-107.000000
 11
125.000000
 21
-107.000000
  0
LINE
  8
0
  6
CONTINUOUS
 62
7
 10
125.000000
 20
-92.000000
 11
125.000000
 21
-107.000000
  0
LINE
  8
0
  6
CENTER
 62
2
 10
104.347000
 20
-99.500000
 11
70.002098
 21
-99.500000
  0
LINE
  8
0
  6
CONTINUOUS
 62
7
 10
97.000000
 20
-106.000000
 11
100.000000
 21
-106.000000
  0
LINE
  8
0
  6
CONTINUOUS
 62
7
 10
97.000000
 20
-105.223999
 11
100.000000
 21
-105.223999
  0
LINE
  8
0
  6
CONTINUOUS
 62
7
 10
100.000000
 20
-92.000000
 11
100.000000
 21
-107.000000
  0
LINE
  8
0
  6
CONTINUOUS
 62
7
 10
97.000000
 20
-98.723900
 11
100.000000
 21
-98.723900
  0
LINE
  8
0
  6
CONTINUOUS
 62
7
 10
97.000000
 20
-100.276001
 11
100.000000
 21
-100.276001
  0
LINE
  8
0
  6
CONTINUOUS
 62
7
 10
97.000000
 20
-92.000000
 11
97.000000
 21
-106.000000
  0
LINE
  8
0
  6
CONTINUOUS
 62
7
 10
78.500000
 20
-104.000000
 11
73.000000
 21
-104.000000
  0
LINE
  8
0
  6
CONTINUOUS
 62
7
 10
78.500000
 20
-95.000000
 11
73.000000
 21
-95.000000
  0
LINE
  8
0
  6
CONTINUOUS
 62
7
 10
78.500000
 20
-104.500000
 11
78.500000
 21
-94.500000
  0
LINE
  8
0
  6
CONTINUOUS
 62
7
 10
97.000000
 20
-104.000000
 11
78.500000
 21
-104.000000
  0
LINE
  8
0
  6
CONTINUOUS
 62
7
 10
97.000000
 20
-104.500000
 11
78.500000
 21
-104.500000
  0
LINE
  8
0
  6
CONTINUOUS
 62
7
 10
97.000000
 20
-95.000000
 11
87.000000
 21
-95.000000
  0
LINE
  8
0
  6
CONTINUOUS
 62
7
 10
80.000000
 20
-94.500000
 11
78.500000
 21
-94.500000
  0
LINE
  8
0
  6
CONTINUOUS
 62
7
 10
80.000000
 20
-95.000000
 11
78.500000
 21
-95.000000
  0
LINE
  8
0
  6
CONTINUOUS
 62
7
 10
78.500000
 20
-16.500000
 11
73.000000
 21
-16.500000
  0
LINE
  8
0
  6
CONTINUOUS
 62
7
 10
78.500000
 20
-16.000000
 11
78.500000
 21
-20.000000
  0
LINE
  8
0
  6
CONTINUOUS
 62
7
 10
97.000000
 20
-16.500000
 11
78.500000
 21
-16.500000
  0
LINE
  8
0
  6
CONTINUOUS
 62
7
 10
97.000000
 20
-16.000000
 11
78.500000
 21
-16.000000
  0
LINE
  8
0
  6
CONTINUOUS
 62
7
 10
73.000000
 20
-16.500000
 11
73.000000
 21
-20.250000
  0
LINE
  8
0
  6
CONTINUOUS
 62
7
 10
73.000000
 20
-21.750000
 11
73.000000
 21
-25.500000
  0
LINE
  8
0
  6
CONTINUOUS
 62
7
 10
74.000000
 20
-21.750000
 11
73.000000
 21
-21.750000
  0
LINE
  8
0
  6
CONTINUOUS
 62
7
 10
74.000000
 20
-20.250000
 11
73.000000
 21
-20.250000
  0
LINE
  8
0
  6
CONTINUOUS
 62
7
 10
74.000000
 20
-20.250000
 11
74.000000
 21
-21.750000
  0
LINE
  8
0
  6
CENTER
 62
2
 10
88.693604
 20
-21.000000
 11
71.000000
 21
-21.000000
  0
LINE
  8
0
  6
CONTINUOUS
 62
7
 10
77.000000
 20
-25.500000
 11
73.000000
 21
-25.500000
  0
LINE
  8
0
  6
CONTINUOUS
 62
7
 10
73.000000
 20
-25.500000
 11
73.000000
 21
-21.750000
  0
LINE
  8
0
  6
CONTINUOUS
 62
7
 10
121.000000
 20
-19.500000
 11
115.000000
 21
-19.500000
  0
LINE
  8
0
  6
CONTINUOUS
 62
7
 10
100.000000
 20
-13.500000
 11
100.000000
 21
-20.000000
  0
LINE
  8
0
  6
CONTINUOUS
 62
7
 10
100.000000
 20
-13.500000
 11
100.000000
 21
-20.000000
  0
LINE
  8
0
  6
CONTINUOUS
 62
7
 10
107.000000
 20
-13.500000
 11
100.000000
 21
-13.500000
  0
LINE
  8
0
  6
CONTINUOUS
 62
7
 10
107.000000
 20
-13.500000
 11
107.000000
 21
-20.000000
  0
LINE
  8
0
  6
CONTINUOUS
 62
7
 10
115.000000
 20
-14.500000
 11
108.000000
 21
-14.500000
  0
LINE
  8
0
  6
CONTINUOUS
 62
7
 10
108.000000
 20
-14.500000
 11
108.000000
 21
-20.000000
  0
LINE
  8
0
  6
CONTINUOUS
 62
7
 10
108.000000
 20
-16.000000
 11
107.000000
 21
-16.000000
  0
LINE
  8
0
  6
CONTINUOUS
 62
7
 10
97.000000
 20
-20.000000
 11
97.000000
 21
-13.942600
  0
LINE
  8
0
  6
CONTINUOUS
 62
7
 10
100.000000
 20
-16.799101
 11
97.000000
 21
-16.799101
  0
LINE
  8
0
  6
CONTINUOUS
 62
7
 10
100.000000
 20
-18.143400
 11
97.000000
 21
-18.143400
  0
LINE
  8
0
  6
CONTINUOUS
 62
7
 10
100.000000
 20
-13.942600
 11
97.000000
 21
-13.942600
  0
LINE
  8
0
  6
CONTINUOUS
 62
7
 10
115.000000
 20
-14.500000
 11
115.000000
 21
-20.000000
  0
LINE
  8
0
  6
CONTINUOUS
 62
7
 10
201.500000
 20
-16.500000
 11
207.000000
 21
-16.500000
  0
LINE
  8
0
  6
CONTINUOUS
 62
7
 10
207.000000
 20
-16.500000
 11
207.000000
 21
-20.250000
  0
LINE
  8
0
  6
CONTINUOUS
 62
7
 10
207.000000
 20
-21.750000
 11
207.000000
 21
-25.500000
  0
LINE
  8
0
  6
CONTINUOUS
 62
7
 10
206.000000
 20
-21.750000
 11
207.000000
 21
-21.750000
  0
LINE
  8
0
  6
CONTINUOUS
 62
7
 10
206.000000
 20
-20.250000
 11
207.000000
 21
-20.250000
  0
LINE
  8
0
  6
CONTINUOUS
 62
7
 10
206.000000
 20
-20.250000
 11
206.000000
 21
-21.750000
  0
LINE
  8
0
  6
CENTER
 62
2
 10
191.348007
 20
-21.000000
 11
209.000000
 21
-21.000000
  0
LINE
  8
0
  6
CONTINUOUS
 62
7
 10
203.000000
 20
-25.500000
 11
207.000000
 21
-25.500000
  0
LINE
  8
0
  6
CONTINUOUS
 62
7
 10
207.000000
 20
-25.500000
 11
207.000000
 21
-21.750000
  0
LINE
  8
0
  6
CONTINUOUS
 62
7
 10
201.500000
 20
-16.000000
 11
201.500000
 21
-20.000000
  0
LINE
  8
0
  6
CONTINUOUS
 62
7
 10
189.000000
 20
-16.500000
 11
201.500000
 21
-16.500000
  0
LINE
  8
0
  6
CONTINUOUS
 62
7
 10
189.000000
 20
-16.000000
 11
201.500000
 21
-16.000000
  0
LINE
  8
0
  6
CONTINUOUS
 62
7
 10
145.000000
 20
51.500000
 11
145.000000
 21
39.500000
  0
LINE
  8
0
  6
CONTINUOUS
 62
7
 10
145.000000
 20
51.500000
 11
165.000000
 21
51.500000
  0
LINE
  8
0
  6
CONTINUOUS
 62
7
 10
155.000000
 20
55.000000
 11
155.000000
 21
51.500000
  0
LINE
  8
0
  6
CONTINUOUS
 62
7
 10
180.000000
 20
55.000000
 11
155.000000
 21
55.000000
  0
LINE
  8
0
  6
CENTER
 62
2
 10
162.173996
 20
47.500000
 11
209.000000
 21
47.500000
  0
LINE
  8
0
  6
CONTINUOUS
 62
7
 10
201.500000
 20
43.000000
 11
207.000000
 21
43.000000
  0
LINE
  8
0
  6
CONTINUOUS
 62
7
 10
201.500000
 20
52.000000
 11
207.000000
 21
52.000000
  0
LINE
  8
0
  6
CONTINUOUS
 62
7
 10
201.500000
 20
42.500000
 11
201.500000
 21
52.500000
  0
LINE
  8
0
  6
CONTINUOUS
 62
7
 10
183.000000
 20
43.000000
 11
201.500000
 21
43.000000
  0
LINE
  8
0
  6
CONTINUOUS
 62
7
 10
183.000000
 20
42.500000
 11
201.500000
 21
42.500000
  0
LINE
  8
0
  6
CONTINUOUS
 62
7
 10
182.955994
 20
52.000000
 11
201.500000
 21
52.000000
  0
LINE
  8
0
  6
CONTINUOUS
 62
7
 10
183.000000
 20
52.500000
 11
201.500000
 21
52.500000
  0
LINE
  8
0
  6
CONTINUOUS
 62
7
 10
207.000000
 20
43.000000
 11
207.000000
 21
52.000000
  0
LINE
  8
0
  6
CONTINUOUS
 62
7
 10
183.000000
 20
53.223801
 11
180.000000
 21
53.223801
  0
LINE
  8
0
  6
CONTINUOUS
 62
7
 10
183.000000
 20
48.276100
 11
180.000000
 21
48.276100
  0
LINE
  8
0
  6
CONTINUOUS
 62
7
 10
183.000000
 20
46.723801
 11
180.000000
 21
46.723801
  0
LINE
  8
0
  6
CONTINUOUS
 62
7
 10
165.000000
 20
54.000000
 11
172.000000
 21
54.000000
  0
LINE
  8
0
  6
CONTINUOUS
 62
7
 10
183.000000
 20
54.000000
 11
183.000000
 21
41.000000
  0
LINE
  8
0
  6
CONTINUOUS
 62
7
 10
180.000000
 20
55.000000
 11
180.000000
 21
40.000000
  0
LINE
  8
0
  6
CONTINUOUS
 62
7
 10
183.000000
 20
54.000000
 11
180.000000
 21
54.000000
  0
LINE
  8
0
  6
CONTINUOUS
 62
7
 10
165.000000
 20
39.500000
 11
165.000000
 21
54.000000
  0
LINE
  8
0
  6
CONTINUOUS
 62
7
 10
172.000000
 20
41.000000
 11
172.000000
 21
54.000000
  0
LINE
  8
0
  6
CONTINUOUS
 62
7
 10
172.000000
 20
52.500000
 11
173.000000
 21
52.500000
  0
LINE
  8
0
  6
CONTINUOUS
 62
7
 10
173.000000
 20
55.000000
 11
173.000000
 21
40.000000
  0
LINE
  8
0
  6
CONTINUOUS
 62
7
 10
183.000000
 20
41.776100
 11
180.000000
 21
41.776100
  0
LINE
  8
0
  6
CONTINUOUS
 62
7
 10
183.000000
 20
41.000000
 11
180.000000
 21
41.000000
  0
LINE
  8
0
  6
CONTINUOUS
 62
7
 10
172.000000
 20
42.500000
 11
173.000000
 21
42.500000
  0
LINE
  8
0
  6
CONTINUOUS
 62
7
 10
165.000000
 20
41.000000
 11
172.000000
 21
41.000000
  0
LINE
  8
0
  6
CONTINUOUS
 62
7
 10
165.000000
 20
40.000000
 11
203.000000
 21
40.000000
  0
LINE
  8
0
  6
CONTINUOUS
 62
7
 10
125.000000
 20
55.000000
 11
125.000000
 21
40.000000
  0
LINE
  8
0
  6
CONTINUOUS
 62
7
 10
115.000000
 20
54.000000
 11
108.000000
 21
54.000000
  0
LINE
  8
0
  6
CONTINUOUS
 62
7
 10
115.000000
 20
41.000000
 11
115.000000
 21
54.000000
  0
LINE
  8
0
  6
CONTINUOUS
 62
7
 10
108.000000
 20
41.000000
 11
108.000000
 21
54.000000
  0
LINE
  8
0
  6
CONTINUOUS
 62
7
 10
108.000000
 20
52.500000
 11
107.000000
 21
52.500000
  0
LINE
  8
0
  6
CONTINUOUS
 62
7
 10
107.000000
 20
55.000000
 11
107.000000
 21
40.000000
  0
LINE
  8
0
  6
CONTINUOUS
 62
7
 10
108.000000
 20
42.500000
 11
107.000000
 21
42.500000
  0
LINE
  8
0
  6
CONTINUOUS
 62
7
 10
115.000000
 20
41.000000
 11
108.000000
 21
41.000000
  0
LINE
  8
0
  6
CONTINUOUS
 62
7
 10
145.000000
 20
40.000000
 11
77.000000
 21
40.000000
  0
LINE
  8
0
  6
CONTINUOUS
 62
7
 10
100.000000
 20
55.000000
 11
125.000000
 21
55.000000
  0
LINE
  8
0
  6
CONTINUOUS
 62
7
 10
97.000000
 20
43.000000
 11
78.500000
 21
43.000000
  0
LINE
  8
0
  6
CONTINUOUS
 62
7
 10
97.000000
 20
42.500000
 11
78.500000
 21
42.500000
  0
LINE
  8
0
  6
CONTINUOUS
 62
7
 10
97.044098
 20
52.000000
 11
78.500000
 21
52.000000
  0
LINE
  8
0
  6
CONTINUOUS
 62
7
 10
97.000000
 20
52.500000
 11
78.500000
 21
52.500000
  0
LINE
  8
0
  6
CONTINUOUS
 62
7
 10
97.000000
 20
53.223801
 11
100.000000
 21
53.223801
  0
LINE
  8
0
  6
CONTINUOUS
 62
7
 10
97.000000
 20
48.276100
 11
100.000000
 21
48.276100
  0
LINE
  8
0
  6
CONTINUOUS
 62
7
 10
97.000000
 20
46.723801
 11
100.000000
 21
46.723801
  0
LINE
  8
0
  6
CONTINUOUS
 62
7
 10
97.000000
 20
54.000000
 11
97.000000
 21
41.000000
  0
LINE
  8
0
  6
CONTINUOUS
 62
7
 10
100.000000
 20
55.000000
 11
100.000000
 21
40.000000
  0
LINE
  8
0
  6
CONTINUOUS
 62
7
 10
97.000000
 20
54.000000
 11
100.000000
 21
54.000000
  0
LINE
  8
0
  6
CONTINUOUS
 62
7
 10
97.000000
 20
41.776100
 11
100.000000
 21
41.776100
  0
LINE
  8
0
  6
CONTINUOUS
 62
7
 10
97.000000
 20
41.000000
 11
100.000000
 21
41.000000
  0
LINE
  8
0
  6
CONTINUOUS
 62
7
 10
80.000000
 20
40.500000
 11
80.000000
 21
42.500000
  0
LINE
  8
0
  6
CONTINUOUS
 62
7
 10
87.000000
 20
40.500000
 11
87.000000
 21
42.500000
  0
LINE
  8
0
  6
CONTINUOUS
 62
7
 10
79.500000
 20
40.500000
 11
87.500000
 21
40.500000
  0
LINE
  8
0
  6
CENTER
 62
2
 10
83.500000
 20
44.598999
 11
83.500000
 21
38.385700
  0
LINE
  8
0
  6
CONTINUOUS
 62
7
 10
79.500000
 20
40.500000
 11
79.500000
 21
40.000000
  0
LINE
  8
0
  6
CONTINUOUS
 62
7
 10
87.500000
 20
40.500000
 11
87.500000
 21
40.000000
  0
LINE
  8
0
  6
CONTINUOUS
 62
7
 10
83.500000
 20
40.500000
 11
83.500000
 21
42.500000
  0
LINE
  8
0
  6
CONTINUOUS
 62
7
 10
78.500000
 20
43.000000
 11
73.000000
 21
43.000000
  0
LINE
  8
0
  6
CONTINUOUS
 62
7
 10
78.500000
 20
52.000000
 11
73.000000
 21
52.000000
  0
LINE
  8
0
  6
CONTINUOUS
 62
7
 10
78.500000
 20
42.500000
 11
78.500000
 21
52.500000
  0
LINE
  8
0
  6
CONTINUOUS
 62
7
 10
73.000000
 20
43.000000
 11
73.000000
 21
52.000000
  0
LINE
  8
0
  6
CENTER
 62
2
 10
-149.936005
 20
47.500000
 11
-204.000000
 21
47.500000
  0
LINE
  8
0
  6
CONTINUOUS
 62
7
 10
-153.000000
 20
49.000000
 11
-160.000000
 21
49.000000
  0
LINE
  8
0
  6
CONTINUOUS
 62
7
 10
-153.000000
 20
46.000000
 11
-153.000000
 21
49.000000
  0
LINE
  8
0
  6
CONTINUOUS
 62
7
 10
-153.000000
 20
46.000000
 11
-160.000000
 21
46.000000
  0
LINE
  8
0
  6
CONTINUOUS
 62
7
 10
155.000000
 20
88.500000
 11
180.000000
 21
88.500000
  0
LINE
  8
0
  6
CONTINUOUS
 62
7
 10
206.000000
 20
69.250000
 11
206.000000
 21
70.750000
  0
LINE
  8
0
  6
CONTINUOUS
 62
7
 10
155.000000
 20
78.500000
 11
155.000000
 21
88.500000
  0
LINE
  8
0
  6
CONTINUOUS
 62
7
 10
155.000000
 20
78.500000
 11
170.500000
 21
78.500000
  0
LINE
  8
0
  6
CONTINUOUS
 62
7
 10
145.000000
 20
61.500000
 11
145.000000
 21
75.500000
  0
LINE
  8
0
  6
CONTINUOUS
 62
7
 10
165.000000
 20
61.500000
 11
145.000000
 21
61.500000
  0
LINE
  8
0
  6
CONTINUOUS
 62
7
 10
165.000000
 20
75.500000
 11
145.000000
 21
75.500000
  0
LINE
  8
0
  6
CONTINUOUS
 62
7
 10
165.000000
 20
61.500000
 11
165.000000
 21
76.500000
  0
LINE
  8
0
  6
CONTINUOUS
 62
7
 10
165.000000
 20
63.500000
 11
172.000000
 21
63.500000
  0
LINE
  8
0
  6
CONTINUOUS
 62
7
 10
172.000000
 20
65.000000
 11
173.000000
 21
65.000000
  0
LINE
  8
0
  6
CONTINUOUS
 62
7
 10
172.000000
 20
75.000000
 11
173.000000
 21
75.000000
  0
LINE
  8
0
  6
CONTINUOUS
 62
7
 10
172.000000
 20
63.500000
 11
172.000000
 21
76.500000
  0
LINE
  8
0
  6
CONTINUOUS
 62
7
 10
173.000000
 20
62.500000
 11
173.000000
 21
76.000000
  0
LINE
  8
0
  6
CONTINUOUS
 62
7
 10
173.000000
 20
62.500000
 11
180.000000
 21
62.500000
  0
LINE
  8
0
  6
CONTINUOUS
 62
7
 10
180.000000
 20
62.942501
 11
183.000000
 21
62.942501
  0
LINE
  8
0
  6
CENTER
 62
2
 10
161.621994
 20
70.000000
 11
209.000000
 21
70.000000
  0
LINE
  8
0
  6
CONTINUOUS
 62
7
 10
183.000000
 20
65.500000
 11
201.500000
 21
65.500000
  0
LINE
  8
0
  6
CONTINUOUS
 62
7
 10
183.000000
 20
65.000000
 11
201.500000
 21
65.000000
  0
LINE
  8
0
  6
CONTINUOUS
 62
7
 10
183.000000
 20
74.500000
 11
201.500000
 21
74.500000
  0
LINE
  8
0
  6
CONTINUOUS
 62
7
 10
183.000000
 20
75.000000
 11
201.500000
 21
75.000000
  0
LINE
  8
0
  6
CONTINUOUS
 62
7
 10
183.000000
 20
77.057503
 11
183.000000
 21
62.942501
  0
LINE
  8
0
  6
CONTINUOUS
 62
7
 10
180.000000
 20
65.799103
 11
183.000000
 21
65.799103
  0
LINE
  8
0
  6
CONTINUOUS
 62
7
 10
180.000000
 20
67.143402
 11
183.000000
 21
67.143402
  0
LINE
  8
0
  6
CONTINUOUS
 62
7
 10
180.000000
 20
72.856598
 11
183.000000
 21
72.856598
  0
LINE
  8
0
  6
CONTINUOUS
 62
7
 10
180.000000
 20
77.057503
 11
183.000000
 21
77.057503
  0
LINE
  8
0
  6
CONTINUOUS
 62
7
 10
180.000000
 20
74.200897
 11
183.000000
 21
74.200897
  0
LINE
  8
0
  6
CONTINUOUS
 62
7
 10
201.500000
 20
65.500000
 11
207.000000
 21
65.500000
  0
LINE
  8
0
  6
CONTINUOUS
 62
7
 10
201.500000
 20
74.500000
 11
207.000000
 21
74.500000
  0
LINE
  8
0
  6
CONTINUOUS
 62
7
 10
201.500000
 20
65.000000
 11
201.500000
 21
75.000000
  0
LINE
  8
0
  6
CONTINUOUS
 62
7
 10
207.000000
 20
65.500000
 11
207.000000
 21
69.250000
  0
LINE
  8
0
  6
CONTINUOUS
 62
7
 10
207.000000
 20
70.750000
 11
207.000000
 21
74.500000
  0
LINE
  8
0
  6
CONTINUOUS
 62
7
 10
206.000000
 20
70.750000
 11
207.000000
 21
70.750000
  0
LINE
  8
0
  6
CONTINUOUS
 62
7
 10
206.000000
 20
69.250000
 11
207.000000
 21
69.250000
  0
LINE
  8
0
  6
CONTINUOUS
 62
7
 10
180.000000
 20
62.500000
 11
180.000000
 21
88.500000
  0
LINE
  8
0
  6
CONTINUOUS
 62
7
 10
172.949005
 20
76.500000
 11
107.050003
 21
76.500000
  0
LINE
  8
0
  6
CONTINUOUS
 62
7
 10
115.000000
 20
63.500000
 11
115.000000
 21
76.500000
  0
LINE
  8
0
  6
CONTINUOUS
 62
7
 10
100.000000
 20
62.500000
 11
100.000000
 21
88.500000
  0
LINE
  8
0
  6
CONTINUOUS
 62
7
 10
115.000000
 20
63.500000
 11
108.000000
 21
63.500000
  0
LINE
  8
0
  6
CONTINUOUS
 62
7
 10
108.000000
 20
65.000000
 11
107.000000
 21
65.000000
  0
LINE
  8
0
  6
CONTINUOUS
 62
7
 10
108.000000
 20
75.000000
 11
107.000000
 21
75.000000
  0
LINE
  8
0
  6
CONTINUOUS
 62
7
 10
108.000000
 20
63.500000
 11
108.000000
 21
76.500000
  0
LINE
  8
0
  6
CONTINUOUS
 62
7
 10
107.000000
 20
62.500000
 11
107.000000
 21
76.000000
  0
LINE
  8
0
  6
CONTINUOUS
 62
7
 10
107.000000
 20
62.500000
 11
100.000000
 21
62.500000
  0
LINE
  8
0
  6
CONTINUOUS
 62
7
 10
100.000000
 20
62.942501
 11
97.000000
 21
62.942501
  0
LINE
  8
0
  6
CONTINUOUS
 62
7
 10
97.000000
 20
65.500000
 11
78.500000
 21
65.500000
  0
LINE
  8
0
  6
CONTINUOUS
 62
7
 10
97.000000
 20
65.000000
 11
78.500000
 21
65.000000
  0
LINE
  8
0
  6
CONTINUOUS
 62
7
 10
97.000000
 20
74.500000
 11
78.500000
 21
74.500000
  0
LINE
  8
0
  6
CONTINUOUS
 62
7
 10
97.000000
 20
75.000000
 11
78.500000
 21
75.000000
  0
LINE
  8
0
  6
CONTINUOUS
 62
7
 10
97.000000
 20
77.057503
 11
97.000000
 21
62.942501
  0
LINE
  8
0
  6
CONTINUOUS
 62
7
 10
100.000000
 20
65.799103
 11
97.000000
 21
65.799103
  0
LINE
  8
0
  6
CONTINUOUS
 62
7
 10
100.000000
 20
67.143402
 11
97.000000
 21
67.143402
  0
LINE
  8
0
  6
CONTINUOUS
 62
7
 10
100.000000
 20
72.856598
 11
97.000000
 21
72.856598
  0
LINE
  8
0
  6
CONTINUOUS
 62
7
 10
100.000000
 20
77.057503
 11
97.000000
 21
77.057503
  0
LINE
  8
0
  6
CONTINUOUS
 62
7
 10
100.000000
 20
74.200897
 11
97.000000
 21
74.200897
  0
LINE
  8
0
  6
CONTINUOUS
 62
7
 10
74.000000
 20
69.250000
 11
73.000000
 21
69.250000
  0
LINE
  8
0
  6
CONTINUOUS
 62
7
 10
74.000000
 20
69.250000
 11
74.000000
 21
70.750000
  0
LINE
  8
0
  6
CONTINUOUS
 62
7
 10
78.500000
 20
65.500000
 11
73.000000
 21
65.500000
  0
LINE
  8
0
  6
CONTINUOUS
 62
7
 10
78.500000
 20
74.500000
 11
73.000000
 21
74.500000
  0
LINE
  8
0
  6
CONTINUOUS
 62
7
 10
78.500000
 20
65.000000
 11
78.500000
 21
75.000000
  0
LINE
  8
0
  6
CONTINUOUS
 62
7
 10
73.000000
 20
65.500000
 11
73.000000
 21
69.250000
  0
LINE
  8
0
  6
CONTINUOUS
 62
7
 10
73.000000
 20
70.750000
 11
73.000000
 21
74.500000
  0
LINE
  8
0
  6
CONTINUOUS
 62
7
 10
74.000000
 20
70.750000
 11
73.000000
 21
70.750000
  0
LINE
  8
0
  6
CONTINUOUS
 62
7
 10
125.000000
 20
88.500000
 11
100.000000
 21
88.500000
  0
LINE
  8
0
  6
CONTINUOUS
 62
7
 10
125.000000
 20
78.500000
 11
109.500000
 21
78.500000
  0
LINE
  8
0
  6
CONTINUOUS
 62
7
 10
125.000000
 20
78.500000
 11
125.000000
 21
88.500000
  0
LINE
  8
0
  6
CENTER
 62
2
 10
125.064003
 20
47.500000
 11
71.000000
 21
47.500000
  0
LINE
  8
0
  6
CONTINUOUS
 62
7
 10
122.000000
 20
46.000000
 11
115.000000
 21
46.000000
  0
LINE
  8
0
  6
CONTINUOUS
 62
7
 10
122.000000
 20
49.000000
 11
115.000000
 21
49.000000
  0
LINE
  8
0
  6
CONTINUOUS
 62
7
 10
122.000000
 20
46.000000
 11
122.000000
 21
49.000000
  0
LINE
  8
0
  6
CONTINUOUS
 62
7
 10
97.000000
 20
76.500000
 11
77.000000
 21
76.500000
  0
LINE
  8
0
  6
CONTINUOUS
 62
7
 10
121.000000
 20
68.500000
 11
121.000000
 21
60.700001
  0
LINE
  8
0
  6
CONTINUOUS
 62
7
 10
-256.500000
 20
-27.500000
 11
-246.000000
 21
-27.500000
  0
LINE
  8
0
  6
CONTINUOUS
 62
7
 10
-215.500000
 20
-27.500000
 11
-226.000000
 21
-27.500000
  0
LINE
  8
0
  6
CONTINUOUS
 62
7
 10
-226.000000
 20
-20.000000
 11
-226.000000
 21
-21.513399
  0
LINE
  8
0
  6
CONTINUOUS
 62
7
 10
-226.000000
 20
-24.486601
 11
-226.000000
 21
-27.500000
  0
LINE
  8
0
  6
CONTINUOUS
 62
7
 10
-256.500000
 20
-40.000000
 11
-215.500000
 21
-40.000000
  0
LINE
  8
0
  6
CONTINUOUS
 62
7
 10
-246.000000
 20
-20.000000
 11
-226.000000
 21
-20.000000
  0
LINE
  8
0
  6
CENTER
 62
2
 10
-236.000000
 20
-9.499990
 11
-236.000000
 21
-41.500000
  0
LINE
  8
0
  6
CONTINUOUS
 62
7
 10
-228.000000
 20
-23.600000
 11
-228.000000
 21
-22.400000
  0
LINE
  8
0
  6
CONTINUOUS
 62
7
 10
-228.000000
 20
-22.400000
 11
-227.093002
 21
-22.240101
  0
LINE
  8
0
  6
CONTINUOUS
 62
7
 10
-228.000000
 20
-23.600000
 11
-227.093002
 21
-23.759800
  0
LINE
  8
0
  6
CONTINUOUS
 62
7
 10
-244.000000
 20
-23.600000
 11
-244.000000
 21
-22.400000
  0
LINE
  8
0
  6
CONTINUOUS
 62
7
 10
-244.000000
 20
-22.400000
 11
-244.906998
 21
-22.240101
  0
LINE
  8
0
  6
CONTINUOUS
 62
7
 10
-244.000000
 20
-23.600000
 11
-244.906998
 21
-23.759899
  0
LINE
  8
0
  6
CONTINUOUS
 62
7
 10
-256.000000
 20
-26.000000
 11
-246.000000
 21
-26.000000
  0
LINE
  8
0
  6
CONTINUOUS
 62
7
 10
-226.000000
 20
-26.000000
 11
-216.000000
 21
-26.000000
  0
LINE
  8
0
  6
CONTINUOUS
 62
7
 10
-245.899994
 20
-11.600000
 11
-226.100006
 21
-11.600000
  0
LINE
  8
0
  6
CONTINUOUS
 62
7
 10
-216.000000
 20
-26.000000
 11
-216.000000
 21
-11.000000
  0
LINE
  8
0
  6
CONTINUOUS
 62
7
 10
-225.500000
 20
-11.000000
 11
-216.000000
 21
-11.000000
  0
LINE
  8
0
  6
CONTINUOUS
 62
7
 10
-225.500000
 20
-11.000000
 11
-226.100006
 21
-11.600000
  0
LINE
  8
0
  6
CONTINUOUS
 62
7
 10
-256.000000
 20
-26.000000
 11
-256.000000
 21
-11.000000
  0
LINE
  8
0
  6
CENTER
 62
2
 10
-247.039993
 20
-30.000000
 11
-224.960007
 21
-30.000000
  0
LINE
  8
0
  6
CONTINUOUS
 62
7
 10
-260.000000
 20
-37.541500
 11
-260.000000
 21
-29.458500
  0
LINE
  8
0
  6
CONTINUOUS
 62
7
 10
-260.000000
 20
-37.541500
 11
-256.500000
 21
-37.541500
  0
LINE
  8
0
  6
CONTINUOUS
 62
7
 10
-260.000000
 20
-35.562901
 11
-257.000000
 21
-35.562901
  0
LINE
  8
0
  6
CENTER
 62
2
 10
-261.488007
 20
-33.500000
 11
-255.539993
 21
-33.500000
  0
LINE
  8
0
  6
CONTINUOUS
 62
7
 10
-260.000000
 20
-31.437201
 11
-257.000000
 21
-31.437201
  0
LINE
  8
0
  6
CONTINUOUS
 62
7
 10
-260.000000
 20
-29.458500
 11
-256.500000
 21
-29.458500
  0
LINE
  8
0
  6
CONTINUOUS
 62
7
 10
-257.000000
 20
-37.541500
 11
-257.000000
 21
-29.458500
  0
LINE
  8
0
  6
CONTINUOUS
 62
7
 10
-233.690994
 20
-15.200000
 11
-234.845001
 21
-13.200000
  0
LINE
  8
0
  6
CONTINUOUS
 62
7
 10
-237.154999
 20
-17.200001
 11
-238.309006
 21
-15.200000
  0
LINE
  8
0
  6
CONTINUOUS
 62
7
 10
-237.154999
 20
-17.200001
 11
-234.845001
 21
-17.200001
  0
LINE
  8
0
  6
CONTINUOUS
 62
7
 10
-237.154999
 20
-13.200000
 11
-234.845001
 21
-13.200000
  0
LINE
  8
0
  6
CONTINUOUS
 62
7
 10
-234.845001
 20
-17.200001
 11
-233.690994
 21
-15.200000
  0
LINE
  8
0
  6
CONTINUOUS
 62
7
 10
-238.309006
 20
-15.200000
 11
-237.154999
 21
-13.200000
  0
LINE
  8
0
  6
CENTER
 62
2
 10
-239.809006
 20
-15.200000
 11
-232.190994
 21
-15.200000
  0
LINE
  8
0
  6
CONTINUOUS
 62
7
 10
-246.500000
 20
-10.999900
 11
-245.899994
 21
-11.599900
  0
LINE
  8
0
  6
CONTINUOUS
 62
7
 10
-246.500000
 20
-11.000000
 11
-256.000000
 21
-11.000000
  0
LINE
  8
0
  6
CONTINUOUS
 62
7
 10
-246.000000
 20
-20.000000
 11
-246.000000
 21
-21.513399
  0
LINE
  8
0
  6
CONTINUOUS
 62
7
 10
-246.000000
 20
-24.486601
 11
-246.000000
 21
-27.500000
  0
LINE
  8
0
  6
CONTINUOUS
 62
7
 10
-215.500000
 20
-27.500000
 11
-215.500000
 21
-40.000000
  0
LINE
  8
0
  6
CONTINUOUS
 62
7
 10
-256.500000
 20
-13.500000
 11
-256.500000
 21
-40.000000
  0
LINE
  8
0
  6
CONTINUOUS
 62
7
 10
-271.500000
 20
-39.500000
 11
-256.500000
 21
-39.500000
  0
LINE
  8
0
  6
CONTINUOUS
 62
7
 10
-268.000000
 20
-12.500000
 11
-256.000000
 21
-12.500000
  0
LINE
  8
0
  6
CONTINUOUS
 62
7
 10
-268.000000
 20
-13.500000
 11
-268.000000
 21
-12.500000
  0
LINE
  8
0
  6
CONTINUOUS
 62
7
 10
-271.500000
 20
-13.500000
 11
-271.500000
 21
-39.500000
  0
LINE
  8
0
  6
CONTINUOUS
 62
7
 10
-271.500000
 20
-13.500000
 11
-256.500000
 21
-13.500000
  0
LINE
  8
0
  6
CONTINUOUS
 62
7
 10
-259.057007
 20
-21.750000
 11
-261.782990
 21
-21.750000
  0
LINE
  8
0
  6
CONTINUOUS
 62
7
 10
-259.057007
 20
-20.250000
 11
-261.782990
 21
-20.250000
  0
LINE
  8
0
  6
CONTINUOUS
 62
7
 10
13.080700
 20
-21.919300
 11
14.919200
 21
-20.080799
  0
LINE
  8
0
  6
CONTINUOUS
 62
7
 10
-266.217010
 20
-20.250000
 11
-268.942993
 21
-20.250000
  0
LINE
  8
0
  6
CONTINUOUS
 62
7
 10
-266.217010
 20
-21.750000
 11
-268.942993
 21
-21.750000
  0
LINE
  8
0
  6
CONTINUOUS
 62
7
 10
-263.223999
 20
-13.942500
 11
-258.276001
 21
-16.799101
  0
LINE
  8
0
  6
CONTINUOUS
 62
7
 10
-269.723999
 20
-16.799101
 11
-264.776001
 21
-13.942600
  0
LINE
  8
0
  6
CONTINUOUS
 62
7
 10
-264.776001
 20
-28.057400
 11
-269.723999
 21
-25.200800
  0
LINE
  8
0
  6
CONTINUOUS
 62
7
 10
-258.276001
 20
-25.200899
 11
-263.223999
 21
-28.057501
  0
LINE
  8
0
  6
CONTINUOUS
 62
7
 10
-270.500000
 20
-23.856600
 11
-270.500000
 21
-18.143400
  0
LINE
  8
0
  6
CONTINUOUS
 62
7
 10
-257.500000
 20
-18.143400
 11
-257.500000
 21
-23.874300
  0
LINE
  8
0
  6
CENTER
 62
2
 10
-254.960007
 20
-21.000000
 11
-273.040009
 21
-21.000000
  0
LINE
  8
0
  6
CENTER
 62
2
 10
-264.000000
 20
-11.960000
 11
-264.000000
 21
-30.040001
  0
LINE
  8
0
  6
CONTINUOUS
 62
7
 10
-23.500000
 20
-27.500000
 11
-34.000000
 21
-27.500000
  0
LINE
  8
0
  6
CONTINUOUS
 62
7
 10
-64.500000
 20
-27.500000
 11
-54.000000
 21
-27.500000
  0
LINE
  8
0
  6
CONTINUOUS
 62
7
 10
-54.000000
 20
-20.000000
 11
-54.000000
 21
-21.513399
  0
LINE
  8
0
  6
CONTINUOUS
 62
7
 10
-54.000000
 20
-24.486601
 11
-54.000000
 21
-27.500000
  0
LINE
  8
0
  6
CONTINUOUS
 62
7
 10
-23.500000
 20
-40.000000
 11
-64.500000
 21
-40.000000
  0
LINE
  8
0
  6
CONTINUOUS
 62
7
 10
-34.000000
 20
-20.000000
 11
-54.000000
 21
-20.000000
  0
LINE
  8
0
  6
CENTER
 62
2
 10
-44.000000
 20
-9.499990
 11
-44.000000
 21
-41.500000
  0
LINE
  8
0
  6
CONTINUOUS
 62
7
 10
-52.000000
 20
-23.600000
 11
-52.000000
 21
-22.400000
  0
LINE
  8
0
  6
CONTINUOUS
 62
7
 10
-52.000000
 20
-22.400000
 11
-52.906700
 21
-22.240101
  0
LINE
  8
0
  6
CONTINUOUS
 62
7
 10
-52.000000
 20
-23.600000
 11
-52.906700
 21
-23.759899
  0
LINE
  8
0
  6
CONTINUOUS
 62
7
 10
-36.000000
 20
-23.600000
 11
-36.000000
 21
-22.400000
  0
LINE
  8
0
  6
CONTINUOUS
 62
7
 10
-36.000000
 20
-22.400000
 11
-35.093300
 21
-22.240101
  0
LINE
  8
0
  6
CONTINUOUS
 62
7
 10
-36.000000
 20
-23.600000
 11
-35.093300
 21
-23.759899
  0
LINE
  8
0
  6
CONTINUOUS
 62
7
 10
-24.000000
 20
-26.000000
 11
-34.000000
 21
-26.000000
  0
LINE
  8
0
  6
CONTINUOUS
 62
7
 10
-54.000000
 20
-26.000000
 11
-64.000000
 21
-26.000000
  0
LINE
  8
0
  6
CONTINUOUS
 62
7
 10
-34.099998
 20
-11.600000
 11
-53.900002
 21
-11.600000
  0
LINE
  8
0
  6
CONTINUOUS
 62
7
 10
-64.000000
 20
-26.000000
 11
-64.000000
 21
-11.000000
  0
LINE
  8
0
  6
CONTINUOUS
 62
7
 10
-54.500000
 20
-11.000000
 11
-64.000000
 21
-11.000000
  0
LINE
  8
0
  6
CONTINUOUS
 62
7
 10
-54.500000
 20
-11.000000
 11
-53.900002
 21
-11.600000
  0
LINE
  8
0
  6
CONTINUOUS
 62
7
 10
-24.000000
 20
-26.000000
 11
-24.000000
 21
-11.000000
  0
LINE
  8
0
  6
CENTER
 62
2
 10
-32.959999
 20
-30.000000
 11
-55.040001
 21
-30.000000
  0
LINE
  8
0
  6
CONTINUOUS
 62
7
 10
-20.000000
 20
-37.541500
 11
-20.000000
 21
-29.458500
  0
LINE
  8
0
  6
CONTINUOUS
 62
7
 10
-20.000000
 20
-37.541500
 11
-23.500000
 21
-37.541500
  0
LINE
  8
0
  6
CONTINUOUS
 62
7
 10
-20.000000
 20
-35.562901
 11
-23.000000
 21
-35.562901
  0
LINE
  8
0
  6
CENTER
 62
2
 10
-18.511700
 20
-33.500000
 11
-24.459999
 21
-33.500000
  0
LINE
  8
0
  6
CONTINUOUS
 62
7
 10
-20.000000
 20
-31.437201
 11
-23.000000
 21
-31.437201
  0
LINE
  8
0
  6
CONTINUOUS
 62
7
 10
-20.000000
 20
-29.458500
 11
-23.500000
 21
-29.458500
  0
LINE
  8
0
  6
CONTINUOUS
 62
7
 10
-23.000000
 20
-37.541500
 11
-23.000000
 21
-29.458500
  0
LINE
  8
0
  6
CONTINUOUS
 62
7
 10
-46.309399
 20
-15.200000
 11
-45.154701
 21
-13.200000
  0
LINE
  8
0
  6
CONTINUOUS
 62
7
 10
-42.845299
 20
-17.200001
 11
-41.690601
 21
-15.200000
  0
LINE
  8
0
  6
CONTINUOUS
 62
7
 10
-42.845299
 20
-17.200001
 11
-45.154701
 21
-17.200001
  0
LINE
  8
0
  6
CONTINUOUS
 62
7
 10
-42.845299
 20
-13.200000
 11
-45.154701
 21
-13.200000
  0
LINE
  8
0
  6
CONTINUOUS
 62
7
 10
-45.154701
 20
-17.200001
 11
-46.309399
 21
-15.200000
  0
LINE
  8
0
  6
CONTINUOUS
 62
7
 10
-41.690601
 20
-15.200000
 11
-42.845299
 21
-13.200000
  0
LINE
  8
0
  6
CENTER
 62
2
 10
-40.190601
 20
-15.200000
 11
-47.809399
 21
-15.200000
  0
LINE
  8
0
  6
CONTINUOUS
 62
7
 10
-33.500000
 20
-11.000000
 11
-34.099998
 21
-11.600000
  0
LINE
  8
0
  6
CONTINUOUS
 62
7
 10
-33.500000
 20
-11.000000
 11
-24.000000
 21
-11.000000
  0
LINE
  8
0
  6
CONTINUOUS
 62
7
 10
-34.000000
 20
-20.000000
 11
-34.000000
 21
-21.513399
  0
LINE
  8
0
  6
CONTINUOUS
 62
7
 10
-34.000000
 20
-24.486601
 11
-34.000000
 21
-27.500000
  0
LINE
  8
0
  6
CONTINUOUS
 62
7
 10
-64.500000
 20
-27.500000
 11
-64.500000
 21
-40.000000
  0
LINE
  8
0
  6
CONTINUOUS
 62
7
 10
-23.500000
 20
-13.500000
 11
-23.500000
 21
-40.000000
  0
LINE
  8
0
  6
CONTINUOUS
 62
7
 10
-8.500080
 20
-39.500000
 11
-23.500000
 21
-39.500000
  0
LINE
  8
0
  6
CONTINUOUS
 62
7
 10
-12.000000
 20
-12.500000
 11
-24.000000
 21
-12.500000
  0
LINE
  8
0
  6
CONTINUOUS
 62
7
 10
-12.000000
 20
-13.500000
 11
-12.000000
 21
-12.500000
  0
LINE
  8
0
  6
CONTINUOUS
 62
7
 10
-8.500080
 20
-13.500000
 11
-8.500080
 21
-39.500000
  0
LINE
  8
0
  6
CONTINUOUS
 62
7
 10
-8.500080
 20
-13.500000
 11
-23.500000
 21
-13.500000
  0
LINE
  8
0
  6
CONTINUOUS
 62
7
 10
-20.943501
 20
-21.750000
 11
-18.216600
 21
-21.750000
  0
LINE
  8
0
  6
CONTINUOUS
 62
7
 10
-20.943501
 20
-20.250000
 11
-18.216600
 21
-20.250000
  0
LINE
  8
0
  6
CONTINUOUS
 62
7
 10
-13.783500
 20
-20.250000
 11
-11.056700
 21
-20.250000
  0
LINE
  8
0
  6
CONTINUOUS
 62
7
 10
-13.783500
 20
-21.750000
 11
-11.056700
 21
-21.750000
  0
LINE
  8
0
  6
CONTINUOUS
 62
7
 10
-16.776100
 20
-13.942500
 11
-21.723900
 21
-16.799101
  0
LINE
  8
0
  6
CONTINUOUS
 62
7
 10
-10.276100
 20
-16.799101
 11
-15.223900
 21
-13.942600
  0
LINE
  8
0
  6
CONTINUOUS
 62
7
 10
-15.223900
 20
-28.057400
 11
-10.276100
 21
-25.200899
  0
LINE
  8
0
  6
CONTINUOUS
 62
7
 10
-21.723900
 20
-25.200899
 11
-16.776100
 21
-28.057400
  0
LINE
  8
0
  6
CONTINUOUS
 62
7
 10
-9.500050
 20
-23.856600
 11
-9.500050
 21
-18.143400
  0
LINE
  8
0
  6
CONTINUOUS
 62
7
 10
-22.500000
 20
-18.143400
 11
-22.500000
 21
-23.874300
  0
LINE
  8
0
  6
CENTER
 62
2
 10
-25.040001
 20
-21.000000
 11
-6.960070
 21
-21.000000
  0
LINE
  8
0
  6
CENTER
 62
2
 10
-16.000000
 20
-11.960000
 11
-16.000000
 21
-30.040001
  0
LINE
  8
0
  6
CENTER
 62
2
 10
-181.500000
 20
-29.000000
 11
-181.500000
 21
-38.000000
  0
LINE
  8
0
  6
CENTER
 62
2
 10
-186.000000
 20
-33.500000
 11
-177.000000
 21
-33.500000
  0
LINE
  8
0
  6
CENTER
 62
2
 10
-98.500000
 20
-29.000000
 11
-98.500000
 21
-38.000000
  0
LINE
  8
0
  6
CENTER
 62
2
 10
-103.000000
 20
-33.500000
 11
-94.000000
 21
-33.500000
  0
LINE
  8
0
  6
CENTER
 62
2
 10
83.500000
 20
-29.000000
 11
83.500000
 21
-38.000000
  0
LINE
  8
0
  6
CENTER
 62
2
 10
79.000000
 20
-33.500000
 11
88.000000
 21
-33.500000
  0
LINE
  8
0
  6
CENTER
 62
2
 10
196.500000
 20
-29.000000
 11
196.500000
 21
-38.000000
  0
LINE
  8
0
  6
CENTER
 62
2
 10
192.000000
 20
-33.500000
 11
201.000000
 21
-33.500000
  0
LINE
  8
0
  6
CENTER
 62
2
 10
-251.000000
 20
-38.000000
 11
-251.000000
 21
-42.000000
  0
LINE
  8
0
  6
CENTER
 62
2
 10
-251.000000
 20
-8.999990
 11
-251.000000
 21
-13.000000
  0
LINE
  8
0
  6
CENTER
 62
2
 10
-221.000000
 20
-8.999990
 11
-221.000000
 21
-13.000000
  0
LINE
  8
0
  6
CENTER
 62
2
 10
-221.000000
 20
-38.000000
 11
-221.000000
 21
-42.000000
  0
LINE
  8
0
  6
CENTER
 62
2
 10
-59.000000
 20
-38.000000
 11
-59.000000
 21
-42.000000
  0
LINE
  8
0
  6
CENTER
 62
2
 10
-59.000000
 20
-8.999990
 11
-59.000000
 21
-13.000000
  0
LINE
  8
0
  6
CENTER
 62
2
 10
-29.000000
 20
-8.999990
 11
-29.000000
 21
-13.000000
  0
LINE
  8
0
  6
CENTER
 62
2
 10
-29.000000
 20
-38.000000
 11
-29.000000
 21
-42.000000
  0
LINE
  8
0
  6
CENTER
 62
2
 10
223.000000
 20
-38.000000
 11
223.000000
 21
-42.000000
  0
LINE
  8
0
  6
CENTER
 62
2
 10
223.000000
 20
-9.000000
 11
223.000000
 21
-13.000000
  0
LINE
  8
0
  6
CENTER
 62
2
 10
253.000000
 20
-9.000000
 11
253.000000
 21
-13.000000
  0
LINE
  8
0
  6
CENTER
 62
2
 10
253.000000
 20
-38.000000
 11
253.000000
 21
-42.000000
  0
LINE
  8
0
  6
CENTER
 62
2
 10
27.000000
 20
-38.000000
 11
27.000000
 21
-42.000000
  0
LINE
  8
0
  6
CENTER
 62
2
 10
27.000000
 20
-9.000000
 11
27.000000
 21
-13.000000
  0
LINE
  8
0
  6
CENTER
 62
2
 10
57.000000
 20
-9.000000
 11
57.000000
 21
-13.000000
  0
LINE
  8
0
  6
CENTER
 62
2
 10
57.000000
 20
-38.000000
 11
57.000000
 21
-42.000000
  0
LINE
  8
0
  6
CENTER
 62
2
 10
-142.500000
 20
62.000000
 11
-142.500000
 21
58.000000
  0
LINE
  8
0
  6
CENTER
 62
2
 10
-117.500000
 20
62.000000
 11
-117.500000
 21
58.000000
  0
LINE
  8
0
  6
CENTER
 62
2
 10
-142.500000
 20
-8.999990
 11
-142.500000
 21
-13.000000
  0
LINE
  8
0
  6
CENTER
 62
2
 10
-117.500000
 20
-8.999990
 11
-117.500000
 21
-13.000000
  0
LINE
  8
0
  6
CENTER
 62
2
 10
135.000000
 20
62.000000
 11
135.000000
 21
58.000000
  0
LINE
  8
0
  6
CENTER
 62
2
 10
155.000000
 20
62.000000
 11
155.000000
 21
58.000000
  0
LINE
  8
0
  6
CENTER
 62
2
 10
175.000000
 20
62.000000
 11
175.000000
 21
58.000000
  0
LINE
  8
0
  6
CENTER
 62
2
 10
135.000000
 20
-9.000000
 11
135.000000
 21
-13.000000
  0
LINE
  8
0
  6
CENTER
 62
2
 10
155.000000
 20
-9.000000
 11
155.000000
 21
-13.000000
  0
LINE
  8
0
  6
CENTER
 62
2
 10
175.000000
 20
-9.000000
 11
175.000000
 21
-13.000000
  0
LINE
  8
0
  6
CONTINUOUS
 62
7
 10
13.080700
 20
-20.080799
 11
14.919100
 21
-21.919300
  0
LINE
  8
0
  6
CONTINUOUS
 62
7
 10
-264.919006
 20
-21.919201
 11
-263.080994
 21
-20.080700
  0
LINE
  8
0
  6
CONTINUOUS
 62
7
 10
-264.919006
 20
-20.080799
 11
-263.080994
 21
-21.919300
  0
LINE
  8
0
  6
CONTINUOUS
 62
7
 10
-16.919300
 20
-21.919300
 11
-15.080800
 21
-20.080799
  0
LINE
  8
0
  6
CONTINUOUS
 62
7
 10
-16.919300
 20
-20.080799
 11
-15.080800
 21
-21.919201
  0
LINE
  8
0
  6
CONTINUOUS
 62
7
 10
265.080994
 20
-21.919399
 11
266.919006
 21
-20.080900
  0
LINE
  8
0
  6
CONTINUOUS
 62
7
 10
265.080994
 20
-20.080700
 11
266.919006
 21
-21.919201
  0
LINE
  8
0
  6
CONTINUOUS
 62
7
 10
0.424988
 20
195.500000
 11
0.424988
 21
-195.000000
  0
CIRCLE
  8
0
  6
CONTINUOUS
 62
7
 10
-172.500000
 20
-86.500000
 40
2.500000
  0
CIRCLE
  8
0
  6
CONTINUOUS
 62
7
 10
-172.500000
 20
-86.500000
 40
3.000000
  0
CIRCLE
  8
0
  6
CONTINUOUS
 62
7
 10
-107.500000
 20
-86.500000
 40
3.000000
  0
CIRCLE
  8
0
  6
CONTINUOUS
 62
7
 10
-107.500000
 20
-86.500000
 40
2.500000
  0
CIRCLE
  8
0
  6
CONTINUOUS
 62
7
 10
-107.500000
 20
-56.500000
 40
2.500000
  0
CIRCLE
  8
0
  6
CONTINUOUS
 62
7
 10
-107.500000
 20
-56.500000
 40
3.000000
  0
CIRCLE
  8
0
  6
CONTINUOUS
 62
7
 10
-172.500000
 20
-56.500000
 40
2.500000
  0
CIRCLE
  8
0
  6
CONTINUOUS
 62
7
 10
-172.500000
 20
-56.500000
 40
3.000000
  0
CIRCLE
  8
0
  6
CONTINUOUS
 62
7
 10
-180.500000
 20
-79.000000
 40
5.900000
  0
CIRCLE
  8
0
  6
CONTINUOUS
 62
7
 10
-99.500000
 20
-64.000000
 40
5.900000
  0
CIRCLE
  8
0
  6
CONTINUOUS
 62
7
 10
-123.000000
 20
-30.000000
 40
1.500000
  0
CIRCLE
  8
0
  6
CONTINUOUS
 62
7
 10
-123.000000
 20
-30.000000
 40
1.250000
  0
CIRCLE
  8
0
  6
CONTINUOUS
 62
7
 10
-157.000000
 20
-30.000000
 40
1.250000
  0
CIRCLE
  8
0
  6
CONTINUOUS
 62
7
 10
-157.000000
 20
-30.000000
 40
1.500000
  0
CIRCLE
  8
0
  6
CONTINUOUS
 62
7
 10
-125.000000
 20
-18.000000
 40
0.800000
  0
CIRCLE
  8
0
  6
CONTINUOUS
 62
7
 10
-125.000000
 20
-18.000000
 40
1.000000
  0
CIRCLE
  8
0
  6
CONTINUOUS
 62
7
 10
-135.000000
 20
-18.000000
 40
1.000000
  0
CIRCLE
  8
0
  6
CONTINUOUS
 62
7
 10
-135.000000
 20
-18.000000
 40
0.800000
  0
ARC
  8
0
  6
CONTINUOUS
 62
7
 10
-156.500000
 20
-15.200000
 40
3.000000
 50
138.190002
 51
221.809998
  0
CIRCLE
  8
0
  6
CONTINUOUS
 62
7
 10
-117.500000
 20
34.500000
 40
2.000000
  0
CIRCLE
  8
0
  6
CONTINUOUS
 62
7
 10
-117.500000
 20
34.500000
 40
1.650000
  0
CIRCLE
  8
0
  6
CONTINUOUS
 62
7
 10
-142.500000
 20
34.500000
 40
2.000000
  0
CIRCLE
  8
0
  6
CONTINUOUS
 62
7
 10
-142.500000
 20
34.500000
 40
1.650000
  0
CIRCLE
  8
0
  6
CONTINUOUS
 62
7
 10
-117.500000
 20
4.500010
 40
2.000000
  0
CIRCLE
  8
0
  6
CONTINUOUS
 62
7
 10
-117.500000
 20
4.500010
 40
1.650000
  0
CIRCLE
  8
0
  6
CONTINUOUS
 62
7
 10
-142.500000
 20
4.500010
 40
2.000000
  0
CIRCLE
  8
0
  6
CONTINUOUS
 62
7
 10
-142.500000
 20
4.500010
 40
1.650000
  0
CIRCLE
  8
0
  6
CONTINUOUS
 62
7
 10
-172.500000
 20
4.500010
 40
4.750000
  0
CIRCLE
  8
0
  6
CONTINUOUS
 62
7
 10
-172.500000
 20
4.500010
 40
3.000000
  0
ARC
  8
0
  6
CONTINUOUS
 62
7
 10
-107.500000
 20
4.500010
 40
3.000000
 50
326.441986
 51
33.557598
  0
ARC
  8
0
  6
CONTINUOUS
 62
7
 10
-107.500000
 20
4.500010
 40
4.750000
 50
301.756989
 51
58.243198
  0
CIRCLE
  8
0
  6
CONTINUOUS
 62
7
 10
-172.500000
 20
34.500000
 40
3.000000
  0
CIRCLE
  8
0
  6
CONTINUOUS
 62
7
 10
-172.500000
 20
34.500000
 40
4.750000
  0
CIRCLE
  8
0
  6
CONTINUOUS
 62
7
 10
-98.500000
 20
82.500000
 40
4.000000
  0
CIRCLE
  8
0
  6
CONTINUOUS
 62
7
 10
-181.500000
 20
82.500000
 40
4.000000
  0
ARC
  8
0
  6
DASHED
 62
7
 10
-107.500000
 20
4.500010
 40
4.750000
 50
58.243198
 51
301.756989
  0
ARC
  8
0
  6
DASHED
 62
7
 10
-107.500000
 20
4.500010
 40
3.000000
 50
33.557598
 51
326.441986
  0
ARC
  8
0
  6
DASHED
 62
7
 10
-107.500000
 20
34.500000
 40
4.750000
 50
58.243301
 51
301.756989
  0
ARC
  8
0
  6
DASHED
 62
7
 10
-107.500000
 20
34.500000
 40
3.000000
 50
33.557598
 51
326.441986
  0
ARC
  8
0
  6
CONTINUOUS
 62
7
 10
-107.500000
 20
34.500000
 40
4.750000
 50
301.756989
 51
58.243301
  0
ARC
  8
0
  6
CONTINUOUS
 62
7
 10
-107.500000
 20
34.500000
 40
3.000000
 50
326.441986
 51
33.557598
  0
ARC
  8
0
  6
CONTINUOUS
 62
7
 10
-156.500000
 20
64.199997
 40
3.000000
 50
138.190002
 51
221.809998
  0
ARC
  8
0
  6
CONTINUOUS
 62
7
 10
-156.500000
 20
19.500000
 40
3.000000
 50
129.664001
 51
230.335999
  0
ARC
  8
0
  6
CONTINUOUS
 62
7
 10
52.200001
 20
-23.000000
 40
1.500010
 50
210.436005
 51
262.335999
  0
ARC
  8
0
  6
CONTINUOUS
 62
7
 10
52.200001
 20
-23.000000
 40
1.499990
 50
97.661598
 51
149.561996
  0
ARC
  8
0
  6
CONTINUOUS
 62
7
 10
31.799999
 20
-23.000000
 40
1.500010
 50
277.661011
 51
329.562012
  0
ARC
  8
0
  6
CONTINUOUS
 62
7
 10
31.799999
 20
-23.000000
 40
1.500000
 50
30.436399
 51
82.337303
  0
CIRCLE
  8
0
  6
CONTINUOUS
 62
7
 10
42.000000
 20
-30.000000
 40
8.500000
  0
CIRCLE
  8
0
  6
CONTINUOUS
 62
7
 10
42.000000
 20
-15.200000
 40
0.400000
  0
CIRCLE
  8
0
  6
CONTINUOUS
 62
7
 10
92.500000
 20
-86.500000
 40
2.500000
  0
CIRCLE
  8
0
  6
CONTINUOUS
 62
7
 10
92.500000
 20
-86.500000
 40
3.000000
  0
CIRCLE
  8
0
  6
CONTINUOUS
 62
7
 10
187.500000
 20
-86.500000
 40
3.000000
  0
CIRCLE
  8
0
  6
CONTINUOUS
 62
7
 10
187.500000
 20
-86.500000
 40
2.500000
  0
CIRCLE
  8
0
  6
CONTINUOUS
 62
7
 10
187.500000
 20
-56.500000
 40
2.500000
  0
CIRCLE
  8
0
  6
CONTINUOUS
 62
7
 10
187.500000
 20
-56.500000
 40
3.000000
  0
CIRCLE
  8
0
  6
CONTINUOUS
 62
7
 10
92.500000
 20
-56.500000
 40
2.500000
  0
CIRCLE
  8
0
  6
CONTINUOUS
 62
7
 10
92.500000
 20
-56.500000
 40
3.000000
  0
CIRCLE
  8
0
  6
CONTINUOUS
 62
7
 10
84.500000
 20
-79.000000
 40
5.900000
  0
CIRCLE
  8
0
  6
CONTINUOUS
 62
7
 10
195.500000
 20
-64.000000
 40
5.900000
  0
CIRCLE
  8
0
  6
CONTINUOUS
 62
7
 10
175.000000
 20
34.500000
 40
2.000000
  0
CIRCLE
  8
0
  6
CONTINUOUS
 62
7
 10
175.000000
 20
34.500000
 40
1.650000
  0
CIRCLE
  8
0
  6
CONTINUOUS
 62
7
 10
175.000000
 20
4.500000
 40
2.000000
  0
CIRCLE
  8
0
  6
CONTINUOUS
 62
7
 10
175.000000
 20
4.500000
 40
1.650000
  0
CIRCLE
  8
0
  6
CONTINUOUS
 62
7
 10
92.500000
 20
4.500000
 40
4.750000
  0
CIRCLE
  8
0
  6
CONTINUOUS
 62
7
 10
92.500000
 20
4.500000
 40
3.000000
  0
ARC
  8
0
  6
DASHED
 62
7
 10
187.500000
 20
4.500000
 40
3.000000
 50
60.000000
 51
300.000000
  0
ARC
  8
0
  6
DASHED
 62
7
 10
187.500000
 20
4.500000
 40
4.750000
 50
71.591698
 51
284.437012
  0
CIRCLE
  8
0
  6
CONTINUOUS
 62
7
 10
92.500000
 20
34.500000
 40
3.000000
  0
CIRCLE
  8
0
  6
CONTINUOUS
 62
7
 10
92.500000
 20
34.500000
 40
4.750000
  0
CIRCLE
  8
0
  6
CONTINUOUS
 62
7
 10
162.500000
 20
-30.000000
 40
1.500000
  0
CIRCLE
  8
0
  6
CONTINUOUS
 62
7
 10
162.500000
 20
-30.000000
 40
1.250000
  0
CIRCLE
  8
0
  6
CONTINUOUS
 62
7
 10
117.500000
 20
-30.000000
 40
1.250000
  0
CIRCLE
  8
0
  6
CONTINUOUS
 62
7
 10
117.500000
 20
-30.000000
 40
1.500000
  0
CIRCLE
  8
0
  6
CONTINUOUS
 62
7
 10
160.000000
 20
-18.000000
 40
0.800000
  0
CIRCLE
  8
0
  6
CONTINUOUS
 62
7
 10
160.000000
 20
-18.000000
 40
1.000000
  0
CIRCLE
  8
0
  6
CONTINUOUS
 62
7
 10
150.000000
 20
-18.000000
 40
1.000000
  0
CIRCLE
  8
0
  6
CONTINUOUS
 62
7
 10
150.000000
 20
-18.000000
 40
0.800000
  0
CIRCLE
  8
0
  6
CONTINUOUS
 62
7
 10
135.000000
 20
4.500000
 40
2.000000
  0
CIRCLE
  8
0
  6
CONTINUOUS
 62
7
 10
135.000000
 20
4.500000
 40
1.650000
  0
CIRCLE
  8
0
  6
CONTINUOUS
 62
7
 10
135.000000
 20
34.500000
 40
2.000000
  0
CIRCLE
  8
0
  6
CONTINUOUS
 62
7
 10
135.000000
 20
34.500000
 40
1.650000
  0
CIRCLE
  8
0
  6
CONTINUOUS
 62
7
 10
155.000000
 20
4.500000
 40
2.000000
  0
CIRCLE
  8
0
  6
CONTINUOUS
 62
7
 10
155.000000
 20
4.500000
 40
1.650000
  0
CIRCLE
  8
0
  6
CONTINUOUS
 62
7
 10
155.000000
 20
34.500000
 40
2.000000
  0
CIRCLE
  8
0
  6
CONTINUOUS
 62
7
 10
155.000000
 20
34.500000
 40
1.650000
  0
CIRCLE
  8
0
  6
CONTINUOUS
 62
7
 10
83.500000
 20
82.500000
 40
4.000000
  0
ARC
  8
0
  6
CONTINUOUS
 62
7
 10
187.500000
 20
4.500000
 40
3.000000
 50
300.000000
 51
60.000000
  0
ARC
  8
0
  6
CONTINUOUS
 62
7
 10
187.500000
 20
4.500000
 40
4.750000
 50
288.407990
 51
71.591698
  0
ARC
  8
0
  6
CONTINUOUS
 62
7
 10
187.500000
 20
34.500000
 40
4.750000
 50
288.407990
 51
71.591698
  0
ARC
  8
0
  6
CONTINUOUS
 62
7
 10
187.500000
 20
34.500000
 40
3.000000
 50
300.000000
 51
60.000000
  0
ARC
  8
0
  6
DASHED
 62
7
 10
187.500000
 20
34.500000
 40
3.000000
 50
60.000000
 51
300.000000
  0
ARC
  8
0
  6
DASHED
 62
7
 10
187.500000
 20
34.500000
 40
4.750000
 50
75.563004
 51
288.407990
  0
CIRCLE
  8
0
  6
CONTINUOUS
 62
7
 10
196.500000
 20
82.500000
 40
4.000000
  0
ARC
  8
0
  6
CONTINUOUS
 62
7
 10
119.500000
 20
-15.200000
 40
3.000000
 50
138.190002
 51
221.809998
  0
ARC
  8
0
  6
CONTINUOUS
 62
7
 10
119.500000
 20
64.199997
 40
3.000000
 50
138.190002
 51
221.809998
  0
ARC
  8
0
  6
CONTINUOUS
 62
7
 10
119.500000
 20
19.500000
 40
3.000000
 50
129.664001
 51
230.335999
  0
ARC
  8
0
  6
CONTINUOUS
 62
7
 10
14.000000
 20
-21.000000
 40
7.100000
 50
323.723999
 51
336.276001
  0
ARC
  8
0
  6
CONTINUOUS
 62
7
 10
14.000000
 20
-21.000000
 40
7.100000
 50
23.724199
 51
36.275799
  0
ARC
  8
0
  6
CONTINUOUS
 62
7
 10
14.000000
 20
-21.000000
 40
7.100000
 50
263.723999
 51
276.276001
  0
CIRCLE
  8
0
  6
CONTINUOUS
 62
7
 10
14.000000
 20
-21.000000
 40
5.000000
  0
CIRCLE
  8
0
  6
CONTINUOUS
 62
7
 10
14.000000
 20
-21.000000
 40
2.340000
  0
ARC
  8
0
  6
CONTINUOUS
 62
7
 10
14.000000
 20
-21.000000
 40
7.100000
 50
83.724197
 51
96.275803
  0
ARC
  8
0
  6
CONTINUOUS
 62
7
 10
14.000000
 20
-21.000000
 40
7.100000
 50
143.723999
 51
156.276001
  0
ARC
  8
0
  6
CONTINUOUS
 62
7
 10
14.000000
 20
-21.000000
 40
7.100000
 50
203.723999
 51
216.276001
  0
ARC
  8
0
  6
CONTINUOUS
 62
7
 10
-165.500000
 20
76.000000
 40
2.500000
 50
90.000000
 51
180.000000
  0
ARC
  8
0
  6
CONTINUOUS
 62
7
 10
-114.500000
 20
76.000000
 40
2.500000
 50
0.000000
 51
90.000000
  0
ARC
  8
0
  6
CONTINUOUS
 62
7
 10
266.000000
 20
-21.000000
 40
7.100010
 50
323.723999
 51
336.276001
  0
ARC
  8
0
  6
CONTINUOUS
 62
7
 10
227.800003
 20
-23.000000
 40
1.500010
 50
277.664001
 51
329.563995
  0
ARC
  8
0
  6
CONTINUOUS
 62
7
 10
227.800003
 20
-23.000000
 40
1.499990
 50
30.437799
 51
82.338402
  0
ARC
  8
0
  6
CONTINUOUS
 62
7
 10
248.199997
 20
-23.000000
 40
1.500000
 50
210.438995
 51
262.338989
  0
ARC
  8
0
  6
CONTINUOUS
 62
7
 10
248.199997
 20
-23.000000
 40
1.500000
 50
97.662697
 51
149.563995
  0
CIRCLE
  8
0
  6
CONTINUOUS
 62
7
 10
238.000000
 20
-30.000000
 40
8.500000
  0
CIRCLE
  8
0
  6
CONTINUOUS
 62
7
 10
238.000000
 20
-15.200000
 40
0.400000
  0
ARC
  8
0
  6
CONTINUOUS
 62
7
 10
266.000000
 20
-21.000000
 40
7.100000
 50
203.723999
 51
216.276001
  0
ARC
  8
0
  6
CONTINUOUS
 62
7
 10
266.000000
 20
-21.000000
 40
7.100010
 50
143.723999
 51
156.276001
  0
ARC
  8
0
  6
CONTINUOUS
 62
7
 10
266.000000
 20
-21.000000
 40
7.100000
 50
263.723999
 51
276.276001
  0
CIRCLE
  8
0
  6
CONTINUOUS
 62
7
 10
266.000000
 20
-21.000000
 40
5.000000
  0
CIRCLE
  8
0
  6
CONTINUOUS
 62
7
 10
266.000000
 20
-21.000000
 40
2.340000
  0
ARC
  8
0
  6
CONTINUOUS
 62
7
 10
266.000000
 20
-21.000000
 40
7.100000
 50
83.724297
 51
96.275703
  0
ARC
  8
0
  6
CONTINUOUS
 62
7
 10
266.000000
 20
-21.000000
 40
7.100000
 50
23.724199
 51
36.275799
  0
ARC
  8
0
  6
CONTINUOUS
 62
7
 10
170.500000
 20
76.000000
 40
2.500000
 50
0.000000
 51
90.000000
  0
ARC
  8
0
  6
CONTINUOUS
 62
7
 10
109.500000
 20
76.000000
 40
2.500000
 50
90.000000
 51
180.000000
  0
ARC
  8
0
  6
CONTINUOUS
 62
7
 10
-225.800003
 20
-23.000000
 40
1.500010
 50
210.436005
 51
262.335999
  0
ARC
  8
0
  6
CONTINUOUS
 62
7
 10
-225.800003
 20
-23.000000
 40
1.499990
 50
97.661598
 51
149.561996
  0
ARC
  8
0
  6
CONTINUOUS
 62
7
 10
-246.199997
 20
-23.000000
 40
1.500010
 50
277.661011
 51
329.561005
  0
ARC
  8
0
  6
CONTINUOUS
 62
7
 10
-246.199997
 20
-23.000000
 40
1.500000
 50
30.436399
 51
82.337303
  0
CIRCLE
  8
0
  6
CONTINUOUS
 62
7
 10
-236.000000
 20
-30.000000
 40
8.500000
  0
CIRCLE
  8
0
  6
CONTINUOUS
 62
7
 10
-236.000000
 20
-15.200000
 40
0.400000
  0
ARC
  8
0
  6
CONTINUOUS
 62
7
 10
-264.000000
 20
-21.000000
 40
7.100010
 50
323.723999
 51
336.276001
  0
ARC
  8
0
  6
CONTINUOUS
 62
7
 10
-264.000000
 20
-21.000000
 40
7.100000
 50
23.724199
 51
36.275799
  0
ARC
  8
0
  6
CONTINUOUS
 62
7
 10
-264.000000
 20
-21.000000
 40
7.100000
 50
263.723999
 51
276.276001
  0
CIRCLE
  8
0
  6
CONTINUOUS
 62
7
 10
-264.000000
 20
-21.000000
 40
5.000000
  0
CIRCLE
  8
0
  6
CONTINUOUS
 62
7
 10
-264.000000
 20
-21.000000
 40
2.340000
  0
ARC
  8
0
  6
CONTINUOUS
 62
7
 10
-264.000000
 20
-21.000000
 40
7.100000
 50
83.724297
 51
96.275703
  0
ARC
  8
0
  6
CONTINUOUS
 62
7
 10
-264.000000
 20
-21.000000
 40
7.100010
 50
143.723999
 51
156.276001
  0
ARC
  8
0
  6
CONTINUOUS
 62
7
 10
-264.000000
 20
-21.000000
 40
7.100000
 50
203.723999
 51
216.276001
  0
ARC
  8
0
  6
CONTINUOUS
 62
7
 10
-16.000000
 20
-21.000000
 40
7.100000
 50
323.723999
 51
336.276001
  0
ARC
  8
0
  6
CONTINUOUS
 62
7
 10
-54.200001
 20
-23.000000
 40
1.500010
 50
277.664001
 51
329.563995
  0
ARC
  8
0
  6
CONTINUOUS
 62
7
 10
-54.200001
 20
-23.000000
 40
1.499990
 50
30.437599
 51
82.338402
  0
ARC
  8
0
  6
CONTINUOUS
 62
7
 10
-33.799999
 20
-23.000000
 40
1.500010
 50
210.438004
 51
262.338989
  0
ARC
  8
0
  6
CONTINUOUS
 62
7
 10
-33.799999
 20
-23.000000
 40
1.500000
 50
97.662697
 51
149.563995
  0
CIRCLE
  8
0
  6
CONTINUOUS
 62
7
 10
-44.000000
 20
-30.000000
 40
8.500000
  0
CIRCLE
  8
0
  6
CONTINUOUS
 62
7
 10
-44.000000
 20
-15.200000
 40
0.400000
  0
ARC
  8
0
  6
CONTINUOUS
 62
7
 10
-16.000000
 20
-21.000000
 40
7.100000
 50
203.723999
 51
216.276001
  0
ARC
  8
0
  6
CONTINUOUS
 62
7
 10
-16.000000
 20
-21.000000
 40
7.100000
 50
143.723999
 51
156.276001
  0
ARC
  8
0
  6
CONTINUOUS
 62
7
 10
-16.000000
 20
-21.000000
 40
7.100000
 50
263.723999
 51
276.276001
  0
CIRCLE
  8
0
  6
CONTINUOUS
 62
7
 10
-16.000000
 20
-21.000000
 40
5.000000
  0
CIRCLE
  8
0
  6
CONTINUOUS
 62
7
 10
-16.000000
 20
-21.000000
 40
2.340000
  0
ARC
  8
0
  6
CONTINUOUS
 62
7
 10
-16.000000
 20
-21.000000
 40
7.100000
 50
83.724197
 51
96.275803
  0
ARC
  8
0
  6
CONTINUOUS
 62
7
 10
-16.000000
 20
-21.000000
 40
7.100000
 50
23.724199
 51
36.275799
  0
CIRCLE
  8
0
  6
CONTINUOUS
 62
7
 10
-181.500000
 20
-33.500000
 40
2.500000
  0
CIRCLE
  8
0
  6
CONTINUOUS
 62
7
 10
-181.500000
 20
-33.500000
 40
2.100000
  0
CIRCLE
  8
0
  6
CONTINUOUS
 62
7
 10
-98.500000
 20
-33.500000
 40
2.500000
  0
CIRCLE
  8
0
  6
CONTINUOUS
 62
7
 10
-98.500000
 20
-33.500000
 40
2.100000
  0
CIRCLE
  8
0
  6
CONTINUOUS
 62
7
 10
83.500000
 20
-33.500000
 40
2.500000
  0
CIRCLE
  8
0
  6
CONTINUOUS
 62
7
 10
83.500000
 20
-33.500000
 40
2.100000
  0
CIRCLE
  8
0
  6
CONTINUOUS
 62
7
 10
196.500000
 20
-33.500000
 40
2.500000
  0
CIRCLE
  8
0
  6
CONTINUOUS
 62
7
 10
196.500000
 20
-33.500000
 40
2.100000
  0
CIRCLE
  8
0
  6
CONTINUOUS
 62
7
 10
92.500000
 20
4.500000
 40
2.650000
  0
CIRCLE
  8
0
  6
CONTINUOUS
 62
7
 10
92.500000
 20
34.500000
 40
2.650000
  0
ARC
  8
0
  6
CONTINUOUS
 62
7
 10
187.500000
 20
34.500000
 40
2.650000
 50
304.473999
 51
55.525700
  0
ARC
  8
0
  6
DASHED
 62
7
 10
187.500000
 20
34.500000
 40
2.650000
 50
55.525700
 51
304.473999
  0
ARC
  8
0
  6
CONTINUOUS
 62
7
 10
187.500000
 20
4.500000
 40
2.650000
 50
304.473999
 51
55.525600
  0
ARC
  8
0
  6
DASHED
 62
7
 10
187.500000
 20
4.500000
 40
2.650000
 50
55.525600
 51
304.473999
  0
CIRCLE
  8
0
  6
CONTINUOUS
 62
7
 10
-172.500000
 20
4.500010
 40
2.650000
  0
CIRCLE
  8
0
  6
CONTINUOUS
 62
7
 10
-172.500000
 20
34.500000
 40
2.650000
  0
CIRCLE
  8
0
  6
DASHED
 62
7
 10
-107.500000
 20
34.500000
 40
2.650000
  0
CIRCLE
  8
0
  6
DASHED
 62
7
 10
-107.500000
 20
4.500010
 40
2.650000
  0
TEXT
  8
0
 62
7
 10
202.930283
 20
183.925003
 40
6.300000
  1
Ver.1.0
 50
0.000000
 41
1.010330
 51
0.000000
  7
STANDARD
  0
TEXT
  8
0
 62
7
 10
172.714691
 20
-187.250000
 40
9.000000
  1
KOGANEI CORP.
 50
0.000000
 41
0.771524
 51
0.000000
  7
STANDARD
  0
TEXT
  8
0
 62
7
 10
-243.569717
 20
183.925003
 40
6.300000
  1
AP TABLE
 50
0.000000
 41
0.775607
 51
0.000000
  7
STANDARD
  0
TEXT
  8
0
 62
7
 10
12.274609
 20
158.925003
 40
6.300000
  1
MODEL:APT-SD16-30-TPQZ
 50
0.000000
 41
0.778008
 51
0.000000
  7
STANDARD
  0
TEXT
  8
0
 62
7
 10
-269.400391
 20
158.925003
 40
6.300000
  1
MODEL:APT-SD16-20-TPQZ
 50
0.000000
 41
0.778008
 51
0.000000
  7
STANDARD
  0
ENDSEC
  0
EOF
