  0
SECTION
  2
HEADER
  0
ENDSEC
  0
SECTION
  2
TABLES
  0
TABLE
  2
LTYPE
 70
     4
  0
LTYPE
  2
CONTINUOUS
 70
    64
  3
Solid line
 72
    65
 73
     0
 40
0.000000
  0
LTYPE
  2
DASHED
 70
    64
  3
__ __ __ __ __ __ __ __ __ __ __ __ __ __ __
 72
    65
 73
     2
 40
3.500000
 49
2.000000
 49
-1.500000
  0
LTYPE
  2
CENTER
 70
    64
  3
____ _ ____ _ ____ _ ____ _ ____ _ ____ _ ____
 72
    65
 73
     4
 40
17.500000
 49
13.000000
 49
-1.500000
 49
1.500000
 49
-1.500000
  0
LTYPE
  2
PHANTOM
 70
    64
  3
_____ _ _ _____ _ _ _____ _ _ _____ _ _ ____  
 72
    65
 73
     6
 40
15.500000
 49
8.000000
 49
-1.500000
 49
1.500000
 49
-1.500000
 49
1.500000
 49
-1.500000
  0
ENDTAB
  0
TABLE
  2
LAYER
 70
     1
  0
LAYER
  2
0
 70
     0
 62
     7
  6
CONTINUOUS
  0
ENDTAB
  0
TABLE
  2
STYLE
 70
     1
  0
STYLE
  2
STANDARD
 70
     0
 40
0.000000
 41
1.000000
 50
0.000000
 71
     0
 42
0.200000
  3
txt
  4
BIGFONT
  0
ENDTAB
  0
TABLE
  2
VIEW
 70
     0
  0
ENDTAB
  0
ENDSEC
  0
SECTION
  2
BLOCKS
  0
ENDSEC
  0
SECTION
  2
ENTITIES
  0
LINE
  8
0
  6
CONTINUOUS
 62
7
 10
-138.399994
 20
94.500000
 11
138.350006
 21
94.500000
  0
LINE
  8
0
  6
CONTINUOUS
 62
7
 10
138.350006
 20
94.500000
 11
138.350006
 21
-94.800003
  0
LINE
  8
0
  6
CONTINUOUS
 62
7
 10
-138.399994
 20
-94.800003
 11
138.350006
 21
-94.800003
  0
LINE
  8
0
  6
CONTINUOUS
 62
7
 10
-138.399994
 20
94.500000
 11
-138.399994
 21
-94.800003
  0
LINE
  8
0
  6
CONTINUOUS
 62
7
 10
73.349998
 20
-84.800003
 11
138.350006
 21
-84.800003
  0
LINE
  8
0
  6
CONTINUOUS
 62
7
 10
-138.399994
 20
84.500000
 11
-73.400002
 21
84.500000
  0
LINE
  8
0
  6
CONTINUOUS
 62
7
 10
73.349998
 20
84.500000
 11
138.350006
 21
84.500000
  0
LINE
  8
0
  6
CONTINUOUS
 62
7
 10
73.349998
 20
-84.800003
 11
73.349998
 21
-94.800003
  0
LINE
  8
0
  6
CONTINUOUS
 62
7
 10
73.349998
 20
94.500000
 11
73.349998
 21
84.500000
  0
LINE
  8
0
  6
CONTINUOUS
 62
7
 10
-73.400002
 20
94.500000
 11
-73.400002
 21
84.500000
  0
LINE
  8
0
  6
CONTINUOUS
 62
7
 10
75.599998
 20
0.999996
 11
95.400002
 21
0.999996
  0
LINE
  8
0
  6
CONTINUOUS
 62
7
 10
50.500000
 20
-3.500000
 11
70.000000
 21
-3.500000
  0
LINE
  8
0
  6
CONTINUOUS
 62
7
 10
70.000000
 20
-6.800000
 11
101.000000
 21
-6.800000
  0
LINE
  8
0
  6
CONTINUOUS
 62
7
 10
101.000000
 20
-3.500000
 11
110.500000
 21
-3.500000
  0
LINE
  8
0
  6
CONTINUOUS
 62
7
 10
50.500000
 20
-8.000000
 11
110.500000
 21
-8.000000
  0
LINE
  8
0
  6
CENTER
 62
2
 10
48.500000
 20
-42.500000
 11
112.500000
 21
-42.500000
  0
LINE
  8
0
  6
CONTINUOUS
 62
7
 10
50.500000
 20
-31.000000
 11
50.500000
 21
-54.000000
  0
LINE
  8
0
  6
CONTINUOUS
 62
7
 10
110.500000
 20
-31.000000
 11
110.500000
 21
-54.000000
  0
LINE
  8
0
  6
CONTINUOUS
 62
7
 10
50.500000
 20
-31.000000
 11
110.500000
 21
-31.000000
  0
LINE
  8
0
  6
CONTINUOUS
 62
7
 10
50.500000
 20
-54.000000
 11
110.500000
 21
-54.000000
  0
LINE
  8
0
  6
CENTER
 62
2
 10
48.087101
 20
27.500000
 11
113.116997
 21
27.500000
  0
LINE
  8
0
  6
CONTINUOUS
 62
7
 10
50.500000
 20
39.000000
 11
50.500000
 21
16.000000
  0
LINE
  8
0
  6
CONTINUOUS
 62
7
 10
50.500000
 20
39.000000
 11
110.500000
 21
39.000000
  0
LINE
  8
0
  6
CONTINUOUS
 62
7
 10
50.500000
 20
16.000000
 11
110.500000
 21
16.000000
  0
LINE
  8
0
  6
CONTINUOUS
 62
7
 10
50.500000
 20
32.000000
 11
70.000000
 21
32.000000
  0
LINE
  8
0
  6
CONTINUOUS
 62
7
 10
101.000000
 20
32.000000
 11
110.500000
 21
32.000000
  0
LINE
  8
0
  6
CONTINUOUS
 62
7
 10
50.500000
 20
23.000000
 11
70.000000
 21
23.000000
  0
LINE
  8
0
  6
CONTINUOUS
 62
7
 10
101.000000
 20
23.000000
 11
110.500000
 21
23.000000
  0
LINE
  8
0
  6
CONTINUOUS
 62
7
 10
50.500000
 20
-16.000000
 11
110.500000
 21
-16.000000
  0
LINE
  8
0
  6
CONTINUOUS
 62
7
 10
110.500000
 20
39.000000
 11
110.500000
 21
16.000000
  0
LINE
  8
0
  6
CONTINUOUS
 62
7
 10
110.500000
 20
-3.500000
 11
110.500000
 21
-16.000000
  0
LINE
  8
0
  6
CONTINUOUS
 62
7
 10
50.500000
 20
-3.500000
 11
50.500000
 21
-16.000000
  0
LINE
  8
0
  6
CENTER
 62
2
 10
80.500000
 20
38.500000
 11
80.500000
 21
31.500000
  0
LINE
  8
0
  6
CENTER
 62
2
 10
77.000000
 20
35.000000
 11
84.000000
 21
35.000000
  0
LINE
  8
0
  6
CENTER
 62
2
 10
90.500000
 20
38.500000
 11
90.500000
 21
31.500000
  0
LINE
  8
0
  6
CENTER
 62
2
 10
87.000000
 20
35.000000
 11
94.000000
 21
35.000000
  0
LINE
  8
0
  6
CENTER
 62
2
 10
80.500000
 20
23.500000
 11
80.500000
 21
16.500000
  0
LINE
  8
0
  6
CENTER
 62
2
 10
77.000000
 20
20.000000
 11
84.000000
 21
20.000000
  0
LINE
  8
0
  6
CENTER
 62
2
 10
90.500000
 20
23.500000
 11
90.500000
 21
16.500000
  0
LINE
  8
0
  6
CENTER
 62
2
 10
87.000000
 20
20.000000
 11
94.000000
 21
20.000000
  0
LINE
  8
0
  6
CENTER
 62
2
 10
60.200001
 20
-7.500000
 11
60.200001
 21
-14.500000
  0
LINE
  8
0
  6
CENTER
 62
2
 10
56.700001
 20
-11.000000
 11
63.700001
 21
-11.000000
  0
LINE
  8
0
  6
CENTER
 62
2
 10
104.800003
 20
-7.500000
 11
104.800003
 21
-14.500000
  0
LINE
  8
0
  6
CENTER
 62
2
 10
101.300003
 20
-11.000000
 11
108.300003
 21
-11.000000
  0
LINE
  8
0
  6
CENTER
 62
2
 10
54.500000
 20
-30.850000
 11
54.500000
 21
-38.150002
  0
LINE
  8
0
  6
CENTER
 62
2
 10
50.849998
 20
-34.500000
 11
58.150002
 21
-34.500000
  0
LINE
  8
0
  6
CENTER
 62
2
 10
106.500000
 20
-46.849998
 11
106.500000
 21
-54.150002
  0
LINE
  8
0
  6
CENTER
 62
2
 10
102.849998
 20
-50.500000
 11
110.150002
 21
-50.500000
  0
LINE
  8
0
  6
CENTER
 62
2
 10
90.500000
 20
3.000000
 11
90.500000
 21
-1.000000
  0
LINE
  8
0
  6
CENTER
 62
2
 10
80.500000
 20
3.000000
 11
80.500000
 21
-1.000000
  0
LINE
  8
0
  6
DASHED
 62
2
 10
51.500000
 20
-8.000000
 11
51.500000
 21
-11.300000
  0
LINE
  8
0
  6
DASHED
 62
2
 10
51.500000
 20
-11.300000
 11
57.500000
 21
-11.300000
  0
LINE
  8
0
  6
DASHED
 62
2
 10
52.849998
 20
-11.300000
 11
52.849998
 21
-16.000000
  0
LINE
  8
0
  6
CENTER
 62
2
 10
54.500000
 20
-6.000000
 11
54.500000
 21
-18.000000
  0
LINE
  8
0
  6
DASHED
 62
2
 10
56.150002
 20
-11.300000
 11
56.150002
 21
-16.000000
  0
LINE
  8
0
  6
DASHED
 62
2
 10
57.500000
 20
-8.000000
 11
57.500000
 21
-11.300000
  0
LINE
  8
0
  6
CONTINUOUS
 62
7
 10
-62.400002
 20
0.999996
 11
-42.599998
 21
0.999996
  0
LINE
  8
0
  6
CONTINUOUS
 62
7
 10
-77.500000
 20
-3.500000
 11
-68.000000
 21
-3.500000
  0
LINE
  8
0
  6
CONTINUOUS
 62
7
 10
-68.000000
 20
-6.800000
 11
-37.000000
 21
-6.800000
  0
LINE
  8
0
  6
CONTINUOUS
 62
7
 10
-37.000000
 20
-3.500000
 11
-32.500000
 21
-3.500000
  0
LINE
  8
0
  6
CONTINUOUS
 62
7
 10
-77.500000
 20
-8.000000
 11
-32.500000
 21
-8.000000
  0
LINE
  8
0
  6
CENTER
 62
2
 10
-79.500000
 20
-42.500000
 11
-30.500000
 21
-42.500000
  0
LINE
  8
0
  6
CONTINUOUS
 62
7
 10
-77.500000
 20
-31.000000
 11
-77.500000
 21
-54.000000
  0
LINE
  8
0
  6
CONTINUOUS
 62
7
 10
-32.500000
 20
-31.000000
 11
-32.500000
 21
-54.000000
  0
LINE
  8
0
  6
CONTINUOUS
 62
7
 10
-77.500000
 20
-31.000000
 11
-32.500000
 21
-31.000000
  0
LINE
  8
0
  6
CONTINUOUS
 62
7
 10
-77.500000
 20
-54.000000
 11
-32.500000
 21
-54.000000
  0
LINE
  8
0
  6
CENTER
 62
2
 10
-79.912903
 20
27.500000
 11
-29.883301
 21
27.500000
  0
LINE
  8
0
  6
CONTINUOUS
 62
7
 10
-77.500000
 20
39.000000
 11
-77.500000
 21
16.000000
  0
LINE
  8
0
  6
CONTINUOUS
 62
7
 10
-77.500000
 20
39.000000
 11
-32.500000
 21
39.000000
  0
LINE
  8
0
  6
CONTINUOUS
 62
7
 10
-77.500000
 20
16.000000
 11
-32.500000
 21
16.000000
  0
LINE
  8
0
  6
CONTINUOUS
 62
7
 10
75.599998
 20
17.500000
 11
95.400002
 21
17.500000
  0
LINE
  8
0
  6
CONTINUOUS
 62
7
 10
75.599998
 20
37.500000
 11
95.400002
 21
37.500000
  0
LINE
  8
0
  6
CONTINUOUS
 62
7
 10
-77.500000
 20
32.000000
 11
-68.000000
 21
32.000000
  0
LINE
  8
0
  6
CONTINUOUS
 62
7
 10
-37.000000
 20
32.000000
 11
-32.500000
 21
32.000000
  0
LINE
  8
0
  6
CONTINUOUS
 62
7
 10
-77.500000
 20
23.000000
 11
-68.000000
 21
23.000000
  0
LINE
  8
0
  6
CONTINUOUS
 62
7
 10
-37.000000
 20
23.000000
 11
-32.500000
 21
23.000000
  0
LINE
  8
0
  6
CONTINUOUS
 62
7
 10
-77.500000
 20
-16.000000
 11
-32.500000
 21
-16.000000
  0
LINE
  8
0
  6
CONTINUOUS
 62
7
 10
-32.500000
 20
39.000000
 11
-32.500000
 21
16.000000
  0
LINE
  8
0
  6
CONTINUOUS
 62
7
 10
-32.500000
 20
-3.500000
 11
-32.500000
 21
-16.000000
  0
LINE
  8
0
  6
CONTINUOUS
 62
7
 10
-77.500000
 20
-3.500000
 11
-77.500000
 21
-16.000000
  0
LINE
  8
0
  6
CENTER
 62
2
 10
-57.500000
 20
38.500000
 11
-57.500000
 21
31.500000
  0
LINE
  8
0
  6
CENTER
 62
2
 10
-61.000000
 20
35.000000
 11
-54.000000
 21
35.000000
  0
LINE
  8
0
  6
CENTER
 62
2
 10
-47.500000
 20
38.500000
 11
-47.500000
 21
31.500000
  0
LINE
  8
0
  6
CENTER
 62
2
 10
-51.000000
 20
35.000000
 11
-44.000000
 21
35.000000
  0
LINE
  8
0
  6
CENTER
 62
2
 10
-74.000000
 20
24.500000
 11
-74.000000
 21
14.500000
  0
LINE
  8
0
  6
CENTER
 62
2
 10
-79.000000
 20
19.500000
 11
-68.750000
 21
19.500000
  0
LINE
  8
0
  6
CENTER
 62
2
 10
-57.500000
 20
23.500000
 11
-57.500000
 21
16.500000
  0
LINE
  8
0
  6
CENTER
 62
2
 10
-61.000000
 20
20.000000
 11
-54.000000
 21
20.000000
  0
LINE
  8
0
  6
CENTER
 62
2
 10
-47.500000
 20
23.500000
 11
-47.500000
 21
16.500000
  0
LINE
  8
0
  6
CENTER
 62
2
 10
-51.000000
 20
20.000000
 11
-44.000000
 21
20.000000
  0
LINE
  8
0
  6
CENTER
 62
2
 10
-67.800003
 20
-7.500000
 11
-67.800003
 21
-14.500000
  0
LINE
  8
0
  6
CENTER
 62
2
 10
-71.300003
 20
-11.000000
 11
-64.300003
 21
-11.000000
  0
LINE
  8
0
  6
CENTER
 62
2
 10
-38.200001
 20
-7.500000
 11
-38.200001
 21
-14.500000
  0
LINE
  8
0
  6
CENTER
 62
2
 10
-41.700001
 20
-11.000000
 11
-34.700001
 21
-11.000000
  0
LINE
  8
0
  6
CENTER
 62
2
 10
-74.000000
 20
-30.850000
 11
-74.000000
 21
-38.150002
  0
LINE
  8
0
  6
CENTER
 62
2
 10
-77.650002
 20
-34.500000
 11
-70.349998
 21
-34.500000
  0
LINE
  8
0
  6
CENTER
 62
2
 10
-36.000000
 20
-46.849998
 11
-36.000000
 21
-54.150002
  0
LINE
  8
0
  6
CENTER
 62
2
 10
-39.650002
 20
-50.500000
 11
-32.349998
 21
-50.500000
  0
LINE
  8
0
  6
CENTER
 62
2
 10
-47.500000
 20
3.000000
 11
-47.500000
 21
-1.000000
  0
LINE
  8
0
  6
CENTER
 62
2
 10
-57.500000
 20
3.000000
 11
-57.500000
 21
-1.000000
  0
LINE
  8
0
  6
DASHED
 62
2
 10
-77.000000
 20
-8.000000
 11
-77.000000
 21
-11.300000
  0
LINE
  8
0
  6
DASHED
 62
2
 10
-77.000000
 20
-11.300000
 11
-71.000000
 21
-11.300000
  0
LINE
  8
0
  6
DASHED
 62
2
 10
-75.650002
 20
-11.300000
 11
-75.650002
 21
-16.000000
  0
LINE
  8
0
  6
CENTER
 62
2
 10
-74.000000
 20
-6.000000
 11
-74.000000
 21
-18.000000
  0
LINE
  8
0
  6
DASHED
 62
2
 10
-72.349998
 20
-11.300000
 11
-72.349998
 21
-16.000000
  0
LINE
  8
0
  6
DASHED
 62
2
 10
-71.000000
 20
-8.000000
 11
-71.000000
 21
-11.300000
  0
LINE
  8
0
  6
CENTER
 62
2
 10
-36.000000
 20
40.500000
 11
-36.000000
 21
30.500000
  0
LINE
  8
0
  6
CENTER
 62
2
 10
-41.000000
 20
35.500000
 11
-31.000000
 21
35.500000
  0
LINE
  8
0
  6
CENTER
 62
2
 10
54.500000
 20
24.500000
 11
54.500000
 21
14.500000
  0
LINE
  8
0
  6
CENTER
 62
2
 10
49.500000
 20
19.500000
 11
59.500000
 21
19.500000
  0
LINE
  8
0
  6
CENTER
 62
2
 10
106.500000
 20
40.500000
 11
106.500000
 21
30.500000
  0
LINE
  8
0
  6
CENTER
 62
2
 10
101.500000
 20
35.500000
 11
111.500000
 21
35.500000
  0
LINE
  8
0
  6
CENTER
 62
2
 10
102.500000
 20
-31.600000
 11
102.500000
 21
-47.400002
  0
LINE
  8
0
  6
CENTER
 62
2
 10
94.599998
 20
-39.500000
 11
110.400002
 21
-39.500000
  0
LINE
  8
0
  6
CENTER
 62
2
 10
62.500000
 20
-31.600000
 11
62.500000
 21
-47.400002
  0
LINE
  8
0
  6
CENTER
 62
2
 10
54.599998
 20
-39.500000
 11
70.400002
 21
-39.500000
  0
LINE
  8
0
  6
CENTER
 62
2
 10
-40.500000
 20
-31.600000
 11
-40.500000
 21
-47.400002
  0
LINE
  8
0
  6
CENTER
 62
2
 10
-48.400002
 20
-39.500000
 11
-32.599998
 21
-39.500000
  0
LINE
  8
0
  6
CENTER
 62
2
 10
-65.500000
 20
-31.600000
 11
-65.500000
 21
-47.400002
  0
LINE
  8
0
  6
CENTER
 62
2
 10
-73.400002
 20
-39.500000
 11
-57.599998
 21
-39.500000
  0
LINE
  8
0
  6
CONTINUOUS
 62
7
 10
70.000000
 20
37.200001
 11
70.000000
 21
17.799999
  0
LINE
  8
0
  6
CONTINUOUS
 62
7
 10
-62.400002
 20
37.500000
 11
-62.400002
 21
17.500000
  0
LINE
  8
0
  6
CONTINUOUS
 62
7
 10
-62.400002
 20
33.000000
 11
-42.599998
 21
33.000000
  0
LINE
  8
0
  6
CONTINUOUS
 62
7
 10
-62.400002
 20
22.000000
 11
-42.599998
 21
22.000000
  0
LINE
  8
0
  6
CONTINUOUS
 62
7
 10
-42.599998
 20
37.500000
 11
-42.599998
 21
17.500000
  0
LINE
  8
0
  6
CONTINUOUS
 62
7
 10
101.000000
 20
37.200001
 11
101.000000
 21
17.799999
  0
LINE
  8
0
  6
CONTINUOUS
 62
7
 10
75.599998
 20
37.500000
 11
75.599998
 21
17.500000
  0
LINE
  8
0
  6
CONTINUOUS
 62
7
 10
75.599998
 20
33.000000
 11
95.400002
 21
33.000000
  0
LINE
  8
0
  6
CONTINUOUS
 62
7
 10
75.599998
 20
22.000000
 11
95.400002
 21
22.000000
  0
LINE
  8
0
  6
CONTINUOUS
 62
7
 10
95.400002
 20
37.500000
 11
95.400002
 21
17.500000
  0
LINE
  8
0
  6
CONTINUOUS
 62
7
 10
75.599998
 20
0.999996
 11
75.599998
 21
-6.800000
  0
LINE
  8
0
  6
CONTINUOUS
 62
7
 10
95.400002
 20
0.999996
 11
95.400002
 21
-6.800000
  0
LINE
  8
0
  6
CONTINUOUS
 62
7
 10
-42.599998
 20
0.999996
 11
-42.599998
 21
-6.800000
  0
LINE
  8
0
  6
CONTINUOUS
 62
7
 10
-62.400002
 20
0.999996
 11
-62.400002
 21
-6.800000
  0
LINE
  8
0
  6
CONTINUOUS
 62
7
 10
-87.500000
 20
-16.000000
 11
-110.500000
 21
-16.000000
  0
LINE
  8
0
  6
CONTINUOUS
 62
7
 10
-110.500000
 20
-8.000000
 11
-110.500000
 21
-16.000000
  0
LINE
  8
0
  6
CONTINUOUS
 62
7
 10
-87.500000
 20
-8.000000
 11
-87.500000
 21
-16.000000
  0
LINE
  8
0
  6
CONTINUOUS
 62
7
 10
-87.500000
 20
-8.000000
 11
-94.500000
 21
-8.000000
  0
LINE
  8
0
  6
CONTINUOUS
 62
7
 10
-103.500000
 20
-8.000000
 11
-110.500000
 21
-8.000000
  0
LINE
  8
0
  6
CONTINUOUS
 62
7
 10
-94.500000
 20
-3.500000
 11
-103.500000
 21
-3.500000
  0
LINE
  8
0
  6
CONTINUOUS
 62
7
 10
-89.000000
 20
-6.800000
 11
-94.500000
 21
-6.800000
  0
LINE
  8
0
  6
CONTINUOUS
 62
7
 10
-103.500000
 20
-6.800000
 11
-109.000000
 21
-6.800000
  0
LINE
  8
0
  6
CENTER
 62
2
 10
-99.000000
 20
3.000000
 11
-99.000000
 21
-18.000000
  0
LINE
  8
0
  6
CENTER
 62
2
 10
-104.400002
 20
-11.000000
 11
-93.599998
 21
-11.000000
  0
LINE
  8
0
  6
CENTER
 62
2
 10
-91.500000
 20
3.000000
 11
-91.500000
 21
-1.000000
  0
LINE
  8
0
  6
CENTER
 62
2
 10
-106.500000
 20
3.000000
 11
-106.500000
 21
-1.000000
  0
LINE
  8
0
  6
CENTER
 62
2
 10
-107.000000
 20
-6.000000
 11
-107.000000
 21
-18.000000
  0
LINE
  8
0
  6
DASHED
 62
2
 10
-110.000000
 20
-11.300000
 11
-104.000000
 21
-11.300000
  0
LINE
  8
0
  6
DASHED
 62
2
 10
-110.000000
 20
-8.000000
 11
-110.000000
 21
-11.300000
  0
LINE
  8
0
  6
DASHED
 62
2
 10
-104.000000
 20
-8.000000
 11
-104.000000
 21
-11.300000
  0
LINE
  8
0
  6
DASHED
 62
2
 10
-108.650002
 20
-11.300000
 11
-108.650002
 21
-16.000000
  0
LINE
  8
0
  6
DASHED
 62
2
 10
-105.349998
 20
-11.300000
 11
-105.349998
 21
-16.000000
  0
LINE
  8
0
  6
DASHED
 62
2
 10
-94.000000
 20
-8.000000
 11
-94.000000
 21
-11.300000
  0
LINE
  8
0
  6
DASHED
 62
2
 10
-94.000000
 20
-11.300000
 11
-88.000000
 21
-11.300000
  0
LINE
  8
0
  6
DASHED
 62
2
 10
-92.650002
 20
-11.300000
 11
-92.650002
 21
-16.000000
  0
LINE
  8
0
  6
CENTER
 62
2
 10
-91.000000
 20
-6.000000
 11
-91.000000
 21
-18.000000
  0
LINE
  8
0
  6
DASHED
 62
2
 10
-89.349998
 20
-11.300000
 11
-89.349998
 21
-16.000000
  0
LINE
  8
0
  6
DASHED
 62
2
 10
-88.000000
 20
-8.000000
 11
-88.000000
 21
-11.300000
  0
LINE
  8
0
  6
CONTINUOUS
 62
7
 10
-94.500000
 20
-3.500000
 11
-94.500000
 21
-4.211200
  0
LINE
  8
0
  6
CONTINUOUS
 62
7
 10
-103.500000
 20
-3.500000
 11
-103.500000
 21
-4.211200
  0
LINE
  8
0
  6
CONTINUOUS
 62
7
 10
-103.500000
 20
-6.188610
 11
-103.500000
 21
-8.000000
  0
LINE
  8
0
  6
CONTINUOUS
 62
7
 10
-94.500000
 20
-6.188610
 11
-94.500000
 21
-8.000000
  0
LINE
  8
0
  6
CONTINUOUS
 62
7
 10
-109.000000
 20
0.999996
 11
-109.000000
 21
-6.800000
  0
LINE
  8
0
  6
CONTINUOUS
 62
7
 10
-109.000000
 20
0.999996
 11
-104.500000
 21
0.999996
  0
LINE
  8
0
  6
CONTINUOUS
 62
7
 10
-103.999001
 20
0.499537
 11
-104.499001
 21
0.999483
  0
LINE
  8
0
  6
CONTINUOUS
 62
7
 10
-104.000000
 20
0.499996
 11
-94.000000
 21
0.499996
  0
LINE
  8
0
  6
CONTINUOUS
 62
7
 10
-93.999397
 20
0.499532
 11
-93.499397
 21
0.999532
  0
LINE
  8
0
  6
CONTINUOUS
 62
7
 10
-93.500000
 20
0.999996
 11
-89.000000
 21
0.999996
  0
LINE
  8
0
  6
CONTINUOUS
 62
7
 10
-89.000000
 20
0.999996
 11
-89.000000
 21
-6.800000
  0
LINE
  8
0
  6
CONTINUOUS
 62
7
 10
40.500000
 20
-16.000000
 11
17.500000
 21
-16.000000
  0
LINE
  8
0
  6
CONTINUOUS
 62
7
 10
17.500000
 20
-8.000000
 11
17.500000
 21
-16.000000
  0
LINE
  8
0
  6
CONTINUOUS
 62
7
 10
40.500000
 20
-8.000000
 11
40.500000
 21
-16.000000
  0
LINE
  8
0
  6
CONTINUOUS
 62
7
 10
40.500000
 20
-8.000000
 11
33.500000
 21
-8.000000
  0
LINE
  8
0
  6
CONTINUOUS
 62
7
 10
24.500000
 20
-8.000000
 11
17.500000
 21
-8.000000
  0
LINE
  8
0
  6
CONTINUOUS
 62
7
 10
33.500000
 20
-3.500000
 11
24.500000
 21
-3.500000
  0
LINE
  8
0
  6
CONTINUOUS
 62
7
 10
39.000000
 20
-6.800000
 11
33.500000
 21
-6.800000
  0
LINE
  8
0
  6
CONTINUOUS
 62
7
 10
24.500000
 20
-6.800000
 11
19.000000
 21
-6.800000
  0
LINE
  8
0
  6
CENTER
 62
2
 10
29.000000
 20
3.000000
 11
29.000000
 21
-18.000000
  0
LINE
  8
0
  6
CENTER
 62
2
 10
23.600000
 20
-11.000000
 11
34.400002
 21
-11.000000
  0
LINE
  8
0
  6
CENTER
 62
2
 10
36.500000
 20
3.000000
 11
36.500000
 21
-1.000000
  0
LINE
  8
0
  6
CENTER
 62
2
 10
21.500000
 20
3.000000
 11
21.500000
 21
-1.000000
  0
LINE
  8
0
  6
CENTER
 62
2
 10
21.000000
 20
-6.000000
 11
21.000000
 21
-18.000000
  0
LINE
  8
0
  6
DASHED
 62
2
 10
18.000000
 20
-11.300000
 11
24.000000
 21
-11.300000
  0
LINE
  8
0
  6
DASHED
 62
2
 10
18.000000
 20
-8.000000
 11
18.000000
 21
-11.300000
  0
LINE
  8
0
  6
DASHED
 62
2
 10
24.000000
 20
-8.000000
 11
24.000000
 21
-11.300000
  0
LINE
  8
0
  6
DASHED
 62
2
 10
19.350000
 20
-11.300000
 11
19.350000
 21
-16.000000
  0
LINE
  8
0
  6
DASHED
 62
2
 10
22.650000
 20
-11.300000
 11
22.650000
 21
-16.000000
  0
LINE
  8
0
  6
DASHED
 62
2
 10
34.000000
 20
-8.000000
 11
34.000000
 21
-11.300000
  0
LINE
  8
0
  6
DASHED
 62
2
 10
34.000000
 20
-11.300000
 11
40.000000
 21
-11.300000
  0
LINE
  8
0
  6
DASHED
 62
2
 10
35.349998
 20
-11.300000
 11
35.349998
 21
-16.000000
  0
LINE
  8
0
  6
CENTER
 62
2
 10
37.000000
 20
-6.000000
 11
37.000000
 21
-18.000000
  0
LINE
  8
0
  6
DASHED
 62
2
 10
38.650002
 20
-11.300000
 11
38.650002
 21
-16.000000
  0
LINE
  8
0
  6
DASHED
 62
2
 10
40.000000
 20
-8.000000
 11
40.000000
 21
-11.300000
  0
LINE
  8
0
  6
CONTINUOUS
 62
7
 10
33.500000
 20
-3.500000
 11
33.500000
 21
-4.211200
  0
LINE
  8
0
  6
CONTINUOUS
 62
7
 10
24.500000
 20
-3.500000
 11
24.500000
 21
-4.211200
  0
LINE
  8
0
  6
CONTINUOUS
 62
7
 10
24.500000
 20
-6.188610
 11
24.500000
 21
-8.000000
  0
LINE
  8
0
  6
CONTINUOUS
 62
7
 10
33.500000
 20
-6.188610
 11
33.500000
 21
-8.000000
  0
LINE
  8
0
  6
CONTINUOUS
 62
7
 10
19.000200
 20
0.999996
 11
19.000200
 21
-6.800000
  0
LINE
  8
0
  6
CONTINUOUS
 62
7
 10
19.000200
 20
0.999996
 11
23.500000
 21
0.999996
  0
LINE
  8
0
  6
CONTINUOUS
 62
7
 10
24.000601
 20
0.499561
 11
23.500700
 21
0.999508
  0
LINE
  8
0
  6
CONTINUOUS
 62
7
 10
24.000000
 20
0.499996
 11
34.000000
 21
0.499996
  0
LINE
  8
0
  6
CONTINUOUS
 62
7
 10
34.000702
 20
0.499514
 11
34.500702
 21
0.999514
  0
LINE
  8
0
  6
CONTINUOUS
 62
7
 10
34.500000
 20
0.999996
 11
39.000000
 21
0.999996
  0
LINE
  8
0
  6
CONTINUOUS
 62
7
 10
39.000000
 20
0.999996
 11
39.000000
 21
-6.800000
  0
LINE
  8
0
  6
CONTINUOUS
 62
7
 10
-68.000000
 20
0.299996
 11
-62.400002
 21
0.299996
  0
LINE
  8
0
  6
CONTINUOUS
 62
7
 10
-68.000000
 20
0.299996
 11
-68.000000
 21
-6.800000
  0
LINE
  8
0
  6
CONTINUOUS
 62
7
 10
-42.599998
 20
0.299996
 11
-37.000000
 21
0.299996
  0
LINE
  8
0
  6
CONTINUOUS
 62
7
 10
-37.000000
 20
0.299996
 11
-37.000000
 21
-6.800000
  0
LINE
  8
0
  6
CONTINUOUS
 62
7
 10
70.000000
 20
0.299996
 11
75.599998
 21
0.299996
  0
LINE
  8
0
  6
CONTINUOUS
 62
7
 10
70.000000
 20
0.299996
 11
70.000000
 21
-6.800000
  0
LINE
  8
0
  6
CONTINUOUS
 62
7
 10
95.400002
 20
0.299996
 11
101.000000
 21
0.299996
  0
LINE
  8
0
  6
CONTINUOUS
 62
7
 10
101.000000
 20
0.299996
 11
101.000000
 21
-6.800000
  0
LINE
  8
0
  6
CONTINUOUS
 62
7
 10
70.000000
 20
37.200001
 11
75.599998
 21
37.200001
  0
LINE
  8
0
  6
CONTINUOUS
 62
7
 10
70.000000
 20
17.799999
 11
75.599998
 21
17.799999
  0
LINE
  8
0
  6
CONTINUOUS
 62
7
 10
95.400002
 20
37.200001
 11
101.000000
 21
37.200001
  0
LINE
  8
0
  6
CONTINUOUS
 62
7
 10
95.400002
 20
17.799999
 11
101.000000
 21
17.799999
  0
LINE
  8
0
  6
CONTINUOUS
 62
7
 10
-68.000000
 20
37.200001
 11
-68.000000
 21
17.799999
  0
LINE
  8
0
  6
CONTINUOUS
 62
7
 10
-68.000000
 20
37.200001
 11
-62.400002
 21
37.200001
  0
LINE
  8
0
  6
CONTINUOUS
 62
7
 10
-62.400002
 20
37.500000
 11
-42.599998
 21
37.500000
  0
LINE
  8
0
  6
CONTINUOUS
 62
7
 10
-42.599998
 20
37.200001
 11
-37.000000
 21
37.200001
  0
LINE
  8
0
  6
CONTINUOUS
 62
7
 10
-37.000000
 20
37.200001
 11
-37.000000
 21
17.799999
  0
LINE
  8
0
  6
CONTINUOUS
 62
7
 10
-42.599998
 20
17.799999
 11
-37.000000
 21
17.799999
  0
LINE
  8
0
  6
CONTINUOUS
 62
7
 10
-62.400002
 20
17.500000
 11
-42.599998
 21
17.500000
  0
LINE
  8
0
  6
CONTINUOUS
 62
7
 10
-68.000000
 20
17.799999
 11
-62.400002
 21
17.799999
  0
LINE
  8
0
  6
CONTINUOUS
 62
7
 10
-0.024994
 20
94.500000
 11
-0.024994
 21
-94.800003
  0
CIRCLE
  8
0
  6
CONTINUOUS
 62
2
 10
90.500000
 20
35.000000
 40
1.500000
  0
CIRCLE
  8
0
  6
CONTINUOUS
 62
2
 10
90.500000
 20
20.000000
 40
1.500000
  0
CIRCLE
  8
0
  6
CONTINUOUS
 62
2
 10
80.500000
 20
20.000000
 40
1.500000
  0
CIRCLE
  8
0
  6
CONTINUOUS
 62
2
 10
80.500000
 20
35.000000
 40
1.500000
  0
CIRCLE
  8
0
  6
CONTINUOUS
 62
7
 10
106.500000
 20
-50.500000
 40
1.650000
  0
CIRCLE
  8
0
  6
CONTINUOUS
 62
7
 10
54.500000
 20
-34.500000
 40
1.650000
  0
CIRCLE
  8
0
  6
CONTINUOUS
 62
2
 10
104.800003
 20
-11.000000
 40
1.500000
  0
CIRCLE
  8
0
  6
CONTINUOUS
 62
2
 10
60.200001
 20
-11.000000
 40
1.500000
  0
CIRCLE
  8
0
  6
CONTINUOUS
 62
7
 10
54.500000
 20
19.500000
 40
3.000000
  0
CIRCLE
  8
0
  6
CONTINUOUS
 62
7
 10
54.500000
 20
19.500000
 40
1.650000
  0
CIRCLE
  8
0
  6
CONTINUOUS
 62
7
 10
106.500000
 20
35.500000
 40
3.000000
  0
CIRCLE
  8
0
  6
CONTINUOUS
 62
7
 10
106.500000
 20
35.500000
 40
1.650000
  0
CIRCLE
  8
0
  6
CONTINUOUS
 62
7
 10
80.500000
 20
35.000000
 40
1.250000
  0
CIRCLE
  8
0
  6
CONTINUOUS
 62
7
 10
90.500000
 20
35.000000
 40
1.250000
  0
CIRCLE
  8
0
  6
CONTINUOUS
 62
7
 10
90.500000
 20
20.000000
 40
1.250000
  0
CIRCLE
  8
0
  6
CONTINUOUS
 62
7
 10
80.500000
 20
20.000000
 40
1.250000
  0
CIRCLE
  8
0
  6
CONTINUOUS
 62
7
 10
60.200001
 20
-11.000000
 40
1.250000
  0
CIRCLE
  8
0
  6
CONTINUOUS
 62
7
 10
104.800003
 20
-11.000000
 40
1.250000
  0
CIRCLE
  8
0
  6
CONTINUOUS
 62
2
 10
-47.500000
 20
35.000000
 40
1.500000
  0
CIRCLE
  8
0
  6
CONTINUOUS
 62
2
 10
-47.500000
 20
20.000000
 40
1.500000
  0
CIRCLE
  8
0
  6
CONTINUOUS
 62
2
 10
-57.500000
 20
20.000000
 40
1.500000
  0
CIRCLE
  8
0
  6
CONTINUOUS
 62
2
 10
-57.500000
 20
35.000000
 40
1.500000
  0
CIRCLE
  8
0
  6
CONTINUOUS
 62
7
 10
-36.000000
 20
-50.500000
 40
1.650000
  0
CIRCLE
  8
0
  6
CONTINUOUS
 62
7
 10
-74.000000
 20
-34.500000
 40
1.650000
  0
CIRCLE
  8
0
  6
CONTINUOUS
 62
2
 10
-38.200001
 20
-11.000000
 40
1.500000
  0
CIRCLE
  8
0
  6
CONTINUOUS
 62
2
 10
-67.800003
 20
-11.000000
 40
1.500000
  0
CIRCLE
  8
0
  6
CONTINUOUS
 62
7
 10
-74.000000
 20
19.500000
 40
3.000000
  0
CIRCLE
  8
0
  6
CONTINUOUS
 62
7
 10
-74.000000
 20
19.500000
 40
1.650000
  0
CIRCLE
  8
0
  6
CONTINUOUS
 62
7
 10
-36.000000
 20
35.500000
 40
3.000000
  0
CIRCLE
  8
0
  6
CONTINUOUS
 62
7
 10
-36.000000
 20
35.500000
 40
1.650000
  0
CIRCLE
  8
0
  6
CONTINUOUS
 62
7
 10
-57.500000
 20
35.000000
 40
1.250000
  0
CIRCLE
  8
0
  6
CONTINUOUS
 62
7
 10
-47.500000
 20
35.000000
 40
1.250000
  0
CIRCLE
  8
0
  6
CONTINUOUS
 62
7
 10
-47.500000
 20
20.000000
 40
1.250000
  0
CIRCLE
  8
0
  6
CONTINUOUS
 62
7
 10
-57.500000
 20
20.000000
 40
1.250000
  0
CIRCLE
  8
0
  6
CONTINUOUS
 62
7
 10
-67.800003
 20
-11.000000
 40
1.250000
  0
CIRCLE
  8
0
  6
CONTINUOUS
 62
7
 10
-38.200001
 20
-11.000000
 40
1.250000
  0
CIRCLE
  8
0
  6
CONTINUOUS
 62
7
 10
-65.500000
 20
-39.500000
 40
5.900000
  0
CIRCLE
  8
0
  6
CONTINUOUS
 62
7
 10
-40.500000
 20
-39.500000
 40
5.900000
  0
CIRCLE
  8
0
  6
CONTINUOUS
 62
7
 10
62.500000
 20
-39.500000
 40
5.900000
  0
CIRCLE
  8
0
  6
CONTINUOUS
 62
7
 10
102.500000
 20
-39.500000
 40
5.900000
  0
CIRCLE
  8
0
  6
CONTINUOUS
 62
7
 10
-99.000000
 20
-11.000000
 40
3.400000
  0
ARC
  8
0
  6
CONTINUOUS
 62
7
 10
-103.650002
 20
-5.199900
 40
1.000000
 50
278.619995
 51
81.380096
  0
ARC
  8
0
  6
CONTINUOUS
 62
7
 10
-94.350098
 20
-5.199900
 40
1.000000
 50
98.620003
 51
261.380005
  0
CIRCLE
  8
0
  6
CONTINUOUS
 62
7
 10
29.000000
 20
-11.000000
 40
3.400000
  0
ARC
  8
0
  6
CONTINUOUS
 62
7
 10
24.350100
 20
-5.199900
 40
1.000000
 50
278.619995
 51
81.380096
  0
ARC
  8
0
  6
CONTINUOUS
 62
7
 10
33.649899
 20
-5.199900
 40
1.000000
 50
98.620003
 51
261.380005
  0
TEXT
  8
0
 62
7
 10
78.657349
 20
-90.925003
 40
4.500000
  1
KOGANEI CORP.
 50
0.000000
 41
0.771526
 51
0.000000
  7
STANDARD
  0
TEXT
  8
0
 62
7
 10
96.112999
 20
88.699997
 40
3.200000
  1
Ver.1.0
 50
0.000000
 41
1.010331
 51
0.000000
  7
STANDARD
  0
TEXT
  8
0
 62
7
 10
-117.237144
 20
87.900002
 40
3.200000
  1
AP TABLE
 50
0.000000
 41
0.775512
 51
0.000000
  7
STANDARD
  0
TEXT
  8
0
 62
7
 10
8.374810
 20
73.699997
 40
3.200000
  1
MODEL:APT-SD6-10-TP
 50
0.000000
 41
0.789349
 51
0.000000
  7
STANDARD
  0
TEXT
  8
0
 62
7
 10
-130.000198
 20
73.699997
 40
3.200000
  1
MODEL:APT-SD6-5-TP
 50
0.000000
 41
0.769776
 51
0.000000
  7
STANDARD
  0
ENDSEC
  0
EOF
