  0
SECTION
  2
HEADER
  0
ENDSEC
  0
SECTION
  2
TABLES
  0
TABLE
  2
LTYPE
 70
     4
  0
LTYPE
  2
CONTINUOUS
 70
    64
  3
Solid line
 72
    65
 73
     0
 40
0.000000
  0
LTYPE
  2
DASHED
 70
    64
  3
__ __ __ __ __ __ __ __ __ __ __ __ __ __ __
 72
    65
 73
     2
 40
3.500000
 49
2.000000
 49
-1.500000
  0
LTYPE
  2
CENTER
 70
    64
  3
____ _ ____ _ ____ _ ____ _ ____ _ ____ _ ____
 72
    65
 73
     4
 40
17.500000
 49
13.000000
 49
-1.500000
 49
1.500000
 49
-1.500000
  0
LTYPE
  2
PHANTOM
 70
    64
  3
_____ _ _ _____ _ _ _____ _ _ _____ _ _ ____  
 72
    65
 73
     6
 40
15.500000
 49
8.000000
 49
-1.500000
 49
1.500000
 49
-1.500000
 49
1.500000
 49
-1.500000
  0
ENDTAB
  0
TABLE
  2
LAYER
 70
     1
  0
LAYER
  2
0
 70
     0
 62
     7
  6
CONTINUOUS
  0
ENDTAB
  0
TABLE
  2
STYLE
 70
     1
  0
STYLE
  2
STANDARD
 70
     0
 40
0.000000
 41
1.000000
 50
0.000000
 71
     0
 42
0.200000
  3
txt
  4
BIGFONT
  0
ENDTAB
  0
TABLE
  2
VIEW
 70
     0
  0
ENDTAB
  0
ENDSEC
  0
SECTION
  2
BLOCKS
  0
ENDSEC
  0
SECTION
  2
ENTITIES
  0
LINE
  8
0
  6
CONTINUOUS
 62
7
 10
-138.399994
 20
94.500000
 11
138.350006
 21
94.500000
  0
LINE
  8
0
  6
CONTINUOUS
 62
7
 10
138.350006
 20
94.500000
 11
138.350006
 21
-94.800003
  0
LINE
  8
0
  6
CONTINUOUS
 62
7
 10
-138.399994
 20
-94.800003
 11
138.350006
 21
-94.800003
  0
LINE
  8
0
  6
CONTINUOUS
 62
7
 10
-138.399994
 20
94.500000
 11
-138.399994
 21
-94.800003
  0
LINE
  8
0
  6
CONTINUOUS
 62
7
 10
73.349998
 20
-84.800003
 11
138.350006
 21
-84.800003
  0
LINE
  8
0
  6
CONTINUOUS
 62
7
 10
-138.399994
 20
84.500000
 11
-73.400002
 21
84.500000
  0
LINE
  8
0
  6
CONTINUOUS
 62
7
 10
73.349998
 20
84.500000
 11
138.350006
 21
84.500000
  0
LINE
  8
0
  6
CONTINUOUS
 62
7
 10
73.349998
 20
-84.800003
 11
73.349998
 21
-94.800003
  0
LINE
  8
0
  6
CONTINUOUS
 62
7
 10
73.349998
 20
94.500000
 11
73.349998
 21
84.500000
  0
LINE
  8
0
  6
CONTINUOUS
 62
7
 10
-73.400002
 20
94.500000
 11
-73.400002
 21
84.500000
  0
LINE
  8
0
  6
CONTINUOUS
 62
7
 10
-52.000000
 20
31.500000
 11
-52.000000
 21
29.700001
  0
LINE
  8
0
  6
CONTINUOUS
 62
7
 10
-79.000000
 20
31.500000
 11
-79.000000
 21
28.500000
  0
LINE
  8
0
  6
CONTINUOUS
 62
7
 10
-55.500000
 20
32.500000
 11
-70.500000
 21
32.500000
  0
LINE
  8
0
  6
CONTINUOUS
 62
7
 10
-97.500000
 20
-26.500000
 11
-97.500000
 21
-21.500000
  0
LINE
  8
0
  6
CENTER
 62
2
 10
-86.500000
 20
-24.000000
 11
-99.000000
 21
-24.000000
  0
LINE
  8
0
  6
CONTINUOUS
 62
7
 10
-52.000000
 20
58.500000
 11
-79.000000
 21
58.500000
  0
LINE
  8
0
  6
CONTINUOUS
 62
7
 10
-77.000000
 20
53.500000
 11
-79.000000
 21
53.500000
  0
LINE
  8
0
  6
CONTINUOUS
 62
2
 10
-77.000000
 20
54.000000
 11
-79.000000
 21
54.000000
  0
LINE
  8
0
  6
CONTINUOUS
 62
2
 10
-77.000000
 20
58.000000
 11
-79.000000
 21
58.000000
  0
LINE
  8
0
  6
CONTINUOUS
 62
7
 10
-92.000000
 20
-21.500000
 11
-97.500000
 21
-21.500000
  0
LINE
  8
0
  6
CONTINUOUS
 62
2
 10
-92.000000
 20
-21.900000
 11
-97.500000
 21
-21.900000
  0
LINE
  8
0
  6
CONTINUOUS
 62
2
 10
-92.000000
 20
-26.100000
 11
-97.500000
 21
-26.100000
  0
LINE
  8
0
  6
CONTINUOUS
 62
7
 10
-92.000000
 20
-26.500000
 11
-97.500000
 21
-26.500000
  0
LINE
  8
0
  6
CENTER
 62
2
 10
-74.000000
 20
56.000000
 11
-99.000000
 21
56.000000
  0
LINE
  8
0
  6
CONTINUOUS
 62
7
 10
45.500000
 20
24.000000
 11
41.500000
 21
24.000000
  0
LINE
  8
0
  6
CONTINUOUS
 62
7
 10
45.500000
 20
31.000000
 11
41.500000
 21
31.000000
  0
LINE
  8
0
  6
CONTINUOUS
 62
7
 10
-97.500000
 20
30.000000
 11
-97.500000
 21
25.000000
  0
LINE
  8
0
  6
CENTER
 62
2
 10
-86.500000
 20
-67.500000
 11
-99.000000
 21
-67.500000
  0
LINE
  8
0
  6
CONTINUOUS
 62
7
 10
-92.000000
 20
25.000000
 11
-97.500000
 21
25.000000
  0
LINE
  8
0
  6
CONTINUOUS
 62
2
 10
-92.000000
 20
25.400000
 11
-97.500000
 21
25.400000
  0
LINE
  8
0
  6
CONTINUOUS
 62
2
 10
-92.000000
 20
29.600000
 11
-97.500000
 21
29.600000
  0
LINE
  8
0
  6
CONTINUOUS
 62
7
 10
-92.000000
 20
30.000000
 11
-97.500000
 21
30.000000
  0
LINE
  8
0
  6
CONTINUOUS
 62
7
 10
41.500000
 20
24.000000
 11
41.500000
 21
31.000000
  0
LINE
  8
0
  6
CONTINUOUS
 62
7
 10
-70.500000
 20
-71.500000
 11
-70.500000
 21
-72.500000
  0
LINE
  8
0
  6
CONTINUOUS
 62
7
 10
-55.500000
 20
-72.500000
 11
-70.500000
 21
-72.500000
  0
LINE
  8
0
  6
CONTINUOUS
 62
7
 10
-55.500000
 20
-71.500000
 11
-55.500000
 21
-72.500000
  0
LINE
  8
0
  6
CONTINUOUS
 62
7
 10
-55.500000
 20
43.799999
 11
-70.500000
 21
43.799999
  0
LINE
  8
0
  6
CONTINUOUS
 62
7
 10
-88.000000
 20
52.500000
 11
-75.000000
 21
52.500000
  0
LINE
  8
0
  6
CONTINUOUS
 62
7
 10
-79.000000
 20
52.500000
 11
-79.000000
 21
58.500000
  0
LINE
  8
0
  6
CONTINUOUS
 62
7
 10
-52.000000
 20
52.500000
 11
-52.000000
 21
58.500000
  0
LINE
  8
0
  6
CENTER
 62
2
 10
-65.000000
 20
27.500000
 11
-99.000000
 21
27.500000
  0
LINE
  8
0
  6
CONTINUOUS
 62
7
 10
-55.500000
 20
52.500000
 11
-43.000000
 21
52.500000
  0
LINE
  8
0
  6
CONTINUOUS
 62
7
 10
-55.500000
 20
58.000000
 11
-70.500000
 21
58.000000
  0
LINE
  8
0
  6
CONTINUOUS
 62
7
 10
-55.500000
 20
43.799999
 11
-55.500000
 21
58.000000
  0
LINE
  8
0
  6
CONTINUOUS
 62
7
 10
-70.500000
 20
43.799999
 11
-70.500000
 21
58.000000
  0
LINE
  8
0
  6
CONTINUOUS
 62
7
 10
41.500000
 20
28.210800
 11
45.500000
 21
28.210800
  0
LINE
  8
0
  6
CONTINUOUS
 62
7
 10
41.500000
 20
26.789200
 11
45.500000
 21
26.789200
  0
LINE
  8
0
  6
CONTINUOUS
 62
7
 10
41.500000
 20
30.289200
 11
45.500000
 21
30.289200
  0
LINE
  8
0
  6
CONTINUOUS
 62
7
 10
41.500000
 20
24.710800
 11
45.500000
 21
24.710800
  0
LINE
  8
0
  6
CONTINUOUS
 62
7
 10
45.500000
 20
-71.000000
 11
41.500000
 21
-71.000000
  0
LINE
  8
0
  6
CONTINUOUS
 62
7
 10
45.500000
 20
-64.000000
 11
41.500000
 21
-64.000000
  0
LINE
  8
0
  6
CONTINUOUS
 62
7
 10
-97.500000
 20
-65.000000
 11
-97.500000
 21
-70.000000
  0
LINE
  8
0
  6
CONTINUOUS
 62
7
 10
-92.000000
 20
-70.000000
 11
-97.500000
 21
-70.000000
  0
LINE
  8
0
  6
CONTINUOUS
 62
2
 10
-92.000000
 20
-69.599998
 11
-97.500000
 21
-69.599998
  0
LINE
  8
0
  6
CONTINUOUS
 62
2
 10
-92.000000
 20
-65.400002
 11
-97.500000
 21
-65.400002
  0
LINE
  8
0
  6
CONTINUOUS
 62
7
 10
-92.000000
 20
-65.000000
 11
-97.500000
 21
-65.000000
  0
LINE
  8
0
  6
CONTINUOUS
 62
7
 10
41.500000
 20
-71.000000
 11
41.500000
 21
-64.000000
  0
LINE
  8
0
  6
CONTINUOUS
 62
7
 10
41.500000
 20
-66.789200
 11
45.500000
 21
-66.789200
  0
LINE
  8
0
  6
CONTINUOUS
 62
7
 10
41.500000
 20
-68.210800
 11
45.500000
 21
-68.210800
  0
LINE
  8
0
  6
CONTINUOUS
 62
7
 10
41.500000
 20
-64.710800
 11
45.500000
 21
-64.710800
  0
LINE
  8
0
  6
CONTINUOUS
 62
7
 10
41.500000
 20
-70.289200
 11
45.500000
 21
-70.289200
  0
LINE
  8
0
  6
CONTINUOUS
 62
7
 10
41.500000
 20
-20.299999
 11
41.500000
 21
-27.700001
  0
LINE
  8
0
  6
CONTINUOUS
 62
7
 10
45.500000
 20
-26.020700
 11
41.500000
 21
-26.020700
  0
LINE
  8
0
  6
CONTINUOUS
 62
7
 10
41.500000
 20
-25.200001
 11
45.500000
 21
-25.200001
  0
LINE
  8
0
  6
CONTINUOUS
 62
7
 10
41.500000
 20
-20.299999
 11
45.500000
 21
-20.299999
  0
LINE
  8
0
  6
CONTINUOUS
 62
7
 10
41.500000
 20
-27.700001
 11
45.500000
 21
-27.700001
  0
LINE
  8
0
  6
CONTINUOUS
 62
7
 10
41.500000
 20
-21.979300
 11
45.500000
 21
-21.979300
  0
LINE
  8
0
  6
CONTINUOUS
 62
7
 10
45.500000
 20
-22.799999
 11
41.500000
 21
-22.799999
  0
LINE
  8
0
  6
CONTINUOUS
 62
7
 10
-70.500000
 20
30.000000
 11
-70.500000
 21
32.500000
  0
LINE
  8
0
  6
CONTINUOUS
 62
7
 10
-55.500000
 20
30.000000
 11
-55.500000
 21
32.500000
  0
LINE
  8
0
  6
CENTER
 62
2
 10
-90.412903
 20
20.000000
 11
-40.383301
 21
20.000000
  0
LINE
  8
0
  6
CONTINUOUS
 62
7
 10
-88.000000
 20
31.500000
 11
-88.000000
 21
8.500000
  0
LINE
  8
0
  6
CONTINUOUS
 62
7
 10
-88.000000
 20
8.500000
 11
-43.000000
 21
8.500000
  0
LINE
  8
0
  6
CONTINUOUS
 62
7
 10
-88.000000
 20
24.500000
 11
-78.500000
 21
24.500000
  0
LINE
  8
0
  6
CONTINUOUS
 62
7
 10
-47.500000
 20
24.500000
 11
-43.000000
 21
24.500000
  0
LINE
  8
0
  6
CONTINUOUS
 62
7
 10
-88.000000
 20
15.500000
 11
-78.500000
 21
15.500000
  0
LINE
  8
0
  6
CONTINUOUS
 62
7
 10
-47.500000
 20
15.500000
 11
-43.000000
 21
15.500000
  0
LINE
  8
0
  6
CONTINUOUS
 62
7
 10
-43.000000
 20
31.500000
 11
-43.000000
 21
8.500000
  0
LINE
  8
0
  6
CENTER
 62
2
 10
-68.000000
 20
31.000000
 11
-68.000000
 21
24.000000
  0
LINE
  8
0
  6
CENTER
 62
2
 10
-58.000000
 20
31.000000
 11
-58.000000
 21
24.000000
  0
LINE
  8
0
  6
CENTER
 62
2
 10
-61.500000
 20
27.500000
 11
-54.500000
 21
27.500000
  0
LINE
  8
0
  6
CENTER
 62
2
 10
-84.500000
 20
17.000000
 11
-84.500000
 21
7.000000
  0
LINE
  8
0
  6
CENTER
 62
2
 10
-89.500000
 20
12.000000
 11
-79.250000
 21
12.000000
  0
LINE
  8
0
  6
CENTER
 62
2
 10
-68.000000
 20
16.000000
 11
-68.000000
 21
9.000000
  0
LINE
  8
0
  6
CENTER
 62
2
 10
-71.500000
 20
12.500000
 11
-64.500000
 21
12.500000
  0
LINE
  8
0
  6
CENTER
 62
2
 10
-58.000000
 20
16.000000
 11
-58.000000
 21
9.000000
  0
LINE
  8
0
  6
CENTER
 62
2
 10
-61.500000
 20
12.500000
 11
-54.500000
 21
12.500000
  0
LINE
  8
0
  6
CENTER
 62
2
 10
-46.500000
 20
33.000000
 11
-46.500000
 21
23.000000
  0
LINE
  8
0
  6
CENTER
 62
2
 10
-51.500000
 20
28.000000
 11
-41.500000
 21
28.000000
  0
LINE
  8
0
  6
CONTINUOUS
 62
7
 10
-72.900002
 20
14.500000
 11
-53.099998
 21
14.500000
  0
LINE
  8
0
  6
CONTINUOUS
 62
7
 10
-72.900002
 20
30.000000
 11
-72.900002
 21
9.999970
  0
LINE
  8
0
  6
CONTINUOUS
 62
7
 10
-72.900002
 20
25.500000
 11
-53.099998
 21
25.500000
  0
LINE
  8
0
  6
CONTINUOUS
 62
7
 10
-53.099998
 20
30.000000
 11
-53.099998
 21
9.999970
  0
LINE
  8
0
  6
CONTINUOUS
 62
7
 10
-78.500000
 20
10.300000
 11
-72.900002
 21
10.300000
  0
LINE
  8
0
  6
CONTINUOUS
 62
7
 10
-78.500000
 20
29.700001
 11
-78.500000
 21
10.300000
  0
LINE
  8
0
  6
CONTINUOUS
 62
7
 10
-78.500000
 20
29.700001
 11
-72.900002
 21
29.700001
  0
LINE
  8
0
  6
CONTINUOUS
 62
7
 10
-53.099998
 20
29.700001
 11
-47.500000
 21
29.700001
  0
LINE
  8
0
  6
CONTINUOUS
 62
7
 10
-47.500000
 20
29.700001
 11
-47.500000
 21
10.300000
  0
LINE
  8
0
  6
CONTINUOUS
 62
7
 10
-53.099998
 20
10.300000
 11
-47.500000
 21
10.300000
  0
LINE
  8
0
  6
CONTINUOUS
 62
7
 10
-72.900002
 20
10.000000
 11
-53.099998
 21
10.000000
  0
LINE
  8
0
  6
CONTINUOUS
 62
7
 10
-72.900002
 20
30.000000
 11
-53.099998
 21
30.000000
  0
LINE
  8
0
  6
CONTINUOUS
 62
7
 10
-88.000000
 20
31.500000
 11
-70.500000
 21
31.500000
  0
LINE
  8
0
  6
CONTINUOUS
 62
7
 10
-55.500000
 20
31.500000
 11
-43.000000
 21
31.500000
  0
LINE
  8
0
  6
CONTINUOUS
 62
7
 10
-97.500000
 20
58.500000
 11
-97.500000
 21
53.500000
  0
LINE
  8
0
  6
CONTINUOUS
 62
7
 10
-92.000000
 20
53.500000
 11
-97.500000
 21
53.500000
  0
LINE
  8
0
  6
CONTINUOUS
 62
2
 10
-92.000000
 20
53.900002
 11
-97.500000
 21
53.900002
  0
LINE
  8
0
  6
CONTINUOUS
 62
2
 10
-92.000000
 20
58.099998
 11
-97.500000
 21
58.099998
  0
LINE
  8
0
  6
CONTINUOUS
 62
7
 10
-92.000000
 20
58.500000
 11
-97.500000
 21
58.500000
  0
LINE
  8
0
  6
CONTINUOUS
 62
7
 10
41.500000
 20
52.299999
 11
41.500000
 21
59.700001
  0
LINE
  8
0
  6
CONTINUOUS
 62
7
 10
45.500000
 20
58.020699
 11
41.500000
 21
58.020699
  0
LINE
  8
0
  6
CONTINUOUS
 62
7
 10
41.500000
 20
57.200001
 11
45.500000
 21
57.200001
  0
LINE
  8
0
  6
CONTINUOUS
 62
7
 10
41.500000
 20
52.299999
 11
45.500000
 21
52.299999
  0
LINE
  8
0
  6
CONTINUOUS
 62
7
 10
41.500000
 20
59.700001
 11
45.500000
 21
59.700001
  0
LINE
  8
0
  6
CONTINUOUS
 62
7
 10
41.500000
 20
53.979301
 11
45.500000
 21
53.979301
  0
LINE
  8
0
  6
CONTINUOUS
 62
7
 10
45.500000
 20
54.799999
 11
41.500000
 21
54.799999
  0
LINE
  8
0
  6
CONTINUOUS
 62
7
 10
-72.900002
 20
43.500000
 11
-53.099998
 21
43.500000
  0
LINE
  8
0
  6
CONTINUOUS
 62
7
 10
-88.000000
 20
48.000000
 11
-78.500000
 21
48.000000
  0
LINE
  8
0
  6
CONTINUOUS
 62
7
 10
-78.500000
 20
51.299999
 11
-70.500000
 21
51.299999
  0
LINE
  8
0
  6
CONTINUOUS
 62
7
 10
-47.500000
 20
48.000000
 11
-43.000000
 21
48.000000
  0
LINE
  8
0
  6
CONTINUOUS
 62
7
 10
-88.000000
 20
60.500000
 11
-43.000000
 21
60.500000
  0
LINE
  8
0
  6
CONTINUOUS
 62
7
 10
-43.000000
 20
48.000000
 11
-43.000000
 21
60.500000
  0
LINE
  8
0
  6
CONTINUOUS
 62
7
 10
-88.000000
 20
48.000000
 11
-88.000000
 21
60.500000
  0
LINE
  8
0
  6
CENTER
 62
2
 10
-58.000000
 20
41.500000
 11
-58.000000
 21
45.500000
  0
LINE
  8
0
  6
CENTER
 62
2
 10
-68.000000
 20
41.500000
 11
-68.000000
 21
45.500000
  0
LINE
  8
0
  6
DASHED
 62
2
 10
-49.500000
 20
52.500000
 11
-49.500000
 21
55.799999
  0
LINE
  8
0
  6
DASHED
 62
2
 10
-49.500000
 20
55.799999
 11
-43.500000
 21
55.799999
  0
LINE
  8
0
  6
DASHED
 62
2
 10
-48.150002
 20
55.799999
 11
-48.150002
 21
60.500000
  0
LINE
  8
0
  6
CENTER
 62
2
 10
-46.500000
 20
50.500000
 11
-46.500000
 21
62.500000
  0
LINE
  8
0
  6
DASHED
 62
2
 10
-44.849998
 20
55.799999
 11
-44.849998
 21
60.500000
  0
LINE
  8
0
  6
DASHED
 62
2
 10
-43.500000
 20
52.500000
 11
-43.500000
 21
55.799999
  0
LINE
  8
0
  6
CONTINUOUS
 62
7
 10
-78.500000
 20
44.200001
 11
-78.500000
 21
51.299999
  0
LINE
  8
0
  6
CONTINUOUS
 62
7
 10
-72.900002
 20
43.500000
 11
-72.900002
 21
51.299999
  0
LINE
  8
0
  6
CONTINUOUS
 62
7
 10
-53.099998
 20
43.500000
 11
-53.099998
 21
51.299999
  0
LINE
  8
0
  6
CONTINUOUS
 62
7
 10
-47.500000
 20
44.200001
 11
-47.500000
 21
51.299999
  0
LINE
  8
0
  6
CONTINUOUS
 62
7
 10
-78.500000
 20
44.200001
 11
-72.900002
 21
44.200001
  0
LINE
  8
0
  6
CONTINUOUS
 62
7
 10
-53.099998
 20
44.200001
 11
-47.500000
 21
44.200001
  0
LINE
  8
0
  6
CONTINUOUS
 62
7
 10
-55.500000
 20
51.299999
 11
-47.500000
 21
51.299999
  0
LINE
  8
0
  6
CONTINUOUS
 62
7
 10
96.500000
 20
31.500000
 11
96.500000
 21
28.500000
  0
LINE
  8
0
  6
CONTINUOUS
 62
7
 10
54.500000
 20
31.500000
 11
54.500000
 21
28.500000
  0
LINE
  8
0
  6
CONTINUOUS
 62
7
 10
88.000000
 20
32.500000
 11
73.000000
 21
32.500000
  0
LINE
  8
0
  6
CONTINUOUS
 62
7
 10
96.500000
 20
58.500000
 11
54.500000
 21
58.500000
  0
LINE
  8
0
  6
CONTINUOUS
 62
7
 10
61.500000
 20
53.500000
 11
54.500000
 21
53.500000
  0
LINE
  8
0
  6
CONTINUOUS
 62
2
 10
61.500000
 20
54.000000
 11
54.500000
 21
54.000000
  0
LINE
  8
0
  6
CONTINUOUS
 62
2
 10
61.500000
 20
58.000000
 11
54.500000
 21
58.000000
  0
LINE
  8
0
  6
CENTER
 62
2
 10
64.500000
 20
56.000000
 11
31.500000
 21
56.000000
  0
LINE
  8
0
  6
CONTINUOUS
 62
7
 10
73.000000
 20
-71.500000
 11
73.000000
 21
-72.500000
  0
LINE
  8
0
  6
CONTINUOUS
 62
7
 10
88.000000
 20
-72.500000
 11
73.000000
 21
-72.500000
  0
LINE
  8
0
  6
CONTINUOUS
 62
7
 10
88.000000
 20
-71.500000
 11
88.000000
 21
-72.500000
  0
LINE
  8
0
  6
CONTINUOUS
 62
7
 10
88.000000
 20
43.799999
 11
73.000000
 21
43.799999
  0
LINE
  8
0
  6
CONTINUOUS
 62
7
 10
45.500000
 20
52.500000
 11
58.500000
 21
52.500000
  0
LINE
  8
0
  6
CONTINUOUS
 62
7
 10
33.000000
 20
30.000000
 11
33.000000
 21
25.000000
  0
LINE
  8
0
  6
CONTINUOUS
 62
2
 10
41.500000
 20
29.500000
 11
33.000000
 21
29.500000
  0
LINE
  8
0
  6
CONTINUOUS
 62
7
 10
41.500000
 20
30.000000
 11
33.000000
 21
30.000000
  0
LINE
  8
0
  6
CONTINUOUS
 62
7
 10
54.500000
 20
52.500000
 11
54.500000
 21
58.500000
  0
LINE
  8
0
  6
CONTINUOUS
 62
7
 10
96.500000
 20
52.500000
 11
96.500000
 21
58.500000
  0
LINE
  8
0
  6
CONTINUOUS
 62
2
 10
61.500000
 20
25.500000
 11
55.972198
 21
25.500000
  0
LINE
  8
0
  6
CONTINUOUS
 62
7
 10
61.500000
 20
25.000000
 11
56.563499
 21
25.000000
  0
LINE
  8
0
  6
CENTER
 62
2
 10
78.500000
 20
27.500000
 11
31.500000
 21
27.500000
  0
LINE
  8
0
  6
CONTINUOUS
 62
7
 10
92.500000
 20
52.500000
 11
105.500000
 21
52.500000
  0
LINE
  8
0
  6
CONTINUOUS
 62
7
 10
88.000000
 20
58.000000
 11
73.000000
 21
58.000000
  0
LINE
  8
0
  6
CONTINUOUS
 62
7
 10
88.000000
 20
43.799999
 11
88.000000
 21
58.000000
  0
LINE
  8
0
  6
CONTINUOUS
 62
7
 10
73.000000
 20
43.799999
 11
73.000000
 21
58.000000
  0
LINE
  8
0
  6
CONTINUOUS
 62
7
 10
73.000000
 20
30.000000
 11
73.000000
 21
32.500000
  0
LINE
  8
0
  6
CONTINUOUS
 62
7
 10
88.000000
 20
30.000000
 11
88.000000
 21
32.500000
  0
LINE
  8
0
  6
CENTER
 62
2
 10
43.087101
 20
20.000000
 11
108.116997
 21
20.000000
  0
LINE
  8
0
  6
CONTINUOUS
 62
7
 10
45.500000
 20
31.500000
 11
45.500000
 21
8.499990
  0
LINE
  8
0
  6
CONTINUOUS
 62
7
 10
45.500000
 20
31.500000
 11
73.000000
 21
31.500000
  0
LINE
  8
0
  6
CONTINUOUS
 62
7
 10
45.500000
 20
8.499990
 11
105.500000
 21
8.499990
  0
LINE
  8
0
  6
CONTINUOUS
 62
7
 10
45.500000
 20
24.500000
 11
65.000000
 21
24.500000
  0
LINE
  8
0
  6
CONTINUOUS
 62
7
 10
96.000000
 20
24.500000
 11
105.500000
 21
24.500000
  0
LINE
  8
0
  6
CONTINUOUS
 62
7
 10
45.500000
 20
15.500000
 11
65.000000
 21
15.500000
  0
LINE
  8
0
  6
CONTINUOUS
 62
7
 10
96.000000
 20
15.500000
 11
105.500000
 21
15.500000
  0
LINE
  8
0
  6
CONTINUOUS
 62
7
 10
105.500000
 20
31.500000
 11
105.500000
 21
8.499990
  0
LINE
  8
0
  6
CENTER
 62
2
 10
75.500000
 20
31.000000
 11
75.500000
 21
24.000000
  0
LINE
  8
0
  6
CENTER
 62
2
 10
85.500000
 20
31.000000
 11
85.500000
 21
24.000000
  0
LINE
  8
0
  6
CENTER
 62
2
 10
82.000000
 20
27.500000
 11
89.000000
 21
27.500000
  0
LINE
  8
0
  6
CENTER
 62
2
 10
75.500000
 20
16.000000
 11
75.500000
 21
8.999990
  0
LINE
  8
0
  6
CENTER
 62
2
 10
72.000000
 20
12.500000
 11
79.000000
 21
12.500000
  0
LINE
  8
0
  6
CENTER
 62
2
 10
85.500000
 20
16.000000
 11
85.500000
 21
8.999990
  0
LINE
  8
0
  6
CENTER
 62
2
 10
82.000000
 20
12.500000
 11
89.000000
 21
12.500000
  0
LINE
  8
0
  6
CONTINUOUS
 62
7
 10
65.000000
 20
29.700001
 11
65.000000
 21
10.300000
  0
LINE
  8
0
  6
CONTINUOUS
 62
7
 10
96.000000
 20
29.700001
 11
96.000000
 21
10.300000
  0
LINE
  8
0
  6
CONTINUOUS
 62
7
 10
70.599998
 20
9.999990
 11
90.400002
 21
9.999990
  0
LINE
  8
0
  6
CONTINUOUS
 62
7
 10
70.599998
 20
30.000000
 11
90.400002
 21
30.000000
  0
LINE
  8
0
  6
CENTER
 62
2
 10
49.500000
 20
17.000000
 11
49.500000
 21
6.999990
  0
LINE
  8
0
  6
CENTER
 62
2
 10
44.500000
 20
12.000000
 11
54.500000
 21
12.000000
  0
LINE
  8
0
  6
CENTER
 62
2
 10
101.500000
 20
33.000000
 11
101.500000
 21
23.000000
  0
LINE
  8
0
  6
CENTER
 62
2
 10
96.500000
 20
28.000000
 11
106.500000
 21
28.000000
  0
LINE
  8
0
  6
CONTINUOUS
 62
7
 10
70.599998
 20
14.500000
 11
90.400002
 21
14.500000
  0
LINE
  8
0
  6
CONTINUOUS
 62
7
 10
70.599998
 20
30.000000
 11
70.599998
 21
9.999960
  0
LINE
  8
0
  6
CONTINUOUS
 62
7
 10
70.599998
 20
25.500000
 11
90.400002
 21
25.500000
  0
LINE
  8
0
  6
CONTINUOUS
 62
7
 10
90.400002
 20
30.000000
 11
90.400002
 21
9.999960
  0
LINE
  8
0
  6
CONTINUOUS
 62
7
 10
65.000000
 20
29.700001
 11
70.599998
 21
29.700001
  0
LINE
  8
0
  6
CONTINUOUS
 62
7
 10
65.000000
 20
10.300000
 11
70.599998
 21
10.300000
  0
LINE
  8
0
  6
CONTINUOUS
 62
7
 10
90.400002
 20
29.700001
 11
96.000000
 21
29.700001
  0
LINE
  8
0
  6
CONTINUOUS
 62
7
 10
90.400002
 20
10.300000
 11
96.000000
 21
10.300000
  0
LINE
  8
0
  6
CONTINUOUS
 62
7
 10
70.599998
 20
43.500000
 11
90.400002
 21
43.500000
  0
LINE
  8
0
  6
CONTINUOUS
 62
7
 10
45.500000
 20
48.000000
 11
65.000000
 21
48.000000
  0
LINE
  8
0
  6
CONTINUOUS
 62
7
 10
65.000000
 20
51.299999
 11
73.000000
 21
51.299999
  0
LINE
  8
0
  6
CONTINUOUS
 62
7
 10
96.000000
 20
48.000000
 11
105.500000
 21
48.000000
  0
LINE
  8
0
  6
CONTINUOUS
 62
7
 10
45.500000
 20
60.500000
 11
105.500000
 21
60.500000
  0
LINE
  8
0
  6
CONTINUOUS
 62
7
 10
105.500000
 20
48.000000
 11
105.500000
 21
60.500000
  0
LINE
  8
0
  6
CONTINUOUS
 62
7
 10
45.500000
 20
48.000000
 11
45.500000
 21
60.500000
  0
LINE
  8
0
  6
CENTER
 62
2
 10
85.500000
 20
41.500000
 11
85.500000
 21
45.500000
  0
LINE
  8
0
  6
CENTER
 62
2
 10
75.500000
 20
41.500000
 11
75.500000
 21
45.500000
  0
LINE
  8
0
  6
DASHED
 62
2
 10
98.500000
 20
52.500000
 11
98.500000
 21
55.799999
  0
LINE
  8
0
  6
DASHED
 62
2
 10
98.500000
 20
55.799999
 11
104.500000
 21
55.799999
  0
LINE
  8
0
  6
DASHED
 62
2
 10
99.849998
 20
55.799999
 11
99.849998
 21
60.500000
  0
LINE
  8
0
  6
CENTER
 62
2
 10
101.500000
 20
50.500000
 11
101.500000
 21
62.500000
  0
LINE
  8
0
  6
DASHED
 62
2
 10
103.150002
 20
55.799999
 11
103.150002
 21
60.500000
  0
LINE
  8
0
  6
DASHED
 62
2
 10
104.500000
 20
52.500000
 11
104.500000
 21
55.799999
  0
LINE
  8
0
  6
CONTINUOUS
 62
7
 10
70.599998
 20
43.500000
 11
70.599998
 21
51.299999
  0
LINE
  8
0
  6
CONTINUOUS
 62
7
 10
90.400002
 20
43.500000
 11
90.400002
 21
51.299999
  0
LINE
  8
0
  6
CONTINUOUS
 62
7
 10
65.000000
 20
44.200001
 11
70.599998
 21
44.200001
  0
LINE
  8
0
  6
CONTINUOUS
 62
7
 10
65.000000
 20
44.200001
 11
65.000000
 21
51.299999
  0
LINE
  8
0
  6
CONTINUOUS
 62
7
 10
90.400002
 20
44.200001
 11
96.000000
 21
44.200001
  0
LINE
  8
0
  6
CONTINUOUS
 62
7
 10
96.000000
 20
44.200001
 11
96.000000
 21
51.299999
  0
LINE
  8
0
  6
CONTINUOUS
 62
7
 10
88.000000
 20
31.500000
 11
105.500000
 21
31.500000
  0
LINE
  8
0
  6
CONTINUOUS
 62
7
 10
88.000000
 20
51.299999
 11
96.000000
 21
51.299999
  0
LINE
  8
0
  6
CONTINUOUS
 62
2
 10
41.500000
 20
58.000000
 11
33.000000
 21
58.000000
  0
LINE
  8
0
  6
CONTINUOUS
 62
7
 10
41.500000
 20
58.500000
 11
33.000000
 21
58.500000
  0
LINE
  8
0
  6
CONTINUOUS
 62
7
 10
33.000000
 20
58.500000
 11
33.000000
 21
53.500000
  0
LINE
  8
0
  6
CONTINUOUS
 62
7
 10
41.500000
 20
53.500000
 11
33.000000
 21
53.500000
  0
LINE
  8
0
  6
CONTINUOUS
 62
2
 10
41.500000
 20
54.000000
 11
33.000000
 21
54.000000
  0
LINE
  8
0
  6
CENTER
 62
2
 10
46.882000
 20
-24.000000
 11
31.500000
 21
-24.000000
  0
LINE
  8
0
  6
CONTINUOUS
 62
2
 10
41.500000
 20
-26.000000
 11
33.000000
 21
-26.000000
  0
LINE
  8
0
  6
CONTINUOUS
 62
7
 10
41.500000
 20
-26.500000
 11
33.000000
 21
-26.500000
  0
LINE
  8
0
  6
CONTINUOUS
 62
7
 10
33.000000
 20
-26.500000
 11
33.000000
 21
-21.500000
  0
LINE
  8
0
  6
CONTINUOUS
 62
7
 10
41.500000
 20
-21.500000
 11
33.000000
 21
-21.500000
  0
LINE
  8
0
  6
CONTINUOUS
 62
2
 10
41.500000
 20
-22.000000
 11
33.000000
 21
-22.000000
  0
LINE
  8
0
  6
CONTINUOUS
 62
7
 10
33.000000
 20
-70.000000
 11
33.000000
 21
-65.000000
  0
LINE
  8
0
  6
CONTINUOUS
 62
7
 10
41.500000
 20
-65.000000
 11
33.000000
 21
-65.000000
  0
LINE
  8
0
  6
CONTINUOUS
 62
2
 10
41.500000
 20
-65.500000
 11
33.000000
 21
-65.500000
  0
LINE
  8
0
  6
CONTINUOUS
 62
2
 10
41.500000
 20
-69.500000
 11
33.000000
 21
-69.500000
  0
LINE
  8
0
  6
CONTINUOUS
 62
7
 10
41.500000
 20
-70.000000
 11
33.000000
 21
-70.000000
  0
LINE
  8
0
  6
CENTER
 62
2
 10
47.207500
 20
-67.500000
 11
31.500000
 21
-67.500000
  0
LINE
  8
0
  6
CONTINUOUS
 62
7
 10
-92.000000
 20
-71.000000
 11
-92.000000
 21
-64.000000
  0
LINE
  8
0
  6
CONTINUOUS
 62
7
 10
-92.000000
 20
-68.210800
 11
-88.000000
 21
-68.210800
  0
LINE
  8
0
  6
CONTINUOUS
 62
7
 10
-92.000000
 20
-66.789200
 11
-88.000000
 21
-66.789200
  0
LINE
  8
0
  6
CONTINUOUS
 62
7
 10
-88.000000
 20
-64.000000
 11
-92.000000
 21
-64.000000
  0
LINE
  8
0
  6
CONTINUOUS
 62
7
 10
-92.000000
 20
-64.710800
 11
-88.000000
 21
-64.710800
  0
LINE
  8
0
  6
CONTINUOUS
 62
7
 10
-92.000000
 20
-70.289200
 11
-88.000000
 21
-70.289200
  0
LINE
  8
0
  6
CONTINUOUS
 62
7
 10
-88.000000
 20
-71.000000
 11
-92.000000
 21
-71.000000
  0
LINE
  8
0
  6
CONTINUOUS
 62
7
 10
-92.000000
 20
-20.299999
 11
-92.000000
 21
-27.700001
  0
LINE
  8
0
  6
CONTINUOUS
 62
7
 10
-92.000000
 20
-20.299999
 11
-88.000000
 21
-20.299999
  0
LINE
  8
0
  6
CONTINUOUS
 62
7
 10
-92.000000
 20
-21.979300
 11
-88.000000
 21
-21.979300
  0
LINE
  8
0
  6
CONTINUOUS
 62
7
 10
-88.000000
 20
-22.799999
 11
-92.000000
 21
-22.799999
  0
LINE
  8
0
  6
CONTINUOUS
 62
7
 10
-92.000000
 20
-25.200001
 11
-88.000000
 21
-25.200001
  0
LINE
  8
0
  6
CONTINUOUS
 62
7
 10
-88.000000
 20
-26.020700
 11
-92.000000
 21
-26.020700
  0
LINE
  8
0
  6
CONTINUOUS
 62
7
 10
-92.000000
 20
-27.700001
 11
-88.000000
 21
-27.700001
  0
LINE
  8
0
  6
CONTINUOUS
 62
7
 10
-88.000000
 20
31.000000
 11
-92.000000
 21
31.000000
  0
LINE
  8
0
  6
CONTINUOUS
 62
7
 10
-92.000000
 20
30.289200
 11
-88.000000
 21
30.289200
  0
LINE
  8
0
  6
CONTINUOUS
 62
7
 10
-92.000000
 20
24.000000
 11
-92.000000
 21
31.000000
  0
LINE
  8
0
  6
CONTINUOUS
 62
7
 10
-92.000000
 20
28.210800
 11
-88.000000
 21
28.210800
  0
LINE
  8
0
  6
CONTINUOUS
 62
7
 10
-92.000000
 20
26.789200
 11
-88.000000
 21
26.789200
  0
LINE
  8
0
  6
CONTINUOUS
 62
7
 10
-92.000000
 20
24.710800
 11
-88.000000
 21
24.710800
  0
LINE
  8
0
  6
CONTINUOUS
 62
7
 10
-88.000000
 20
24.000000
 11
-92.000000
 21
24.000000
  0
LINE
  8
0
  6
CONTINUOUS
 62
7
 10
-92.000000
 20
59.700001
 11
-88.000000
 21
59.700001
  0
LINE
  8
0
  6
CONTINUOUS
 62
7
 10
-88.000000
 20
58.020699
 11
-92.000000
 21
58.020699
  0
LINE
  8
0
  6
CONTINUOUS
 62
7
 10
-92.000000
 20
57.200001
 11
-88.000000
 21
57.200001
  0
LINE
  8
0
  6
CONTINUOUS
 62
7
 10
-88.000000
 20
54.799999
 11
-92.000000
 21
54.799999
  0
LINE
  8
0
  6
CONTINUOUS
 62
7
 10
-92.000000
 20
53.979301
 11
-88.000000
 21
53.979301
  0
LINE
  8
0
  6
CONTINUOUS
 62
7
 10
-92.000000
 20
52.299999
 11
-88.000000
 21
52.299999
  0
LINE
  8
0
  6
CONTINUOUS
 62
7
 10
-92.000000
 20
52.299999
 11
-92.000000
 21
59.700001
  0
LINE
  8
0
  6
CONTINUOUS
 62
7
 10
61.500000
 20
30.000000
 11
54.500000
 21
30.000000
  0
LINE
  8
0
  6
CONTINUOUS
 62
2
 10
61.500000
 20
29.500000
 11
54.500000
 21
29.500000
  0
LINE
  8
0
  6
CONTINUOUS
 62
2
 10
41.500000
 20
25.500000
 11
33.000000
 21
25.500000
  0
LINE
  8
0
  6
CONTINUOUS
 62
7
 10
41.500000
 20
25.000000
 11
33.000000
 21
25.000000
  0
LINE
  8
0
  6
CONTINUOUS
 62
7
 10
70.599998
 20
-11.500000
 11
90.400002
 21
-11.500000
  0
LINE
  8
0
  6
CONTINUOUS
 62
7
 10
45.500000
 20
-16.000000
 11
65.000000
 21
-16.000000
  0
LINE
  8
0
  6
CONTINUOUS
 62
7
 10
65.000000
 20
-19.299999
 11
96.000000
 21
-19.299999
  0
LINE
  8
0
  6
CONTINUOUS
 62
7
 10
96.000000
 20
-16.000000
 11
105.500000
 21
-16.000000
  0
LINE
  8
0
  6
CONTINUOUS
 62
7
 10
45.500000
 20
-20.500000
 11
105.500000
 21
-20.500000
  0
LINE
  8
0
  6
CENTER
 62
2
 10
43.500000
 20
-60.000000
 11
107.500000
 21
-60.000000
  0
LINE
  8
0
  6
CONTINUOUS
 62
7
 10
45.500000
 20
-48.500000
 11
45.500000
 21
-71.500000
  0
LINE
  8
0
  6
CONTINUOUS
 62
7
 10
105.500000
 20
-48.500000
 11
105.500000
 21
-71.500000
  0
LINE
  8
0
  6
CONTINUOUS
 62
7
 10
45.500000
 20
-48.500000
 11
105.500000
 21
-48.500000
  0
LINE
  8
0
  6
CONTINUOUS
 62
7
 10
45.500000
 20
-71.500000
 11
105.500000
 21
-71.500000
  0
LINE
  8
0
  6
CONTINUOUS
 62
7
 10
45.500000
 20
-28.500000
 11
105.500000
 21
-28.500000
  0
LINE
  8
0
  6
CONTINUOUS
 62
7
 10
105.500000
 20
-16.000000
 11
105.500000
 21
-28.500000
  0
LINE
  8
0
  6
CONTINUOUS
 62
7
 10
45.500000
 20
-16.000000
 11
45.500000
 21
-28.500000
  0
LINE
  8
0
  6
CENTER
 62
2
 10
55.200001
 20
-20.000000
 11
55.200001
 21
-27.000000
  0
LINE
  8
0
  6
CENTER
 62
2
 10
51.700001
 20
-23.500000
 11
58.700001
 21
-23.500000
  0
LINE
  8
0
  6
CENTER
 62
2
 10
99.800003
 20
-20.000000
 11
99.800003
 21
-27.000000
  0
LINE
  8
0
  6
CENTER
 62
2
 10
96.300003
 20
-23.500000
 11
103.300003
 21
-23.500000
  0
LINE
  8
0
  6
CENTER
 62
2
 10
49.500000
 20
-48.349998
 11
49.500000
 21
-55.650002
  0
LINE
  8
0
  6
CENTER
 62
2
 10
45.849998
 20
-52.000000
 11
53.150002
 21
-52.000000
  0
LINE
  8
0
  6
CENTER
 62
2
 10
101.500000
 20
-64.349998
 11
101.500000
 21
-71.650002
  0
LINE
  8
0
  6
CENTER
 62
2
 10
97.849998
 20
-68.000000
 11
105.150002
 21
-68.000000
  0
LINE
  8
0
  6
CENTER
 62
2
 10
85.500000
 20
-9.500000
 11
85.500000
 21
-13.500000
  0
LINE
  8
0
  6
CENTER
 62
2
 10
75.500000
 20
-9.500000
 11
75.500000
 21
-13.500000
  0
LINE
  8
0
  6
DASHED
 62
2
 10
46.500000
 20
-20.500000
 11
46.500000
 21
-23.799999
  0
LINE
  8
0
  6
DASHED
 62
2
 10
46.500000
 20
-23.799999
 11
52.500000
 21
-23.799999
  0
LINE
  8
0
  6
DASHED
 62
2
 10
47.849998
 20
-23.799999
 11
47.849998
 21
-28.500000
  0
LINE
  8
0
  6
CENTER
 62
2
 10
49.500000
 20
-18.500000
 11
49.500000
 21
-30.500000
  0
LINE
  8
0
  6
DASHED
 62
2
 10
51.150002
 20
-23.799999
 11
51.150002
 21
-28.500000
  0
LINE
  8
0
  6
DASHED
 62
2
 10
52.500000
 20
-20.500000
 11
52.500000
 21
-23.799999
  0
LINE
  8
0
  6
CONTINUOUS
 62
7
 10
-72.900002
 20
-11.500000
 11
-53.099998
 21
-11.500000
  0
LINE
  8
0
  6
CONTINUOUS
 62
7
 10
-88.000000
 20
-16.000000
 11
-78.500000
 21
-16.000000
  0
LINE
  8
0
  6
CONTINUOUS
 62
7
 10
-78.500000
 20
-19.299999
 11
-47.500000
 21
-19.299999
  0
LINE
  8
0
  6
CONTINUOUS
 62
7
 10
-47.500000
 20
-16.000000
 11
-43.000000
 21
-16.000000
  0
LINE
  8
0
  6
CONTINUOUS
 62
7
 10
-88.000000
 20
-20.500000
 11
-43.000000
 21
-20.500000
  0
LINE
  8
0
  6
CENTER
 62
2
 10
-90.000000
 20
-60.000000
 11
-41.000000
 21
-60.000000
  0
LINE
  8
0
  6
CONTINUOUS
 62
7
 10
-88.000000
 20
-48.500000
 11
-88.000000
 21
-71.500000
  0
LINE
  8
0
  6
CONTINUOUS
 62
7
 10
-43.000000
 20
-48.500000
 11
-43.000000
 21
-71.500000
  0
LINE
  8
0
  6
CONTINUOUS
 62
7
 10
-88.000000
 20
-48.500000
 11
-43.000000
 21
-48.500000
  0
LINE
  8
0
  6
CONTINUOUS
 62
7
 10
-88.000000
 20
-71.500000
 11
-43.000000
 21
-71.500000
  0
LINE
  8
0
  6
CONTINUOUS
 62
7
 10
-88.000000
 20
-28.500000
 11
-43.000000
 21
-28.500000
  0
LINE
  8
0
  6
CONTINUOUS
 62
7
 10
-43.000000
 20
-16.000000
 11
-43.000000
 21
-28.500000
  0
LINE
  8
0
  6
CONTINUOUS
 62
7
 10
-88.000000
 20
-16.000000
 11
-88.000000
 21
-28.500000
  0
LINE
  8
0
  6
CENTER
 62
2
 10
-78.300003
 20
-20.000000
 11
-78.300003
 21
-27.000000
  0
LINE
  8
0
  6
CENTER
 62
2
 10
-81.800003
 20
-23.500000
 11
-74.800003
 21
-23.500000
  0
LINE
  8
0
  6
CENTER
 62
2
 10
-48.700001
 20
-20.000000
 11
-48.700001
 21
-27.000000
  0
LINE
  8
0
  6
CENTER
 62
2
 10
-52.200001
 20
-23.500000
 11
-45.200001
 21
-23.500000
  0
LINE
  8
0
  6
CENTER
 62
2
 10
-84.500000
 20
-48.349998
 11
-84.500000
 21
-55.650002
  0
LINE
  8
0
  6
CENTER
 62
2
 10
-88.150002
 20
-52.000000
 11
-80.849998
 21
-52.000000
  0
LINE
  8
0
  6
CENTER
 62
2
 10
-46.500000
 20
-64.349998
 11
-46.500000
 21
-71.650002
  0
LINE
  8
0
  6
CENTER
 62
2
 10
-50.150002
 20
-68.000000
 11
-42.849998
 21
-68.000000
  0
LINE
  8
0
  6
CENTER
 62
2
 10
-58.000000
 20
-9.500000
 11
-58.000000
 21
-13.500000
  0
LINE
  8
0
  6
CENTER
 62
2
 10
-68.000000
 20
-9.500000
 11
-68.000000
 21
-13.500000
  0
LINE
  8
0
  6
DASHED
 62
2
 10
-87.500000
 20
-20.500000
 11
-87.500000
 21
-23.799999
  0
LINE
  8
0
  6
DASHED
 62
2
 10
-87.500000
 20
-23.799999
 11
-81.500000
 21
-23.799999
  0
LINE
  8
0
  6
DASHED
 62
2
 10
-86.150002
 20
-23.799999
 11
-86.150002
 21
-28.500000
  0
LINE
  8
0
  6
CENTER
 62
2
 10
-84.500000
 20
-18.500000
 11
-84.500000
 21
-30.500000
  0
LINE
  8
0
  6
DASHED
 62
2
 10
-82.849998
 20
-23.799999
 11
-82.849998
 21
-28.500000
  0
LINE
  8
0
  6
DASHED
 62
2
 10
-81.500000
 20
-20.500000
 11
-81.500000
 21
-23.799999
  0
LINE
  8
0
  6
CENTER
 62
2
 10
97.500000
 20
-49.099998
 11
97.500000
 21
-64.900002
  0
LINE
  8
0
  6
CENTER
 62
2
 10
89.599998
 20
-57.000000
 11
105.400002
 21
-57.000000
  0
LINE
  8
0
  6
CENTER
 62
2
 10
57.500000
 20
-49.099998
 11
57.500000
 21
-64.900002
  0
LINE
  8
0
  6
CENTER
 62
2
 10
49.599998
 20
-57.000000
 11
65.400002
 21
-57.000000
  0
LINE
  8
0
  6
CENTER
 62
2
 10
-51.000000
 20
-49.099998
 11
-51.000000
 21
-64.900002
  0
LINE
  8
0
  6
CENTER
 62
2
 10
-58.900002
 20
-57.000000
 11
-43.099998
 21
-57.000000
  0
LINE
  8
0
  6
CENTER
 62
2
 10
-76.000000
 20
-49.099998
 11
-76.000000
 21
-64.900002
  0
LINE
  8
0
  6
CENTER
 62
2
 10
-83.900002
 20
-57.000000
 11
-68.099998
 21
-57.000000
  0
LINE
  8
0
  6
CONTINUOUS
 62
7
 10
70.599998
 20
-11.500000
 11
70.599998
 21
-19.299999
  0
LINE
  8
0
  6
CONTINUOUS
 62
7
 10
90.400002
 20
-11.500000
 11
90.400002
 21
-19.299999
  0
LINE
  8
0
  6
CONTINUOUS
 62
7
 10
-53.099998
 20
-11.500000
 11
-53.099998
 21
-19.299999
  0
LINE
  8
0
  6
CONTINUOUS
 62
7
 10
-72.900002
 20
-11.500000
 11
-72.900002
 21
-19.299999
  0
LINE
  8
0
  6
CONTINUOUS
 62
7
 10
-78.500000
 20
-12.200000
 11
-72.900002
 21
-12.200000
  0
LINE
  8
0
  6
CONTINUOUS
 62
7
 10
-78.500000
 20
-12.200000
 11
-78.500000
 21
-19.299999
  0
LINE
  8
0
  6
CONTINUOUS
 62
7
 10
-53.099998
 20
-12.200000
 11
-47.500000
 21
-12.200000
  0
LINE
  8
0
  6
CONTINUOUS
 62
7
 10
-47.500000
 20
-12.200000
 11
-47.500000
 21
-19.299999
  0
LINE
  8
0
  6
CONTINUOUS
 62
7
 10
65.000000
 20
-12.200000
 11
70.599998
 21
-12.200000
  0
LINE
  8
0
  6
CONTINUOUS
 62
7
 10
65.000000
 20
-12.200000
 11
65.000000
 21
-19.299999
  0
LINE
  8
0
  6
CONTINUOUS
 62
7
 10
90.400002
 20
-12.200000
 11
96.000000
 21
-12.200000
  0
LINE
  8
0
  6
CONTINUOUS
 62
7
 10
96.000000
 20
-12.200000
 11
96.000000
 21
-19.299999
  0
LINE
  8
0
  6
CONTINUOUS
 62
7
 10
-124.000000
 20
-11.800000
 11
-126.500000
 21
-11.800000
  0
LINE
  8
0
  6
CONTINUOUS
 62
7
 10
-126.500000
 20
-11.800000
 11
-126.500000
 21
-26.000000
  0
LINE
  8
0
  6
CONTINUOUS
 62
7
 10
-125.500000
 20
-26.000000
 11
-126.500000
 21
-26.000000
  0
LINE
  8
0
  6
CONTINUOUS
 62
7
 10
-121.500000
 20
-22.556601
 11
-122.750000
 21
-23.278299
  0
LINE
  8
0
  6
CONTINUOUS
 62
7
 10
-122.750000
 20
-23.278299
 11
-122.750000
 21
-24.721701
  0
LINE
  8
0
  6
CONTINUOUS
 62
7
 10
-121.500000
 20
-25.443399
 11
-122.750000
 21
-24.721701
  0
LINE
  8
0
  6
CONTINUOUS
 62
7
 10
-120.250000
 20
-24.721701
 11
-121.500000
 21
-25.443399
  0
LINE
  8
0
  6
CONTINUOUS
 62
7
 10
-120.250000
 20
-23.278299
 11
-120.250000
 21
-24.721701
  0
LINE
  8
0
  6
CONTINUOUS
 62
7
 10
-121.500000
 20
-22.556601
 11
-120.250000
 21
-23.278299
  0
LINE
  8
0
  6
CONTINUOUS
 62
7
 10
-120.789001
 20
-20.368900
 11
-118.710999
 21
-21.568899
  0
LINE
  8
0
  6
CENTER
 62
2
 10
-121.500000
 20
-19.000000
 11
-121.500000
 21
-29.000000
  0
LINE
  8
0
  6
CENTER
 62
2
 10
-126.500000
 20
-24.000000
 11
-116.500000
 21
-24.000000
  0
LINE
  8
0
  6
CONTINUOUS
 62
7
 10
-122.210999
 20
-20.368900
 11
-124.289001
 21
-21.568899
  0
LINE
  8
0
  6
CONTINUOUS
 62
7
 10
-125.000000
 20
-22.799999
 11
-125.000000
 21
-25.200001
  0
LINE
  8
0
  6
CONTINUOUS
 62
7
 10
-122.210999
 20
-27.631100
 11
-124.289001
 21
-26.431101
  0
LINE
  8
0
  6
CONTINUOUS
 62
7
 10
-118.710999
 20
-26.431101
 11
-120.789001
 21
-27.631100
  0
LINE
  8
0
  6
CONTINUOUS
 62
7
 10
-118.000000
 20
-22.799999
 11
-118.000000
 21
-25.200001
  0
LINE
  8
0
  6
CONTINUOUS
 62
7
 10
-102.500000
 20
-28.500000
 11
-125.500000
 21
-28.500000
  0
LINE
  8
0
  6
CONTINUOUS
 62
7
 10
-125.500000
 20
-20.500000
 11
-125.500000
 21
-28.500000
  0
LINE
  8
0
  6
CONTINUOUS
 62
7
 10
-102.500000
 20
-20.500000
 11
-102.500000
 21
-28.500000
  0
LINE
  8
0
  6
CONTINUOUS
 62
7
 10
-102.500000
 20
-20.500000
 11
-109.500000
 21
-20.500000
  0
LINE
  8
0
  6
CONTINUOUS
 62
7
 10
-118.500000
 20
-20.500000
 11
-120.561996
 21
-20.500000
  0
LINE
  8
0
  6
CONTINUOUS
 62
7
 10
-109.500000
 20
-16.000000
 11
-118.500000
 21
-16.000000
  0
LINE
  8
0
  6
CONTINUOUS
 62
7
 10
-104.000000
 20
-19.299999
 11
-109.500000
 21
-19.299999
  0
LINE
  8
0
  6
CONTINUOUS
 62
7
 10
-118.500000
 20
-19.299999
 11
-124.000000
 21
-19.299999
  0
LINE
  8
0
  6
CENTER
 62
2
 10
-114.000000
 20
-9.500000
 11
-114.000000
 21
-30.500000
  0
LINE
  8
0
  6
CENTER
 62
2
 10
-119.400002
 20
-23.500000
 11
-108.599998
 21
-23.500000
  0
LINE
  8
0
  6
CENTER
 62
2
 10
-106.500000
 20
-9.500000
 11
-106.500000
 21
-13.500000
  0
LINE
  8
0
  6
CENTER
 62
2
 10
-121.500000
 20
-9.500000
 11
-121.500000
 21
-13.500000
  0
LINE
  8
0
  6
DASHED
 62
2
 10
-109.000000
 20
-20.500000
 11
-109.000000
 21
-23.799999
  0
LINE
  8
0
  6
DASHED
 62
2
 10
-109.000000
 20
-23.799999
 11
-103.000000
 21
-23.799999
  0
LINE
  8
0
  6
DASHED
 62
2
 10
-107.650002
 20
-23.799999
 11
-107.650002
 21
-28.500000
  0
LINE
  8
0
  6
CENTER
 62
2
 10
-106.000000
 20
-18.500000
 11
-106.000000
 21
-30.500000
  0
LINE
  8
0
  6
DASHED
 62
2
 10
-104.349998
 20
-23.799999
 11
-104.349998
 21
-28.500000
  0
LINE
  8
0
  6
DASHED
 62
2
 10
-103.000000
 20
-20.500000
 11
-103.000000
 21
-23.799999
  0
LINE
  8
0
  6
CONTINUOUS
 62
7
 10
-109.500000
 20
-16.000000
 11
-109.500000
 21
-16.711201
  0
LINE
  8
0
  6
CONTINUOUS
 62
7
 10
-118.500000
 20
-16.000000
 11
-118.500000
 21
-16.711201
  0
LINE
  8
0
  6
CONTINUOUS
 62
7
 10
-118.500000
 20
-18.688601
 11
-118.500000
 21
-20.500000
  0
LINE
  8
0
  6
CONTINUOUS
 62
7
 10
-109.500000
 20
-18.688601
 11
-109.500000
 21
-20.500000
  0
LINE
  8
0
  6
CONTINUOUS
 62
7
 10
-124.000000
 20
-11.500000
 11
-119.500000
 21
-11.500000
  0
LINE
  8
0
  6
CONTINUOUS
 62
7
 10
-118.999001
 20
-12.000400
 11
-119.499001
 21
-11.500500
  0
LINE
  8
0
  6
CONTINUOUS
 62
7
 10
-119.000000
 20
-12.000000
 11
-109.000000
 21
-12.000000
  0
LINE
  8
0
  6
CONTINUOUS
 62
7
 10
-108.999001
 20
-12.000500
 11
-108.499001
 21
-11.500500
  0
LINE
  8
0
  6
CONTINUOUS
 62
7
 10
-108.500000
 20
-11.500000
 11
-104.000000
 21
-11.500000
  0
LINE
  8
0
  6
CONTINUOUS
 62
7
 10
-104.000000
 20
-11.500000
 11
-104.000000
 21
-19.299999
  0
LINE
  8
0
  6
CONTINUOUS
 62
7
 10
-122.438004
 20
-20.500000
 11
-125.500000
 21
-20.500000
  0
LINE
  8
0
  6
CONTINUOUS
 62
7
 10
-124.000000
 20
-11.500000
 11
-124.000000
 21
-19.299999
  0
LINE
  8
0
  6
CONTINUOUS
 62
7
 10
6.500000
 20
-11.800000
 11
4.000000
 21
-11.800000
  0
LINE
  8
0
  6
CONTINUOUS
 62
7
 10
4.000000
 20
-11.800000
 11
4.000000
 21
-26.000000
  0
LINE
  8
0
  6
CONTINUOUS
 62
7
 10
5.000000
 20
-26.000000
 11
4.000000
 21
-26.000000
  0
LINE
  8
0
  6
CONTINUOUS
 62
7
 10
9.000010
 20
-22.556601
 11
7.750010
 21
-23.278299
  0
LINE
  8
0
  6
CONTINUOUS
 62
7
 10
7.750000
 20
-23.278299
 11
7.750000
 21
-24.721701
  0
LINE
  8
0
  6
CONTINUOUS
 62
7
 10
9.000000
 20
-25.443399
 11
7.750010
 21
-24.721701
  0
LINE
  8
0
  6
CONTINUOUS
 62
7
 10
10.250000
 20
-24.721701
 11
9.000010
 21
-25.443399
  0
LINE
  8
0
  6
CONTINUOUS
 62
7
 10
10.250000
 20
-23.278299
 11
10.250000
 21
-24.721701
  0
LINE
  8
0
  6
CONTINUOUS
 62
7
 10
9.000010
 20
-22.556601
 11
10.250000
 21
-23.278299
  0
LINE
  8
0
  6
CONTINUOUS
 62
7
 10
9.710780
 20
-20.368900
 11
11.789200
 21
-21.568899
  0
LINE
  8
0
  6
CENTER
 62
2
 10
9.000000
 20
-19.000000
 11
9.000000
 21
-29.000000
  0
LINE
  8
0
  6
CENTER
 62
2
 10
4.000000
 20
-24.000000
 11
14.000000
 21
-24.000000
  0
LINE
  8
0
  6
CONTINUOUS
 62
7
 10
8.289250
 20
-20.368900
 11
6.210760
 21
-21.568899
  0
LINE
  8
0
  6
CONTINUOUS
 62
7
 10
5.500000
 20
-22.799999
 11
5.500000
 21
-25.200001
  0
LINE
  8
0
  6
CONTINUOUS
 62
7
 10
8.289250
 20
-27.631100
 11
6.210750
 21
-26.431101
  0
LINE
  8
0
  6
CONTINUOUS
 62
7
 10
11.789200
 20
-26.431101
 11
9.710770
 21
-27.631100
  0
LINE
  8
0
  6
CONTINUOUS
 62
7
 10
12.500000
 20
-22.799999
 11
12.500000
 21
-25.200001
  0
LINE
  8
0
  6
CONTINUOUS
 62
7
 10
28.000000
 20
-28.500000
 11
5.000000
 21
-28.500000
  0
LINE
  8
0
  6
CONTINUOUS
 62
7
 10
5.000000
 20
-20.500000
 11
5.000000
 21
-28.500000
  0
LINE
  8
0
  6
CONTINUOUS
 62
7
 10
28.000000
 20
-20.500000
 11
28.000000
 21
-28.500000
  0
LINE
  8
0
  6
CONTINUOUS
 62
7
 10
28.000000
 20
-20.500000
 11
21.000000
 21
-20.500000
  0
LINE
  8
0
  6
CONTINUOUS
 62
7
 10
12.000000
 20
-20.500000
 11
9.937840
 21
-20.500000
  0
LINE
  8
0
  6
CONTINUOUS
 62
7
 10
21.000000
 20
-16.000000
 11
12.000000
 21
-16.000000
  0
LINE
  8
0
  6
CONTINUOUS
 62
7
 10
26.500000
 20
-19.299999
 11
21.000000
 21
-19.299999
  0
LINE
  8
0
  6
CONTINUOUS
 62
7
 10
12.000000
 20
-19.299999
 11
6.500000
 21
-19.299999
  0
LINE
  8
0
  6
CENTER
 62
2
 10
16.500000
 20
-9.500000
 11
16.500000
 21
-30.500000
  0
LINE
  8
0
  6
CENTER
 62
2
 10
11.100000
 20
-23.500000
 11
21.900000
 21
-23.500000
  0
LINE
  8
0
  6
CENTER
 62
2
 10
24.000000
 20
-9.500000
 11
24.000000
 21
-13.500000
  0
LINE
  8
0
  6
CENTER
 62
2
 10
9.000000
 20
-9.500000
 11
9.000000
 21
-13.500000
  0
LINE
  8
0
  6
DASHED
 62
2
 10
21.500000
 20
-20.500000
 11
21.500000
 21
-23.799999
  0
LINE
  8
0
  6
DASHED
 62
2
 10
21.500000
 20
-23.799999
 11
27.500000
 21
-23.799999
  0
LINE
  8
0
  6
DASHED
 62
2
 10
22.850000
 20
-23.799999
 11
22.850000
 21
-28.500000
  0
LINE
  8
0
  6
CENTER
 62
2
 10
24.500000
 20
-18.500000
 11
24.500000
 21
-30.500000
  0
LINE
  8
0
  6
DASHED
 62
2
 10
26.150000
 20
-23.799999
 11
26.150000
 21
-28.500000
  0
LINE
  8
0
  6
DASHED
 62
2
 10
27.500000
 20
-20.500000
 11
27.500000
 21
-23.799999
  0
LINE
  8
0
  6
CONTINUOUS
 62
7
 10
21.000000
 20
-16.000000
 11
21.000000
 21
-16.711201
  0
LINE
  8
0
  6
CONTINUOUS
 62
7
 10
12.000000
 20
-16.000000
 11
12.000000
 21
-16.711201
  0
LINE
  8
0
  6
CONTINUOUS
 62
7
 10
12.000000
 20
-18.688601
 11
12.000000
 21
-20.500000
  0
LINE
  8
0
  6
CONTINUOUS
 62
7
 10
21.000000
 20
-18.688601
 11
21.000000
 21
-20.500000
  0
LINE
  8
0
  6
CONTINUOUS
 62
7
 10
6.500240
 20
-11.500000
 11
11.000000
 21
-11.500000
  0
LINE
  8
0
  6
CONTINUOUS
 62
7
 10
11.500600
 20
-12.000400
 11
11.000700
 21
-11.500500
  0
LINE
  8
0
  6
CONTINUOUS
 62
7
 10
11.500000
 20
-12.000000
 11
21.500000
 21
-12.000000
  0
LINE
  8
0
  6
CONTINUOUS
 62
7
 10
21.500601
 20
-12.000500
 11
22.000601
 21
-11.500500
  0
LINE
  8
0
  6
CONTINUOUS
 62
7
 10
22.000000
 20
-11.500000
 11
26.500000
 21
-11.500000
  0
LINE
  8
0
  6
CONTINUOUS
 62
7
 10
26.500000
 20
-11.500000
 11
26.500000
 21
-19.299999
  0
LINE
  8
0
  6
CONTINUOUS
 62
7
 10
8.062190
 20
-20.500000
 11
5.000000
 21
-20.500000
  0
LINE
  8
0
  6
CONTINUOUS
 62
7
 10
6.500000
 20
-11.500000
 11
6.500000
 21
-19.299999
  0
LINE
  8
0
  6
CONTINUOUS
 62
7
 10
-16.500000
 20
-11.800000
 11
-14.000000
 21
-11.800000
  0
LINE
  8
0
  6
CONTINUOUS
 62
7
 10
-14.000000
 20
-11.800000
 11
-14.000000
 21
-26.000000
  0
LINE
  8
0
  6
CONTINUOUS
 62
7
 10
-15.000000
 20
-26.000000
 11
-14.000000
 21
-26.000000
  0
LINE
  8
0
  6
CONTINUOUS
 62
7
 10
-38.000000
 20
-28.500000
 11
-15.000000
 21
-28.500000
  0
LINE
  8
0
  6
CONTINUOUS
 62
7
 10
-15.000000
 20
-20.500000
 11
-15.000000
 21
-28.500000
  0
LINE
  8
0
  6
CONTINUOUS
 62
7
 10
-38.000000
 20
-20.500000
 11
-38.000000
 21
-28.500000
  0
LINE
  8
0
  6
CONTINUOUS
 62
7
 10
-38.000000
 20
-20.500000
 11
-31.000000
 21
-20.500000
  0
LINE
  8
0
  6
CONTINUOUS
 62
7
 10
-22.000000
 20
-20.500000
 11
-15.000000
 21
-20.500000
  0
LINE
  8
0
  6
CONTINUOUS
 62
7
 10
-31.000000
 20
-16.000000
 11
-22.000000
 21
-16.000000
  0
LINE
  8
0
  6
CONTINUOUS
 62
7
 10
-36.500000
 20
-19.299999
 11
-31.000000
 21
-19.299999
  0
LINE
  8
0
  6
CONTINUOUS
 62
7
 10
-22.000000
 20
-19.299999
 11
-16.500000
 21
-19.299999
  0
LINE
  8
0
  6
CENTER
 62
2
 10
-26.500000
 20
-9.500000
 11
-26.500000
 21
-30.500000
  0
LINE
  8
0
  6
CENTER
 62
2
 10
-21.100000
 20
-23.500000
 11
-31.900000
 21
-23.500000
  0
LINE
  8
0
  6
CENTER
 62
2
 10
-34.000000
 20
-9.500000
 11
-34.000000
 21
-13.500000
  0
LINE
  8
0
  6
CENTER
 62
2
 10
-19.000000
 20
-9.500000
 11
-19.000000
 21
-13.500000
  0
LINE
  8
0
  6
DASHED
 62
2
 10
-21.500000
 20
-20.500000
 11
-21.500000
 21
-23.799999
  0
LINE
  8
0
  6
DASHED
 62
2
 10
-21.500000
 20
-23.799999
 11
-15.500000
 21
-23.799999
  0
LINE
  8
0
  6
DASHED
 62
2
 10
-20.150000
 20
-23.799999
 11
-20.150000
 21
-28.500000
  0
LINE
  8
0
  6
CENTER
 62
2
 10
-18.500000
 20
-18.500000
 11
-18.500000
 21
-30.500000
  0
LINE
  8
0
  6
DASHED
 62
2
 10
-16.850000
 20
-23.799999
 11
-16.850000
 21
-28.500000
  0
LINE
  8
0
  6
DASHED
 62
2
 10
-15.500000
 20
-20.500000
 11
-15.500000
 21
-23.799999
  0
LINE
  8
0
  6
CONTINUOUS
 62
7
 10
-31.000000
 20
-16.000000
 11
-31.000000
 21
-16.711201
  0
LINE
  8
0
  6
CONTINUOUS
 62
7
 10
-22.000000
 20
-16.000000
 11
-22.000000
 21
-16.711201
  0
LINE
  8
0
  6
CONTINUOUS
 62
7
 10
-22.000000
 20
-18.688601
 11
-22.000000
 21
-20.500000
  0
LINE
  8
0
  6
CONTINUOUS
 62
7
 10
-31.000000
 20
-18.688601
 11
-31.000000
 21
-20.500000
  0
LINE
  8
0
  6
CONTINUOUS
 62
7
 10
-16.500000
 20
-11.500000
 11
-21.000000
 21
-11.500000
  0
LINE
  8
0
  6
CONTINUOUS
 62
7
 10
-21.500601
 20
-12.000400
 11
-21.000700
 21
-11.500500
  0
LINE
  8
0
  6
CONTINUOUS
 62
7
 10
-21.500000
 20
-12.000000
 11
-31.500000
 21
-12.000000
  0
LINE
  8
0
  6
CONTINUOUS
 62
7
 10
-31.500700
 20
-12.000500
 11
-32.000702
 21
-11.500500
  0
LINE
  8
0
  6
CONTINUOUS
 62
7
 10
-32.000000
 20
-11.500000
 11
-36.500000
 21
-11.500000
  0
LINE
  8
0
  6
CONTINUOUS
 62
7
 10
-36.500000
 20
-11.500000
 11
-36.500000
 21
-19.299999
  0
LINE
  8
0
  6
CONTINUOUS
 62
7
 10
-16.500000
 20
-11.500000
 11
-16.500000
 21
-19.299999
  0
LINE
  8
0
  6
CONTINUOUS
 62
7
 10
132.000000
 20
-11.800000
 11
134.500000
 21
-11.800000
  0
LINE
  8
0
  6
CONTINUOUS
 62
7
 10
134.500000
 20
-11.800000
 11
134.500000
 21
-26.000000
  0
LINE
  8
0
  6
CONTINUOUS
 62
7
 10
133.500000
 20
-26.000000
 11
134.500000
 21
-26.000000
  0
LINE
  8
0
  6
CONTINUOUS
 62
7
 10
110.500000
 20
-28.500000
 11
133.500000
 21
-28.500000
  0
LINE
  8
0
  6
CONTINUOUS
 62
7
 10
133.500000
 20
-20.500000
 11
133.500000
 21
-28.500000
  0
LINE
  8
0
  6
CONTINUOUS
 62
7
 10
110.500000
 20
-20.500000
 11
110.500000
 21
-28.500000
  0
LINE
  8
0
  6
CONTINUOUS
 62
7
 10
110.500000
 20
-20.500000
 11
117.500000
 21
-20.500000
  0
LINE
  8
0
  6
CONTINUOUS
 62
7
 10
126.500000
 20
-20.500000
 11
133.500000
 21
-20.500000
  0
LINE
  8
0
  6
CONTINUOUS
 62
7
 10
117.500000
 20
-16.000000
 11
126.500000
 21
-16.000000
  0
LINE
  8
0
  6
CONTINUOUS
 62
7
 10
112.000000
 20
-19.299999
 11
117.500000
 21
-19.299999
  0
LINE
  8
0
  6
CONTINUOUS
 62
7
 10
126.500000
 20
-19.299999
 11
132.000000
 21
-19.299999
  0
LINE
  8
0
  6
CENTER
 62
2
 10
122.000000
 20
-9.500000
 11
122.000000
 21
-30.500000
  0
LINE
  8
0
  6
CENTER
 62
2
 10
127.400002
 20
-23.500000
 11
116.599998
 21
-23.500000
  0
LINE
  8
0
  6
CENTER
 62
2
 10
114.500000
 20
-9.500000
 11
114.500000
 21
-13.500000
  0
LINE
  8
0
  6
CENTER
 62
2
 10
129.500000
 20
-9.500000
 11
129.500000
 21
-13.500000
  0
LINE
  8
0
  6
DASHED
 62
2
 10
127.000000
 20
-20.500000
 11
127.000000
 21
-23.799999
  0
LINE
  8
0
  6
DASHED
 62
2
 10
127.000000
 20
-23.799999
 11
133.000000
 21
-23.799999
  0
LINE
  8
0
  6
DASHED
 62
2
 10
128.350006
 20
-23.799999
 11
128.350006
 21
-28.500000
  0
LINE
  8
0
  6
CENTER
 62
2
 10
130.000000
 20
-18.500000
 11
130.000000
 21
-30.500000
  0
LINE
  8
0
  6
DASHED
 62
2
 10
131.649994
 20
-23.799999
 11
131.649994
 21
-28.500000
  0
LINE
  8
0
  6
DASHED
 62
2
 10
133.000000
 20
-20.500000
 11
133.000000
 21
-23.799999
  0
LINE
  8
0
  6
CONTINUOUS
 62
7
 10
117.500000
 20
-16.000000
 11
117.500000
 21
-16.711201
  0
LINE
  8
0
  6
CONTINUOUS
 62
7
 10
126.500000
 20
-16.000000
 11
126.500000
 21
-16.711201
  0
LINE
  8
0
  6
CONTINUOUS
 62
7
 10
126.500000
 20
-18.688601
 11
126.500000
 21
-20.500000
  0
LINE
  8
0
  6
CONTINUOUS
 62
7
 10
117.500000
 20
-18.688601
 11
117.500000
 21
-20.500000
  0
LINE
  8
0
  6
CONTINUOUS
 62
7
 10
132.000000
 20
-11.500000
 11
127.500000
 21
-11.500000
  0
LINE
  8
0
  6
CONTINUOUS
 62
7
 10
126.999001
 20
-12.000400
 11
127.499001
 21
-11.500500
  0
LINE
  8
0
  6
CONTINUOUS
 62
7
 10
127.000000
 20
-12.000000
 11
117.000000
 21
-12.000000
  0
LINE
  8
0
  6
CONTINUOUS
 62
7
 10
116.999001
 20
-12.000500
 11
116.499001
 21
-11.500500
  0
LINE
  8
0
  6
CONTINUOUS
 62
7
 10
116.500000
 20
-11.500000
 11
112.000000
 21
-11.500000
  0
LINE
  8
0
  6
CONTINUOUS
 62
7
 10
112.000000
 20
-11.500000
 11
112.000000
 21
-19.299999
  0
LINE
  8
0
  6
CONTINUOUS
 62
7
 10
132.000000
 20
-11.500000
 11
132.000000
 21
-19.299999
  0
LINE
  8
0
  6
CONTINUOUS
 62
7
 10
-75.500000
 20
57.450001
 11
-77.000000
 21
57.450001
  0
LINE
  8
0
  6
CONTINUOUS
 62
7
 10
-75.500000
 20
54.549999
 11
-75.500000
 21
57.450001
  0
LINE
  8
0
  6
CONTINUOUS
 62
7
 10
-75.500000
 20
54.549999
 11
-77.000000
 21
54.549999
  0
LINE
  8
0
  6
CONTINUOUS
 62
7
 10
-77.000000
 20
53.500000
 11
-77.000000
 21
58.500000
  0
LINE
  8
0
  6
CONTINUOUS
 62
7
 10
63.000000
 20
57.450001
 11
61.500000
 21
57.450001
  0
LINE
  8
0
  6
CONTINUOUS
 62
7
 10
63.000000
 20
54.549999
 11
63.000000
 21
57.450001
  0
LINE
  8
0
  6
CONTINUOUS
 62
7
 10
63.000000
 20
54.549999
 11
61.500000
 21
54.549999
  0
LINE
  8
0
  6
CONTINUOUS
 62
7
 10
61.500000
 20
53.500000
 11
61.500000
 21
58.500000
  0
LINE
  8
0
  6
CONTINUOUS
 62
7
 10
63.000000
 20
28.950001
 11
61.500000
 21
28.950001
  0
LINE
  8
0
  6
CONTINUOUS
 62
7
 10
63.000000
 20
26.049999
 11
63.000000
 21
28.950001
  0
LINE
  8
0
  6
CONTINUOUS
 62
7
 10
63.000000
 20
26.049999
 11
61.500000
 21
26.049999
  0
LINE
  8
0
  6
CONTINUOUS
 62
7
 10
61.500000
 20
25.000000
 11
61.500000
 21
30.000000
  0
LINE
  8
0
  6
CONTINUOUS
 62
7
 10
-0.024994
 20
94.500000
 11
-0.024994
 21
-94.800003
  0
ARC
  8
0
  6
CONTINUOUS
 62
7
 10
-75.000000
 20
28.500000
 40
4.000000
 50
180.000000
 51
208.955002
  0
CIRCLE
  8
0
  6
CONTINUOUS
 62
2
 10
-58.000000
 20
27.500000
 40
1.500000
  0
CIRCLE
  8
0
  6
CONTINUOUS
 62
2
 10
-58.000000
 20
12.500000
 40
1.500000
  0
CIRCLE
  8
0
  6
CONTINUOUS
 62
2
 10
-68.000000
 20
12.500000
 40
1.500000
  0
CIRCLE
  8
0
  6
CONTINUOUS
 62
2
 10
-68.000000
 20
27.500000
 40
1.500000
  0
CIRCLE
  8
0
  6
CONTINUOUS
 62
7
 10
-84.500000
 20
12.000000
 40
3.000000
  0
CIRCLE
  8
0
  6
CONTINUOUS
 62
7
 10
-84.500000
 20
12.000000
 40
1.650000
  0
CIRCLE
  8
0
  6
CONTINUOUS
 62
7
 10
-46.500000
 20
28.000000
 40
3.000000
  0
CIRCLE
  8
0
  6
CONTINUOUS
 62
7
 10
-46.500000
 20
28.000000
 40
1.650000
  0
CIRCLE
  8
0
  6
CONTINUOUS
 62
7
 10
-68.000000
 20
27.500000
 40
1.250000
  0
CIRCLE
  8
0
  6
CONTINUOUS
 62
7
 10
-58.000000
 20
27.500000
 40
1.250000
  0
CIRCLE
  8
0
  6
CONTINUOUS
 62
7
 10
-58.000000
 20
12.500000
 40
1.250000
  0
CIRCLE
  8
0
  6
CONTINUOUS
 62
7
 10
-68.000000
 20
12.500000
 40
1.250000
  0
ARC
  8
0
  6
CONTINUOUS
 62
7
 10
58.500000
 20
28.500000
 40
4.000000
 50
180.000000
 51
270.000000
  0
ARC
  8
0
  6
CONTINUOUS
 62
7
 10
92.500000
 20
28.500000
 40
4.000000
 50
331.045013
 51
0.000000
  0
CIRCLE
  8
0
  6
CONTINUOUS
 62
2
 10
85.500000
 20
27.500000
 40
1.500000
  0
CIRCLE
  8
0
  6
CONTINUOUS
 62
2
 10
85.500000
 20
12.500000
 40
1.500000
  0
CIRCLE
  8
0
  6
CONTINUOUS
 62
2
 10
75.500000
 20
12.500000
 40
1.500000
  0
CIRCLE
  8
0
  6
CONTINUOUS
 62
2
 10
75.500000
 20
27.500000
 40
1.500000
  0
CIRCLE
  8
0
  6
CONTINUOUS
 62
7
 10
49.500000
 20
12.000000
 40
3.000000
  0
CIRCLE
  8
0
  6
CONTINUOUS
 62
7
 10
49.500000
 20
12.000000
 40
1.650000
  0
CIRCLE
  8
0
  6
CONTINUOUS
 62
7
 10
101.500000
 20
28.000000
 40
3.000000
  0
CIRCLE
  8
0
  6
CONTINUOUS
 62
7
 10
101.500000
 20
28.000000
 40
1.650000
  0
CIRCLE
  8
0
  6
CONTINUOUS
 62
7
 10
75.500000
 20
27.500000
 40
1.250000
  0
CIRCLE
  8
0
  6
CONTINUOUS
 62
7
 10
85.500000
 20
27.500000
 40
1.250000
  0
CIRCLE
  8
0
  6
CONTINUOUS
 62
7
 10
85.500000
 20
12.500000
 40
1.250000
  0
CIRCLE
  8
0
  6
CONTINUOUS
 62
7
 10
75.500000
 20
12.500000
 40
1.250000
  0
CIRCLE
  8
0
  6
CONTINUOUS
 62
7
 10
97.500000
 20
-57.000000
 40
5.900000
  0
CIRCLE
  8
0
  6
CONTINUOUS
 62
7
 10
101.500000
 20
-68.000000
 40
1.650000
  0
CIRCLE
  8
0
  6
CONTINUOUS
 62
7
 10
49.500000
 20
-52.000000
 40
1.650000
  0
CIRCLE
  8
0
  6
CONTINUOUS
 62
2
 10
99.800003
 20
-23.500000
 40
1.500000
  0
CIRCLE
  8
0
  6
CONTINUOUS
 62
2
 10
55.200001
 20
-23.500000
 40
1.500000
  0
CIRCLE
  8
0
  6
CONTINUOUS
 62
7
 10
55.200001
 20
-23.500000
 40
1.250000
  0
CIRCLE
  8
0
  6
CONTINUOUS
 62
7
 10
99.800003
 20
-23.500000
 40
1.250000
  0
CIRCLE
  8
0
  6
CONTINUOUS
 62
7
 10
-46.500000
 20
-68.000000
 40
1.650000
  0
CIRCLE
  8
0
  6
CONTINUOUS
 62
7
 10
-84.500000
 20
-52.000000
 40
1.650000
  0
CIRCLE
  8
0
  6
CONTINUOUS
 62
2
 10
-48.700001
 20
-23.500000
 40
1.500000
  0
CIRCLE
  8
0
  6
CONTINUOUS
 62
2
 10
-78.300003
 20
-23.500000
 40
1.500000
  0
CIRCLE
  8
0
  6
CONTINUOUS
 62
7
 10
-78.300003
 20
-23.500000
 40
1.250000
  0
CIRCLE
  8
0
  6
CONTINUOUS
 62
7
 10
-48.700001
 20
-23.500000
 40
1.250000
  0
CIRCLE
  8
0
  6
CONTINUOUS
 62
7
 10
-76.000000
 20
-57.000000
 40
5.900000
  0
CIRCLE
  8
0
  6
CONTINUOUS
 62
7
 10
-51.000000
 20
-57.000000
 40
5.900000
  0
CIRCLE
  8
0
  6
CONTINUOUS
 62
7
 10
57.500000
 20
-57.000000
 40
5.900000
  0
CIRCLE
  8
0
  6
CONTINUOUS
 62
7
 10
-121.500000
 20
-24.000000
 40
2.500000
  0
ARC
  8
0
  6
CONTINUOUS
 62
7
 10
-121.500000
 20
-24.000000
 40
3.700000
 50
78.924400
 51
101.074997
  0
ARC
  8
0
  6
CONTINUOUS
 62
7
 10
-121.500000
 20
-24.000000
 40
3.700000
 50
138.923996
 51
161.074997
  0
ARC
  8
0
  6
CONTINUOUS
 62
7
 10
-121.500000
 20
-24.000000
 40
3.700000
 50
318.924011
 51
341.075012
  0
ARC
  8
0
  6
CONTINUOUS
 62
7
 10
-121.500000
 20
-24.000000
 40
3.700000
 50
198.923996
 51
221.074997
  0
ARC
  8
0
  6
CONTINUOUS
 62
7
 10
-121.500000
 20
-24.000000
 40
3.700000
 50
258.924011
 51
281.075012
  0
ARC
  8
0
  6
CONTINUOUS
 62
7
 10
-121.500000
 20
-24.000000
 40
3.700000
 50
18.924400
 51
41.075199
  0
CIRCLE
  8
0
  6
CONTINUOUS
 62
7
 10
-114.000000
 20
-23.500000
 40
3.400000
  0
ARC
  8
0
  6
CONTINUOUS
 62
7
 10
-118.650002
 20
-17.699900
 40
1.000000
 50
278.619995
 51
81.380096
  0
ARC
  8
0
  6
CONTINUOUS
 62
7
 10
-109.349998
 20
-17.699900
 40
1.000000
 50
98.620003
 51
261.380005
  0
CIRCLE
  8
0
  6
CONTINUOUS
 62
7
 10
9.000000
 20
-24.000000
 40
2.500000
  0
ARC
  8
0
  6
CONTINUOUS
 62
7
 10
9.000000
 20
-24.000000
 40
3.700000
 50
78.924400
 51
101.074997
  0
ARC
  8
0
  6
CONTINUOUS
 62
7
 10
9.000000
 20
-24.000000
 40
3.700000
 50
138.923996
 51
161.074997
  0
ARC
  8
0
  6
CONTINUOUS
 62
7
 10
9.000000
 20
-24.000000
 40
3.700000
 50
318.924011
 51
341.075012
  0
ARC
  8
0
  6
CONTINUOUS
 62
7
 10
9.000000
 20
-24.000000
 40
3.700000
 50
198.923996
 51
221.074997
  0
ARC
  8
0
  6
CONTINUOUS
 62
7
 10
9.000000
 20
-24.000000
 40
3.700000
 50
258.924011
 51
281.075012
  0
ARC
  8
0
  6
CONTINUOUS
 62
7
 10
9.000000
 20
-24.000000
 40
3.700000
 50
18.924400
 51
41.075199
  0
CIRCLE
  8
0
  6
CONTINUOUS
 62
7
 10
16.500000
 20
-23.500000
 40
3.400000
  0
ARC
  8
0
  6
CONTINUOUS
 62
7
 10
11.850100
 20
-17.699900
 40
1.000000
 50
278.619995
 51
81.380096
  0
ARC
  8
0
  6
CONTINUOUS
 62
7
 10
21.149900
 20
-17.699900
 40
1.000000
 50
98.620003
 51
261.380005
  0
CIRCLE
  8
0
  6
CONTINUOUS
 62
7
 10
-26.500000
 20
-23.500000
 40
3.400000
  0
ARC
  8
0
  6
CONTINUOUS
 62
7
 10
-21.850100
 20
-17.699900
 40
1.000000
 50
98.620003
 51
261.380005
  0
ARC
  8
0
  6
CONTINUOUS
 62
7
 10
-31.149900
 20
-17.699900
 40
1.000000
 50
278.619995
 51
81.380096
  0
CIRCLE
  8
0
  6
CONTINUOUS
 62
7
 10
122.000000
 20
-23.500000
 40
3.400000
  0
ARC
  8
0
  6
CONTINUOUS
 62
7
 10
126.650002
 20
-17.699900
 40
1.000000
 50
98.620003
 51
261.380005
  0
ARC
  8
0
  6
CONTINUOUS
 62
7
 10
117.349998
 20
-17.699900
 40
1.000000
 50
278.619995
 51
81.380096
  0
TEXT
  8
0
 62
7
 10
78.657349
 20
-90.925003
 40
4.500000
  1
KOGANEI CORP.
 50
0.000000
 41
0.771526
 51
0.000000
  7
STANDARD
  0
TEXT
  8
0
 62
7
 10
96.112999
 20
88.699997
 40
3.200000
  1
Ver.1.0
 50
0.000000
 41
1.010331
 51
0.000000
  7
STANDARD
  0
TEXT
  8
0
 62
7
 10
-117.237144
 20
87.900002
 40
3.200000
  1
AP TABLE
 50
0.000000
 41
0.775512
 51
0.000000
  7
STANDARD
  0
TEXT
  8
0
 62
7
 10
8.374810
 20
73.699997
 40
3.200000
  1
MODEL:APT-SD6-10-TPQS
 50
0.000000
 41
0.781387
 51
0.000000
  7
STANDARD
  0
TEXT
  8
0
 62
7
 10
-130.000198
 20
73.699997
 40
3.200000
  1
MODEL:APT-SD6-5-TPQS
 50
0.000000
 41
0.763732
 51
0.000000
  7
STANDARD
  0
ENDSEC
  0
EOF
