  0
SECTION
  2
HEADER
  0
ENDSEC
  0
SECTION
  2
TABLES
  0
TABLE
  2
LTYPE
 70
     4
  0
LTYPE
  2
CONTINUOUS
 70
    64
  3
Solid line
 72
    65
 73
     0
 40
0.000000
  0
LTYPE
  2
DASHED
 70
    64
  3
__ __ __ __ __ __ __ __ __ __ __ __ __ __ __
 72
    65
 73
     2
 40
3.500000
 49
2.000000
 49
-1.500000
  0
LTYPE
  2
CENTER
 70
    64
  3
____ _ ____ _ ____ _ ____ _ ____ _ ____ _ ____
 72
    65
 73
     4
 40
17.500000
 49
13.000000
 49
-1.500000
 49
1.500000
 49
-1.500000
  0
LTYPE
  2
PHANTOM
 70
    64
  3
_____ _ _ _____ _ _ _____ _ _ _____ _ _ ____  
 72
    65
 73
     6
 40
15.500000
 49
8.000000
 49
-1.500000
 49
1.500000
 49
-1.500000
 49
1.500000
 49
-1.500000
  0
ENDTAB
  0
TABLE
  2
LAYER
 70
     1
  0
LAYER
  2
0
 70
     0
 62
     7
  6
CONTINUOUS
  0
ENDTAB
  0
TABLE
  2
STYLE
 70
     1
  0
STYLE
  2
STANDARD
 70
     0
 40
0.000000
 41
1.000000
 50
0.000000
 71
     0
 42
0.200000
  3
txt
  4
BIGFONT
  0
ENDTAB
  0
TABLE
  2
VIEW
 70
     0
  0
ENDTAB
  0
ENDSEC
  0
SECTION
  2
BLOCKS
  0
ENDSEC
  0
SECTION
  2
ENTITIES
  0
LINE
  8
0
  6
CONTINUOUS
 62
7
 10
-281.250000
 20
195.500000
 11
282.100006
 21
195.500000
  0
LINE
  8
0
  6
CONTINUOUS
 62
7
 10
-281.250000
 20
195.500000
 11
-281.250000
 21
-195.000000
  0
LINE
  8
0
  6
CONTINUOUS
 62
7
 10
282.100006
 20
195.500000
 11
282.100006
 21
-195.000000
  0
LINE
  8
0
  6
CONTINUOUS
 62
7
 10
-281.250000
 20
-195.000000
 11
282.100006
 21
-195.000000
  0
LINE
  8
0
  6
CONTINUOUS
 62
7
 10
162.100006
 20
-175.000000
 11
162.100006
 21
-195.000000
  0
LINE
  8
0
  6
CONTINUOUS
 62
7
 10
162.100006
 20
-175.000000
 11
282.100006
 21
-175.000000
  0
LINE
  8
0
  6
CONTINUOUS
 62
7
 10
162.100006
 20
175.500000
 11
282.100006
 21
175.500000
  0
LINE
  8
0
  6
CONTINUOUS
 62
7
 10
-281.250000
 20
175.500000
 11
-161.250000
 21
175.500000
  0
LINE
  8
0
  6
CONTINUOUS
 62
7
 10
162.100006
 20
195.500000
 11
162.100006
 21
175.500000
  0
LINE
  8
0
  6
CONTINUOUS
 62
7
 10
-161.250000
 20
195.500000
 11
-161.250000
 21
175.500000
  0
LINE
  8
0
  6
CONTINUOUS
 62
7
 10
-113.099998
 20
-49.000000
 11
-132.899994
 21
-49.000000
  0
LINE
  8
0
  6
CONTINUOUS
 62
7
 10
-107.500000
 20
-48.700001
 11
-113.099998
 21
-48.700001
  0
LINE
  8
0
  6
CONTINUOUS
 62
7
 10
-107.500000
 20
-41.200001
 11
-138.500000
 21
-41.200001
  0
LINE
  8
0
  6
CONTINUOUS
 62
7
 10
-107.500000
 20
-48.700001
 11
-107.500000
 21
-41.200001
  0
LINE
  8
0
  6
CONTINUOUS
 62
7
 10
-132.899994
 20
-48.700001
 11
-138.500000
 21
-48.700001
  0
LINE
  8
0
  6
CONTINUOUS
 62
7
 10
-138.500000
 20
-41.200001
 11
-138.500000
 21
-48.700001
  0
LINE
  8
0
  6
CONTINUOUS
 62
7
 10
-98.000000
 20
-44.500000
 11
-107.500000
 21
-44.500000
  0
LINE
  8
0
  6
CONTINUOUS
 62
7
 10
-138.500000
 20
-44.500000
 11
-158.000000
 21
-44.500000
  0
LINE
  8
0
  6
CONTINUOUS
 62
7
 10
-158.000000
 20
-44.500000
 11
-158.000000
 21
-30.000000
  0
LINE
  8
0
  6
CONTINUOUS
 62
7
 10
-98.000000
 20
-44.500000
 11
-98.000000
 21
-30.000000
  0
LINE
  8
0
  6
CONTINUOUS
 62
7
 10
-98.000000
 20
-30.000000
 11
-158.000000
 21
-30.000000
  0
LINE
  8
0
  6
CONTINUOUS
 62
7
 10
-158.000000
 20
-39.799999
 11
-149.847000
 21
-39.799999
  0
LINE
  8
0
  6
CONTINUOUS
 62
7
 10
-113.099998
 20
-49.000000
 11
-113.099998
 21
-41.200001
  0
LINE
  8
0
  6
CONTINUOUS
 62
7
 10
-132.899994
 20
-49.000000
 11
-132.899994
 21
-41.200001
  0
LINE
  8
0
  6
CONTINUOUS
 62
7
 10
-108.249001
 20
-36.500000
 11
-117.500000
 21
-36.500000
  0
LINE
  8
0
  6
CONTINUOUS
 62
7
 10
-98.000000
 20
-39.799999
 11
-106.153000
 21
-39.799999
  0
LINE
  8
0
  6
CENTER
 62
2
 10
-142.000000
 20
-33.500000
 11
-135.000000
 21
-33.500000
  0
LINE
  8
0
  6
CENTER
 62
2
 10
-138.500000
 20
-30.000000
 11
-138.500000
 21
-37.000000
  0
LINE
  8
0
  6
CENTER
 62
2
 10
-121.000000
 20
-33.500000
 11
-114.000000
 21
-33.500000
  0
LINE
  8
0
  6
CENTER
 62
2
 10
-117.500000
 20
-30.000000
 11
-117.500000
 21
-37.000000
  0
LINE
  8
0
  6
CONTINUOUS
 62
7
 10
-136.841995
 20
-36.000000
 11
-119.157997
 21
-36.000000
  0
LINE
  8
0
  6
CONTINUOUS
 62
7
 10
-147.751007
 20
-36.500000
 11
-138.500000
 21
-36.500000
  0
LINE
  8
0
  6
CENTER
 62
2
 10
-127.800003
 20
-47.450001
 11
-127.800003
 21
-43.950001
  0
LINE
  8
0
  6
CENTER
 62
2
 10
-129.550003
 20
-45.700001
 11
-126.050003
 21
-45.700001
  0
LINE
  8
0
  6
CENTER
 62
2
 10
-118.199997
 20
-47.450001
 11
-118.199997
 21
-43.950001
  0
LINE
  8
0
  6
CENTER
 62
2
 10
-119.949997
 20
-45.700001
 11
-116.449997
 21
-45.700001
  0
LINE
  8
0
  6
DASHED
 62
2
 10
-109.000000
 20
-36.500000
 11
-109.000000
 21
-35.000000
  0
LINE
  8
0
  6
DASHED
 62
2
 10
-115.000000
 20
-36.500000
 11
-115.000000
 21
-35.000000
  0
LINE
  8
0
  6
DASHED
 62
2
 10
-113.750000
 20
-35.000000
 11
-113.750000
 21
-30.000000
  0
LINE
  8
0
  6
DASHED
 62
2
 10
-110.250000
 20
-35.000000
 11
-110.250000
 21
-30.000000
  0
LINE
  8
0
  6
DASHED
 62
2
 10
-114.000000
 20
-35.000000
 11
-114.000000
 21
-30.000000
  0
LINE
  8
0
  6
DASHED
 62
2
 10
-110.000000
 20
-35.000000
 11
-110.000000
 21
-30.000000
  0
LINE
  8
0
  6
DASHED
 62
2
 10
-109.000000
 20
-35.000000
 11
-115.000000
 21
-35.000000
  0
LINE
  8
0
  6
CENTER
 62
2
 10
-112.000000
 20
-38.500000
 11
-112.000000
 21
-28.000000
  0
LINE
  8
0
  6
CENTER
 62
2
 10
-144.000000
 20
-38.500000
 11
-144.000000
 21
-28.000000
  0
LINE
  8
0
  6
DASHED
 62
2
 10
-141.000000
 20
-36.500000
 11
-141.000000
 21
-35.000000
  0
LINE
  8
0
  6
DASHED
 62
2
 10
-147.000000
 20
-36.500000
 11
-147.000000
 21
-35.000000
  0
LINE
  8
0
  6
DASHED
 62
2
 10
-145.750000
 20
-35.000000
 11
-145.750000
 21
-30.000000
  0
LINE
  8
0
  6
DASHED
 62
2
 10
-142.250000
 20
-35.000000
 11
-142.250000
 21
-30.000000
  0
LINE
  8
0
  6
DASHED
 62
2
 10
-146.000000
 20
-35.000000
 11
-146.000000
 21
-30.000000
  0
LINE
  8
0
  6
DASHED
 62
2
 10
-142.000000
 20
-35.000000
 11
-142.000000
 21
-30.000000
  0
LINE
  8
0
  6
DASHED
 62
2
 10
-141.000000
 20
-35.000000
 11
-147.000000
 21
-35.000000
  0
LINE
  8
0
  6
CONTINUOUS
 62
7
 10
-113.099998
 20
-66.000000
 11
-132.899994
 21
-66.000000
  0
LINE
  8
0
  6
CONTINUOUS
 62
7
 10
-113.099998
 20
-81.000000
 11
-132.899994
 21
-81.000000
  0
LINE
  8
0
  6
CONTINUOUS
 62
7
 10
-113.099998
 20
-71.000000
 11
-132.899994
 21
-71.000000
  0
LINE
  8
0
  6
CONTINUOUS
 62
7
 10
-107.500000
 20
-66.300003
 11
-113.099998
 21
-66.300003
  0
LINE
  8
0
  6
CONTINUOUS
 62
7
 10
-132.899994
 20
-66.300003
 11
-138.500000
 21
-66.300003
  0
LINE
  8
0
  6
CENTER
 62
2
 10
-96.428902
 20
-76.000000
 11
-160.061996
 21
-76.000000
  0
LINE
  8
0
  6
CONTINUOUS
 62
7
 10
-98.000000
 20
-87.500000
 11
-98.000000
 21
-64.500000
  0
LINE
  8
0
  6
CONTINUOUS
 62
7
 10
-158.000000
 20
-87.500000
 11
-158.000000
 21
-64.500000
  0
LINE
  8
0
  6
CONTINUOUS
 62
7
 10
-98.000000
 20
-64.500000
 11
-158.000000
 21
-64.500000
  0
LINE
  8
0
  6
CONTINUOUS
 62
7
 10
-98.000000
 20
-71.500000
 11
-107.500000
 21
-71.500000
  0
LINE
  8
0
  6
CONTINUOUS
 62
7
 10
-98.000000
 20
-80.500000
 11
-107.500000
 21
-80.500000
  0
LINE
  8
0
  6
CONTINUOUS
 62
7
 10
-138.500000
 20
-80.500000
 11
-158.000000
 21
-80.500000
  0
LINE
  8
0
  6
CONTINUOUS
 62
7
 10
-138.500000
 20
-71.500000
 11
-158.000000
 21
-71.500000
  0
LINE
  8
0
  6
CENTER
 62
2
 10
-119.000000
 20
-68.500000
 11
-112.000000
 21
-68.500000
  0
LINE
  8
0
  6
CENTER
 62
2
 10
-115.500000
 20
-65.000000
 11
-115.500000
 21
-72.000000
  0
LINE
  8
0
  6
CONTINUOUS
 62
7
 10
-113.099998
 20
-86.000000
 11
-132.899994
 21
-86.000000
  0
LINE
  8
0
  6
CONTINUOUS
 62
7
 10
-107.500000
 20
-85.699997
 11
-107.500000
 21
-66.300003
  0
LINE
  8
0
  6
CONTINUOUS
 62
7
 10
-107.500000
 20
-85.699997
 11
-113.099998
 21
-85.699997
  0
LINE
  8
0
  6
CONTINUOUS
 62
7
 10
-132.899994
 20
-85.699997
 11
-138.500000
 21
-85.699997
  0
LINE
  8
0
  6
CONTINUOUS
 62
7
 10
-113.099998
 20
-66.000000
 11
-113.099998
 21
-86.000000
  0
LINE
  8
0
  6
CONTINUOUS
 62
7
 10
-132.899994
 20
-66.000000
 11
-132.899994
 21
-86.000000
  0
LINE
  8
0
  6
CENTER
 62
2
 10
-134.000000
 20
-68.500000
 11
-127.000000
 21
-68.500000
  0
LINE
  8
0
  6
CENTER
 62
2
 10
-130.500000
 20
-65.000000
 11
-130.500000
 21
-72.000000
  0
LINE
  8
0
  6
CENTER
 62
2
 10
-134.000000
 20
-83.500000
 11
-127.000000
 21
-83.500000
  0
LINE
  8
0
  6
CENTER
 62
2
 10
-119.000000
 20
-83.500000
 11
-112.000000
 21
-83.500000
  0
LINE
  8
0
  6
CENTER
 62
2
 10
-115.500000
 20
-87.000000
 11
-115.500000
 21
-80.000000
  0
LINE
  8
0
  6
CENTER
 62
2
 10
-130.500000
 20
-87.000000
 11
-130.500000
 21
-80.000000
  0
LINE
  8
0
  6
CENTER
 62
2
 10
-149.000000
 20
-84.000000
 11
-139.000000
 21
-84.000000
  0
LINE
  8
0
  6
CENTER
 62
2
 10
-144.000000
 20
-89.000000
 11
-144.000000
 21
-79.000000
  0
LINE
  8
0
  6
CENTER
 62
2
 10
-149.000000
 20
-68.000000
 11
-139.000000
 21
-68.000000
  0
LINE
  8
0
  6
CENTER
 62
2
 10
-144.000000
 20
-63.000000
 11
-144.000000
 21
-73.000000
  0
LINE
  8
0
  6
CENTER
 62
2
 10
-107.000000
 20
-84.000000
 11
-117.000000
 21
-84.000000
  0
LINE
  8
0
  6
CENTER
 62
2
 10
-112.000000
 20
-89.000000
 11
-112.000000
 21
-79.000000
  0
LINE
  8
0
  6
CENTER
 62
2
 10
-112.000000
 20
-63.000000
 11
-112.000000
 21
-73.000000
  0
LINE
  8
0
  6
CENTER
 62
2
 10
-107.000000
 20
-68.000000
 11
-117.000000
 21
-68.000000
  0
LINE
  8
0
  6
CONTINUOUS
 62
7
 10
-138.500000
 20
-66.300003
 11
-138.500000
 21
-85.699997
  0
LINE
  8
0
  6
CONTINUOUS
 62
7
 10
-98.000000
 20
-168.000000
 11
-158.000000
 21
-168.000000
  0
LINE
  8
0
  6
CONTINUOUS
 62
7
 10
-158.000000
 20
-168.000000
 11
-158.000000
 21
-145.000000
  0
LINE
  8
0
  6
CONTINUOUS
 62
7
 10
-98.000000
 20
-145.000000
 11
-158.000000
 21
-145.000000
  0
LINE
  8
0
  6
CONTINUOUS
 62
7
 10
-98.000000
 20
-168.000000
 11
-98.000000
 21
-145.000000
  0
LINE
  8
0
  6
CENTER
 62
2
 10
-96.400497
 20
-156.500000
 11
-160.630005
 21
-156.500000
  0
LINE
  8
0
  6
CENTER
 62
2
 10
-144.000000
 20
-159.500000
 11
-144.000000
 21
-169.500000
  0
LINE
  8
0
  6
CENTER
 62
2
 10
-139.000000
 20
-164.500000
 11
-149.000000
 21
-164.500000
  0
LINE
  8
0
  6
CENTER
 62
2
 10
-144.000000
 20
-153.500000
 11
-144.000000
 21
-143.500000
  0
LINE
  8
0
  6
CENTER
 62
2
 10
-139.000000
 20
-148.500000
 11
-149.000000
 21
-148.500000
  0
LINE
  8
0
  6
CENTER
 62
2
 10
-112.000000
 20
-169.500000
 11
-112.000000
 21
-159.500000
  0
LINE
  8
0
  6
CENTER
 62
2
 10
-107.000000
 20
-164.500000
 11
-117.000000
 21
-164.500000
  0
LINE
  8
0
  6
CENTER
 62
2
 10
-112.000000
 20
-143.500000
 11
-112.000000
 21
-153.500000
  0
LINE
  8
0
  6
CENTER
 62
2
 10
-107.000000
 20
-148.500000
 11
-117.000000
 21
-148.500000
  0
LINE
  8
0
  6
CENTER
 62
2
 10
-151.000000
 20
-147.100006
 11
-151.000000
 21
-161.899994
  0
LINE
  8
0
  6
CENTER
 62
2
 10
-158.399994
 20
-154.500000
 11
-143.600006
 21
-154.500000
  0
LINE
  8
0
  6
CENTER
 62
2
 10
-105.000000
 20
-147.100006
 11
-105.000000
 21
-161.899994
  0
LINE
  8
0
  6
CENTER
 62
2
 10
-97.599998
 20
-154.500000
 11
-112.400002
 21
-154.500000
  0
LINE
  8
0
  6
CONTINUOUS
 62
7
 10
-113.099998
 20
-106.000000
 11
-132.899994
 21
-106.000000
  0
LINE
  8
0
  6
CONTINUOUS
 62
7
 10
-107.500000
 20
-106.300003
 11
-113.099998
 21
-106.300003
  0
LINE
  8
0
  6
CONTINUOUS
 62
7
 10
-107.500000
 20
-106.300003
 11
-107.500000
 21
-106.800003
  0
LINE
  8
0
  6
CONTINUOUS
 62
7
 10
-132.899994
 20
-106.300003
 11
-138.500000
 21
-106.300003
  0
LINE
  8
0
  6
CONTINUOUS
 62
7
 10
-138.500000
 20
-113.800003
 11
-138.500000
 21
-106.300003
  0
LINE
  8
0
  6
CONTINUOUS
 62
7
 10
-98.000000
 20
-110.500000
 11
-99.250000
 21
-110.500000
  0
LINE
  8
0
  6
CONTINUOUS
 62
7
 10
-138.500000
 20
-110.500000
 11
-140.750000
 21
-110.500000
  0
LINE
  8
0
  6
CONTINUOUS
 62
7
 10
-158.000000
 20
-110.500000
 11
-158.000000
 21
-125.000000
  0
LINE
  8
0
  6
CONTINUOUS
 62
7
 10
-98.000000
 20
-110.500000
 11
-98.000000
 21
-125.000000
  0
LINE
  8
0
  6
CONTINUOUS
 62
7
 10
-98.000000
 20
-125.000000
 11
-158.000000
 21
-125.000000
  0
LINE
  8
0
  6
CONTINUOUS
 62
7
 10
-158.000000
 20
-115.199997
 11
-149.847000
 21
-115.199997
  0
LINE
  8
0
  6
CONTINUOUS
 62
7
 10
-113.099998
 20
-106.000000
 11
-113.099998
 21
-106.500000
  0
LINE
  8
0
  6
CONTINUOUS
 62
7
 10
-132.899994
 20
-106.000000
 11
-132.899994
 21
-113.800003
  0
LINE
  8
0
  6
CONTINUOUS
 62
7
 10
-158.000000
 20
-115.199997
 11
-149.847000
 21
-115.199997
  0
LINE
  8
0
  6
CONTINUOUS
 62
7
 10
-147.751007
 20
-118.500000
 11
-147.000000
 21
-118.500000
  0
LINE
  8
0
  6
CENTER
 62
2
 10
-105.000000
 20
-34.500000
 11
-98.000000
 21
-34.500000
  0
LINE
  8
0
  6
CENTER
 62
2
 10
-101.500000
 20
-31.000000
 11
-101.500000
 21
-38.000000
  0
LINE
  8
0
  6
CONTINUOUS
 62
7
 10
-108.249001
 20
-118.500000
 11
-109.000000
 21
-118.500000
  0
LINE
  8
0
  6
CONTINUOUS
 62
7
 10
-98.000000
 20
-115.199997
 11
-106.153000
 21
-115.199997
  0
LINE
  8
0
  6
CENTER
 62
2
 10
-158.000000
 20
-34.500000
 11
-151.000000
 21
-34.500000
  0
LINE
  8
0
  6
CENTER
 62
2
 10
-154.500000
 20
-31.000000
 11
-154.500000
 21
-38.000000
  0
LINE
  8
0
  6
CONTINUOUS
 62
7
 10
-106.153000
 20
-115.199997
 11
-98.000000
 21
-115.199997
  0
LINE
  8
0
  6
CENTER
 62
2
 10
-144.000000
 20
-116.500000
 11
-144.000000
 21
-127.000000
  0
LINE
  8
0
  6
DASHED
 62
2
 10
-141.000000
 20
-118.500000
 11
-141.000000
 21
-120.000000
  0
LINE
  8
0
  6
DASHED
 62
2
 10
-145.750000
 20
-120.000000
 11
-145.750000
 21
-125.000000
  0
LINE
  8
0
  6
DASHED
 62
2
 10
-142.250000
 20
-120.000000
 11
-142.250000
 21
-125.000000
  0
LINE
  8
0
  6
DASHED
 62
2
 10
-146.000000
 20
-120.000000
 11
-146.000000
 21
-125.000000
  0
LINE
  8
0
  6
DASHED
 62
2
 10
-142.000000
 20
-120.000000
 11
-142.000000
 21
-125.000000
  0
LINE
  8
0
  6
DASHED
 62
2
 10
-141.000000
 20
-120.000000
 11
-147.000000
 21
-120.000000
  0
LINE
  8
0
  6
DASHED
 62
2
 10
-115.000000
 20
-118.500000
 11
-115.000000
 21
-120.000000
  0
LINE
  8
0
  6
DASHED
 62
2
 10
-113.750000
 20
-120.000000
 11
-113.750000
 21
-125.000000
  0
LINE
  8
0
  6
DASHED
 62
2
 10
-110.250000
 20
-120.000000
 11
-110.250000
 21
-125.000000
  0
LINE
  8
0
  6
DASHED
 62
2
 10
-114.000000
 20
-120.000000
 11
-114.000000
 21
-125.000000
  0
LINE
  8
0
  6
DASHED
 62
2
 10
-110.000000
 20
-120.000000
 11
-110.000000
 21
-125.000000
  0
LINE
  8
0
  6
DASHED
 62
2
 10
-109.000000
 20
-120.000000
 11
-115.000000
 21
-120.000000
  0
LINE
  8
0
  6
CENTER
 62
2
 10
-112.000000
 20
-116.500000
 11
-112.000000
 21
-127.000000
  0
LINE
  8
0
  6
CENTER
 62
2
 10
-130.500000
 20
-108.000000
 11
-130.500000
 21
-104.000000
  0
LINE
  8
0
  6
CENTER
 62
2
 10
-115.500000
 20
-108.000000
 11
-115.500000
 21
-104.000000
  0
LINE
  8
0
  6
CENTER
 62
2
 10
-130.500000
 20
-51.000000
 11
-130.500000
 21
-47.000000
  0
LINE
  8
0
  6
CENTER
 62
2
 10
-115.500000
 20
-51.000000
 11
-115.500000
 21
-47.000000
  0
LINE
  8
0
  6
CONTINUOUS
 62
7
 10
183.000000
 20
-168.000000
 11
93.000000
 21
-168.000000
  0
LINE
  8
0
  6
CONTINUOUS
 62
7
 10
93.000000
 20
-168.000000
 11
93.000000
 21
-145.000000
  0
LINE
  8
0
  6
CONTINUOUS
 62
7
 10
183.000000
 20
-145.000000
 11
93.000000
 21
-145.000000
  0
LINE
  8
0
  6
CONTINUOUS
 62
7
 10
183.000000
 20
-168.000000
 11
183.000000
 21
-145.000000
  0
LINE
  8
0
  6
CENTER
 62
2
 10
184.598999
 20
-156.500000
 11
90.369797
 21
-156.500000
  0
LINE
  8
0
  6
CENTER
 62
2
 10
108.000000
 20
-159.500000
 11
108.000000
 21
-169.500000
  0
LINE
  8
0
  6
CENTER
 62
2
 10
113.000000
 20
-164.500000
 11
103.000000
 21
-164.500000
  0
LINE
  8
0
  6
CENTER
 62
2
 10
108.000000
 20
-153.500000
 11
108.000000
 21
-143.500000
  0
LINE
  8
0
  6
CENTER
 62
2
 10
113.000000
 20
-148.500000
 11
103.000000
 21
-148.500000
  0
LINE
  8
0
  6
CENTER
 62
2
 10
168.000000
 20
-169.500000
 11
168.000000
 21
-159.500000
  0
LINE
  8
0
  6
CENTER
 62
2
 10
173.000000
 20
-164.500000
 11
163.000000
 21
-164.500000
  0
LINE
  8
0
  6
CENTER
 62
2
 10
168.000000
 20
-143.500000
 11
168.000000
 21
-153.500000
  0
LINE
  8
0
  6
CENTER
 62
2
 10
173.000000
 20
-148.500000
 11
163.000000
 21
-148.500000
  0
LINE
  8
0
  6
CENTER
 62
2
 10
100.000000
 20
-147.100006
 11
100.000000
 21
-161.899994
  0
LINE
  8
0
  6
CENTER
 62
2
 10
92.599998
 20
-154.500000
 11
107.400002
 21
-154.500000
  0
LINE
  8
0
  6
CENTER
 62
2
 10
176.000000
 20
-147.100006
 11
176.000000
 21
-161.899994
  0
LINE
  8
0
  6
CENTER
 62
2
 10
183.399994
 20
-154.500000
 11
168.600006
 21
-154.500000
  0
LINE
  8
0
  6
CONTINUOUS
 62
7
 10
164.899994
 20
-49.000000
 11
131.100006
 21
-49.000000
  0
LINE
  8
0
  6
CONTINUOUS
 62
7
 10
170.500000
 20
-48.700001
 11
164.899994
 21
-48.700001
  0
LINE
  8
0
  6
CONTINUOUS
 62
7
 10
170.500000
 20
-41.200001
 11
125.500000
 21
-41.200001
  0
LINE
  8
0
  6
CONTINUOUS
 62
7
 10
170.500000
 20
-48.700001
 11
170.500000
 21
-41.200001
  0
LINE
  8
0
  6
CONTINUOUS
 62
7
 10
131.100006
 20
-48.700001
 11
125.500000
 21
-48.700001
  0
LINE
  8
0
  6
CONTINUOUS
 62
7
 10
125.500000
 20
-41.200001
 11
125.500000
 21
-48.700001
  0
LINE
  8
0
  6
CONTINUOUS
 62
7
 10
183.000000
 20
-44.500000
 11
170.500000
 21
-44.500000
  0
LINE
  8
0
  6
CONTINUOUS
 62
7
 10
125.500000
 20
-44.500000
 11
93.000000
 21
-44.500000
  0
LINE
  8
0
  6
CONTINUOUS
 62
7
 10
93.000000
 20
-44.500000
 11
93.000000
 21
-30.000000
  0
LINE
  8
0
  6
CONTINUOUS
 62
7
 10
183.000000
 20
-44.500000
 11
183.000000
 21
-30.000000
  0
LINE
  8
0
  6
CONTINUOUS
 62
7
 10
183.000000
 20
-30.000000
 11
93.000000
 21
-30.000000
  0
LINE
  8
0
  6
CONTINUOUS
 62
7
 10
93.000000
 20
-39.799999
 11
102.153000
 21
-39.799999
  0
LINE
  8
0
  6
CONTINUOUS
 62
7
 10
164.899994
 20
-49.000000
 11
164.899994
 21
-41.200001
  0
LINE
  8
0
  6
CONTINUOUS
 62
7
 10
131.100006
 20
-49.000000
 11
131.100006
 21
-41.200001
  0
LINE
  8
0
  6
CONTINUOUS
 62
7
 10
171.751007
 20
-36.500000
 11
158.000000
 21
-36.500000
  0
LINE
  8
0
  6
CONTINUOUS
 62
7
 10
183.000000
 20
-39.799999
 11
173.847000
 21
-39.799999
  0
LINE
  8
0
  6
CENTER
 62
2
 10
114.500000
 20
-33.500000
 11
121.500000
 21
-33.500000
  0
LINE
  8
0
  6
CENTER
 62
2
 10
118.000000
 20
-30.000000
 11
118.000000
 21
-37.000000
  0
LINE
  8
0
  6
CENTER
 62
2
 10
154.500000
 20
-33.500000
 11
161.500000
 21
-33.500000
  0
LINE
  8
0
  6
CENTER
 62
2
 10
158.000000
 20
-30.000000
 11
158.000000
 21
-37.000000
  0
LINE
  8
0
  6
CONTINUOUS
 62
7
 10
119.657997
 20
-36.000000
 11
156.341995
 21
-36.000000
  0
LINE
  8
0
  6
CONTINUOUS
 62
7
 10
104.249001
 20
-36.500000
 11
118.000000
 21
-36.500000
  0
LINE
  8
0
  6
CENTER
 62
2
 10
143.199997
 20
-47.450001
 11
143.199997
 21
-43.950001
  0
LINE
  8
0
  6
CENTER
 62
2
 10
141.449997
 20
-45.700001
 11
144.949997
 21
-45.700001
  0
LINE
  8
0
  6
CENTER
 62
2
 10
152.800003
 20
-47.450001
 11
152.800003
 21
-43.950001
  0
LINE
  8
0
  6
CENTER
 62
2
 10
151.050003
 20
-45.700001
 11
154.550003
 21
-45.700001
  0
LINE
  8
0
  6
CENTER
 62
2
 10
185.042999
 20
-76.000000
 11
89.855202
 21
-76.000000
  0
LINE
  8
0
  6
CONTINUOUS
 62
7
 10
183.000000
 20
-87.500000
 11
183.000000
 21
-64.500000
  0
LINE
  8
0
  6
CONTINUOUS
 62
7
 10
183.000000
 20
-71.500000
 11
170.500000
 21
-71.500000
  0
LINE
  8
0
  6
CENTER
 62
2
 10
168.000000
 20
-63.000000
 11
168.000000
 21
-73.000000
  0
LINE
  8
0
  6
CENTER
 62
2
 10
173.000000
 20
-68.000000
 11
163.000000
 21
-68.000000
  0
LINE
  8
0
  6
CONTINUOUS
 62
7
 10
164.899994
 20
-66.000000
 11
131.100006
 21
-66.000000
  0
LINE
  8
0
  6
CONTINUOUS
 62
7
 10
164.899994
 20
-81.000000
 11
131.100006
 21
-81.000000
  0
LINE
  8
0
  6
CONTINUOUS
 62
7
 10
164.899994
 20
-71.000000
 11
131.100006
 21
-71.000000
  0
LINE
  8
0
  6
CONTINUOUS
 62
7
 10
131.100006
 20
-66.300003
 11
125.500000
 21
-66.300003
  0
LINE
  8
0
  6
CENTER
 62
2
 10
143.500000
 20
-83.500000
 11
136.600006
 21
-83.500000
  0
LINE
  8
0
  6
CENTER
 62
2
 10
143.500000
 20
-68.500000
 11
136.600006
 21
-68.500000
  0
LINE
  8
0
  6
CENTER
 62
2
 10
140.000000
 20
-65.000000
 11
140.000000
 21
-72.000000
  0
LINE
  8
0
  6
CENTER
 62
2
 10
152.500000
 20
-68.500000
 11
158.891006
 21
-68.500000
  0
LINE
  8
0
  6
CENTER
 62
2
 10
156.000000
 20
-65.000000
 11
156.000000
 21
-72.000000
  0
LINE
  8
0
  6
CENTER
 62
2
 10
140.000000
 20
-87.000000
 11
140.000000
 21
-80.000000
  0
LINE
  8
0
  6
CONTINUOUS
 62
7
 10
131.100006
 20
-66.000000
 11
131.100006
 21
-86.000000
  0
LINE
  8
0
  6
CENTER
 62
2
 10
152.488007
 20
-83.500000
 11
158.932999
 21
-83.500000
  0
LINE
  8
0
  6
CENTER
 62
2
 10
156.000000
 20
-87.000000
 11
156.000000
 21
-80.000000
  0
LINE
  8
0
  6
CONTINUOUS
 62
7
 10
164.899994
 20
-86.000000
 11
131.100006
 21
-86.000000
  0
LINE
  8
0
  6
CONTINUOUS
 62
7
 10
131.100006
 20
-85.699997
 11
125.500000
 21
-85.699997
  0
LINE
  8
0
  6
CONTINUOUS
 62
7
 10
125.500000
 20
-66.300003
 11
125.500000
 21
-85.699997
  0
LINE
  8
0
  6
CONTINUOUS
 62
7
 10
170.500000
 20
-66.300003
 11
164.899994
 21
-66.300003
  0
LINE
  8
0
  6
CONTINUOUS
 62
7
 10
170.500000
 20
-85.699997
 11
164.899994
 21
-85.699997
  0
LINE
  8
0
  6
CONTINUOUS
 62
7
 10
164.899994
 20
-66.000000
 11
164.899994
 21
-86.000000
  0
LINE
  8
0
  6
CONTINUOUS
 62
7
 10
170.500000
 20
-85.699997
 11
170.500000
 21
-66.300003
  0
LINE
  8
0
  6
CONTINUOUS
 62
7
 10
183.000000
 20
-64.500000
 11
93.000000
 21
-64.500000
  0
LINE
  8
0
  6
CONTINUOUS
 62
7
 10
183.000000
 20
-80.500000
 11
170.500000
 21
-80.500000
  0
LINE
  8
0
  6
CENTER
 62
2
 10
168.000000
 20
-89.000000
 11
168.000000
 21
-79.000000
  0
LINE
  8
0
  6
CENTER
 62
2
 10
173.000000
 20
-84.000000
 11
163.000000
 21
-84.000000
  0
LINE
  8
0
  6
CONTINUOUS
 62
7
 10
93.000000
 20
-71.500000
 11
125.500000
 21
-71.500000
  0
LINE
  8
0
  6
CENTER
 62
2
 10
108.000000
 20
-63.000000
 11
108.000000
 21
-73.000000
  0
LINE
  8
0
  6
CENTER
 62
2
 10
103.000000
 20
-68.000000
 11
113.000000
 21
-68.000000
  0
LINE
  8
0
  6
CONTINUOUS
 62
7
 10
93.000000
 20
-87.500000
 11
93.000000
 21
-64.500000
  0
LINE
  8
0
  6
CONTINUOUS
 62
7
 10
93.000000
 20
-80.500000
 11
125.500000
 21
-80.500000
  0
LINE
  8
0
  6
CENTER
 62
2
 10
108.000000
 20
-89.000000
 11
108.000000
 21
-79.000000
  0
LINE
  8
0
  6
CENTER
 62
2
 10
103.000000
 20
-84.000000
 11
113.000000
 21
-84.000000
  0
LINE
  8
0
  6
CONTINUOUS
 62
7
 10
164.899994
 20
-106.000000
 11
131.100006
 21
-106.000000
  0
LINE
  8
0
  6
CONTINUOUS
 62
7
 10
170.500000
 20
-106.300003
 11
164.899994
 21
-106.300003
  0
LINE
  8
0
  6
CONTINUOUS
 62
7
 10
170.500000
 20
-113.800003
 11
166.500000
 21
-113.800003
  0
LINE
  8
0
  6
CONTINUOUS
 62
7
 10
170.500000
 20
-106.300003
 11
170.500000
 21
-108.000000
  0
LINE
  8
0
  6
CONTINUOUS
 62
7
 10
131.100006
 20
-106.300003
 11
125.500000
 21
-106.300003
  0
LINE
  8
0
  6
CONTINUOUS
 62
7
 10
125.500000
 20
-113.800003
 11
125.500000
 21
-106.300003
  0
LINE
  8
0
  6
CONTINUOUS
 62
7
 10
183.000000
 20
-110.500000
 11
171.750000
 21
-110.500000
  0
LINE
  8
0
  6
CONTINUOUS
 62
7
 10
125.500000
 20
-110.500000
 11
120.250000
 21
-110.500000
  0
LINE
  8
0
  6
CONTINUOUS
 62
7
 10
93.000000
 20
-110.500000
 11
93.000000
 21
-125.000000
  0
LINE
  8
0
  6
CONTINUOUS
 62
7
 10
183.000000
 20
-110.500000
 11
183.000000
 21
-125.000000
  0
LINE
  8
0
  6
CONTINUOUS
 62
7
 10
183.000000
 20
-125.000000
 11
93.000000
 21
-125.000000
  0
LINE
  8
0
  6
CONTINUOUS
 62
7
 10
93.000000
 20
-115.199997
 11
102.153000
 21
-115.199997
  0
LINE
  8
0
  6
CONTINUOUS
 62
7
 10
164.899994
 20
-106.000000
 11
164.899994
 21
-106.800003
  0
LINE
  8
0
  6
CONTINUOUS
 62
7
 10
131.100006
 20
-106.000000
 11
131.100006
 21
-113.800003
  0
LINE
  8
0
  6
CONTINUOUS
 62
7
 10
104.249001
 20
-118.500000
 11
113.500000
 21
-118.500000
  0
LINE
  8
0
  6
CENTER
 62
2
 10
99.000000
 20
-34.500000
 11
106.000000
 21
-34.500000
  0
LINE
  8
0
  6
CONTINUOUS
 62
7
 10
171.751007
 20
-118.500000
 11
162.500000
 21
-118.500000
  0
LINE
  8
0
  6
CENTER
 62
2
 10
102.000000
 20
-31.000000
 11
102.000000
 21
-38.000000
  0
LINE
  8
0
  6
CENTER
 62
2
 10
171.000000
 20
-34.500000
 11
178.000000
 21
-34.500000
  0
LINE
  8
0
  6
CENTER
 62
2
 10
174.000000
 20
-31.000000
 11
174.000000
 21
-38.000000
  0
LINE
  8
0
  6
CONTINUOUS
 62
7
 10
173.847000
 20
-115.199997
 11
183.000000
 21
-115.199997
  0
LINE
  8
0
  6
DASHED
 62
2
 10
111.000000
 20
-35.000000
 11
105.000000
 21
-35.000000
  0
LINE
  8
0
  6
CENTER
 62
2
 10
108.000000
 20
-38.500000
 11
108.000000
 21
-28.000000
  0
LINE
  8
0
  6
DASHED
 62
2
 10
111.000000
 20
-36.500000
 11
111.000000
 21
-35.000000
  0
LINE
  8
0
  6
DASHED
 62
2
 10
105.000000
 20
-36.500000
 11
105.000000
 21
-35.000000
  0
LINE
  8
0
  6
DASHED
 62
2
 10
106.250000
 20
-35.000000
 11
106.250000
 21
-30.000000
  0
LINE
  8
0
  6
DASHED
 62
2
 10
109.750000
 20
-35.000000
 11
109.750000
 21
-30.000000
  0
LINE
  8
0
  6
DASHED
 62
2
 10
106.000000
 20
-35.000000
 11
106.000000
 21
-30.000000
  0
LINE
  8
0
  6
DASHED
 62
2
 10
110.000000
 20
-35.000000
 11
110.000000
 21
-30.000000
  0
LINE
  8
0
  6
DASHED
 62
2
 10
171.000000
 20
-35.000000
 11
165.000000
 21
-35.000000
  0
LINE
  8
0
  6
CENTER
 62
2
 10
168.000000
 20
-38.500000
 11
168.000000
 21
-28.000000
  0
LINE
  8
0
  6
DASHED
 62
2
 10
171.000000
 20
-36.500000
 11
171.000000
 21
-35.000000
  0
LINE
  8
0
  6
DASHED
 62
2
 10
165.000000
 20
-36.500000
 11
165.000000
 21
-35.000000
  0
LINE
  8
0
  6
DASHED
 62
2
 10
166.250000
 20
-35.000000
 11
166.250000
 21
-30.000000
  0
LINE
  8
0
  6
DASHED
 62
2
 10
169.750000
 20
-35.000000
 11
169.750000
 21
-30.000000
  0
LINE
  8
0
  6
DASHED
 62
2
 10
166.000000
 20
-35.000000
 11
166.000000
 21
-30.000000
  0
LINE
  8
0
  6
DASHED
 62
2
 10
170.000000
 20
-35.000000
 11
170.000000
 21
-30.000000
  0
LINE
  8
0
  6
CENTER
 62
2
 10
140.000000
 20
-51.000000
 11
140.000000
 21
-47.000000
  0
LINE
  8
0
  6
CENTER
 62
2
 10
156.000000
 20
-51.000000
 11
156.000000
 21
-47.000000
  0
LINE
  8
0
  6
CENTER
 62
2
 10
140.000000
 20
-108.000000
 11
140.000000
 21
-104.000000
  0
LINE
  8
0
  6
CENTER
 62
2
 10
156.000000
 20
-108.000000
 11
156.000000
 21
-104.000000
  0
LINE
  8
0
  6
DASHED
 62
2
 10
166.000000
 20
-120.000000
 11
166.000000
 21
-125.000000
  0
LINE
  8
0
  6
DASHED
 62
2
 10
111.000000
 20
-120.000000
 11
105.000000
 21
-120.000000
  0
LINE
  8
0
  6
CENTER
 62
2
 10
108.000000
 20
-116.500000
 11
108.000000
 21
-127.000000
  0
LINE
  8
0
  6
DASHED
 62
2
 10
111.000000
 20
-118.500000
 11
111.000000
 21
-120.000000
  0
LINE
  8
0
  6
DASHED
 62
2
 10
105.000000
 20
-118.500000
 11
105.000000
 21
-120.000000
  0
LINE
  8
0
  6
DASHED
 62
2
 10
106.250000
 20
-120.000000
 11
106.250000
 21
-125.000000
  0
LINE
  8
0
  6
DASHED
 62
2
 10
109.750000
 20
-120.000000
 11
109.750000
 21
-125.000000
  0
LINE
  8
0
  6
DASHED
 62
2
 10
106.000000
 20
-120.000000
 11
106.000000
 21
-125.000000
  0
LINE
  8
0
  6
DASHED
 62
2
 10
110.000000
 20
-120.000000
 11
110.000000
 21
-125.000000
  0
LINE
  8
0
  6
DASHED
 62
2
 10
169.750000
 20
-120.000000
 11
169.750000
 21
-125.000000
  0
LINE
  8
0
  6
DASHED
 62
2
 10
170.000000
 20
-120.000000
 11
170.000000
 21
-125.000000
  0
LINE
  8
0
  6
DASHED
 62
2
 10
171.000000
 20
-120.000000
 11
165.000000
 21
-120.000000
  0
LINE
  8
0
  6
CENTER
 62
2
 10
168.000000
 20
-116.500000
 11
168.000000
 21
-127.000000
  0
LINE
  8
0
  6
DASHED
 62
2
 10
171.000000
 20
-118.500000
 11
171.000000
 21
-120.000000
  0
LINE
  8
0
  6
DASHED
 62
2
 10
165.000000
 20
-118.500000
 11
165.000000
 21
-120.000000
  0
LINE
  8
0
  6
DASHED
 62
2
 10
166.250000
 20
-120.000000
 11
166.250000
 21
-125.000000
  0
LINE
  8
0
  6
CONTINUOUS
 62
7
 10
-109.000000
 20
-137.000000
 11
-147.000000
 21
-137.000000
  0
LINE
  8
0
  6
CONTINUOUS
 62
7
 10
-105.000000
 20
-138.210999
 11
-109.000000
 21
-138.210999
  0
LINE
  8
0
  6
CONTINUOUS
 62
7
 10
-105.000000
 20
-143.789001
 11
-109.000000
 21
-143.789001
  0
LINE
  8
0
  6
CENTER
 62
2
 10
-145.084000
 20
-141.000000
 11
-159.468994
 21
-141.000000
  0
LINE
  8
0
  6
CONTINUOUS
 62
2
 10
-151.000000
 20
-138.899994
 11
-156.750000
 21
-138.899994
  0
LINE
  8
0
  6
CONTINUOUS
 62
2
 10
-151.000000
 20
-143.100006
 11
-156.750000
 21
-143.100006
  0
LINE
  8
0
  6
CONTINUOUS
 62
7
 10
-151.000000
 20
-143.500000
 11
-156.750000
 21
-143.500000
  0
LINE
  8
0
  6
CONTINUOUS
 62
7
 10
-156.750000
 20
-138.500000
 11
-156.750000
 21
-143.500000
  0
LINE
  8
0
  6
CONTINUOUS
 62
7
 10
-151.000000
 20
-138.500000
 11
-156.750000
 21
-138.500000
  0
LINE
  8
0
  6
CONTINUOUS
 62
7
 10
-147.000000
 20
-145.000000
 11
-147.000000
 21
-137.000000
  0
LINE
  8
0
  6
CONTINUOUS
 62
7
 10
-147.000000
 20
-144.500000
 11
-151.000000
 21
-144.500000
  0
LINE
  8
0
  6
CONTINUOUS
 62
7
 10
-147.000000
 20
-137.500000
 11
-151.000000
 21
-137.500000
  0
LINE
  8
0
  6
CONTINUOUS
 62
7
 10
-151.000000
 20
-144.500000
 11
-151.000000
 21
-137.500000
  0
LINE
  8
0
  6
CONTINUOUS
 62
7
 10
-151.000000
 20
-140.289001
 11
-147.000000
 21
-140.289001
  0
LINE
  8
0
  6
CONTINUOUS
 62
7
 10
-151.000000
 20
-141.710999
 11
-147.000000
 21
-141.710999
  0
LINE
  8
0
  6
CONTINUOUS
 62
7
 10
-151.000000
 20
-138.210999
 11
-147.000000
 21
-138.210999
  0
LINE
  8
0
  6
CONTINUOUS
 62
7
 10
-151.000000
 20
-143.789001
 11
-147.000000
 21
-143.789001
  0
LINE
  8
0
  6
CENTER
 62
2
 10
-110.882004
 20
-141.000000
 11
-96.531303
 21
-141.000000
  0
LINE
  8
0
  6
CONTINUOUS
 62
2
 10
-105.000000
 20
-138.899994
 11
-99.250000
 21
-138.899994
  0
LINE
  8
0
  6
CONTINUOUS
 62
2
 10
-105.000000
 20
-143.100006
 11
-99.250000
 21
-143.100006
  0
LINE
  8
0
  6
CONTINUOUS
 62
7
 10
-105.000000
 20
-143.500000
 11
-99.250000
 21
-143.500000
  0
LINE
  8
0
  6
CONTINUOUS
 62
7
 10
-99.250000
 20
-138.500000
 11
-99.250000
 21
-143.500000
  0
LINE
  8
0
  6
CONTINUOUS
 62
7
 10
-105.000000
 20
-138.500000
 11
-99.250000
 21
-138.500000
  0
LINE
  8
0
  6
CONTINUOUS
 62
7
 10
-109.000000
 20
-145.000000
 11
-109.000000
 21
-137.000000
  0
LINE
  8
0
  6
CONTINUOUS
 62
7
 10
-109.000000
 20
-144.500000
 11
-105.000000
 21
-144.500000
  0
LINE
  8
0
  6
CONTINUOUS
 62
7
 10
-109.000000
 20
-137.500000
 11
-105.000000
 21
-137.500000
  0
LINE
  8
0
  6
CONTINUOUS
 62
7
 10
-105.000000
 20
-144.500000
 11
-105.000000
 21
-137.500000
  0
LINE
  8
0
  6
CONTINUOUS
 62
7
 10
-105.000000
 20
-140.289001
 11
-109.000000
 21
-140.289001
  0
LINE
  8
0
  6
CONTINUOUS
 62
7
 10
-105.000000
 20
-141.710999
 11
-109.000000
 21
-141.710999
  0
LINE
  8
0
  6
CONTINUOUS
 62
7
 10
-99.250000
 20
-47.000000
 11
-99.250000
 21
-44.500000
  0
LINE
  8
0
  6
CONTINUOUS
 62
7
 10
-147.000000
 20
-44.500000
 11
-147.000000
 21
-48.500000
  0
LINE
  8
0
  6
CONTINUOUS
 62
7
 10
-147.000000
 20
-48.500000
 11
-142.500000
 21
-48.500000
  0
LINE
  8
0
  6
CONTINUOUS
 62
7
 10
-142.500000
 20
-44.500000
 11
-142.500000
 21
-48.500000
  0
LINE
  8
0
  6
CONTINUOUS
 62
2
 10
-151.000000
 20
-46.599998
 11
-156.750000
 21
-46.599998
  0
LINE
  8
0
  6
CONTINUOUS
 62
7
 10
-151.000000
 20
-44.500000
 11
-151.000000
 21
-48.200001
  0
LINE
  8
0
  6
CONTINUOUS
 62
7
 10
-151.000000
 20
-48.200001
 11
-147.000000
 21
-48.200001
  0
LINE
  8
0
  6
CONTINUOUS
 62
7
 10
-151.000000
 20
-45.700001
 11
-147.000000
 21
-45.700001
  0
LINE
  8
0
  6
CONTINUOUS
 62
7
 10
-147.000000
 20
-46.520699
 11
-151.000000
 21
-46.520699
  0
LINE
  8
0
  6
CONTINUOUS
 62
7
 10
-156.750000
 20
-47.000000
 11
-156.750000
 21
-44.500000
  0
LINE
  8
0
  6
CONTINUOUS
 62
7
 10
-151.000000
 20
-47.000000
 11
-156.750000
 21
-47.000000
  0
LINE
  8
0
  6
CONTINUOUS
 62
7
 10
-105.000000
 20
-47.000000
 11
-99.250000
 21
-47.000000
  0
LINE
  8
0
  6
CONTINUOUS
 62
2
 10
-105.000000
 20
-46.599998
 11
-99.250000
 21
-46.599998
  0
LINE
  8
0
  6
CONTINUOUS
 62
7
 10
-105.000000
 20
-44.500000
 11
-105.000000
 21
-48.200001
  0
LINE
  8
0
  6
CONTINUOUS
 62
7
 10
-105.000000
 20
-48.200001
 11
-107.500000
 21
-48.200001
  0
LINE
  8
0
  6
CONTINUOUS
 62
7
 10
-105.000000
 20
-45.700001
 11
-107.500000
 21
-45.700001
  0
LINE
  8
0
  6
CONTINUOUS
 62
7
 10
-107.500000
 20
-46.520699
 11
-105.000000
 21
-46.520699
  0
LINE
  8
0
  6
CONTINUOUS
 62
7
 10
-98.000000
 20
-87.500000
 11
-115.250000
 21
-87.500000
  0
LINE
  8
0
  6
CENTER
 62
2
 10
-116.352997
 20
-91.500000
 11
-96.531303
 21
-91.500000
  0
LINE
  8
0
  6
CONTINUOUS
 62
2
 10
-105.000000
 20
-89.400002
 11
-99.250000
 21
-89.400002
  0
LINE
  8
0
  6
CONTINUOUS
 62
2
 10
-105.000000
 20
-93.599998
 11
-99.250000
 21
-93.599998
  0
LINE
  8
0
  6
CONTINUOUS
 62
7
 10
-105.000000
 20
-94.000000
 11
-99.250000
 21
-94.000000
  0
LINE
  8
0
  6
CONTINUOUS
 62
7
 10
-99.250000
 20
-89.000000
 11
-99.250000
 21
-94.000000
  0
LINE
  8
0
  6
CONTINUOUS
 62
7
 10
-105.000000
 20
-89.000000
 11
-99.250000
 21
-89.000000
  0
LINE
  8
0
  6
CONTINUOUS
 62
7
 10
-109.000000
 20
-95.500000
 11
-147.000000
 21
-95.500000
  0
LINE
  8
0
  6
CONTINUOUS
 62
7
 10
-142.500000
 20
-95.500000
 11
-142.500000
 21
-87.500000
  0
LINE
  8
0
  6
CONTINUOUS
 62
7
 10
-113.500000
 20
-95.500000
 11
-113.500000
 21
-87.500000
  0
LINE
  8
0
  6
CONTINUOUS
 62
7
 10
-109.000000
 20
-95.500000
 11
-109.000000
 21
-87.500000
  0
LINE
  8
0
  6
CONTINUOUS
 62
7
 10
-115.250000
 20
-95.000000
 11
-130.750000
 21
-95.000000
  0
LINE
  8
0
  6
CONTINUOUS
 62
7
 10
-130.750000
 20
-95.000000
 11
-130.750000
 21
-86.000000
  0
LINE
  8
0
  6
CONTINUOUS
 62
7
 10
-115.250000
 20
-95.000000
 11
-115.250000
 21
-86.000000
  0
LINE
  8
0
  6
CONTINUOUS
 62
7
 10
-109.000000
 20
-95.000000
 11
-105.000000
 21
-95.000000
  0
LINE
  8
0
  6
CONTINUOUS
 62
7
 10
-109.000000
 20
-88.000000
 11
-105.000000
 21
-88.000000
  0
LINE
  8
0
  6
CONTINUOUS
 62
7
 10
-105.000000
 20
-95.000000
 11
-105.000000
 21
-88.000000
  0
LINE
  8
0
  6
CONTINUOUS
 62
7
 10
-105.000000
 20
-90.789200
 11
-109.000000
 21
-90.789200
  0
LINE
  8
0
  6
CONTINUOUS
 62
7
 10
-105.000000
 20
-92.210800
 11
-109.000000
 21
-92.210800
  0
LINE
  8
0
  6
CONTINUOUS
 62
7
 10
-105.000000
 20
-88.710800
 11
-109.000000
 21
-88.710800
  0
LINE
  8
0
  6
CONTINUOUS
 62
7
 10
-105.000000
 20
-94.289200
 11
-109.000000
 21
-94.289200
  0
LINE
  8
0
  6
CENTER
 62
2
 10
-139.647003
 20
-91.500000
 11
-159.468994
 21
-91.500000
  0
LINE
  8
0
  6
CONTINUOUS
 62
2
 10
-151.000000
 20
-89.400002
 11
-156.750000
 21
-89.400002
  0
LINE
  8
0
  6
CONTINUOUS
 62
2
 10
-151.000000
 20
-93.599998
 11
-156.750000
 21
-93.599998
  0
LINE
  8
0
  6
CONTINUOUS
 62
7
 10
-151.000000
 20
-94.000000
 11
-156.750000
 21
-94.000000
  0
LINE
  8
0
  6
CONTINUOUS
 62
7
 10
-156.750000
 20
-89.000000
 11
-156.750000
 21
-94.000000
  0
LINE
  8
0
  6
CONTINUOUS
 62
7
 10
-151.000000
 20
-89.000000
 11
-156.750000
 21
-89.000000
  0
LINE
  8
0
  6
CONTINUOUS
 62
7
 10
-147.000000
 20
-95.500000
 11
-147.000000
 21
-87.500000
  0
LINE
  8
0
  6
CONTINUOUS
 62
7
 10
-147.000000
 20
-95.000000
 11
-151.000000
 21
-95.000000
  0
LINE
  8
0
  6
CONTINUOUS
 62
7
 10
-147.000000
 20
-88.000000
 11
-151.000000
 21
-88.000000
  0
LINE
  8
0
  6
CONTINUOUS
 62
7
 10
-151.000000
 20
-95.000000
 11
-151.000000
 21
-88.000000
  0
LINE
  8
0
  6
CONTINUOUS
 62
7
 10
-151.000000
 20
-90.789200
 11
-147.000000
 21
-90.789200
  0
LINE
  8
0
  6
CONTINUOUS
 62
7
 10
-151.000000
 20
-92.210800
 11
-147.000000
 21
-92.210800
  0
LINE
  8
0
  6
CONTINUOUS
 62
7
 10
-151.000000
 20
-88.710800
 11
-147.000000
 21
-88.710800
  0
LINE
  8
0
  6
CONTINUOUS
 62
7
 10
-151.000000
 20
-94.289200
 11
-147.000000
 21
-94.289200
  0
LINE
  8
0
  6
CONTINUOUS
 62
7
 10
-130.750000
 20
-87.500000
 11
-158.000000
 21
-87.500000
  0
LINE
  8
0
  6
CONTINUOUS
 62
7
 10
-147.000000
 20
-124.500000
 11
-147.000000
 21
-106.500000
  0
LINE
  8
0
  6
CONTINUOUS
 62
7
 10
-147.000000
 20
-124.500000
 11
-109.000000
 21
-124.500000
  0
LINE
  8
0
  6
CONTINUOUS
 62
7
 10
-147.000000
 20
-106.500000
 11
-142.500000
 21
-106.500000
  0
LINE
  8
0
  6
CONTINUOUS
 62
7
 10
-142.500000
 20
-113.500000
 11
-142.500000
 21
-106.500000
  0
LINE
  8
0
  6
CONTINUOUS
 62
7
 10
-140.000000
 20
-116.000000
 11
-116.000000
 21
-116.000000
  0
LINE
  8
0
  6
CONTINUOUS
 62
7
 10
-113.500000
 20
-113.500000
 11
-113.500000
 21
-106.500000
  0
LINE
  8
0
  6
CONTINUOUS
 62
7
 10
-109.000000
 20
-106.500000
 11
-113.500000
 21
-106.500000
  0
LINE
  8
0
  6
CONTINUOUS
 62
7
 10
-109.000000
 20
-124.500000
 11
-109.000000
 21
-106.500000
  0
LINE
  8
0
  6
CONTINUOUS
 62
7
 10
-130.750000
 20
-114.500000
 11
-130.750000
 21
-106.500000
  0
LINE
  8
0
  6
CONTINUOUS
 62
7
 10
-130.750000
 20
-114.500000
 11
-115.250000
 21
-114.500000
  0
LINE
  8
0
  6
CONTINUOUS
 62
7
 10
-115.250000
 20
-114.500000
 11
-115.250000
 21
-106.500000
  0
LINE
  8
0
  6
CONTINUOUS
 62
7
 10
-130.750000
 20
-106.500000
 11
-115.250000
 21
-106.500000
  0
LINE
  8
0
  6
CONTINUOUS
 62
2
 10
-151.000000
 20
-112.599998
 11
-156.750000
 21
-112.599998
  0
LINE
  8
0
  6
CONTINUOUS
 62
7
 10
-151.000000
 20
-113.000000
 11
-156.750000
 21
-113.000000
  0
LINE
  8
0
  6
CONTINUOUS
 62
2
 10
-151.000000
 20
-108.400002
 11
-156.750000
 21
-108.400002
  0
LINE
  8
0
  6
CONTINUOUS
 62
7
 10
-151.000000
 20
-114.199997
 11
-151.000000
 21
-106.800003
  0
LINE
  8
0
  6
CONTINUOUS
 62
7
 10
-151.000000
 20
-114.199997
 11
-147.000000
 21
-114.199997
  0
LINE
  8
0
  6
CONTINUOUS
 62
7
 10
-151.000000
 20
-106.800003
 11
-147.000000
 21
-106.800003
  0
LINE
  8
0
  6
CONTINUOUS
 62
7
 10
-151.000000
 20
-112.521004
 11
-147.000000
 21
-112.521004
  0
LINE
  8
0
  6
CONTINUOUS
 62
7
 10
-147.000000
 20
-111.699997
 11
-151.000000
 21
-111.699997
  0
LINE
  8
0
  6
CONTINUOUS
 62
7
 10
-151.000000
 20
-109.300003
 11
-147.000000
 21
-109.300003
  0
LINE
  8
0
  6
CONTINUOUS
 62
7
 10
-147.000000
 20
-108.478996
 11
-151.000000
 21
-108.478996
  0
LINE
  8
0
  6
CONTINUOUS
 62
7
 10
-156.750000
 20
-108.000000
 11
-156.750000
 21
-113.000000
  0
LINE
  8
0
  6
CONTINUOUS
 62
7
 10
-151.000000
 20
-108.000000
 11
-156.750000
 21
-108.000000
  0
LINE
  8
0
  6
CONTINUOUS
 62
2
 10
-105.000000
 20
-108.400002
 11
-99.250000
 21
-108.400002
  0
LINE
  8
0
  6
CENTER
 62
2
 10
-116.352997
 20
-110.500000
 11
-96.531303
 21
-110.500000
  0
LINE
  8
0
  6
CONTINUOUS
 62
2
 10
-105.000000
 20
-112.599998
 11
-99.250000
 21
-112.599998
  0
LINE
  8
0
  6
CONTINUOUS
 62
7
 10
-105.000000
 20
-113.000000
 11
-99.250000
 21
-113.000000
  0
LINE
  8
0
  6
CONTINUOUS
 62
7
 10
-105.000000
 20
-114.199997
 11
-105.000000
 21
-106.800003
  0
LINE
  8
0
  6
CONTINUOUS
 62
7
 10
-105.000000
 20
-114.199997
 11
-109.000000
 21
-114.199997
  0
LINE
  8
0
  6
CONTINUOUS
 62
7
 10
-105.000000
 20
-112.521004
 11
-109.000000
 21
-112.521004
  0
LINE
  8
0
  6
CONTINUOUS
 62
7
 10
-109.000000
 20
-111.699997
 11
-105.000000
 21
-111.699997
  0
LINE
  8
0
  6
CONTINUOUS
 62
7
 10
-105.000000
 20
-109.300003
 11
-109.000000
 21
-109.300003
  0
LINE
  8
0
  6
CONTINUOUS
 62
7
 10
-109.000000
 20
-108.478996
 11
-105.000000
 21
-108.478996
  0
LINE
  8
0
  6
CONTINUOUS
 62
7
 10
-105.000000
 20
-106.800003
 11
-109.000000
 21
-106.800003
  0
LINE
  8
0
  6
CONTINUOUS
 62
7
 10
-105.000000
 20
-108.000000
 11
-99.250000
 21
-108.000000
  0
LINE
  8
0
  6
CONTINUOUS
 62
7
 10
-99.250000
 20
-108.000000
 11
-99.250000
 21
-113.000000
  0
LINE
  8
0
  6
CENTER
 62
2
 10
-139.647003
 20
-110.500000
 11
-159.468994
 21
-110.500000
  0
LINE
  8
0
  6
CONTINUOUS
 62
7
 10
-130.750000
 20
-113.800003
 11
-138.500000
 21
-113.800003
  0
LINE
  8
0
  6
CONTINUOUS
 62
7
 10
-113.517998
 20
-113.800003
 11
-115.250000
 21
-113.800003
  0
LINE
  8
0
  6
CONTINUOUS
 62
7
 10
-156.750000
 20
-110.500000
 11
-158.000000
 21
-110.500000
  0
LINE
  8
0
  6
CENTER
 62
2
 10
63.000000
 20
-105.513000
 11
63.000000
 21
-126.005997
  0
LINE
  8
0
  6
CONTINUOUS
 62
7
 10
67.500000
 20
-112.865997
 11
67.500000
 21
-115.199997
  0
LINE
  8
0
  6
CONTINUOUS
 62
7
 10
58.500000
 20
-112.865997
 11
58.500000
 21
-115.199997
  0
LINE
  8
0
  6
CONTINUOUS
 62
7
 10
73.000000
 20
-106.000000
 11
68.500000
 21
-106.000000
  0
LINE
  8
0
  6
CONTINUOUS
 62
7
 10
73.000000
 20
-106.000000
 11
73.000000
 21
-113.800003
  0
LINE
  8
0
  6
CONTINUOUS
 62
7
 10
73.000000
 20
-113.800003
 11
67.500000
 21
-113.800003
  0
LINE
  8
0
  6
CONTINUOUS
 62
7
 10
68.199997
 20
-106.300003
 11
57.799999
 21
-106.300003
  0
LINE
  8
0
  6
CONTINUOUS
 62
7
 10
58.500000
 20
-113.800003
 11
53.000000
 21
-113.800003
  0
LINE
  8
0
  6
CONTINUOUS
 62
7
 10
57.799999
 20
-106.300003
 11
57.500000
 21
-106.000000
  0
LINE
  8
0
  6
CONTINUOUS
 62
7
 10
68.200104
 20
-106.300003
 11
68.500099
 21
-106.000000
  0
LINE
  8
0
  6
CONTINUOUS
 62
7
 10
57.500000
 20
-106.000000
 11
53.000000
 21
-106.000000
  0
LINE
  8
0
  6
CONTINUOUS
 62
7
 10
67.500000
 20
-110.500000
 11
67.500000
 21
-111.134003
  0
LINE
  8
0
  6
CONTINUOUS
 62
7
 10
58.500000
 20
-110.500000
 11
67.500000
 21
-110.500000
  0
LINE
  8
0
  6
CONTINUOUS
 62
7
 10
58.500000
 20
-110.500000
 11
58.500000
 21
-111.134003
  0
LINE
  8
0
  6
CONTINUOUS
 62
7
 10
74.500000
 20
-125.000000
 11
51.500000
 21
-125.000000
  0
LINE
  8
0
  6
CONTINUOUS
 62
7
 10
51.500000
 20
-115.199997
 11
51.500000
 21
-125.000000
  0
LINE
  8
0
  6
CONTINUOUS
 62
7
 10
74.500000
 20
-106.500000
 11
74.500000
 21
-125.000000
  0
LINE
  8
0
  6
CONTINUOUS
 62
7
 10
51.500000
 20
-115.199997
 11
58.500000
 21
-115.199997
  0
LINE
  8
0
  6
CENTER
 62
2
 10
69.500000
 20
-118.500000
 11
56.500000
 21
-118.500000
  0
LINE
  8
0
  6
CONTINUOUS
 62
7
 10
74.500000
 20
-115.199997
 11
67.500000
 21
-115.199997
  0
LINE
  8
0
  6
CONTINUOUS
 62
7
 10
53.000000
 20
-106.000000
 11
53.000000
 21
-113.800003
  0
LINE
  8
0
  6
CENTER
 62
2
 10
71.000000
 20
-123.000000
 11
71.000000
 21
-127.000000
  0
LINE
  8
0
  6
CENTER
 62
2
 10
55.000000
 20
-123.000000
 11
55.000000
 21
-127.000000
  0
LINE
  8
0
  6
CENTER
 62
2
 10
55.500000
 20
-104.000000
 11
55.500000
 21
-108.000000
  0
LINE
  8
0
  6
CENTER
 62
2
 10
70.500000
 20
-104.000000
 11
70.500000
 21
-108.000000
  0
LINE
  8
0
  6
CONTINUOUS
 62
7
 10
78.500000
 20
-109.056999
 11
79.750000
 21
-109.778000
  0
LINE
  8
0
  6
CONTINUOUS
 62
7
 10
79.750000
 20
-109.778000
 11
79.750000
 21
-111.222000
  0
LINE
  8
0
  6
CONTINUOUS
 62
7
 10
78.500000
 20
-111.943001
 11
79.750000
 21
-111.222000
  0
LINE
  8
0
  6
CONTINUOUS
 62
7
 10
77.250000
 20
-111.222000
 11
78.500000
 21
-111.943001
  0
LINE
  8
0
  6
CONTINUOUS
 62
7
 10
77.250000
 20
-109.778000
 11
77.250000
 21
-111.222000
  0
LINE
  8
0
  6
CONTINUOUS
 62
7
 10
78.500000
 20
-109.056999
 11
77.250000
 21
-109.778000
  0
LINE
  8
0
  6
CONTINUOUS
 62
7
 10
77.789200
 20
-106.869003
 11
75.710800
 21
-108.069000
  0
LINE
  8
0
  6
CENTER
 62
2
 10
78.500000
 20
-105.500000
 11
78.500000
 21
-115.500000
  0
LINE
  8
0
  6
CENTER
 62
2
 10
83.000000
 20
-110.500000
 11
73.000000
 21
-110.500000
  0
LINE
  8
0
  6
CONTINUOUS
 62
7
 10
79.210701
 20
-106.869003
 11
81.289200
 21
-108.069000
  0
LINE
  8
0
  6
CONTINUOUS
 62
7
 10
82.000000
 20
-109.300003
 11
82.000000
 21
-111.699997
  0
LINE
  8
0
  6
CONTINUOUS
 62
7
 10
79.210800
 20
-114.130997
 11
81.289299
 21
-112.931000
  0
LINE
  8
0
  6
CONTINUOUS
 62
7
 10
75.710800
 20
-112.931000
 11
77.789200
 21
-114.130997
  0
LINE
  8
0
  6
CONTINUOUS
 62
7
 10
73.000000
 20
-106.500000
 11
82.500000
 21
-106.500000
  0
LINE
  8
0
  6
CONTINUOUS
 62
7
 10
74.500000
 20
-124.500000
 11
82.500000
 21
-124.500000
  0
LINE
  8
0
  6
CONTINUOUS
 62
7
 10
82.500000
 20
-106.500000
 11
82.500000
 21
-124.500000
  0
LINE
  8
0
  6
CONTINUOUS
 62
7
 10
75.000000
 20
-109.300003
 11
75.000000
 21
-111.699997
  0
LINE
  8
0
  6
CENTER
 62
2
 10
213.000000
 20
-105.513000
 11
213.000000
 21
-126.005997
  0
LINE
  8
0
  6
CONTINUOUS
 62
7
 10
208.500000
 20
-112.865997
 11
208.500000
 21
-115.199997
  0
LINE
  8
0
  6
CONTINUOUS
 62
7
 10
217.500000
 20
-112.865997
 11
217.500000
 21
-115.199997
  0
LINE
  8
0
  6
CONTINUOUS
 62
7
 10
203.000000
 20
-106.000000
 11
207.500000
 21
-106.000000
  0
LINE
  8
0
  6
CONTINUOUS
 62
7
 10
203.000000
 20
-106.000000
 11
203.000000
 21
-113.800003
  0
LINE
  8
0
  6
CONTINUOUS
 62
7
 10
203.000000
 20
-113.800003
 11
208.500000
 21
-113.800003
  0
LINE
  8
0
  6
CONTINUOUS
 62
7
 10
207.800003
 20
-106.300003
 11
218.199997
 21
-106.300003
  0
LINE
  8
0
  6
CONTINUOUS
 62
7
 10
217.500000
 20
-113.800003
 11
223.000000
 21
-113.800003
  0
LINE
  8
0
  6
CONTINUOUS
 62
7
 10
218.199997
 20
-106.300003
 11
218.500000
 21
-106.000000
  0
LINE
  8
0
  6
CONTINUOUS
 62
7
 10
207.800003
 20
-106.300003
 11
207.500000
 21
-106.000000
  0
LINE
  8
0
  6
CONTINUOUS
 62
7
 10
218.500000
 20
-106.000000
 11
223.000000
 21
-106.000000
  0
LINE
  8
0
  6
CONTINUOUS
 62
7
 10
208.500000
 20
-110.500000
 11
208.500000
 21
-111.134003
  0
LINE
  8
0
  6
CONTINUOUS
 62
7
 10
217.500000
 20
-110.500000
 11
208.500000
 21
-110.500000
  0
LINE
  8
0
  6
CONTINUOUS
 62
7
 10
217.500000
 20
-110.500000
 11
217.500000
 21
-111.134003
  0
LINE
  8
0
  6
CONTINUOUS
 62
7
 10
201.500000
 20
-125.000000
 11
224.500000
 21
-125.000000
  0
LINE
  8
0
  6
CONTINUOUS
 62
7
 10
224.500000
 20
-115.199997
 11
224.500000
 21
-125.000000
  0
LINE
  8
0
  6
CONTINUOUS
 62
7
 10
201.500000
 20
-106.500000
 11
201.500000
 21
-125.000000
  0
LINE
  8
0
  6
CONTINUOUS
 62
7
 10
224.500000
 20
-115.199997
 11
217.500000
 21
-115.199997
  0
LINE
  8
0
  6
CENTER
 62
2
 10
206.500000
 20
-118.500000
 11
219.500000
 21
-118.500000
  0
LINE
  8
0
  6
CONTINUOUS
 62
7
 10
201.500000
 20
-115.199997
 11
208.500000
 21
-115.199997
  0
LINE
  8
0
  6
CONTINUOUS
 62
7
 10
223.000000
 20
-106.000000
 11
223.000000
 21
-113.800003
  0
LINE
  8
0
  6
CENTER
 62
2
 10
205.000000
 20
-123.000000
 11
205.000000
 21
-127.000000
  0
LINE
  8
0
  6
CENTER
 62
2
 10
221.000000
 20
-123.000000
 11
221.000000
 21
-127.000000
  0
LINE
  8
0
  6
CENTER
 62
2
 10
220.500000
 20
-104.000000
 11
220.500000
 21
-108.000000
  0
LINE
  8
0
  6
CENTER
 62
2
 10
205.500000
 20
-104.000000
 11
205.500000
 21
-108.000000
  0
LINE
  8
0
  6
CONTINUOUS
 62
7
 10
197.500000
 20
-109.056999
 11
196.250000
 21
-109.778000
  0
LINE
  8
0
  6
CONTINUOUS
 62
7
 10
196.250000
 20
-109.778000
 11
196.250000
 21
-111.222000
  0
LINE
  8
0
  6
CONTINUOUS
 62
7
 10
197.500000
 20
-111.943001
 11
196.250000
 21
-111.222000
  0
LINE
  8
0
  6
CONTINUOUS
 62
7
 10
198.750000
 20
-111.222000
 11
197.500000
 21
-111.943001
  0
LINE
  8
0
  6
CONTINUOUS
 62
7
 10
198.750000
 20
-109.778000
 11
198.750000
 21
-111.222000
  0
LINE
  8
0
  6
CONTINUOUS
 62
7
 10
197.500000
 20
-109.056999
 11
198.750000
 21
-109.778000
  0
LINE
  8
0
  6
CONTINUOUS
 62
7
 10
198.210999
 20
-106.869003
 11
200.289001
 21
-108.069000
  0
LINE
  8
0
  6
CENTER
 62
2
 10
197.500000
 20
-105.500000
 11
197.500000
 21
-115.500000
  0
LINE
  8
0
  6
CENTER
 62
2
 10
193.000000
 20
-110.500000
 11
203.000000
 21
-110.500000
  0
LINE
  8
0
  6
CONTINUOUS
 62
7
 10
196.789001
 20
-106.869003
 11
194.710999
 21
-108.069000
  0
LINE
  8
0
  6
CONTINUOUS
 62
7
 10
194.000000
 20
-109.300003
 11
194.000000
 21
-111.699997
  0
LINE
  8
0
  6
CONTINUOUS
 62
7
 10
196.789001
 20
-114.130997
 11
194.710999
 21
-112.931000
  0
LINE
  8
0
  6
CONTINUOUS
 62
7
 10
200.289001
 20
-112.931000
 11
198.210999
 21
-114.130997
  0
LINE
  8
0
  6
CONTINUOUS
 62
7
 10
203.000000
 20
-106.500000
 11
193.500000
 21
-106.500000
  0
LINE
  8
0
  6
CONTINUOUS
 62
7
 10
201.500000
 20
-124.500000
 11
193.500000
 21
-124.500000
  0
LINE
  8
0
  6
CONTINUOUS
 62
7
 10
193.500000
 20
-106.500000
 11
193.500000
 21
-124.500000
  0
LINE
  8
0
  6
CONTINUOUS
 62
7
 10
201.000000
 20
-109.300003
 11
201.000000
 21
-111.699997
  0
LINE
  8
0
  6
CENTER
 62
2
 10
115.916000
 20
-141.000000
 11
101.530998
 21
-141.000000
  0
LINE
  8
0
  6
CONTINUOUS
 62
2
 10
109.500000
 20
-138.899994
 11
104.250000
 21
-138.899994
  0
LINE
  8
0
  6
CONTINUOUS
 62
2
 10
109.500000
 20
-143.100006
 11
104.250000
 21
-143.100006
  0
LINE
  8
0
  6
CONTINUOUS
 62
7
 10
109.500000
 20
-143.500000
 11
104.250000
 21
-143.500000
  0
LINE
  8
0
  6
CONTINUOUS
 62
7
 10
104.250000
 20
-138.500000
 11
104.250000
 21
-143.500000
  0
LINE
  8
0
  6
CONTINUOUS
 62
7
 10
109.500000
 20
-138.500000
 11
104.250000
 21
-138.500000
  0
LINE
  8
0
  6
CONTINUOUS
 62
7
 10
113.500000
 20
-145.000000
 11
113.500000
 21
-137.000000
  0
LINE
  8
0
  6
CONTINUOUS
 62
7
 10
113.500000
 20
-144.500000
 11
109.500000
 21
-144.500000
  0
LINE
  8
0
  6
CONTINUOUS
 62
7
 10
113.500000
 20
-137.500000
 11
109.500000
 21
-137.500000
  0
LINE
  8
0
  6
CONTINUOUS
 62
7
 10
109.500000
 20
-144.500000
 11
109.500000
 21
-137.500000
  0
LINE
  8
0
  6
CONTINUOUS
 62
7
 10
109.500000
 20
-140.289001
 11
113.500000
 21
-140.289001
  0
LINE
  8
0
  6
CONTINUOUS
 62
7
 10
109.500000
 20
-141.710999
 11
113.500000
 21
-141.710999
  0
LINE
  8
0
  6
CONTINUOUS
 62
7
 10
109.500000
 20
-138.210999
 11
113.500000
 21
-138.210999
  0
LINE
  8
0
  6
CONTINUOUS
 62
7
 10
109.500000
 20
-143.789001
 11
113.500000
 21
-143.789001
  0
LINE
  8
0
  6
CENTER
 62
2
 10
160.117996
 20
-141.000000
 11
174.468994
 21
-141.000000
  0
LINE
  8
0
  6
CONTINUOUS
 62
2
 10
166.500000
 20
-138.899994
 11
171.750000
 21
-138.899994
  0
LINE
  8
0
  6
CONTINUOUS
 62
2
 10
166.500000
 20
-143.100006
 11
171.750000
 21
-143.100006
  0
LINE
  8
0
  6
CONTINUOUS
 62
7
 10
166.500000
 20
-143.500000
 11
171.750000
 21
-143.500000
  0
LINE
  8
0
  6
CONTINUOUS
 62
7
 10
171.750000
 20
-138.500000
 11
171.750000
 21
-143.500000
  0
LINE
  8
0
  6
CONTINUOUS
 62
7
 10
166.500000
 20
-138.500000
 11
171.750000
 21
-138.500000
  0
LINE
  8
0
  6
CONTINUOUS
 62
7
 10
162.500000
 20
-145.000000
 11
162.500000
 21
-137.000000
  0
LINE
  8
0
  6
CONTINUOUS
 62
7
 10
162.500000
 20
-144.500000
 11
166.500000
 21
-144.500000
  0
LINE
  8
0
  6
CONTINUOUS
 62
7
 10
162.500000
 20
-137.500000
 11
166.500000
 21
-137.500000
  0
LINE
  8
0
  6
CONTINUOUS
 62
7
 10
166.500000
 20
-144.500000
 11
166.500000
 21
-137.500000
  0
LINE
  8
0
  6
CONTINUOUS
 62
7
 10
166.500000
 20
-140.289001
 11
162.500000
 21
-140.289001
  0
LINE
  8
0
  6
CONTINUOUS
 62
7
 10
166.500000
 20
-141.710999
 11
162.500000
 21
-141.710999
  0
LINE
  8
0
  6
CONTINUOUS
 62
7
 10
166.384995
 20
-138.210999
 11
162.500000
 21
-138.210999
  0
LINE
  8
0
  6
CONTINUOUS
 62
7
 10
166.500000
 20
-143.789001
 11
162.500000
 21
-143.789001
  0
LINE
  8
0
  6
CONTINUOUS
 62
7
 10
162.500000
 20
-137.000000
 11
113.500000
 21
-137.000000
  0
LINE
  8
0
  6
CONTINUOUS
 62
7
 10
104.250000
 20
-47.000000
 11
104.250000
 21
-44.500000
  0
LINE
  8
0
  6
CONTINUOUS
 62
7
 10
113.500000
 20
-44.500000
 11
113.500000
 21
-48.500000
  0
LINE
  8
0
  6
CONTINUOUS
 62
7
 10
113.500000
 20
-48.500000
 11
118.500000
 21
-48.500000
  0
LINE
  8
0
  6
CONTINUOUS
 62
7
 10
118.500000
 20
-44.500000
 11
118.500000
 21
-48.500000
  0
LINE
  8
0
  6
CONTINUOUS
 62
2
 10
109.500000
 20
-46.599998
 11
104.250000
 21
-46.599998
  0
LINE
  8
0
  6
CONTINUOUS
 62
7
 10
109.500000
 20
-44.500000
 11
109.500000
 21
-48.200001
  0
LINE
  8
0
  6
CONTINUOUS
 62
7
 10
109.500000
 20
-48.200001
 11
113.500000
 21
-48.200001
  0
LINE
  8
0
  6
CONTINUOUS
 62
7
 10
109.500000
 20
-45.700001
 11
113.500000
 21
-45.700001
  0
LINE
  8
0
  6
CONTINUOUS
 62
7
 10
113.500000
 20
-46.520699
 11
109.500000
 21
-46.520699
  0
LINE
  8
0
  6
CONTINUOUS
 62
7
 10
109.500000
 20
-47.000000
 11
104.250000
 21
-47.000000
  0
LINE
  8
0
  6
CONTINUOUS
 62
7
 10
170.500000
 20
-47.000000
 11
171.750000
 21
-47.000000
  0
LINE
  8
0
  6
CONTINUOUS
 62
7
 10
171.750000
 20
-47.000000
 11
171.750000
 21
-44.500000
  0
LINE
  8
0
  6
CONTINUOUS
 62
2
 10
170.500000
 20
-46.599998
 11
171.750000
 21
-46.599998
  0
LINE
  8
0
  6
CONTINUOUS
 62
7
 10
183.000000
 20
-87.500000
 11
155.750000
 21
-87.500000
  0
LINE
  8
0
  6
CONTINUOUS
 62
7
 10
162.500000
 20
-88.000000
 11
166.500000
 21
-88.000000
  0
LINE
  8
0
  6
CENTER
 62
2
 10
154.647003
 20
-91.500000
 11
174.468994
 21
-91.500000
  0
LINE
  8
0
  6
CONTINUOUS
 62
2
 10
166.500000
 20
-89.400002
 11
171.750000
 21
-89.400002
  0
LINE
  8
0
  6
CONTINUOUS
 62
2
 10
166.500000
 20
-93.599998
 11
171.750000
 21
-93.599998
  0
LINE
  8
0
  6
CONTINUOUS
 62
7
 10
166.500000
 20
-94.000000
 11
171.750000
 21
-94.000000
  0
LINE
  8
0
  6
CONTINUOUS
 62
7
 10
171.750000
 20
-89.000000
 11
171.750000
 21
-94.000000
  0
LINE
  8
0
  6
CONTINUOUS
 62
7
 10
166.500000
 20
-89.000000
 11
171.750000
 21
-89.000000
  0
LINE
  8
0
  6
CONTINUOUS
 62
7
 10
162.500000
 20
-95.500000
 11
113.500000
 21
-95.500000
  0
LINE
  8
0
  6
CONTINUOUS
 62
7
 10
157.500000
 20
-95.500000
 11
157.500000
 21
-87.500000
  0
LINE
  8
0
  6
CONTINUOUS
 62
7
 10
162.500000
 20
-95.500000
 11
162.500000
 21
-87.500000
  0
LINE
  8
0
  6
CONTINUOUS
 62
7
 10
155.750000
 20
-95.000000
 11
140.250000
 21
-95.000000
  0
LINE
  8
0
  6
CONTINUOUS
 62
7
 10
140.250000
 20
-95.000000
 11
140.250000
 21
-86.000000
  0
LINE
  8
0
  6
CONTINUOUS
 62
7
 10
155.750000
 20
-95.000000
 11
155.750000
 21
-86.000000
  0
LINE
  8
0
  6
CONTINUOUS
 62
7
 10
162.500000
 20
-95.000000
 11
166.500000
 21
-95.000000
  0
LINE
  8
0
  6
CONTINUOUS
 62
7
 10
166.500000
 20
-95.000000
 11
166.500000
 21
-88.000000
  0
LINE
  8
0
  6
CONTINUOUS
 62
7
 10
166.500000
 20
-90.789200
 11
162.500000
 21
-90.789200
  0
LINE
  8
0
  6
CONTINUOUS
 62
7
 10
166.500000
 20
-92.210800
 11
162.500000
 21
-92.210800
  0
LINE
  8
0
  6
CONTINUOUS
 62
7
 10
166.500000
 20
-88.710800
 11
162.500000
 21
-88.710800
  0
LINE
  8
0
  6
CONTINUOUS
 62
7
 10
166.500000
 20
-94.289200
 11
162.500000
 21
-94.289200
  0
LINE
  8
0
  6
CONTINUOUS
 62
7
 10
140.250000
 20
-87.500000
 11
93.000000
 21
-87.500000
  0
LINE
  8
0
  6
CONTINUOUS
 62
7
 10
113.500000
 20
-88.000000
 11
109.500000
 21
-88.000000
  0
LINE
  8
0
  6
CENTER
 62
2
 10
121.352997
 20
-91.500000
 11
101.530998
 21
-91.500000
  0
LINE
  8
0
  6
CONTINUOUS
 62
2
 10
109.500000
 20
-89.400002
 11
104.250000
 21
-89.400002
  0
LINE
  8
0
  6
CONTINUOUS
 62
2
 10
109.500000
 20
-93.599998
 11
104.250000
 21
-93.599998
  0
LINE
  8
0
  6
CONTINUOUS
 62
7
 10
109.500000
 20
-94.000000
 11
104.250000
 21
-94.000000
  0
LINE
  8
0
  6
CONTINUOUS
 62
7
 10
104.250000
 20
-89.000000
 11
104.250000
 21
-94.000000
  0
LINE
  8
0
  6
CONTINUOUS
 62
7
 10
109.500000
 20
-89.000000
 11
104.250000
 21
-89.000000
  0
LINE
  8
0
  6
CONTINUOUS
 62
7
 10
118.500000
 20
-95.500000
 11
118.500000
 21
-87.500000
  0
LINE
  8
0
  6
CONTINUOUS
 62
7
 10
113.500000
 20
-95.500000
 11
113.500000
 21
-87.500000
  0
LINE
  8
0
  6
CONTINUOUS
 62
7
 10
113.500000
 20
-95.000000
 11
109.500000
 21
-95.000000
  0
LINE
  8
0
  6
CONTINUOUS
 62
7
 10
109.500000
 20
-95.000000
 11
109.500000
 21
-88.000000
  0
LINE
  8
0
  6
CONTINUOUS
 62
7
 10
109.500000
 20
-90.789200
 11
113.500000
 21
-90.789200
  0
LINE
  8
0
  6
CONTINUOUS
 62
7
 10
109.500000
 20
-92.210800
 11
113.500000
 21
-92.210800
  0
LINE
  8
0
  6
CONTINUOUS
 62
7
 10
109.500000
 20
-88.710800
 11
113.500000
 21
-88.710800
  0
LINE
  8
0
  6
CONTINUOUS
 62
7
 10
109.500000
 20
-94.289200
 11
113.500000
 21
-94.289200
  0
LINE
  8
0
  6
CONTINUOUS
 62
7
 10
170.500000
 20
-113.000000
 11
169.500000
 21
-113.000000
  0
LINE
  8
0
  6
CONTINUOUS
 62
7
 10
140.250000
 20
-114.500000
 11
140.250000
 21
-106.500000
  0
LINE
  8
0
  6
CONTINUOUS
 62
7
 10
140.250000
 20
-114.500000
 11
155.750000
 21
-114.500000
  0
LINE
  8
0
  6
CONTINUOUS
 62
7
 10
140.250000
 20
-106.500000
 11
155.750000
 21
-106.500000
  0
LINE
  8
0
  6
CONTINUOUS
 62
7
 10
157.500000
 20
-106.500000
 11
162.500000
 21
-106.500000
  0
LINE
  8
0
  6
CONTINUOUS
 62
7
 10
155.750000
 20
-114.500000
 11
155.750000
 21
-106.500000
  0
LINE
  8
0
  6
CONTINUOUS
 62
7
 10
113.500000
 20
-124.500000
 11
113.500000
 21
-106.500000
  0
LINE
  8
0
  6
CONTINUOUS
 62
7
 10
113.500000
 20
-124.500000
 11
162.500000
 21
-124.500000
  0
LINE
  8
0
  6
CONTINUOUS
 62
7
 10
113.500000
 20
-106.500000
 11
118.500000
 21
-106.500000
  0
LINE
  8
0
  6
CONTINUOUS
 62
7
 10
118.500000
 20
-113.500000
 11
118.500000
 21
-106.500000
  0
LINE
  8
0
  6
CONTINUOUS
 62
7
 10
121.000000
 20
-116.000000
 11
155.000000
 21
-116.000000
  0
LINE
  8
0
  6
CONTINUOUS
 62
7
 10
157.500000
 20
-113.500000
 11
157.500000
 21
-106.500000
  0
LINE
  8
0
  6
CONTINUOUS
 62
7
 10
162.500000
 20
-106.500000
 11
157.500000
 21
-106.500000
  0
LINE
  8
0
  6
CONTINUOUS
 62
7
 10
162.500000
 20
-124.500000
 11
162.500000
 21
-106.500000
  0
LINE
  8
0
  6
CONTINUOUS
 62
2
 10
109.500000
 20
-112.599998
 11
104.250000
 21
-112.599998
  0
LINE
  8
0
  6
CONTINUOUS
 62
7
 10
109.500000
 20
-113.000000
 11
104.250000
 21
-113.000000
  0
LINE
  8
0
  6
CONTINUOUS
 62
2
 10
109.500000
 20
-108.400002
 11
104.250000
 21
-108.400002
  0
LINE
  8
0
  6
CONTINUOUS
 62
7
 10
109.500000
 20
-114.199997
 11
109.500000
 21
-106.800003
  0
LINE
  8
0
  6
CONTINUOUS
 62
7
 10
109.500000
 20
-114.199997
 11
113.500000
 21
-114.199997
  0
LINE
  8
0
  6
CONTINUOUS
 62
7
 10
109.500000
 20
-106.800003
 11
113.500000
 21
-106.800003
  0
LINE
  8
0
  6
CONTINUOUS
 62
7
 10
109.500000
 20
-112.521004
 11
113.500000
 21
-112.521004
  0
LINE
  8
0
  6
CONTINUOUS
 62
7
 10
113.500000
 20
-111.699997
 11
109.500000
 21
-111.699997
  0
LINE
  8
0
  6
CONTINUOUS
 62
7
 10
109.500000
 20
-109.300003
 11
113.500000
 21
-109.300003
  0
LINE
  8
0
  6
CONTINUOUS
 62
7
 10
113.500000
 20
-108.478996
 11
109.500000
 21
-108.478996
  0
LINE
  8
0
  6
CONTINUOUS
 62
7
 10
109.500000
 20
-108.000000
 11
104.250000
 21
-108.000000
  0
LINE
  8
0
  6
CENTER
 62
2
 10
121.352997
 20
-110.500000
 11
100.835999
 21
-110.500000
  0
LINE
  8
0
  6
CONTINUOUS
 62
7
 10
104.250000
 20
-108.000000
 11
104.250000
 21
-113.000000
  0
LINE
  8
0
  6
CONTINUOUS
 62
7
 10
171.750000
 20
-108.000000
 11
171.750000
 21
-113.000000
  0
LINE
  8
0
  6
CONTINUOUS
 62
2
 10
166.500000
 20
-112.599998
 11
171.750000
 21
-112.599998
  0
LINE
  8
0
  6
CONTINUOUS
 62
7
 10
166.500000
 20
-113.000000
 11
171.750000
 21
-113.000000
  0
LINE
  8
0
  6
CONTINUOUS
 62
2
 10
166.500000
 20
-108.400002
 11
171.750000
 21
-108.400002
  0
LINE
  8
0
  6
CONTINUOUS
 62
7
 10
166.500000
 20
-114.199997
 11
166.500000
 21
-106.800003
  0
LINE
  8
0
  6
CONTINUOUS
 62
7
 10
166.500000
 20
-114.199997
 11
162.500000
 21
-114.199997
  0
LINE
  8
0
  6
CONTINUOUS
 62
7
 10
166.500000
 20
-106.800003
 11
162.500000
 21
-106.800003
  0
LINE
  8
0
  6
CONTINUOUS
 62
7
 10
166.500000
 20
-112.521004
 11
162.500000
 21
-112.521004
  0
LINE
  8
0
  6
CONTINUOUS
 62
7
 10
162.500000
 20
-111.699997
 11
166.500000
 21
-111.699997
  0
LINE
  8
0
  6
CONTINUOUS
 62
7
 10
166.500000
 20
-109.300003
 11
162.500000
 21
-109.300003
  0
LINE
  8
0
  6
CONTINUOUS
 62
7
 10
162.500000
 20
-108.478996
 11
166.500000
 21
-108.478996
  0
LINE
  8
0
  6
CONTINUOUS
 62
7
 10
166.500000
 20
-108.000000
 11
171.750000
 21
-108.000000
  0
LINE
  8
0
  6
CENTER
 62
2
 10
154.647003
 20
-110.500000
 11
175.164001
 21
-110.500000
  0
LINE
  8
0
  6
CONTINUOUS
 62
7
 10
104.250000
 20
-110.500000
 11
93.000000
 21
-110.500000
  0
LINE
  8
0
  6
CONTINUOUS
 62
7
 10
140.250000
 20
-113.800003
 11
125.500000
 21
-113.800003
  0
LINE
  8
0
  6
CONTINUOUS
 62
7
 10
170.500000
 20
-113.000000
 11
170.500000
 21
-113.800003
  0
LINE
  8
0
  6
CONTINUOUS
 62
7
 10
157.481995
 20
-113.800003
 11
155.750000
 21
-113.800003
  0
LINE
  8
0
  6
CONTINUOUS
 62
7
 10
-113.099998
 20
73.000000
 11
-132.899994
 21
73.000000
  0
LINE
  8
0
  6
CONTINUOUS
 62
7
 10
-107.500000
 20
72.699997
 11
-113.099998
 21
72.699997
  0
LINE
  8
0
  6
CONTINUOUS
 62
7
 10
-107.500000
 20
65.199997
 11
-138.500000
 21
65.199997
  0
LINE
  8
0
  6
CONTINUOUS
 62
7
 10
-107.500000
 20
72.699997
 11
-107.500000
 21
65.199997
  0
LINE
  8
0
  6
CONTINUOUS
 62
7
 10
-132.899994
 20
72.699997
 11
-138.500000
 21
72.699997
  0
LINE
  8
0
  6
CONTINUOUS
 62
7
 10
-138.500000
 20
65.199997
 11
-138.500000
 21
72.699997
  0
LINE
  8
0
  6
CONTINUOUS
 62
7
 10
-98.000000
 20
68.500000
 11
-107.500000
 21
68.500000
  0
LINE
  8
0
  6
CONTINUOUS
 62
7
 10
-138.500000
 20
68.500000
 11
-158.000000
 21
68.500000
  0
LINE
  8
0
  6
CONTINUOUS
 62
7
 10
-158.000000
 20
68.500000
 11
-158.000000
 21
54.000000
  0
LINE
  8
0
  6
CONTINUOUS
 62
7
 10
-98.000000
 20
68.500000
 11
-98.000000
 21
54.000000
  0
LINE
  8
0
  6
CONTINUOUS
 62
7
 10
-98.000000
 20
54.000000
 11
-158.000000
 21
54.000000
  0
LINE
  8
0
  6
CONTINUOUS
 62
7
 10
-158.000000
 20
63.799999
 11
-149.847000
 21
63.799999
  0
LINE
  8
0
  6
CONTINUOUS
 62
7
 10
-113.099998
 20
73.000000
 11
-113.099998
 21
65.199997
  0
LINE
  8
0
  6
CONTINUOUS
 62
7
 10
-132.899994
 20
73.000000
 11
-132.899994
 21
65.199997
  0
LINE
  8
0
  6
CONTINUOUS
 62
7
 10
-108.249001
 20
60.500000
 11
-117.500000
 21
60.500000
  0
LINE
  8
0
  6
CONTINUOUS
 62
7
 10
-98.000000
 20
63.799999
 11
-106.153000
 21
63.799999
  0
LINE
  8
0
  6
CENTER
 62
2
 10
-142.000000
 20
57.500000
 11
-135.000000
 21
57.500000
  0
LINE
  8
0
  6
CENTER
 62
2
 10
-138.500000
 20
54.000000
 11
-138.500000
 21
61.000000
  0
LINE
  8
0
  6
CENTER
 62
2
 10
-121.000000
 20
57.500000
 11
-114.000000
 21
57.500000
  0
LINE
  8
0
  6
CENTER
 62
2
 10
-117.500000
 20
54.000000
 11
-117.500000
 21
61.000000
  0
LINE
  8
0
  6
CONTINUOUS
 62
7
 10
-136.841995
 20
60.000000
 11
-119.157997
 21
60.000000
  0
LINE
  8
0
  6
CONTINUOUS
 62
7
 10
-147.751007
 20
60.500000
 11
-138.500000
 21
60.500000
  0
LINE
  8
0
  6
CENTER
 62
2
 10
-127.800003
 20
71.449997
 11
-127.800003
 21
67.949997
  0
LINE
  8
0
  6
CENTER
 62
2
 10
-129.550003
 20
69.699997
 11
-126.050003
 21
69.699997
  0
LINE
  8
0
  6
CENTER
 62
2
 10
-118.199997
 20
71.449997
 11
-118.199997
 21
67.949997
  0
LINE
  8
0
  6
CENTER
 62
2
 10
-119.949997
 20
69.699997
 11
-116.449997
 21
69.699997
  0
LINE
  8
0
  6
DASHED
 62
2
 10
-109.000000
 20
60.500000
 11
-109.000000
 21
59.000000
  0
LINE
  8
0
  6
DASHED
 62
2
 10
-115.000000
 20
60.500000
 11
-115.000000
 21
59.000000
  0
LINE
  8
0
  6
DASHED
 62
2
 10
-113.750000
 20
59.000000
 11
-113.750000
 21
54.000000
  0
LINE
  8
0
  6
DASHED
 62
2
 10
-110.250000
 20
59.000000
 11
-110.250000
 21
54.000000
  0
LINE
  8
0
  6
DASHED
 62
2
 10
-114.000000
 20
59.000000
 11
-114.000000
 21
54.000000
  0
LINE
  8
0
  6
DASHED
 62
2
 10
-110.000000
 20
59.000000
 11
-110.000000
 21
54.000000
  0
LINE
  8
0
  6
DASHED
 62
2
 10
-109.000000
 20
59.000000
 11
-115.000000
 21
59.000000
  0
LINE
  8
0
  6
CENTER
 62
2
 10
-112.000000
 20
62.500000
 11
-112.000000
 21
52.000000
  0
LINE
  8
0
  6
CENTER
 62
2
 10
-144.000000
 20
62.500000
 11
-144.000000
 21
52.000000
  0
LINE
  8
0
  6
DASHED
 62
2
 10
-141.000000
 20
60.500000
 11
-141.000000
 21
59.000000
  0
LINE
  8
0
  6
DASHED
 62
2
 10
-147.000000
 20
60.500000
 11
-147.000000
 21
59.000000
  0
LINE
  8
0
  6
DASHED
 62
2
 10
-145.750000
 20
59.000000
 11
-145.750000
 21
54.000000
  0
LINE
  8
0
  6
DASHED
 62
2
 10
-142.250000
 20
59.000000
 11
-142.250000
 21
54.000000
  0
LINE
  8
0
  6
DASHED
 62
2
 10
-146.000000
 20
59.000000
 11
-146.000000
 21
54.000000
  0
LINE
  8
0
  6
DASHED
 62
2
 10
-142.000000
 20
59.000000
 11
-142.000000
 21
54.000000
  0
LINE
  8
0
  6
DASHED
 62
2
 10
-141.000000
 20
59.000000
 11
-147.000000
 21
59.000000
  0
LINE
  8
0
  6
CONTINUOUS
 62
7
 10
-113.099998
 20
93.000000
 11
-132.899994
 21
93.000000
  0
LINE
  8
0
  6
CONTINUOUS
 62
7
 10
-113.099998
 20
108.000000
 11
-132.899994
 21
108.000000
  0
LINE
  8
0
  6
CONTINUOUS
 62
7
 10
-113.099998
 20
98.000000
 11
-132.899994
 21
98.000000
  0
LINE
  8
0
  6
CONTINUOUS
 62
7
 10
-107.500000
 20
93.300003
 11
-113.099998
 21
93.300003
  0
LINE
  8
0
  6
CONTINUOUS
 62
7
 10
-132.899994
 20
93.300003
 11
-138.500000
 21
93.300003
  0
LINE
  8
0
  6
CENTER
 62
2
 10
-96.428902
 20
103.000000
 11
-160.061996
 21
103.000000
  0
LINE
  8
0
  6
CONTINUOUS
 62
7
 10
-98.000000
 20
114.500000
 11
-98.000000
 21
91.500000
  0
LINE
  8
0
  6
CONTINUOUS
 62
7
 10
-158.000000
 20
114.500000
 11
-158.000000
 21
91.500000
  0
LINE
  8
0
  6
CONTINUOUS
 62
7
 10
-98.000000
 20
91.500000
 11
-158.000000
 21
91.500000
  0
LINE
  8
0
  6
CONTINUOUS
 62
7
 10
-98.000000
 20
98.500000
 11
-107.500000
 21
98.500000
  0
LINE
  8
0
  6
CONTINUOUS
 62
7
 10
-98.000000
 20
107.500000
 11
-107.500000
 21
107.500000
  0
LINE
  8
0
  6
CONTINUOUS
 62
7
 10
-138.500000
 20
107.500000
 11
-158.000000
 21
107.500000
  0
LINE
  8
0
  6
CONTINUOUS
 62
7
 10
-138.500000
 20
98.500000
 11
-158.000000
 21
98.500000
  0
LINE
  8
0
  6
CENTER
 62
2
 10
-119.000000
 20
95.500000
 11
-112.000000
 21
95.500000
  0
LINE
  8
0
  6
CENTER
 62
2
 10
-115.500000
 20
92.000000
 11
-115.500000
 21
99.000000
  0
LINE
  8
0
  6
CONTINUOUS
 62
7
 10
-113.099998
 20
113.000000
 11
-132.899994
 21
113.000000
  0
LINE
  8
0
  6
CONTINUOUS
 62
7
 10
-107.500000
 20
112.699997
 11
-107.500000
 21
93.300003
  0
LINE
  8
0
  6
CONTINUOUS
 62
7
 10
-107.500000
 20
112.699997
 11
-113.099998
 21
112.699997
  0
LINE
  8
0
  6
CONTINUOUS
 62
7
 10
-132.899994
 20
112.699997
 11
-138.500000
 21
112.699997
  0
LINE
  8
0
  6
CONTINUOUS
 62
7
 10
-113.099998
 20
93.000000
 11
-113.099998
 21
113.000000
  0
LINE
  8
0
  6
CONTINUOUS
 62
7
 10
-132.899994
 20
93.000000
 11
-132.899994
 21
113.000000
  0
LINE
  8
0
  6
CENTER
 62
2
 10
-134.000000
 20
95.500000
 11
-127.000000
 21
95.500000
  0
LINE
  8
0
  6
CENTER
 62
2
 10
-130.500000
 20
92.000000
 11
-130.500000
 21
99.000000
  0
LINE
  8
0
  6
CENTER
 62
2
 10
-134.000000
 20
110.500000
 11
-127.000000
 21
110.500000
  0
LINE
  8
0
  6
CENTER
 62
2
 10
-119.000000
 20
110.500000
 11
-112.000000
 21
110.500000
  0
LINE
  8
0
  6
CENTER
 62
2
 10
-115.500000
 20
114.000000
 11
-115.500000
 21
107.000000
  0
LINE
  8
0
  6
CENTER
 62
2
 10
-130.500000
 20
114.000000
 11
-130.500000
 21
107.000000
  0
LINE
  8
0
  6
CENTER
 62
2
 10
-149.000000
 20
111.000000
 11
-139.000000
 21
111.000000
  0
LINE
  8
0
  6
CENTER
 62
2
 10
-144.000000
 20
116.000000
 11
-144.000000
 21
106.000000
  0
LINE
  8
0
  6
CENTER
 62
2
 10
-149.000000
 20
95.000000
 11
-139.000000
 21
95.000000
  0
LINE
  8
0
  6
CENTER
 62
2
 10
-144.000000
 20
90.000000
 11
-144.000000
 21
100.000000
  0
LINE
  8
0
  6
CENTER
 62
2
 10
-107.000000
 20
111.000000
 11
-117.000000
 21
111.000000
  0
LINE
  8
0
  6
CENTER
 62
2
 10
-112.000000
 20
116.000000
 11
-112.000000
 21
106.000000
  0
LINE
  8
0
  6
CENTER
 62
2
 10
-112.000000
 20
90.000000
 11
-112.000000
 21
100.000000
  0
LINE
  8
0
  6
CENTER
 62
2
 10
-107.000000
 20
95.000000
 11
-117.000000
 21
95.000000
  0
LINE
  8
0
  6
CONTINUOUS
 62
7
 10
-138.500000
 20
93.300003
 11
-138.500000
 21
112.699997
  0
LINE
  8
0
  6
CONTINUOUS
 62
7
 10
-98.000000
 20
16.000000
 11
-158.000000
 21
16.000000
  0
LINE
  8
0
  6
CONTINUOUS
 62
7
 10
-158.000000
 20
16.000000
 11
-158.000000
 21
39.000000
  0
LINE
  8
0
  6
CONTINUOUS
 62
7
 10
-98.000000
 20
39.000000
 11
-158.000000
 21
39.000000
  0
LINE
  8
0
  6
CONTINUOUS
 62
7
 10
-98.000000
 20
16.000000
 11
-98.000000
 21
39.000000
  0
LINE
  8
0
  6
CENTER
 62
2
 10
-96.400497
 20
27.500000
 11
-160.630005
 21
27.500000
  0
LINE
  8
0
  6
CENTER
 62
2
 10
-144.000000
 20
24.500000
 11
-144.000000
 21
14.500000
  0
LINE
  8
0
  6
CENTER
 62
2
 10
-139.000000
 20
19.500000
 11
-149.000000
 21
19.500000
  0
LINE
  8
0
  6
CENTER
 62
2
 10
-144.000000
 20
30.500000
 11
-144.000000
 21
40.500000
  0
LINE
  8
0
  6
CENTER
 62
2
 10
-139.000000
 20
35.500000
 11
-149.000000
 21
35.500000
  0
LINE
  8
0
  6
CENTER
 62
2
 10
-112.000000
 20
14.500000
 11
-112.000000
 21
24.500000
  0
LINE
  8
0
  6
CENTER
 62
2
 10
-107.000000
 20
19.500000
 11
-117.000000
 21
19.500000
  0
LINE
  8
0
  6
CENTER
 62
2
 10
-112.000000
 20
40.500000
 11
-112.000000
 21
30.500000
  0
LINE
  8
0
  6
CENTER
 62
2
 10
-107.000000
 20
35.500000
 11
-117.000000
 21
35.500000
  0
LINE
  8
0
  6
CENTER
 62
2
 10
-151.000000
 20
36.900002
 11
-151.000000
 21
22.100000
  0
LINE
  8
0
  6
CENTER
 62
2
 10
-158.399994
 20
29.500000
 11
-143.600006
 21
29.500000
  0
LINE
  8
0
  6
CENTER
 62
2
 10
-105.000000
 20
36.900002
 11
-105.000000
 21
22.100000
  0
LINE
  8
0
  6
CENTER
 62
2
 10
-97.599998
 20
29.500000
 11
-112.400002
 21
29.500000
  0
LINE
  8
0
  6
CONTINUOUS
 62
7
 10
-113.099998
 20
133.000000
 11
-132.899994
 21
133.000000
  0
LINE
  8
0
  6
CONTINUOUS
 62
7
 10
-107.500000
 20
133.300003
 11
-113.099998
 21
133.300003
  0
LINE
  8
0
  6
CONTINUOUS
 62
7
 10
-107.500000
 20
133.300003
 11
-107.500000
 21
133.800003
  0
LINE
  8
0
  6
CONTINUOUS
 62
7
 10
-132.899994
 20
133.300003
 11
-138.500000
 21
133.300003
  0
LINE
  8
0
  6
CONTINUOUS
 62
7
 10
-138.500000
 20
140.800003
 11
-138.500000
 21
133.300003
  0
LINE
  8
0
  6
CONTINUOUS
 62
7
 10
-98.000000
 20
137.500000
 11
-99.250000
 21
137.500000
  0
LINE
  8
0
  6
CONTINUOUS
 62
7
 10
-138.500000
 20
137.500000
 11
-140.750000
 21
137.500000
  0
LINE
  8
0
  6
CONTINUOUS
 62
7
 10
-158.000000
 20
137.500000
 11
-158.000000
 21
152.000000
  0
LINE
  8
0
  6
CONTINUOUS
 62
7
 10
-98.000000
 20
137.500000
 11
-98.000000
 21
152.000000
  0
LINE
  8
0
  6
CONTINUOUS
 62
7
 10
-98.000000
 20
152.000000
 11
-158.000000
 21
152.000000
  0
LINE
  8
0
  6
CONTINUOUS
 62
7
 10
-158.000000
 20
142.199997
 11
-149.847000
 21
142.199997
  0
LINE
  8
0
  6
CONTINUOUS
 62
7
 10
-113.099998
 20
133.000000
 11
-113.099998
 21
133.500000
  0
LINE
  8
0
  6
CONTINUOUS
 62
7
 10
-132.899994
 20
133.000000
 11
-132.899994
 21
140.800003
  0
LINE
  8
0
  6
CONTINUOUS
 62
7
 10
-158.000000
 20
142.199997
 11
-149.847000
 21
142.199997
  0
LINE
  8
0
  6
CONTINUOUS
 62
7
 10
-147.751007
 20
145.500000
 11
-147.000000
 21
145.500000
  0
LINE
  8
0
  6
CENTER
 62
2
 10
-105.000000
 20
147.500000
 11
-98.000000
 21
147.500000
  0
LINE
  8
0
  6
CENTER
 62
2
 10
-101.500000
 20
151.000000
 11
-101.500000
 21
144.000000
  0
LINE
  8
0
  6
CONTINUOUS
 62
7
 10
-108.249001
 20
145.500000
 11
-109.000000
 21
145.500000
  0
LINE
  8
0
  6
CONTINUOUS
 62
7
 10
-98.000000
 20
142.199997
 11
-106.153000
 21
142.199997
  0
LINE
  8
0
  6
CENTER
 62
2
 10
-158.000000
 20
147.500000
 11
-151.000000
 21
147.500000
  0
LINE
  8
0
  6
CENTER
 62
2
 10
-154.500000
 20
151.000000
 11
-154.500000
 21
144.000000
  0
LINE
  8
0
  6
CONTINUOUS
 62
7
 10
-106.153000
 20
142.199997
 11
-98.000000
 21
142.199997
  0
LINE
  8
0
  6
CENTER
 62
2
 10
-144.000000
 20
143.500000
 11
-144.000000
 21
154.000000
  0
LINE
  8
0
  6
DASHED
 62
2
 10
-141.000000
 20
145.500000
 11
-141.000000
 21
147.000000
  0
LINE
  8
0
  6
DASHED
 62
2
 10
-145.750000
 20
147.000000
 11
-145.750000
 21
152.000000
  0
LINE
  8
0
  6
DASHED
 62
2
 10
-142.250000
 20
147.000000
 11
-142.250000
 21
152.000000
  0
LINE
  8
0
  6
DASHED
 62
2
 10
-146.000000
 20
147.000000
 11
-146.000000
 21
152.000000
  0
LINE
  8
0
  6
DASHED
 62
2
 10
-142.000000
 20
147.000000
 11
-142.000000
 21
152.000000
  0
LINE
  8
0
  6
DASHED
 62
2
 10
-141.000000
 20
147.000000
 11
-147.000000
 21
147.000000
  0
LINE
  8
0
  6
DASHED
 62
2
 10
-115.000000
 20
145.500000
 11
-115.000000
 21
147.000000
  0
LINE
  8
0
  6
DASHED
 62
2
 10
-113.750000
 20
147.000000
 11
-113.750000
 21
152.000000
  0
LINE
  8
0
  6
DASHED
 62
2
 10
-110.250000
 20
147.000000
 11
-110.250000
 21
152.000000
  0
LINE
  8
0
  6
DASHED
 62
2
 10
-114.000000
 20
147.000000
 11
-114.000000
 21
152.000000
  0
LINE
  8
0
  6
DASHED
 62
2
 10
-110.000000
 20
147.000000
 11
-110.000000
 21
152.000000
  0
LINE
  8
0
  6
DASHED
 62
2
 10
-109.000000
 20
147.000000
 11
-115.000000
 21
147.000000
  0
LINE
  8
0
  6
CENTER
 62
2
 10
-112.000000
 20
143.500000
 11
-112.000000
 21
154.000000
  0
LINE
  8
0
  6
CENTER
 62
2
 10
69.000000
 20
73.486801
 11
69.000000
 21
52.993599
  0
LINE
  8
0
  6
CONTINUOUS
 62
7
 10
73.500000
 20
66.134003
 11
73.500000
 21
63.799999
  0
LINE
  8
0
  6
CONTINUOUS
 62
7
 10
64.500000
 20
66.134003
 11
64.500000
 21
63.799999
  0
LINE
  8
0
  6
CONTINUOUS
 62
7
 10
79.000000
 20
73.000000
 11
74.500000
 21
73.000000
  0
LINE
  8
0
  6
CONTINUOUS
 62
7
 10
79.000000
 20
73.000000
 11
79.000000
 21
65.199997
  0
LINE
  8
0
  6
CONTINUOUS
 62
7
 10
79.000000
 20
65.199997
 11
73.500000
 21
65.199997
  0
LINE
  8
0
  6
CONTINUOUS
 62
7
 10
74.199997
 20
72.699997
 11
63.799999
 21
72.699997
  0
LINE
  8
0
  6
CONTINUOUS
 62
7
 10
64.500000
 20
65.199997
 11
59.000000
 21
65.199997
  0
LINE
  8
0
  6
CONTINUOUS
 62
7
 10
63.799999
 20
72.699997
 11
63.500000
 21
73.000000
  0
LINE
  8
0
  6
CONTINUOUS
 62
7
 10
74.199997
 20
72.699997
 11
74.500000
 21
73.000000
  0
LINE
  8
0
  6
CONTINUOUS
 62
7
 10
63.500000
 20
73.000000
 11
59.000000
 21
73.000000
  0
LINE
  8
0
  6
CONTINUOUS
 62
7
 10
73.500000
 20
68.500000
 11
73.500000
 21
67.865997
  0
LINE
  8
0
  6
CONTINUOUS
 62
7
 10
64.500000
 20
68.500000
 11
73.500000
 21
68.500000
  0
LINE
  8
0
  6
CONTINUOUS
 62
7
 10
64.500000
 20
68.500000
 11
64.500000
 21
67.865997
  0
LINE
  8
0
  6
CONTINUOUS
 62
7
 10
80.500000
 20
54.000000
 11
57.500000
 21
54.000000
  0
LINE
  8
0
  6
CONTINUOUS
 62
7
 10
80.500000
 20
63.799999
 11
80.500000
 21
54.000000
  0
LINE
  8
0
  6
CONTINUOUS
 62
7
 10
57.500000
 20
72.500000
 11
57.500000
 21
54.000000
  0
LINE
  8
0
  6
CONTINUOUS
 62
7
 10
57.500000
 20
63.799999
 11
64.500000
 21
63.799999
  0
LINE
  8
0
  6
CENTER
 62
2
 10
75.500000
 20
60.500000
 11
62.500000
 21
60.500000
  0
LINE
  8
0
  6
CONTINUOUS
 62
7
 10
80.500000
 20
63.799999
 11
73.500000
 21
63.799999
  0
LINE
  8
0
  6
CONTINUOUS
 62
7
 10
59.000000
 20
73.000000
 11
59.000000
 21
65.199997
  0
LINE
  8
0
  6
CENTER
 62
2
 10
77.000000
 20
56.000000
 11
77.000000
 21
52.000000
  0
LINE
  8
0
  6
CENTER
 62
2
 10
61.000000
 20
56.000000
 11
61.000000
 21
52.000000
  0
LINE
  8
0
  6
CENTER
 62
2
 10
61.500000
 20
75.000000
 11
61.500000
 21
71.000000
  0
LINE
  8
0
  6
CENTER
 62
2
 10
76.500000
 20
75.000000
 11
76.500000
 21
71.000000
  0
LINE
  8
0
  6
CENTER
 62
2
 10
-130.500000
 20
135.000000
 11
-130.500000
 21
131.000000
  0
LINE
  8
0
  6
CENTER
 62
2
 10
-115.500000
 20
135.000000
 11
-115.500000
 21
131.000000
  0
LINE
  8
0
  6
CENTER
 62
2
 10
-130.500000
 20
75.000000
 11
-130.500000
 21
71.000000
  0
LINE
  8
0
  6
CENTER
 62
2
 10
-115.500000
 20
75.000000
 11
-115.500000
 21
71.000000
  0
LINE
  8
0
  6
CONTINUOUS
 62
7
 10
183.000000
 20
16.000000
 11
93.000000
 21
16.000000
  0
LINE
  8
0
  6
CONTINUOUS
 62
7
 10
93.000000
 20
16.000000
 11
93.000000
 21
39.000000
  0
LINE
  8
0
  6
CONTINUOUS
 62
7
 10
183.000000
 20
39.000000
 11
93.000000
 21
39.000000
  0
LINE
  8
0
  6
CONTINUOUS
 62
7
 10
183.000000
 20
16.000000
 11
183.000000
 21
39.000000
  0
LINE
  8
0
  6
CENTER
 62
2
 10
184.598999
 20
27.500000
 11
90.369797
 21
27.500000
  0
LINE
  8
0
  6
CENTER
 62
2
 10
108.000000
 20
24.500000
 11
108.000000
 21
14.500000
  0
LINE
  8
0
  6
CENTER
 62
2
 10
113.000000
 20
19.500000
 11
103.000000
 21
19.500000
  0
LINE
  8
0
  6
CENTER
 62
2
 10
108.000000
 20
30.500000
 11
108.000000
 21
40.500000
  0
LINE
  8
0
  6
CENTER
 62
2
 10
113.000000
 20
35.500000
 11
103.000000
 21
35.500000
  0
LINE
  8
0
  6
CENTER
 62
2
 10
168.000000
 20
14.500000
 11
168.000000
 21
24.500000
  0
LINE
  8
0
  6
CENTER
 62
2
 10
173.000000
 20
19.500000
 11
163.000000
 21
19.500000
  0
LINE
  8
0
  6
CENTER
 62
2
 10
168.000000
 20
40.500000
 11
168.000000
 21
30.500000
  0
LINE
  8
0
  6
CENTER
 62
2
 10
173.000000
 20
35.500000
 11
163.000000
 21
35.500000
  0
LINE
  8
0
  6
CENTER
 62
2
 10
100.000000
 20
36.900002
 11
100.000000
 21
22.100000
  0
LINE
  8
0
  6
CENTER
 62
2
 10
92.599998
 20
29.500000
 11
107.400002
 21
29.500000
  0
LINE
  8
0
  6
CENTER
 62
2
 10
176.000000
 20
36.900002
 11
176.000000
 21
22.100000
  0
LINE
  8
0
  6
CENTER
 62
2
 10
183.399994
 20
29.500000
 11
168.600006
 21
29.500000
  0
LINE
  8
0
  6
CONTINUOUS
 62
7
 10
164.899994
 20
73.000000
 11
131.100006
 21
73.000000
  0
LINE
  8
0
  6
CONTINUOUS
 62
7
 10
170.500000
 20
72.699997
 11
164.899994
 21
72.699997
  0
LINE
  8
0
  6
CONTINUOUS
 62
7
 10
170.500000
 20
65.199997
 11
125.500000
 21
65.199997
  0
LINE
  8
0
  6
CONTINUOUS
 62
7
 10
170.500000
 20
72.699997
 11
170.500000
 21
65.199997
  0
LINE
  8
0
  6
CONTINUOUS
 62
7
 10
131.100006
 20
72.699997
 11
125.500000
 21
72.699997
  0
LINE
  8
0
  6
CONTINUOUS
 62
7
 10
125.500000
 20
65.199997
 11
125.500000
 21
72.699997
  0
LINE
  8
0
  6
CONTINUOUS
 62
7
 10
183.000000
 20
68.500000
 11
170.500000
 21
68.500000
  0
LINE
  8
0
  6
CONTINUOUS
 62
7
 10
125.500000
 20
68.500000
 11
93.000000
 21
68.500000
  0
LINE
  8
0
  6
CONTINUOUS
 62
7
 10
93.000000
 20
68.500000
 11
93.000000
 21
54.000000
  0
LINE
  8
0
  6
CONTINUOUS
 62
7
 10
183.000000
 20
68.500000
 11
183.000000
 21
54.000000
  0
LINE
  8
0
  6
CONTINUOUS
 62
7
 10
183.000000
 20
54.000000
 11
93.000000
 21
54.000000
  0
LINE
  8
0
  6
CONTINUOUS
 62
7
 10
93.000000
 20
63.799999
 11
102.153000
 21
63.799999
  0
LINE
  8
0
  6
CONTINUOUS
 62
7
 10
164.899994
 20
73.000000
 11
164.899994
 21
65.199997
  0
LINE
  8
0
  6
CONTINUOUS
 62
7
 10
131.100006
 20
73.000000
 11
131.100006
 21
65.199997
  0
LINE
  8
0
  6
CONTINUOUS
 62
7
 10
171.751007
 20
60.500000
 11
158.000000
 21
60.500000
  0
LINE
  8
0
  6
CONTINUOUS
 62
7
 10
183.000000
 20
63.799999
 11
173.847000
 21
63.799999
  0
LINE
  8
0
  6
CENTER
 62
2
 10
114.500000
 20
57.500000
 11
121.500000
 21
57.500000
  0
LINE
  8
0
  6
CENTER
 62
2
 10
118.000000
 20
54.000000
 11
118.000000
 21
61.000000
  0
LINE
  8
0
  6
CENTER
 62
2
 10
154.500000
 20
57.500000
 11
161.500000
 21
57.500000
  0
LINE
  8
0
  6
CENTER
 62
2
 10
158.000000
 20
54.000000
 11
158.000000
 21
61.000000
  0
LINE
  8
0
  6
CONTINUOUS
 62
7
 10
119.657997
 20
60.000000
 11
156.341995
 21
60.000000
  0
LINE
  8
0
  6
CONTINUOUS
 62
7
 10
104.249001
 20
60.500000
 11
118.000000
 21
60.500000
  0
LINE
  8
0
  6
CENTER
 62
2
 10
143.199997
 20
71.449997
 11
143.199997
 21
67.949997
  0
LINE
  8
0
  6
CENTER
 62
2
 10
141.449997
 20
69.699997
 11
144.949997
 21
69.699997
  0
LINE
  8
0
  6
CENTER
 62
2
 10
152.800003
 20
71.449997
 11
152.800003
 21
67.949997
  0
LINE
  8
0
  6
CENTER
 62
2
 10
151.050003
 20
69.699997
 11
154.550003
 21
69.699997
  0
LINE
  8
0
  6
CENTER
 62
2
 10
185.042999
 20
103.000000
 11
89.855202
 21
103.000000
  0
LINE
  8
0
  6
CONTINUOUS
 62
7
 10
183.000000
 20
114.500000
 11
183.000000
 21
91.500000
  0
LINE
  8
0
  6
CONTINUOUS
 62
7
 10
183.000000
 20
98.500000
 11
170.500000
 21
98.500000
  0
LINE
  8
0
  6
CENTER
 62
2
 10
168.000000
 20
90.000000
 11
168.000000
 21
100.000000
  0
LINE
  8
0
  6
CENTER
 62
2
 10
173.000000
 20
95.000000
 11
163.000000
 21
95.000000
  0
LINE
  8
0
  6
CONTINUOUS
 62
7
 10
164.899994
 20
93.000000
 11
131.100006
 21
93.000000
  0
LINE
  8
0
  6
CONTINUOUS
 62
7
 10
164.899994
 20
108.000000
 11
131.100006
 21
108.000000
  0
LINE
  8
0
  6
CONTINUOUS
 62
7
 10
164.899994
 20
98.000000
 11
131.100006
 21
98.000000
  0
LINE
  8
0
  6
CONTINUOUS
 62
7
 10
131.100006
 20
93.300003
 11
125.500000
 21
93.300003
  0
LINE
  8
0
  6
CENTER
 62
2
 10
143.500000
 20
110.500000
 11
136.600006
 21
110.500000
  0
LINE
  8
0
  6
CENTER
 62
2
 10
143.500000
 20
95.500000
 11
136.600006
 21
95.500000
  0
LINE
  8
0
  6
CENTER
 62
2
 10
140.000000
 20
92.000000
 11
140.000000
 21
99.000000
  0
LINE
  8
0
  6
CENTER
 62
2
 10
152.500000
 20
95.500000
 11
158.891006
 21
95.500000
  0
LINE
  8
0
  6
CENTER
 62
2
 10
156.000000
 20
92.000000
 11
156.000000
 21
99.000000
  0
LINE
  8
0
  6
CENTER
 62
2
 10
140.000000
 20
114.000000
 11
140.000000
 21
107.000000
  0
LINE
  8
0
  6
CONTINUOUS
 62
7
 10
131.100006
 20
93.000000
 11
131.100006
 21
113.000000
  0
LINE
  8
0
  6
CENTER
 62
2
 10
152.488007
 20
110.500000
 11
158.932999
 21
110.500000
  0
LINE
  8
0
  6
CENTER
 62
2
 10
156.000000
 20
114.000000
 11
156.000000
 21
107.000000
  0
LINE
  8
0
  6
CONTINUOUS
 62
7
 10
164.899994
 20
113.000000
 11
131.100006
 21
113.000000
  0
LINE
  8
0
  6
CONTINUOUS
 62
7
 10
131.100006
 20
112.699997
 11
125.500000
 21
112.699997
  0
LINE
  8
0
  6
CONTINUOUS
 62
7
 10
125.500000
 20
93.300003
 11
125.500000
 21
112.699997
  0
LINE
  8
0
  6
CONTINUOUS
 62
7
 10
170.500000
 20
93.300003
 11
164.899994
 21
93.300003
  0
LINE
  8
0
  6
CONTINUOUS
 62
7
 10
170.500000
 20
112.699997
 11
164.899994
 21
112.699997
  0
LINE
  8
0
  6
CONTINUOUS
 62
7
 10
164.899994
 20
93.000000
 11
164.899994
 21
113.000000
  0
LINE
  8
0
  6
CONTINUOUS
 62
7
 10
170.500000
 20
112.699997
 11
170.500000
 21
93.300003
  0
LINE
  8
0
  6
CONTINUOUS
 62
7
 10
183.000000
 20
91.500000
 11
93.000000
 21
91.500000
  0
LINE
  8
0
  6
CONTINUOUS
 62
7
 10
183.000000
 20
107.500000
 11
170.500000
 21
107.500000
  0
LINE
  8
0
  6
CENTER
 62
2
 10
168.000000
 20
116.000000
 11
168.000000
 21
106.000000
  0
LINE
  8
0
  6
CENTER
 62
2
 10
173.000000
 20
111.000000
 11
163.000000
 21
111.000000
  0
LINE
  8
0
  6
CONTINUOUS
 62
7
 10
93.000000
 20
98.500000
 11
125.500000
 21
98.500000
  0
LINE
  8
0
  6
CENTER
 62
2
 10
108.000000
 20
90.000000
 11
108.000000
 21
100.000000
  0
LINE
  8
0
  6
CENTER
 62
2
 10
103.000000
 20
95.000000
 11
113.000000
 21
95.000000
  0
LINE
  8
0
  6
CONTINUOUS
 62
7
 10
93.000000
 20
114.500000
 11
93.000000
 21
91.500000
  0
LINE
  8
0
  6
CONTINUOUS
 62
7
 10
93.000000
 20
107.500000
 11
125.500000
 21
107.500000
  0
LINE
  8
0
  6
CENTER
 62
2
 10
108.000000
 20
116.000000
 11
108.000000
 21
106.000000
  0
LINE
  8
0
  6
CENTER
 62
2
 10
103.000000
 20
111.000000
 11
113.000000
 21
111.000000
  0
LINE
  8
0
  6
CONTINUOUS
 62
7
 10
164.899994
 20
133.000000
 11
131.100006
 21
133.000000
  0
LINE
  8
0
  6
CONTINUOUS
 62
7
 10
170.500000
 20
133.300003
 11
164.899994
 21
133.300003
  0
LINE
  8
0
  6
CONTINUOUS
 62
7
 10
170.500000
 20
140.800003
 11
166.500000
 21
140.800003
  0
LINE
  8
0
  6
CONTINUOUS
 62
7
 10
170.500000
 20
133.300003
 11
170.500000
 21
135.000000
  0
LINE
  8
0
  6
CONTINUOUS
 62
7
 10
131.100006
 20
133.300003
 11
125.500000
 21
133.300003
  0
LINE
  8
0
  6
CONTINUOUS
 62
7
 10
125.500000
 20
140.800003
 11
125.500000
 21
133.300003
  0
LINE
  8
0
  6
CONTINUOUS
 62
7
 10
183.000000
 20
137.500000
 11
171.750000
 21
137.500000
  0
LINE
  8
0
  6
CONTINUOUS
 62
7
 10
125.500000
 20
137.500000
 11
120.250000
 21
137.500000
  0
LINE
  8
0
  6
CONTINUOUS
 62
7
 10
93.000000
 20
137.500000
 11
93.000000
 21
152.000000
  0
LINE
  8
0
  6
CONTINUOUS
 62
7
 10
183.000000
 20
137.500000
 11
183.000000
 21
152.000000
  0
LINE
  8
0
  6
CONTINUOUS
 62
7
 10
183.000000
 20
152.000000
 11
93.000000
 21
152.000000
  0
LINE
  8
0
  6
CONTINUOUS
 62
7
 10
93.000000
 20
142.199997
 11
102.153000
 21
142.199997
  0
LINE
  8
0
  6
CONTINUOUS
 62
7
 10
164.899994
 20
133.000000
 11
164.899994
 21
133.800003
  0
LINE
  8
0
  6
CONTINUOUS
 62
7
 10
131.100006
 20
133.000000
 11
131.100006
 21
140.800003
  0
LINE
  8
0
  6
CONTINUOUS
 62
7
 10
104.249001
 20
145.500000
 11
113.500000
 21
145.500000
  0
LINE
  8
0
  6
CENTER
 62
2
 10
99.000000
 20
147.500000
 11
106.000000
 21
147.500000
  0
LINE
  8
0
  6
CONTINUOUS
 62
7
 10
171.751007
 20
145.500000
 11
162.500000
 21
145.500000
  0
LINE
  8
0
  6
CENTER
 62
2
 10
102.000000
 20
151.000000
 11
102.000000
 21
144.000000
  0
LINE
  8
0
  6
CENTER
 62
2
 10
171.000000
 20
147.500000
 11
178.000000
 21
147.500000
  0
LINE
  8
0
  6
CENTER
 62
2
 10
174.000000
 20
151.000000
 11
174.000000
 21
144.000000
  0
LINE
  8
0
  6
CONTINUOUS
 62
7
 10
173.847000
 20
142.199997
 11
183.000000
 21
142.199997
  0
LINE
  8
0
  6
DASHED
 62
2
 10
111.000000
 20
59.000000
 11
105.000000
 21
59.000000
  0
LINE
  8
0
  6
CENTER
 62
2
 10
108.000000
 20
62.500000
 11
108.000000
 21
52.000000
  0
LINE
  8
0
  6
DASHED
 62
2
 10
111.000000
 20
60.500000
 11
111.000000
 21
59.000000
  0
LINE
  8
0
  6
DASHED
 62
2
 10
105.000000
 20
60.500000
 11
105.000000
 21
59.000000
  0
LINE
  8
0
  6
DASHED
 62
2
 10
106.250000
 20
59.000000
 11
106.250000
 21
54.000000
  0
LINE
  8
0
  6
DASHED
 62
2
 10
109.750000
 20
59.000000
 11
109.750000
 21
54.000000
  0
LINE
  8
0
  6
DASHED
 62
2
 10
106.000000
 20
59.000000
 11
106.000000
 21
54.000000
  0
LINE
  8
0
  6
DASHED
 62
2
 10
110.000000
 20
59.000000
 11
110.000000
 21
54.000000
  0
LINE
  8
0
  6
DASHED
 62
2
 10
171.000000
 20
59.000000
 11
165.000000
 21
59.000000
  0
LINE
  8
0
  6
CENTER
 62
2
 10
168.000000
 20
62.500000
 11
168.000000
 21
52.000000
  0
LINE
  8
0
  6
DASHED
 62
2
 10
171.000000
 20
60.500000
 11
171.000000
 21
59.000000
  0
LINE
  8
0
  6
DASHED
 62
2
 10
165.000000
 20
60.500000
 11
165.000000
 21
59.000000
  0
LINE
  8
0
  6
DASHED
 62
2
 10
166.250000
 20
59.000000
 11
166.250000
 21
54.000000
  0
LINE
  8
0
  6
DASHED
 62
2
 10
169.750000
 20
59.000000
 11
169.750000
 21
54.000000
  0
LINE
  8
0
  6
DASHED
 62
2
 10
166.000000
 20
59.000000
 11
166.000000
 21
54.000000
  0
LINE
  8
0
  6
DASHED
 62
2
 10
170.000000
 20
59.000000
 11
170.000000
 21
54.000000
  0
LINE
  8
0
  6
CENTER
 62
2
 10
140.000000
 20
75.000000
 11
140.000000
 21
71.000000
  0
LINE
  8
0
  6
CENTER
 62
2
 10
156.000000
 20
75.000000
 11
156.000000
 21
71.000000
  0
LINE
  8
0
  6
CENTER
 62
2
 10
140.000000
 20
135.000000
 11
140.000000
 21
131.000000
  0
LINE
  8
0
  6
CENTER
 62
2
 10
156.000000
 20
135.000000
 11
156.000000
 21
131.000000
  0
LINE
  8
0
  6
DASHED
 62
2
 10
166.000000
 20
147.000000
 11
166.000000
 21
152.000000
  0
LINE
  8
0
  6
DASHED
 62
2
 10
111.000000
 20
147.000000
 11
105.000000
 21
147.000000
  0
LINE
  8
0
  6
CENTER
 62
2
 10
108.000000
 20
143.500000
 11
108.000000
 21
154.000000
  0
LINE
  8
0
  6
DASHED
 62
2
 10
111.000000
 20
145.500000
 11
111.000000
 21
147.000000
  0
LINE
  8
0
  6
DASHED
 62
2
 10
105.000000
 20
145.500000
 11
105.000000
 21
147.000000
  0
LINE
  8
0
  6
DASHED
 62
2
 10
106.250000
 20
147.000000
 11
106.250000
 21
152.000000
  0
LINE
  8
0
  6
DASHED
 62
2
 10
109.750000
 20
147.000000
 11
109.750000
 21
152.000000
  0
LINE
  8
0
  6
DASHED
 62
2
 10
106.000000
 20
147.000000
 11
106.000000
 21
152.000000
  0
LINE
  8
0
  6
DASHED
 62
2
 10
110.000000
 20
147.000000
 11
110.000000
 21
152.000000
  0
LINE
  8
0
  6
DASHED
 62
2
 10
169.750000
 20
147.000000
 11
169.750000
 21
152.000000
  0
LINE
  8
0
  6
DASHED
 62
2
 10
170.000000
 20
147.000000
 11
170.000000
 21
152.000000
  0
LINE
  8
0
  6
DASHED
 62
2
 10
171.000000
 20
147.000000
 11
165.000000
 21
147.000000
  0
LINE
  8
0
  6
CENTER
 62
2
 10
168.000000
 20
143.500000
 11
168.000000
 21
154.000000
  0
LINE
  8
0
  6
DASHED
 62
2
 10
171.000000
 20
145.500000
 11
171.000000
 21
147.000000
  0
LINE
  8
0
  6
DASHED
 62
2
 10
165.000000
 20
145.500000
 11
165.000000
 21
147.000000
  0
LINE
  8
0
  6
DASHED
 62
2
 10
166.250000
 20
147.000000
 11
166.250000
 21
152.000000
  0
LINE
  8
0
  6
CONTINUOUS
 62
7
 10
53.500000
 20
69.943398
 11
52.250000
 21
69.221703
  0
LINE
  8
0
  6
CONTINUOUS
 62
7
 10
52.250000
 20
69.221703
 11
52.250000
 21
67.778297
  0
LINE
  8
0
  6
CONTINUOUS
 62
7
 10
53.500000
 20
67.056602
 11
52.250000
 21
67.778297
  0
LINE
  8
0
  6
CONTINUOUS
 62
7
 10
54.750000
 20
67.778297
 11
53.500000
 21
67.056602
  0
LINE
  8
0
  6
CONTINUOUS
 62
7
 10
54.750000
 20
69.221703
 11
54.750000
 21
67.778297
  0
LINE
  8
0
  6
CONTINUOUS
 62
7
 10
53.500000
 20
69.943398
 11
54.750000
 21
69.221703
  0
LINE
  8
0
  6
CONTINUOUS
 62
7
 10
54.210701
 20
72.131104
 11
56.289200
 21
70.931099
  0
LINE
  8
0
  6
CENTER
 62
2
 10
53.500000
 20
73.500000
 11
53.500000
 21
63.500000
  0
LINE
  8
0
  6
CENTER
 62
2
 10
49.000000
 20
68.500000
 11
59.000000
 21
68.500000
  0
LINE
  8
0
  6
CONTINUOUS
 62
7
 10
52.789299
 20
72.131104
 11
50.710800
 21
70.931099
  0
LINE
  8
0
  6
CONTINUOUS
 62
7
 10
50.000000
 20
69.699997
 11
50.000000
 21
67.300003
  0
LINE
  8
0
  6
CONTINUOUS
 62
7
 10
52.789200
 20
64.868896
 11
50.710701
 21
66.068901
  0
LINE
  8
0
  6
CONTINUOUS
 62
7
 10
56.289200
 20
66.068901
 11
54.210800
 21
64.868896
  0
LINE
  8
0
  6
CONTINUOUS
 62
7
 10
59.000000
 20
72.500000
 11
49.500000
 21
72.500000
  0
LINE
  8
0
  6
CONTINUOUS
 62
7
 10
57.500000
 20
54.500000
 11
49.500000
 21
54.500000
  0
LINE
  8
0
  6
CONTINUOUS
 62
7
 10
49.500000
 20
72.500000
 11
49.500000
 21
54.500000
  0
LINE
  8
0
  6
CONTINUOUS
 62
7
 10
57.000000
 20
69.699997
 11
57.000000
 21
67.300003
  0
LINE
  8
0
  6
CENTER
 62
2
 10
147.000000
 20
73.486801
 11
147.000000
 21
52.993599
  0
LINE
  8
0
  6
CONTINUOUS
 62
7
 10
202.500000
 20
66.134003
 11
202.500000
 21
63.799999
  0
LINE
  8
0
  6
CONTINUOUS
 62
7
 10
211.500000
 20
66.134003
 11
211.500000
 21
63.799999
  0
LINE
  8
0
  6
CONTINUOUS
 62
7
 10
197.000000
 20
73.000000
 11
201.500000
 21
73.000000
  0
LINE
  8
0
  6
CONTINUOUS
 62
7
 10
197.000000
 20
73.000000
 11
197.000000
 21
65.199997
  0
LINE
  8
0
  6
CONTINUOUS
 62
7
 10
197.000000
 20
65.199997
 11
202.500000
 21
65.199997
  0
LINE
  8
0
  6
CONTINUOUS
 62
7
 10
201.800003
 20
72.699997
 11
212.199997
 21
72.699997
  0
LINE
  8
0
  6
CONTINUOUS
 62
7
 10
211.500000
 20
65.199997
 11
217.000000
 21
65.199997
  0
LINE
  8
0
  6
CONTINUOUS
 62
7
 10
212.199997
 20
72.699997
 11
212.500000
 21
73.000000
  0
LINE
  8
0
  6
CONTINUOUS
 62
7
 10
201.800003
 20
72.700104
 11
201.500000
 21
73.000099
  0
LINE
  8
0
  6
CONTINUOUS
 62
7
 10
212.500000
 20
73.000000
 11
217.000000
 21
73.000000
  0
LINE
  8
0
  6
CONTINUOUS
 62
7
 10
202.500000
 20
68.500000
 11
202.500000
 21
67.865997
  0
LINE
  8
0
  6
CONTINUOUS
 62
7
 10
211.500000
 20
68.500000
 11
202.500000
 21
68.500000
  0
LINE
  8
0
  6
CONTINUOUS
 62
7
 10
211.500000
 20
68.500000
 11
211.500000
 21
67.865997
  0
LINE
  8
0
  6
CONTINUOUS
 62
7
 10
195.500000
 20
54.000000
 11
218.500000
 21
54.000000
  0
LINE
  8
0
  6
CONTINUOUS
 62
7
 10
195.500000
 20
63.799999
 11
195.500000
 21
54.000000
  0
LINE
  8
0
  6
CONTINUOUS
 62
7
 10
218.500000
 20
72.500000
 11
218.500000
 21
54.000000
  0
LINE
  8
0
  6
CONTINUOUS
 62
7
 10
218.500000
 20
63.799999
 11
211.500000
 21
63.799999
  0
LINE
  8
0
  6
CENTER
 62
2
 10
200.500000
 20
60.500000
 11
213.500000
 21
60.500000
  0
LINE
  8
0
  6
CONTINUOUS
 62
7
 10
195.500000
 20
63.799999
 11
202.500000
 21
63.799999
  0
LINE
  8
0
  6
CONTINUOUS
 62
7
 10
217.000000
 20
73.000000
 11
217.000000
 21
65.199997
  0
LINE
  8
0
  6
CENTER
 62
2
 10
199.000000
 20
56.000000
 11
199.000000
 21
52.000000
  0
LINE
  8
0
  6
CENTER
 62
2
 10
215.000000
 20
56.000000
 11
215.000000
 21
52.000000
  0
LINE
  8
0
  6
CENTER
 62
2
 10
214.500000
 20
75.000000
 11
214.500000
 21
71.000000
  0
LINE
  8
0
  6
CENTER
 62
2
 10
199.500000
 20
75.000000
 11
199.500000
 21
71.000000
  0
LINE
  8
0
  6
CONTINUOUS
 62
7
 10
222.500000
 20
69.943298
 11
223.750000
 21
69.221703
  0
LINE
  8
0
  6
CONTINUOUS
 62
7
 10
223.750000
 20
69.221703
 11
223.750000
 21
67.778297
  0
LINE
  8
0
  6
CONTINUOUS
 62
7
 10
222.500000
 20
67.056602
 11
223.750000
 21
67.778297
  0
LINE
  8
0
  6
CONTINUOUS
 62
7
 10
221.250000
 20
67.778297
 11
222.500000
 21
67.056602
  0
LINE
  8
0
  6
CONTINUOUS
 62
7
 10
221.250000
 20
69.221703
 11
221.250000
 21
67.778297
  0
LINE
  8
0
  6
CONTINUOUS
 62
7
 10
222.500000
 20
69.943398
 11
221.250000
 21
69.221703
  0
LINE
  8
0
  6
CONTINUOUS
 62
7
 10
221.789001
 20
72.131104
 11
219.710999
 21
70.931099
  0
LINE
  8
0
  6
CENTER
 62
2
 10
222.500000
 20
73.500000
 11
222.500000
 21
63.500000
  0
LINE
  8
0
  6
CENTER
 62
2
 10
227.000000
 20
68.500000
 11
217.000000
 21
68.500000
  0
LINE
  8
0
  6
CONTINUOUS
 62
7
 10
223.210999
 20
72.130997
 11
225.289001
 21
70.931000
  0
LINE
  8
0
  6
CONTINUOUS
 62
7
 10
226.000000
 20
69.699997
 11
226.000000
 21
67.300003
  0
LINE
  8
0
  6
CONTINUOUS
 62
7
 10
223.210999
 20
64.868896
 11
225.289001
 21
66.068901
  0
LINE
  8
0
  6
CONTINUOUS
 62
7
 10
219.710999
 20
66.068802
 11
221.789001
 21
64.868896
  0
LINE
  8
0
  6
CONTINUOUS
 62
7
 10
217.000000
 20
72.500000
 11
226.500000
 21
72.500000
  0
LINE
  8
0
  6
CONTINUOUS
 62
7
 10
218.500000
 20
54.500000
 11
226.500000
 21
54.500000
  0
LINE
  8
0
  6
CONTINUOUS
 62
7
 10
226.500000
 20
72.500000
 11
226.500000
 21
54.500000
  0
LINE
  8
0
  6
CONTINUOUS
 62
7
 10
219.000000
 20
69.699997
 11
219.000000
 21
67.300003
  0
LINE
  8
0
  6
CONTINUOUS
 62
7
 10
-109.000000
 20
8.000000
 11
-147.000000
 21
8.000000
  0
LINE
  8
0
  6
CONTINUOUS
 62
7
 10
-105.000000
 20
9.210760
 11
-109.000000
 21
9.210760
  0
LINE
  8
0
  6
CONTINUOUS
 62
7
 10
-105.000000
 20
14.789200
 11
-109.000000
 21
14.789200
  0
LINE
  8
0
  6
CENTER
 62
2
 10
-145.084000
 20
12.000000
 11
-159.468994
 21
12.000000
  0
LINE
  8
0
  6
CONTINUOUS
 62
2
 10
-151.000000
 20
9.900020
 11
-156.750000
 21
9.900020
  0
LINE
  8
0
  6
CONTINUOUS
 62
2
 10
-151.000000
 20
14.100000
 11
-156.750000
 21
14.100000
  0
LINE
  8
0
  6
CONTINUOUS
 62
7
 10
-151.000000
 20
14.500000
 11
-156.750000
 21
14.500000
  0
LINE
  8
0
  6
CONTINUOUS
 62
7
 10
-156.750000
 20
9.500000
 11
-156.750000
 21
14.500000
  0
LINE
  8
0
  6
CONTINUOUS
 62
7
 10
-151.000000
 20
9.500000
 11
-156.750000
 21
9.500000
  0
LINE
  8
0
  6
CONTINUOUS
 62
7
 10
-147.000000
 20
16.000000
 11
-147.000000
 21
8.000000
  0
LINE
  8
0
  6
CONTINUOUS
 62
7
 10
-147.000000
 20
15.500000
 11
-151.000000
 21
15.500000
  0
LINE
  8
0
  6
CONTINUOUS
 62
7
 10
-147.000000
 20
8.499990
 11
-151.000000
 21
8.499990
  0
LINE
  8
0
  6
CONTINUOUS
 62
7
 10
-151.000000
 20
15.500000
 11
-151.000000
 21
8.499990
  0
LINE
  8
0
  6
CONTINUOUS
 62
7
 10
-151.000000
 20
11.289200
 11
-147.000000
 21
11.289200
  0
LINE
  8
0
  6
CONTINUOUS
 62
7
 10
-151.000000
 20
12.710800
 11
-147.000000
 21
12.710800
  0
LINE
  8
0
  6
CONTINUOUS
 62
7
 10
-151.000000
 20
9.210760
 11
-147.000000
 21
9.210760
  0
LINE
  8
0
  6
CONTINUOUS
 62
7
 10
-151.000000
 20
14.789200
 11
-147.000000
 21
14.789200
  0
LINE
  8
0
  6
CENTER
 62
2
 10
-110.882004
 20
12.000000
 11
-96.531303
 21
12.000000
  0
LINE
  8
0
  6
CONTINUOUS
 62
2
 10
-105.000000
 20
9.900020
 11
-99.250000
 21
9.900020
  0
LINE
  8
0
  6
CONTINUOUS
 62
2
 10
-105.000000
 20
14.100000
 11
-99.250000
 21
14.100000
  0
LINE
  8
0
  6
CONTINUOUS
 62
7
 10
-105.000000
 20
14.500000
 11
-99.250000
 21
14.500000
  0
LINE
  8
0
  6
CONTINUOUS
 62
7
 10
-99.250000
 20
9.500000
 11
-99.250000
 21
14.500000
  0
LINE
  8
0
  6
CONTINUOUS
 62
7
 10
-105.000000
 20
9.500000
 11
-99.250000
 21
9.500000
  0
LINE
  8
0
  6
CONTINUOUS
 62
7
 10
-109.000000
 20
16.000000
 11
-109.000000
 21
8.000000
  0
LINE
  8
0
  6
CONTINUOUS
 62
7
 10
-109.000000
 20
15.500000
 11
-105.000000
 21
15.500000
  0
LINE
  8
0
  6
CONTINUOUS
 62
7
 10
-109.000000
 20
8.499990
 11
-105.000000
 21
8.499990
  0
LINE
  8
0
  6
CONTINUOUS
 62
7
 10
-105.000000
 20
15.500000
 11
-105.000000
 21
8.499990
  0
LINE
  8
0
  6
CONTINUOUS
 62
7
 10
-105.000000
 20
11.289200
 11
-109.000000
 21
11.289200
  0
LINE
  8
0
  6
CONTINUOUS
 62
7
 10
-105.000000
 20
12.710800
 11
-109.000000
 21
12.710800
  0
LINE
  8
0
  6
CONTINUOUS
 62
7
 10
-99.250000
 20
71.000000
 11
-99.250000
 21
68.500000
  0
LINE
  8
0
  6
CONTINUOUS
 62
7
 10
-147.000000
 20
68.500000
 11
-147.000000
 21
72.500000
  0
LINE
  8
0
  6
CONTINUOUS
 62
7
 10
-147.000000
 20
72.500000
 11
-142.500000
 21
72.500000
  0
LINE
  8
0
  6
CONTINUOUS
 62
7
 10
-142.500000
 20
68.500000
 11
-142.500000
 21
72.500000
  0
LINE
  8
0
  6
CONTINUOUS
 62
2
 10
-151.000000
 20
70.599998
 11
-156.750000
 21
70.599998
  0
LINE
  8
0
  6
CONTINUOUS
 62
7
 10
-151.000000
 20
68.500000
 11
-151.000000
 21
72.199997
  0
LINE
  8
0
  6
CONTINUOUS
 62
7
 10
-151.000000
 20
72.199997
 11
-147.000000
 21
72.199997
  0
LINE
  8
0
  6
CONTINUOUS
 62
7
 10
-151.000000
 20
69.699997
 11
-147.000000
 21
69.699997
  0
LINE
  8
0
  6
CONTINUOUS
 62
7
 10
-147.000000
 20
70.520699
 11
-151.000000
 21
70.520699
  0
LINE
  8
0
  6
CONTINUOUS
 62
7
 10
-156.750000
 20
71.000000
 11
-156.750000
 21
68.500000
  0
LINE
  8
0
  6
CONTINUOUS
 62
7
 10
-151.000000
 20
71.000000
 11
-156.750000
 21
71.000000
  0
LINE
  8
0
  6
CONTINUOUS
 62
7
 10
-105.000000
 20
71.000000
 11
-99.250000
 21
71.000000
  0
LINE
  8
0
  6
CONTINUOUS
 62
2
 10
-105.000000
 20
70.599998
 11
-99.250000
 21
70.599998
  0
LINE
  8
0
  6
CONTINUOUS
 62
7
 10
-105.000000
 20
68.500000
 11
-105.000000
 21
72.199997
  0
LINE
  8
0
  6
CONTINUOUS
 62
7
 10
-105.000000
 20
72.199997
 11
-107.500000
 21
72.199997
  0
LINE
  8
0
  6
CONTINUOUS
 62
7
 10
-105.000000
 20
69.699997
 11
-107.500000
 21
69.699997
  0
LINE
  8
0
  6
CONTINUOUS
 62
7
 10
-107.500000
 20
70.520699
 11
-105.000000
 21
70.520699
  0
LINE
  8
0
  6
CONTINUOUS
 62
7
 10
-98.000000
 20
114.500000
 11
-115.250000
 21
114.500000
  0
LINE
  8
0
  6
CENTER
 62
2
 10
-116.352997
 20
118.500000
 11
-96.531303
 21
118.500000
  0
LINE
  8
0
  6
CONTINUOUS
 62
2
 10
-105.000000
 20
116.400002
 11
-99.250000
 21
116.400002
  0
LINE
  8
0
  6
CONTINUOUS
 62
2
 10
-105.000000
 20
120.599998
 11
-99.250000
 21
120.599998
  0
LINE
  8
0
  6
CONTINUOUS
 62
7
 10
-105.000000
 20
121.000000
 11
-99.250000
 21
121.000000
  0
LINE
  8
0
  6
CONTINUOUS
 62
7
 10
-99.250000
 20
116.000000
 11
-99.250000
 21
121.000000
  0
LINE
  8
0
  6
CONTINUOUS
 62
7
 10
-105.000000
 20
116.000000
 11
-99.250000
 21
116.000000
  0
LINE
  8
0
  6
CONTINUOUS
 62
7
 10
-109.000000
 20
122.500000
 11
-147.000000
 21
122.500000
  0
LINE
  8
0
  6
CONTINUOUS
 62
7
 10
-142.500000
 20
122.500000
 11
-142.500000
 21
114.500000
  0
LINE
  8
0
  6
CONTINUOUS
 62
7
 10
-113.500000
 20
122.500000
 11
-113.500000
 21
114.500000
  0
LINE
  8
0
  6
CONTINUOUS
 62
7
 10
-109.000000
 20
122.500000
 11
-109.000000
 21
114.500000
  0
LINE
  8
0
  6
CONTINUOUS
 62
7
 10
-115.250000
 20
122.000000
 11
-130.750000
 21
122.000000
  0
LINE
  8
0
  6
CONTINUOUS
 62
7
 10
-130.750000
 20
122.000000
 11
-130.750000
 21
113.000000
  0
LINE
  8
0
  6
CONTINUOUS
 62
7
 10
-115.250000
 20
122.000000
 11
-115.250000
 21
113.000000
  0
LINE
  8
0
  6
CONTINUOUS
 62
7
 10
-109.000000
 20
122.000000
 11
-105.000000
 21
122.000000
  0
LINE
  8
0
  6
CONTINUOUS
 62
7
 10
-109.000000
 20
115.000000
 11
-105.000000
 21
115.000000
  0
LINE
  8
0
  6
CONTINUOUS
 62
7
 10
-105.000000
 20
122.000000
 11
-105.000000
 21
115.000000
  0
LINE
  8
0
  6
CONTINUOUS
 62
7
 10
-105.000000
 20
117.789001
 11
-109.000000
 21
117.789001
  0
LINE
  8
0
  6
CONTINUOUS
 62
7
 10
-105.000000
 20
119.210999
 11
-109.000000
 21
119.210999
  0
LINE
  8
0
  6
CONTINUOUS
 62
7
 10
-105.000000
 20
115.710999
 11
-109.000000
 21
115.710999
  0
LINE
  8
0
  6
CONTINUOUS
 62
7
 10
-105.000000
 20
121.289001
 11
-109.000000
 21
121.289001
  0
LINE
  8
0
  6
CENTER
 62
2
 10
-139.647003
 20
118.500000
 11
-159.468994
 21
118.500000
  0
LINE
  8
0
  6
CONTINUOUS
 62
2
 10
-151.000000
 20
116.400002
 11
-156.750000
 21
116.400002
  0
LINE
  8
0
  6
CONTINUOUS
 62
2
 10
-151.000000
 20
120.599998
 11
-156.750000
 21
120.599998
  0
LINE
  8
0
  6
CONTINUOUS
 62
7
 10
-151.000000
 20
121.000000
 11
-156.750000
 21
121.000000
  0
LINE
  8
0
  6
CONTINUOUS
 62
7
 10
-156.750000
 20
116.000000
 11
-156.750000
 21
121.000000
  0
LINE
  8
0
  6
CONTINUOUS
 62
7
 10
-151.000000
 20
116.000000
 11
-156.750000
 21
116.000000
  0
LINE
  8
0
  6
CONTINUOUS
 62
7
 10
-147.000000
 20
122.500000
 11
-147.000000
 21
114.500000
  0
LINE
  8
0
  6
CONTINUOUS
 62
7
 10
-147.000000
 20
122.000000
 11
-151.000000
 21
122.000000
  0
LINE
  8
0
  6
CONTINUOUS
 62
7
 10
-147.000000
 20
115.000000
 11
-151.000000
 21
115.000000
  0
LINE
  8
0
  6
CONTINUOUS
 62
7
 10
-151.000000
 20
122.000000
 11
-151.000000
 21
115.000000
  0
LINE
  8
0
  6
CONTINUOUS
 62
7
 10
-151.000000
 20
117.789001
 11
-147.000000
 21
117.789001
  0
LINE
  8
0
  6
CONTINUOUS
 62
7
 10
-151.000000
 20
119.210999
 11
-147.000000
 21
119.210999
  0
LINE
  8
0
  6
CONTINUOUS
 62
7
 10
-151.000000
 20
115.710999
 11
-147.000000
 21
115.710999
  0
LINE
  8
0
  6
CONTINUOUS
 62
7
 10
-151.000000
 20
121.289001
 11
-147.000000
 21
121.289001
  0
LINE
  8
0
  6
CONTINUOUS
 62
7
 10
-130.750000
 20
114.500000
 11
-158.000000
 21
114.500000
  0
LINE
  8
0
  6
CONTINUOUS
 62
7
 10
-147.000000
 20
151.500000
 11
-147.000000
 21
133.500000
  0
LINE
  8
0
  6
CONTINUOUS
 62
7
 10
-147.000000
 20
151.500000
 11
-109.000000
 21
151.500000
  0
LINE
  8
0
  6
CONTINUOUS
 62
7
 10
-147.000000
 20
133.500000
 11
-142.500000
 21
133.500000
  0
LINE
  8
0
  6
CONTINUOUS
 62
7
 10
-142.500000
 20
140.500000
 11
-142.500000
 21
133.500000
  0
LINE
  8
0
  6
CONTINUOUS
 62
7
 10
-140.000000
 20
143.000000
 11
-116.000000
 21
143.000000
  0
LINE
  8
0
  6
CONTINUOUS
 62
7
 10
-113.500000
 20
140.500000
 11
-113.500000
 21
133.500000
  0
LINE
  8
0
  6
CONTINUOUS
 62
7
 10
-109.000000
 20
133.500000
 11
-113.500000
 21
133.500000
  0
LINE
  8
0
  6
CONTINUOUS
 62
7
 10
-109.000000
 20
151.500000
 11
-109.000000
 21
133.500000
  0
LINE
  8
0
  6
CONTINUOUS
 62
7
 10
-130.750000
 20
141.500000
 11
-130.750000
 21
133.500000
  0
LINE
  8
0
  6
CONTINUOUS
 62
7
 10
-130.750000
 20
141.500000
 11
-115.250000
 21
141.500000
  0
LINE
  8
0
  6
CONTINUOUS
 62
7
 10
-115.250000
 20
141.500000
 11
-115.250000
 21
133.500000
  0
LINE
  8
0
  6
CONTINUOUS
 62
7
 10
-130.750000
 20
133.500000
 11
-115.250000
 21
133.500000
  0
LINE
  8
0
  6
CONTINUOUS
 62
7
 10
-140.750000
 20
117.050003
 11
-140.750000
 21
119.949997
  0
LINE
  8
0
  6
CONTINUOUS
 62
7
 10
-142.500000
 20
116.000000
 11
-142.250000
 21
116.000000
  0
LINE
  8
0
  6
CONTINUOUS
 62
2
 10
-151.000000
 20
139.600006
 11
-156.750000
 21
139.600006
  0
LINE
  8
0
  6
CONTINUOUS
 62
7
 10
-151.000000
 20
140.000000
 11
-156.750000
 21
140.000000
  0
LINE
  8
0
  6
CONTINUOUS
 62
2
 10
-151.000000
 20
135.399994
 11
-156.750000
 21
135.399994
  0
LINE
  8
0
  6
CONTINUOUS
 62
7
 10
-151.000000
 20
141.199997
 11
-151.000000
 21
133.800003
  0
LINE
  8
0
  6
CONTINUOUS
 62
7
 10
-151.000000
 20
141.199997
 11
-147.000000
 21
141.199997
  0
LINE
  8
0
  6
CONTINUOUS
 62
7
 10
-151.000000
 20
133.800003
 11
-147.000000
 21
133.800003
  0
LINE
  8
0
  6
CONTINUOUS
 62
7
 10
-151.000000
 20
139.520996
 11
-147.000000
 21
139.520996
  0
LINE
  8
0
  6
CONTINUOUS
 62
7
 10
-147.000000
 20
138.699997
 11
-151.000000
 21
138.699997
  0
LINE
  8
0
  6
CONTINUOUS
 62
7
 10
-151.000000
 20
136.300003
 11
-147.000000
 21
136.300003
  0
LINE
  8
0
  6
CONTINUOUS
 62
7
 10
-147.000000
 20
135.479004
 11
-151.000000
 21
135.479004
  0
LINE
  8
0
  6
CONTINUOUS
 62
7
 10
-156.750000
 20
135.000000
 11
-156.750000
 21
140.000000
  0
LINE
  8
0
  6
CONTINUOUS
 62
7
 10
-151.000000
 20
135.000000
 11
-156.750000
 21
135.000000
  0
LINE
  8
0
  6
CONTINUOUS
 62
2
 10
-142.500000
 20
120.599998
 11
-142.250000
 21
120.599998
  0
LINE
  8
0
  6
CONTINUOUS
 62
2
 10
-142.500000
 20
116.400002
 11
-142.250000
 21
116.400002
  0
LINE
  8
0
  6
CONTINUOUS
 62
7
 10
-142.500000
 20
121.000000
 11
-142.250000
 21
121.000000
  0
LINE
  8
0
  6
CONTINUOUS
 62
2
 10
-105.000000
 20
135.399994
 11
-99.250000
 21
135.399994
  0
LINE
  8
0
  6
CENTER
 62
2
 10
-116.352997
 20
137.500000
 11
-96.531303
 21
137.500000
  0
LINE
  8
0
  6
CONTINUOUS
 62
2
 10
-105.000000
 20
139.600006
 11
-99.250000
 21
139.600006
  0
LINE
  8
0
  6
CONTINUOUS
 62
7
 10
-105.000000
 20
140.000000
 11
-99.250000
 21
140.000000
  0
LINE
  8
0
  6
CONTINUOUS
 62
7
 10
-105.000000
 20
141.199997
 11
-105.000000
 21
133.800003
  0
LINE
  8
0
  6
CONTINUOUS
 62
7
 10
-105.000000
 20
141.199997
 11
-109.000000
 21
141.199997
  0
LINE
  8
0
  6
CONTINUOUS
 62
7
 10
-105.000000
 20
139.520996
 11
-109.000000
 21
139.520996
  0
LINE
  8
0
  6
CONTINUOUS
 62
7
 10
-109.000000
 20
138.699997
 11
-105.000000
 21
138.699997
  0
LINE
  8
0
  6
CONTINUOUS
 62
7
 10
-105.000000
 20
136.300003
 11
-109.000000
 21
136.300003
  0
LINE
  8
0
  6
CONTINUOUS
 62
7
 10
-109.000000
 20
135.479004
 11
-105.000000
 21
135.479004
  0
LINE
  8
0
  6
CONTINUOUS
 62
7
 10
-105.000000
 20
133.800003
 11
-109.000000
 21
133.800003
  0
LINE
  8
0
  6
CONTINUOUS
 62
7
 10
-105.000000
 20
135.000000
 11
-99.250000
 21
135.000000
  0
LINE
  8
0
  6
CONTINUOUS
 62
7
 10
-99.250000
 20
135.000000
 11
-99.250000
 21
140.000000
  0
LINE
  8
0
  6
CENTER
 62
2
 10
-139.647003
 20
137.500000
 11
-159.468994
 21
137.500000
  0
LINE
  8
0
  6
CONTINUOUS
 62
7
 10
-130.750000
 20
140.800003
 11
-138.500000
 21
140.800003
  0
LINE
  8
0
  6
CONTINUOUS
 62
7
 10
-113.517998
 20
140.800003
 11
-115.250000
 21
140.800003
  0
LINE
  8
0
  6
CONTINUOUS
 62
7
 10
-156.750000
 20
137.500000
 11
-158.000000
 21
137.500000
  0
LINE
  8
0
  6
CENTER
 62
2
 10
-182.000000
 20
73.486801
 11
-182.000000
 21
52.993599
  0
LINE
  8
0
  6
CONTINUOUS
 62
7
 10
-177.500000
 20
66.134003
 11
-177.500000
 21
63.799999
  0
LINE
  8
0
  6
CONTINUOUS
 62
7
 10
-186.500000
 20
66.134003
 11
-186.500000
 21
63.799999
  0
LINE
  8
0
  6
CONTINUOUS
 62
7
 10
-172.000000
 20
73.000000
 11
-176.500000
 21
73.000000
  0
LINE
  8
0
  6
CONTINUOUS
 62
7
 10
-172.000000
 20
73.000000
 11
-172.000000
 21
65.199997
  0
LINE
  8
0
  6
CONTINUOUS
 62
7
 10
-172.000000
 20
65.199997
 11
-177.500000
 21
65.199997
  0
LINE
  8
0
  6
CONTINUOUS
 62
7
 10
-176.800003
 20
72.699997
 11
-187.199997
 21
72.699997
  0
LINE
  8
0
  6
CONTINUOUS
 62
7
 10
-186.500000
 20
65.199997
 11
-192.000000
 21
65.199997
  0
LINE
  8
0
  6
CONTINUOUS
 62
7
 10
-187.199997
 20
72.699997
 11
-187.500000
 21
73.000000
  0
LINE
  8
0
  6
CONTINUOUS
 62
7
 10
-176.800003
 20
72.700104
 11
-176.500000
 21
73.000099
  0
LINE
  8
0
  6
CONTINUOUS
 62
7
 10
-187.500000
 20
73.000000
 11
-192.000000
 21
73.000000
  0
LINE
  8
0
  6
CONTINUOUS
 62
7
 10
-177.500000
 20
68.500000
 11
-177.500000
 21
67.865997
  0
LINE
  8
0
  6
CONTINUOUS
 62
7
 10
-186.500000
 20
68.500000
 11
-177.500000
 21
68.500000
  0
LINE
  8
0
  6
CONTINUOUS
 62
7
 10
-186.500000
 20
68.500000
 11
-186.500000
 21
67.865997
  0
LINE
  8
0
  6
CONTINUOUS
 62
7
 10
-170.500000
 20
54.000000
 11
-193.500000
 21
54.000000
  0
LINE
  8
0
  6
CONTINUOUS
 62
7
 10
-170.500000
 20
63.799999
 11
-170.500000
 21
54.000000
  0
LINE
  8
0
  6
CONTINUOUS
 62
7
 10
-193.500000
 20
72.500000
 11
-193.500000
 21
54.000000
  0
LINE
  8
0
  6
CONTINUOUS
 62
7
 10
-193.500000
 20
63.799999
 11
-186.500000
 21
63.799999
  0
LINE
  8
0
  6
CENTER
 62
2
 10
-175.500000
 20
60.500000
 11
-188.500000
 21
60.500000
  0
LINE
  8
0
  6
CONTINUOUS
 62
7
 10
-170.500000
 20
63.799999
 11
-177.500000
 21
63.799999
  0
LINE
  8
0
  6
CONTINUOUS
 62
7
 10
-192.000000
 20
73.000000
 11
-192.000000
 21
65.199997
  0
LINE
  8
0
  6
CENTER
 62
2
 10
-174.000000
 20
56.000000
 11
-174.000000
 21
52.000000
  0
LINE
  8
0
  6
CENTER
 62
2
 10
-190.000000
 20
56.000000
 11
-190.000000
 21
52.000000
  0
LINE
  8
0
  6
CENTER
 62
2
 10
-189.500000
 20
75.000000
 11
-189.500000
 21
71.000000
  0
LINE
  8
0
  6
CENTER
 62
2
 10
-174.500000
 20
75.000000
 11
-174.500000
 21
71.000000
  0
LINE
  8
0
  6
CONTINUOUS
 62
7
 10
-197.500000
 20
69.943398
 11
-198.750000
 21
69.221703
  0
LINE
  8
0
  6
CONTINUOUS
 62
7
 10
-198.750000
 20
69.221703
 11
-198.750000
 21
67.778297
  0
LINE
  8
0
  6
CONTINUOUS
 62
7
 10
-197.500000
 20
67.056602
 11
-198.750000
 21
67.778297
  0
LINE
  8
0
  6
CONTINUOUS
 62
7
 10
-196.250000
 20
67.778297
 11
-197.500000
 21
67.056602
  0
LINE
  8
0
  6
CONTINUOUS
 62
7
 10
-196.250000
 20
69.221703
 11
-196.250000
 21
67.778297
  0
LINE
  8
0
  6
CONTINUOUS
 62
7
 10
-197.500000
 20
69.943398
 11
-196.250000
 21
69.221703
  0
LINE
  8
0
  6
CONTINUOUS
 62
7
 10
-196.789001
 20
72.131104
 11
-194.710999
 21
70.931099
  0
LINE
  8
0
  6
CENTER
 62
2
 10
-197.500000
 20
73.500000
 11
-197.500000
 21
63.500000
  0
LINE
  8
0
  6
CENTER
 62
2
 10
-202.000000
 20
68.500000
 11
-192.000000
 21
68.500000
  0
LINE
  8
0
  6
CONTINUOUS
 62
7
 10
-198.210999
 20
72.131104
 11
-200.289001
 21
70.931000
  0
LINE
  8
0
  6
CONTINUOUS
 62
7
 10
-201.000000
 20
69.699997
 11
-201.000000
 21
67.300003
  0
LINE
  8
0
  6
CONTINUOUS
 62
7
 10
-198.210999
 20
64.868896
 11
-200.289001
 21
66.068901
  0
LINE
  8
0
  6
CONTINUOUS
 62
7
 10
-194.710999
 20
66.068901
 11
-196.789001
 21
64.868896
  0
LINE
  8
0
  6
CONTINUOUS
 62
7
 10
-192.000000
 20
72.500000
 11
-201.500000
 21
72.500000
  0
LINE
  8
0
  6
CONTINUOUS
 62
7
 10
-193.500000
 20
54.500000
 11
-201.500000
 21
54.500000
  0
LINE
  8
0
  6
CONTINUOUS
 62
7
 10
-201.500000
 20
72.500000
 11
-201.500000
 21
54.500000
  0
LINE
  8
0
  6
CONTINUOUS
 62
7
 10
-194.000000
 20
69.699997
 11
-194.000000
 21
67.300003
  0
LINE
  8
0
  6
CENTER
 62
2
 10
-74.000000
 20
73.486801
 11
-74.000000
 21
52.993599
  0
LINE
  8
0
  6
CONTINUOUS
 62
7
 10
-78.500000
 20
66.134003
 11
-78.500000
 21
63.799999
  0
LINE
  8
0
  6
CONTINUOUS
 62
7
 10
-69.500000
 20
66.134003
 11
-69.500000
 21
63.799999
  0
LINE
  8
0
  6
CONTINUOUS
 62
7
 10
-84.000000
 20
73.000000
 11
-79.500000
 21
73.000000
  0
LINE
  8
0
  6
CONTINUOUS
 62
7
 10
-84.000000
 20
73.000000
 11
-84.000000
 21
65.199997
  0
LINE
  8
0
  6
CONTINUOUS
 62
7
 10
-84.000000
 20
65.199997
 11
-78.500000
 21
65.199997
  0
LINE
  8
0
  6
CONTINUOUS
 62
7
 10
-79.199997
 20
72.699997
 11
-68.800003
 21
72.699997
  0
LINE
  8
0
  6
CONTINUOUS
 62
7
 10
-69.500000
 20
65.199997
 11
-64.000000
 21
65.199997
  0
LINE
  8
0
  6
CONTINUOUS
 62
7
 10
-68.800003
 20
72.699997
 11
-68.500000
 21
73.000000
  0
LINE
  8
0
  6
CONTINUOUS
 62
7
 10
-79.199997
 20
72.699997
 11
-79.500000
 21
73.000000
  0
LINE
  8
0
  6
CONTINUOUS
 62
7
 10
-68.500000
 20
73.000000
 11
-64.000000
 21
73.000000
  0
LINE
  8
0
  6
CONTINUOUS
 62
7
 10
-78.500000
 20
68.500000
 11
-78.500000
 21
67.865997
  0
LINE
  8
0
  6
CONTINUOUS
 62
7
 10
-69.500000
 20
68.500000
 11
-78.500000
 21
68.500000
  0
LINE
  8
0
  6
CONTINUOUS
 62
7
 10
-69.500000
 20
68.500000
 11
-69.500000
 21
67.865997
  0
LINE
  8
0
  6
CONTINUOUS
 62
7
 10
-85.500000
 20
54.000000
 11
-62.500000
 21
54.000000
  0
LINE
  8
0
  6
CONTINUOUS
 62
7
 10
-85.500000
 20
63.799999
 11
-85.500000
 21
54.000000
  0
LINE
  8
0
  6
CONTINUOUS
 62
7
 10
-62.500000
 20
72.500000
 11
-62.500000
 21
54.000000
  0
LINE
  8
0
  6
CONTINUOUS
 62
7
 10
-62.500000
 20
63.799999
 11
-69.500000
 21
63.799999
  0
LINE
  8
0
  6
CENTER
 62
2
 10
-80.500000
 20
60.500000
 11
-67.500000
 21
60.500000
  0
LINE
  8
0
  6
CONTINUOUS
 62
7
 10
-85.500000
 20
63.799999
 11
-78.500000
 21
63.799999
  0
LINE
  8
0
  6
CONTINUOUS
 62
7
 10
-64.000000
 20
73.000000
 11
-64.000000
 21
65.199997
  0
LINE
  8
0
  6
CENTER
 62
2
 10
-82.000000
 20
56.000000
 11
-82.000000
 21
52.000000
  0
LINE
  8
0
  6
CENTER
 62
2
 10
-66.000000
 20
56.000000
 11
-66.000000
 21
52.000000
  0
LINE
  8
0
  6
CENTER
 62
2
 10
-66.500000
 20
75.000000
 11
-66.500000
 21
71.000000
  0
LINE
  8
0
  6
CENTER
 62
2
 10
-81.500000
 20
75.000000
 11
-81.500000
 21
71.000000
  0
LINE
  8
0
  6
CONTINUOUS
 62
7
 10
-58.500000
 20
69.943398
 11
-57.250000
 21
69.221703
  0
LINE
  8
0
  6
CONTINUOUS
 62
7
 10
-57.250000
 20
69.221703
 11
-57.250000
 21
67.778297
  0
LINE
  8
0
  6
CONTINUOUS
 62
7
 10
-58.500000
 20
67.056602
 11
-57.250000
 21
67.778297
  0
LINE
  8
0
  6
CONTINUOUS
 62
7
 10
-59.750000
 20
67.778297
 11
-58.500000
 21
67.056602
  0
LINE
  8
0
  6
CONTINUOUS
 62
7
 10
-59.750000
 20
69.221703
 11
-59.750000
 21
67.778297
  0
LINE
  8
0
  6
CONTINUOUS
 62
7
 10
-58.500000
 20
69.943398
 11
-59.750000
 21
69.221703
  0
LINE
  8
0
  6
CONTINUOUS
 62
7
 10
-59.210701
 20
72.131104
 11
-61.289200
 21
70.931099
  0
LINE
  8
0
  6
CENTER
 62
2
 10
-58.500000
 20
73.500000
 11
-58.500000
 21
63.500000
  0
LINE
  8
0
  6
CENTER
 62
2
 10
-54.000000
 20
68.500000
 11
-64.000000
 21
68.500000
  0
LINE
  8
0
  6
CONTINUOUS
 62
7
 10
-57.789200
 20
72.131104
 11
-55.710800
 21
70.931099
  0
LINE
  8
0
  6
CONTINUOUS
 62
7
 10
-55.000000
 20
69.699997
 11
-55.000000
 21
67.300003
  0
LINE
  8
0
  6
CONTINUOUS
 62
7
 10
-57.789200
 20
64.868896
 11
-55.710701
 21
66.068901
  0
LINE
  8
0
  6
CONTINUOUS
 62
7
 10
-61.289200
 20
66.068901
 11
-59.210800
 21
64.868896
  0
LINE
  8
0
  6
CONTINUOUS
 62
7
 10
-64.000000
 20
72.500000
 11
-54.500000
 21
72.500000
  0
LINE
  8
0
  6
CONTINUOUS
 62
7
 10
-62.500000
 20
54.500000
 11
-54.500000
 21
54.500000
  0
LINE
  8
0
  6
CONTINUOUS
 62
7
 10
-54.500000
 20
72.500000
 11
-54.500000
 21
54.500000
  0
LINE
  8
0
  6
CONTINUOUS
 62
7
 10
-62.000000
 20
69.699997
 11
-62.000000
 21
67.300003
  0
LINE
  8
0
  6
CENTER
 62
2
 10
115.916000
 20
12.000000
 11
101.530998
 21
12.000000
  0
LINE
  8
0
  6
CONTINUOUS
 62
2
 10
109.500000
 20
9.900020
 11
104.250000
 21
9.900020
  0
LINE
  8
0
  6
CONTINUOUS
 62
2
 10
109.500000
 20
14.100000
 11
104.250000
 21
14.100000
  0
LINE
  8
0
  6
CONTINUOUS
 62
7
 10
109.500000
 20
14.500000
 11
104.250000
 21
14.500000
  0
LINE
  8
0
  6
CONTINUOUS
 62
7
 10
104.250000
 20
9.500000
 11
104.250000
 21
14.500000
  0
LINE
  8
0
  6
CONTINUOUS
 62
7
 10
109.500000
 20
9.500000
 11
104.250000
 21
9.500000
  0
LINE
  8
0
  6
CONTINUOUS
 62
7
 10
113.500000
 20
16.000000
 11
113.500000
 21
8.000000
  0
LINE
  8
0
  6
CONTINUOUS
 62
7
 10
113.500000
 20
15.500000
 11
109.500000
 21
15.500000
  0
LINE
  8
0
  6
CONTINUOUS
 62
7
 10
113.500000
 20
8.499990
 11
109.500000
 21
8.499990
  0
LINE
  8
0
  6
CONTINUOUS
 62
7
 10
109.500000
 20
15.500000
 11
109.500000
 21
8.499990
  0
LINE
  8
0
  6
CONTINUOUS
 62
7
 10
109.500000
 20
11.289200
 11
113.500000
 21
11.289200
  0
LINE
  8
0
  6
CONTINUOUS
 62
7
 10
109.500000
 20
12.710800
 11
113.500000
 21
12.710800
  0
LINE
  8
0
  6
CONTINUOUS
 62
7
 10
109.500000
 20
9.210760
 11
113.500000
 21
9.210760
  0
LINE
  8
0
  6
CONTINUOUS
 62
7
 10
109.500000
 20
14.789200
 11
113.500000
 21
14.789200
  0
LINE
  8
0
  6
CENTER
 62
2
 10
160.117996
 20
12.000000
 11
174.468994
 21
12.000000
  0
LINE
  8
0
  6
CONTINUOUS
 62
2
 10
166.500000
 20
9.900020
 11
171.750000
 21
9.900020
  0
LINE
  8
0
  6
CONTINUOUS
 62
2
 10
166.500000
 20
14.100000
 11
171.750000
 21
14.100000
  0
LINE
  8
0
  6
CONTINUOUS
 62
7
 10
166.500000
 20
14.500000
 11
171.750000
 21
14.500000
  0
LINE
  8
0
  6
CONTINUOUS
 62
7
 10
171.750000
 20
9.500000
 11
171.750000
 21
14.500000
  0
LINE
  8
0
  6
CONTINUOUS
 62
7
 10
166.500000
 20
9.500000
 11
171.750000
 21
9.500000
  0
LINE
  8
0
  6
CONTINUOUS
 62
7
 10
162.500000
 20
16.000000
 11
162.500000
 21
8.000000
  0
LINE
  8
0
  6
CONTINUOUS
 62
7
 10
162.500000
 20
15.500000
 11
166.500000
 21
15.500000
  0
LINE
  8
0
  6
CONTINUOUS
 62
7
 10
162.500000
 20
8.499990
 11
166.500000
 21
8.499990
  0
LINE
  8
0
  6
CONTINUOUS
 62
7
 10
166.500000
 20
15.500000
 11
166.500000
 21
8.499990
  0
LINE
  8
0
  6
CONTINUOUS
 62
7
 10
166.500000
 20
11.289200
 11
162.500000
 21
11.289200
  0
LINE
  8
0
  6
CONTINUOUS
 62
7
 10
166.500000
 20
12.710800
 11
162.500000
 21
12.710800
  0
LINE
  8
0
  6
CONTINUOUS
 62
7
 10
166.384995
 20
9.210760
 11
162.500000
 21
9.210760
  0
LINE
  8
0
  6
CONTINUOUS
 62
7
 10
166.500000
 20
14.789200
 11
162.500000
 21
14.789200
  0
LINE
  8
0
  6
CONTINUOUS
 62
7
 10
162.500000
 20
8.000000
 11
113.500000
 21
8.000000
  0
LINE
  8
0
  6
CONTINUOUS
 62
7
 10
104.250000
 20
71.000000
 11
104.250000
 21
68.500000
  0
LINE
  8
0
  6
CONTINUOUS
 62
7
 10
113.500000
 20
68.500000
 11
113.500000
 21
72.500000
  0
LINE
  8
0
  6
CONTINUOUS
 62
7
 10
113.500000
 20
72.500000
 11
118.500000
 21
72.500000
  0
LINE
  8
0
  6
CONTINUOUS
 62
7
 10
118.500000
 20
68.500000
 11
118.500000
 21
72.500000
  0
LINE
  8
0
  6
CONTINUOUS
 62
2
 10
109.500000
 20
70.599998
 11
104.250000
 21
70.599998
  0
LINE
  8
0
  6
CONTINUOUS
 62
7
 10
109.500000
 20
68.500000
 11
109.500000
 21
72.199997
  0
LINE
  8
0
  6
CONTINUOUS
 62
7
 10
109.500000
 20
72.199997
 11
113.500000
 21
72.199997
  0
LINE
  8
0
  6
CONTINUOUS
 62
7
 10
109.500000
 20
69.699997
 11
113.500000
 21
69.699997
  0
LINE
  8
0
  6
CONTINUOUS
 62
7
 10
113.500000
 20
70.520699
 11
109.500000
 21
70.520699
  0
LINE
  8
0
  6
CONTINUOUS
 62
7
 10
109.500000
 20
71.000000
 11
104.250000
 21
71.000000
  0
LINE
  8
0
  6
CONTINUOUS
 62
7
 10
170.500000
 20
71.000000
 11
171.750000
 21
71.000000
  0
LINE
  8
0
  6
CONTINUOUS
 62
7
 10
171.750000
 20
71.000000
 11
171.750000
 21
68.500000
  0
LINE
  8
0
  6
CONTINUOUS
 62
2
 10
170.500000
 20
70.599998
 11
171.750000
 21
70.599998
  0
LINE
  8
0
  6
CONTINUOUS
 62
7
 10
183.000000
 20
114.500000
 11
155.750000
 21
114.500000
  0
LINE
  8
0
  6
CONTINUOUS
 62
7
 10
162.500000
 20
115.000000
 11
166.500000
 21
115.000000
  0
LINE
  8
0
  6
CENTER
 62
2
 10
154.647003
 20
118.500000
 11
174.468994
 21
118.500000
  0
LINE
  8
0
  6
CONTINUOUS
 62
2
 10
166.500000
 20
116.400002
 11
171.750000
 21
116.400002
  0
LINE
  8
0
  6
CONTINUOUS
 62
2
 10
166.500000
 20
120.599998
 11
171.750000
 21
120.599998
  0
LINE
  8
0
  6
CONTINUOUS
 62
7
 10
166.500000
 20
121.000000
 11
171.750000
 21
121.000000
  0
LINE
  8
0
  6
CONTINUOUS
 62
7
 10
171.750000
 20
116.000000
 11
171.750000
 21
121.000000
  0
LINE
  8
0
  6
CONTINUOUS
 62
7
 10
166.500000
 20
116.000000
 11
171.750000
 21
116.000000
  0
LINE
  8
0
  6
CONTINUOUS
 62
7
 10
162.500000
 20
122.500000
 11
113.500000
 21
122.500000
  0
LINE
  8
0
  6
CONTINUOUS
 62
7
 10
157.500000
 20
122.500000
 11
157.500000
 21
114.500000
  0
LINE
  8
0
  6
CONTINUOUS
 62
7
 10
162.500000
 20
122.500000
 11
162.500000
 21
114.500000
  0
LINE
  8
0
  6
CONTINUOUS
 62
7
 10
155.750000
 20
122.000000
 11
140.250000
 21
122.000000
  0
LINE
  8
0
  6
CONTINUOUS
 62
7
 10
140.250000
 20
122.000000
 11
140.250000
 21
113.000000
  0
LINE
  8
0
  6
CONTINUOUS
 62
7
 10
155.750000
 20
122.000000
 11
155.750000
 21
113.000000
  0
LINE
  8
0
  6
CONTINUOUS
 62
7
 10
162.500000
 20
122.000000
 11
166.500000
 21
122.000000
  0
LINE
  8
0
  6
CONTINUOUS
 62
7
 10
166.500000
 20
122.000000
 11
166.500000
 21
115.000000
  0
LINE
  8
0
  6
CONTINUOUS
 62
7
 10
166.500000
 20
117.789001
 11
162.500000
 21
117.789001
  0
LINE
  8
0
  6
CONTINUOUS
 62
7
 10
166.500000
 20
119.210999
 11
162.500000
 21
119.210999
  0
LINE
  8
0
  6
CONTINUOUS
 62
7
 10
166.500000
 20
115.710999
 11
162.500000
 21
115.710999
  0
LINE
  8
0
  6
CONTINUOUS
 62
7
 10
166.500000
 20
121.289001
 11
162.500000
 21
121.289001
  0
LINE
  8
0
  6
CONTINUOUS
 62
7
 10
140.250000
 20
114.500000
 11
93.000000
 21
114.500000
  0
LINE
  8
0
  6
CONTINUOUS
 62
7
 10
113.500000
 20
115.000000
 11
109.500000
 21
115.000000
  0
LINE
  8
0
  6
CENTER
 62
2
 10
121.352997
 20
118.500000
 11
101.530998
 21
118.500000
  0
LINE
  8
0
  6
CONTINUOUS
 62
2
 10
109.500000
 20
116.400002
 11
104.250000
 21
116.400002
  0
LINE
  8
0
  6
CONTINUOUS
 62
2
 10
109.500000
 20
120.599998
 11
104.250000
 21
120.599998
  0
LINE
  8
0
  6
CONTINUOUS
 62
7
 10
109.500000
 20
121.000000
 11
104.250000
 21
121.000000
  0
LINE
  8
0
  6
CONTINUOUS
 62
7
 10
104.250000
 20
116.000000
 11
104.250000
 21
121.000000
  0
LINE
  8
0
  6
CONTINUOUS
 62
7
 10
109.500000
 20
116.000000
 11
104.250000
 21
116.000000
  0
LINE
  8
0
  6
CONTINUOUS
 62
7
 10
118.500000
 20
122.500000
 11
118.500000
 21
114.500000
  0
LINE
  8
0
  6
CONTINUOUS
 62
7
 10
113.500000
 20
122.500000
 11
113.500000
 21
114.500000
  0
LINE
  8
0
  6
CONTINUOUS
 62
7
 10
113.500000
 20
122.000000
 11
109.500000
 21
122.000000
  0
LINE
  8
0
  6
CONTINUOUS
 62
7
 10
109.500000
 20
122.000000
 11
109.500000
 21
115.000000
  0
LINE
  8
0
  6
CONTINUOUS
 62
7
 10
109.500000
 20
117.789001
 11
113.500000
 21
117.789001
  0
LINE
  8
0
  6
CONTINUOUS
 62
7
 10
109.500000
 20
119.210999
 11
113.500000
 21
119.210999
  0
LINE
  8
0
  6
CONTINUOUS
 62
7
 10
109.500000
 20
115.710999
 11
113.500000
 21
115.710999
  0
LINE
  8
0
  6
CONTINUOUS
 62
7
 10
109.500000
 20
121.289001
 11
113.500000
 21
121.289001
  0
LINE
  8
0
  6
CONTINUOUS
 62
7
 10
170.500000
 20
140.000000
 11
169.500000
 21
140.000000
  0
LINE
  8
0
  6
CONTINUOUS
 62
7
 10
140.250000
 20
141.500000
 11
140.250000
 21
133.500000
  0
LINE
  8
0
  6
CONTINUOUS
 62
7
 10
140.250000
 20
141.500000
 11
155.750000
 21
141.500000
  0
LINE
  8
0
  6
CONTINUOUS
 62
7
 10
140.250000
 20
133.500000
 11
155.750000
 21
133.500000
  0
LINE
  8
0
  6
CONTINUOUS
 62
7
 10
157.500000
 20
133.500000
 11
162.500000
 21
133.500000
  0
LINE
  8
0
  6
CONTINUOUS
 62
7
 10
155.750000
 20
141.500000
 11
155.750000
 21
133.500000
  0
LINE
  8
0
  6
CONTINUOUS
 62
7
 10
113.500000
 20
151.500000
 11
113.500000
 21
133.500000
  0
LINE
  8
0
  6
CONTINUOUS
 62
7
 10
113.500000
 20
151.500000
 11
162.500000
 21
151.500000
  0
LINE
  8
0
  6
CONTINUOUS
 62
7
 10
113.500000
 20
133.500000
 11
118.500000
 21
133.500000
  0
LINE
  8
0
  6
CONTINUOUS
 62
7
 10
118.500000
 20
140.500000
 11
118.500000
 21
133.500000
  0
LINE
  8
0
  6
CONTINUOUS
 62
7
 10
121.000000
 20
143.000000
 11
155.000000
 21
143.000000
  0
LINE
  8
0
  6
CONTINUOUS
 62
7
 10
157.500000
 20
140.500000
 11
157.500000
 21
133.500000
  0
LINE
  8
0
  6
CONTINUOUS
 62
7
 10
162.500000
 20
133.500000
 11
157.500000
 21
133.500000
  0
LINE
  8
0
  6
CONTINUOUS
 62
7
 10
162.500000
 20
151.500000
 11
162.500000
 21
133.500000
  0
LINE
  8
0
  6
CONTINUOUS
 62
2
 10
109.500000
 20
139.600006
 11
104.250000
 21
139.600006
  0
LINE
  8
0
  6
CONTINUOUS
 62
7
 10
109.500000
 20
140.000000
 11
104.250000
 21
140.000000
  0
LINE
  8
0
  6
CONTINUOUS
 62
2
 10
109.500000
 20
135.399994
 11
104.250000
 21
135.399994
  0
LINE
  8
0
  6
CONTINUOUS
 62
7
 10
109.500000
 20
141.199997
 11
109.500000
 21
133.800003
  0
LINE
  8
0
  6
CONTINUOUS
 62
7
 10
109.500000
 20
141.199997
 11
113.500000
 21
141.199997
  0
LINE
  8
0
  6
CONTINUOUS
 62
7
 10
109.500000
 20
133.800003
 11
113.500000
 21
133.800003
  0
LINE
  8
0
  6
CONTINUOUS
 62
7
 10
109.500000
 20
139.520996
 11
113.500000
 21
139.520996
  0
LINE
  8
0
  6
CONTINUOUS
 62
7
 10
113.500000
 20
138.699997
 11
109.500000
 21
138.699997
  0
LINE
  8
0
  6
CONTINUOUS
 62
7
 10
109.500000
 20
136.300003
 11
113.500000
 21
136.300003
  0
LINE
  8
0
  6
CONTINUOUS
 62
7
 10
113.500000
 20
135.479004
 11
109.500000
 21
135.479004
  0
LINE
  8
0
  6
CONTINUOUS
 62
7
 10
109.500000
 20
135.000000
 11
104.250000
 21
135.000000
  0
LINE
  8
0
  6
CENTER
 62
2
 10
121.352997
 20
137.500000
 11
100.835999
 21
137.500000
  0
LINE
  8
0
  6
CONTINUOUS
 62
7
 10
104.250000
 20
135.000000
 11
104.250000
 21
140.000000
  0
LINE
  8
0
  6
CONTINUOUS
 62
7
 10
171.750000
 20
135.000000
 11
171.750000
 21
140.000000
  0
LINE
  8
0
  6
CONTINUOUS
 62
2
 10
166.500000
 20
139.600006
 11
171.750000
 21
139.600006
  0
LINE
  8
0
  6
CONTINUOUS
 62
7
 10
166.500000
 20
140.000000
 11
171.750000
 21
140.000000
  0
LINE
  8
0
  6
CONTINUOUS
 62
2
 10
166.500000
 20
135.399994
 11
171.750000
 21
135.399994
  0
LINE
  8
0
  6
CONTINUOUS
 62
7
 10
166.500000
 20
141.199997
 11
166.500000
 21
133.800003
  0
LINE
  8
0
  6
CONTINUOUS
 62
7
 10
166.500000
 20
141.199997
 11
162.500000
 21
141.199997
  0
LINE
  8
0
  6
CONTINUOUS
 62
7
 10
166.500000
 20
133.800003
 11
162.500000
 21
133.800003
  0
LINE
  8
0
  6
CONTINUOUS
 62
7
 10
166.500000
 20
139.520996
 11
162.500000
 21
139.520996
  0
LINE
  8
0
  6
CONTINUOUS
 62
7
 10
162.500000
 20
138.699997
 11
166.500000
 21
138.699997
  0
LINE
  8
0
  6
CONTINUOUS
 62
7
 10
166.500000
 20
136.300003
 11
162.500000
 21
136.300003
  0
LINE
  8
0
  6
CONTINUOUS
 62
7
 10
162.500000
 20
135.479004
 11
166.500000
 21
135.479004
  0
LINE
  8
0
  6
CONTINUOUS
 62
7
 10
166.500000
 20
135.000000
 11
171.750000
 21
135.000000
  0
LINE
  8
0
  6
CENTER
 62
2
 10
154.647003
 20
137.500000
 11
175.164001
 21
137.500000
  0
LINE
  8
0
  6
CONTINUOUS
 62
7
 10
104.250000
 20
137.500000
 11
93.000000
 21
137.500000
  0
LINE
  8
0
  6
CONTINUOUS
 62
7
 10
140.250000
 20
140.800003
 11
125.500000
 21
140.800003
  0
LINE
  8
0
  6
CONTINUOUS
 62
7
 10
170.500000
 20
140.000000
 11
170.500000
 21
140.800003
  0
LINE
  8
0
  6
CONTINUOUS
 62
7
 10
157.481995
 20
140.800003
 11
155.750000
 21
140.800003
  0
LINE
  8
0
  6
CENTER
 62
2
 10
-188.000000
 20
-105.513000
 11
-188.000000
 21
-126.005997
  0
LINE
  8
0
  6
CONTINUOUS
 62
7
 10
-183.500000
 20
-112.865997
 11
-183.500000
 21
-115.199997
  0
LINE
  8
0
  6
CONTINUOUS
 62
7
 10
-192.500000
 20
-112.865997
 11
-192.500000
 21
-115.199997
  0
LINE
  8
0
  6
CONTINUOUS
 62
7
 10
-178.000000
 20
-106.000000
 11
-182.500000
 21
-106.000000
  0
LINE
  8
0
  6
CONTINUOUS
 62
7
 10
-178.000000
 20
-106.000000
 11
-178.000000
 21
-113.800003
  0
LINE
  8
0
  6
CONTINUOUS
 62
7
 10
-178.000000
 20
-113.800003
 11
-183.500000
 21
-113.800003
  0
LINE
  8
0
  6
CONTINUOUS
 62
7
 10
-182.800003
 20
-106.300003
 11
-193.199997
 21
-106.300003
  0
LINE
  8
0
  6
CONTINUOUS
 62
7
 10
-192.500000
 20
-113.800003
 11
-198.000000
 21
-113.800003
  0
LINE
  8
0
  6
CONTINUOUS
 62
7
 10
-193.199997
 20
-106.300003
 11
-193.500000
 21
-106.000000
  0
LINE
  8
0
  6
CONTINUOUS
 62
7
 10
-182.800003
 20
-106.300003
 11
-182.500000
 21
-106.000000
  0
LINE
  8
0
  6
CONTINUOUS
 62
7
 10
-193.500000
 20
-106.000000
 11
-198.000000
 21
-106.000000
  0
LINE
  8
0
  6
CONTINUOUS
 62
7
 10
-183.500000
 20
-110.500000
 11
-183.500000
 21
-111.134003
  0
LINE
  8
0
  6
CONTINUOUS
 62
7
 10
-192.500000
 20
-110.500000
 11
-183.500000
 21
-110.500000
  0
LINE
  8
0
  6
CONTINUOUS
 62
7
 10
-192.500000
 20
-110.500000
 11
-192.500000
 21
-111.134003
  0
LINE
  8
0
  6
CONTINUOUS
 62
7
 10
-176.500000
 20
-125.000000
 11
-199.500000
 21
-125.000000
  0
LINE
  8
0
  6
CONTINUOUS
 62
7
 10
-199.500000
 20
-115.199997
 11
-199.500000
 21
-125.000000
  0
LINE
  8
0
  6
CONTINUOUS
 62
7
 10
-176.500000
 20
-106.500000
 11
-176.500000
 21
-125.000000
  0
LINE
  8
0
  6
CONTINUOUS
 62
7
 10
-199.500000
 20
-115.199997
 11
-192.500000
 21
-115.199997
  0
LINE
  8
0
  6
CENTER
 62
2
 10
-181.500000
 20
-118.500000
 11
-194.500000
 21
-118.500000
  0
LINE
  8
0
  6
CONTINUOUS
 62
7
 10
-176.500000
 20
-115.199997
 11
-183.500000
 21
-115.199997
  0
LINE
  8
0
  6
CONTINUOUS
 62
7
 10
-198.000000
 20
-106.000000
 11
-198.000000
 21
-113.800003
  0
LINE
  8
0
  6
CENTER
 62
2
 10
-180.000000
 20
-123.000000
 11
-180.000000
 21
-127.000000
  0
LINE
  8
0
  6
CENTER
 62
2
 10
-196.000000
 20
-123.000000
 11
-196.000000
 21
-127.000000
  0
LINE
  8
0
  6
CENTER
 62
2
 10
-195.500000
 20
-104.000000
 11
-195.500000
 21
-108.000000
  0
LINE
  8
0
  6
CENTER
 62
2
 10
-180.500000
 20
-104.000000
 11
-180.500000
 21
-108.000000
  0
LINE
  8
0
  6
CONTINUOUS
 62
7
 10
-172.500000
 20
-109.056999
 11
-171.250000
 21
-109.778000
  0
LINE
  8
0
  6
CONTINUOUS
 62
7
 10
-171.250000
 20
-109.778000
 11
-171.250000
 21
-111.222000
  0
LINE
  8
0
  6
CONTINUOUS
 62
7
 10
-172.500000
 20
-111.943001
 11
-171.250000
 21
-111.222000
  0
LINE
  8
0
  6
CONTINUOUS
 62
7
 10
-173.750000
 20
-111.222000
 11
-172.500000
 21
-111.943001
  0
LINE
  8
0
  6
CONTINUOUS
 62
7
 10
-173.750000
 20
-109.778000
 11
-173.750000
 21
-111.222000
  0
LINE
  8
0
  6
CONTINUOUS
 62
7
 10
-172.500000
 20
-109.056999
 11
-173.750000
 21
-109.778000
  0
LINE
  8
0
  6
CONTINUOUS
 62
7
 10
-173.210999
 20
-106.869003
 11
-175.289001
 21
-108.069000
  0
LINE
  8
0
  6
CENTER
 62
2
 10
-172.500000
 20
-105.500000
 11
-172.500000
 21
-115.500000
  0
LINE
  8
0
  6
CENTER
 62
2
 10
-168.000000
 20
-110.500000
 11
-178.000000
 21
-110.500000
  0
LINE
  8
0
  6
CONTINUOUS
 62
7
 10
-171.789001
 20
-106.869003
 11
-169.710999
 21
-108.069000
  0
LINE
  8
0
  6
CONTINUOUS
 62
7
 10
-169.000000
 20
-109.300003
 11
-169.000000
 21
-111.699997
  0
LINE
  8
0
  6
CONTINUOUS
 62
7
 10
-171.789001
 20
-114.130997
 11
-169.710999
 21
-112.931000
  0
LINE
  8
0
  6
CONTINUOUS
 62
7
 10
-175.289001
 20
-112.931000
 11
-173.210999
 21
-114.130997
  0
LINE
  8
0
  6
CONTINUOUS
 62
7
 10
-178.000000
 20
-106.500000
 11
-168.500000
 21
-106.500000
  0
LINE
  8
0
  6
CONTINUOUS
 62
7
 10
-176.500000
 20
-124.500000
 11
-168.500000
 21
-124.500000
  0
LINE
  8
0
  6
CONTINUOUS
 62
7
 10
-168.500000
 20
-106.500000
 11
-168.500000
 21
-124.500000
  0
LINE
  8
0
  6
CONTINUOUS
 62
7
 10
-176.000000
 20
-109.300003
 11
-176.000000
 21
-111.699997
  0
LINE
  8
0
  6
CENTER
 62
2
 10
-68.000000
 20
-105.513000
 11
-68.000000
 21
-126.005997
  0
LINE
  8
0
  6
CONTINUOUS
 62
7
 10
-72.500000
 20
-112.865997
 11
-72.500000
 21
-115.199997
  0
LINE
  8
0
  6
CONTINUOUS
 62
7
 10
-63.500000
 20
-112.865997
 11
-63.500000
 21
-115.199997
  0
LINE
  8
0
  6
CONTINUOUS
 62
7
 10
-78.000000
 20
-106.000000
 11
-73.500000
 21
-106.000000
  0
LINE
  8
0
  6
CONTINUOUS
 62
7
 10
-78.000000
 20
-106.000000
 11
-78.000000
 21
-113.800003
  0
LINE
  8
0
  6
CONTINUOUS
 62
7
 10
-78.000000
 20
-113.800003
 11
-72.500000
 21
-113.800003
  0
LINE
  8
0
  6
CONTINUOUS
 62
7
 10
-73.199997
 20
-106.300003
 11
-62.799999
 21
-106.300003
  0
LINE
  8
0
  6
CONTINUOUS
 62
7
 10
-63.500000
 20
-113.800003
 11
-58.000000
 21
-113.800003
  0
LINE
  8
0
  6
CONTINUOUS
 62
7
 10
-62.799999
 20
-106.300003
 11
-62.500000
 21
-106.000000
  0
LINE
  8
0
  6
CONTINUOUS
 62
7
 10
-73.200104
 20
-106.300003
 11
-73.500099
 21
-106.000000
  0
LINE
  8
0
  6
CONTINUOUS
 62
7
 10
-62.500000
 20
-106.000000
 11
-58.000000
 21
-106.000000
  0
LINE
  8
0
  6
CONTINUOUS
 62
7
 10
-72.500000
 20
-110.500000
 11
-72.500000
 21
-111.134003
  0
LINE
  8
0
  6
CONTINUOUS
 62
7
 10
-63.500000
 20
-110.500000
 11
-72.500000
 21
-110.500000
  0
LINE
  8
0
  6
CONTINUOUS
 62
7
 10
-63.500000
 20
-110.500000
 11
-63.500000
 21
-111.134003
  0
LINE
  8
0
  6
CONTINUOUS
 62
7
 10
-79.500000
 20
-125.000000
 11
-56.500000
 21
-125.000000
  0
LINE
  8
0
  6
CONTINUOUS
 62
7
 10
-56.500000
 20
-115.199997
 11
-56.500000
 21
-125.000000
  0
LINE
  8
0
  6
CONTINUOUS
 62
7
 10
-79.500000
 20
-106.500000
 11
-79.500000
 21
-125.000000
  0
LINE
  8
0
  6
CONTINUOUS
 62
7
 10
-56.500000
 20
-115.199997
 11
-63.500000
 21
-115.199997
  0
LINE
  8
0
  6
CENTER
 62
2
 10
-74.500000
 20
-118.500000
 11
-61.500000
 21
-118.500000
  0
LINE
  8
0
  6
CONTINUOUS
 62
7
 10
-79.500000
 20
-115.199997
 11
-72.500000
 21
-115.199997
  0
LINE
  8
0
  6
CONTINUOUS
 62
7
 10
-58.000000
 20
-106.000000
 11
-58.000000
 21
-113.800003
  0
LINE
  8
0
  6
CENTER
 62
2
 10
-76.000000
 20
-123.000000
 11
-76.000000
 21
-127.000000
  0
LINE
  8
0
  6
CENTER
 62
2
 10
-60.000000
 20
-123.000000
 11
-60.000000
 21
-127.000000
  0
LINE
  8
0
  6
CENTER
 62
2
 10
-60.500000
 20
-104.000000
 11
-60.500000
 21
-108.000000
  0
LINE
  8
0
  6
CENTER
 62
2
 10
-75.500000
 20
-104.000000
 11
-75.500000
 21
-108.000000
  0
LINE
  8
0
  6
CONTINUOUS
 62
7
 10
-83.500000
 20
-109.056999
 11
-84.750000
 21
-109.778000
  0
LINE
  8
0
  6
CONTINUOUS
 62
7
 10
-84.750000
 20
-109.778000
 11
-84.750000
 21
-111.222000
  0
LINE
  8
0
  6
CONTINUOUS
 62
7
 10
-83.500000
 20
-111.943001
 11
-84.750000
 21
-111.222000
  0
LINE
  8
0
  6
CONTINUOUS
 62
7
 10
-82.250000
 20
-111.222000
 11
-83.500000
 21
-111.943001
  0
LINE
  8
0
  6
CONTINUOUS
 62
7
 10
-82.250000
 20
-109.778000
 11
-82.250000
 21
-111.222000
  0
LINE
  8
0
  6
CONTINUOUS
 62
7
 10
-83.500000
 20
-109.056999
 11
-82.250000
 21
-109.778000
  0
LINE
  8
0
  6
CONTINUOUS
 62
7
 10
-82.789200
 20
-106.869003
 11
-80.710800
 21
-108.069000
  0
LINE
  8
0
  6
CENTER
 62
2
 10
-83.500000
 20
-105.500000
 11
-83.500000
 21
-115.500000
  0
LINE
  8
0
  6
CENTER
 62
2
 10
-88.000000
 20
-110.500000
 11
-78.000000
 21
-110.500000
  0
LINE
  8
0
  6
CONTINUOUS
 62
7
 10
-84.210800
 20
-106.869003
 11
-86.289200
 21
-108.069000
  0
LINE
  8
0
  6
CONTINUOUS
 62
7
 10
-87.000000
 20
-109.300003
 11
-87.000000
 21
-111.699997
  0
LINE
  8
0
  6
CONTINUOUS
 62
7
 10
-84.210800
 20
-114.130997
 11
-86.289299
 21
-112.931000
  0
LINE
  8
0
  6
CONTINUOUS
 62
7
 10
-80.710800
 20
-112.931000
 11
-82.789200
 21
-114.130997
  0
LINE
  8
0
  6
CONTINUOUS
 62
7
 10
-78.000000
 20
-106.500000
 11
-87.500000
 21
-106.500000
  0
LINE
  8
0
  6
CONTINUOUS
 62
7
 10
-79.500000
 20
-124.500000
 11
-87.500000
 21
-124.500000
  0
LINE
  8
0
  6
CONTINUOUS
 62
7
 10
-87.500000
 20
-106.500000
 11
-87.500000
 21
-124.500000
  0
LINE
  8
0
  6
CONTINUOUS
 62
7
 10
-80.000000
 20
-109.300003
 11
-80.000000
 21
-111.699997
  0
LINE
  8
0
  6
CONTINUOUS
 62
7
 10
-140.750000
 20
119.949997
 11
-142.250000
 21
119.949997
  0
LINE
  8
0
  6
CONTINUOUS
 62
7
 10
-140.750000
 20
117.050003
 11
-142.250000
 21
117.050003
  0
LINE
  8
0
  6
CONTINUOUS
 62
7
 10
-142.250000
 20
116.000000
 11
-142.250000
 21
121.000000
  0
LINE
  8
0
  6
CONTINUOUS
 62
7
 10
-113.500000
 20
116.000000
 11
-113.750000
 21
116.000000
  0
LINE
  8
0
  6
CONTINUOUS
 62
2
 10
-113.500000
 20
120.599998
 11
-113.750000
 21
120.599998
  0
LINE
  8
0
  6
CONTINUOUS
 62
2
 10
-113.500000
 20
116.400002
 11
-113.750000
 21
116.400002
  0
LINE
  8
0
  6
CONTINUOUS
 62
7
 10
-113.500000
 20
121.000000
 11
-113.750000
 21
121.000000
  0
LINE
  8
0
  6
CONTINUOUS
 62
7
 10
-113.750000
 20
116.000000
 11
-113.750000
 21
121.000000
  0
LINE
  8
0
  6
CONTINUOUS
 62
7
 10
-115.250000
 20
119.949997
 11
-113.750000
 21
119.949997
  0
LINE
  8
0
  6
CONTINUOUS
 62
7
 10
-115.250000
 20
117.050003
 11
-113.750000
 21
117.050003
  0
LINE
  8
0
  6
CONTINUOUS
 62
7
 10
-140.750000
 20
136.050003
 11
-140.750000
 21
138.949997
  0
LINE
  8
0
  6
CONTINUOUS
 62
7
 10
-142.500000
 20
135.000000
 11
-142.250000
 21
135.000000
  0
LINE
  8
0
  6
CONTINUOUS
 62
2
 10
-142.500000
 20
139.600006
 11
-142.250000
 21
139.600006
  0
LINE
  8
0
  6
CONTINUOUS
 62
2
 10
-142.500000
 20
135.399994
 11
-142.250000
 21
135.399994
  0
LINE
  8
0
  6
CONTINUOUS
 62
7
 10
-142.500000
 20
140.000000
 11
-142.250000
 21
140.000000
  0
LINE
  8
0
  6
CONTINUOUS
 62
7
 10
-142.250000
 20
135.000000
 11
-142.250000
 21
140.000000
  0
LINE
  8
0
  6
CONTINUOUS
 62
7
 10
-140.750000
 20
138.949997
 11
-142.250000
 21
138.949997
  0
LINE
  8
0
  6
CONTINUOUS
 62
7
 10
-140.750000
 20
136.050003
 11
-142.250000
 21
136.050003
  0
LINE
  8
0
  6
CONTINUOUS
 62
7
 10
-115.250000
 20
138.949997
 11
-113.750000
 21
138.949997
  0
LINE
  8
0
  6
CONTINUOUS
 62
7
 10
-113.750000
 20
135.000000
 11
-113.750000
 21
140.000000
  0
LINE
  8
0
  6
CONTINUOUS
 62
7
 10
-113.500000
 20
135.000000
 11
-113.750000
 21
135.000000
  0
LINE
  8
0
  6
CONTINUOUS
 62
2
 10
-113.500000
 20
139.600006
 11
-113.750000
 21
139.600006
  0
LINE
  8
0
  6
CONTINUOUS
 62
2
 10
-113.500000
 20
135.399994
 11
-113.750000
 21
135.399994
  0
LINE
  8
0
  6
CONTINUOUS
 62
7
 10
-113.500000
 20
140.000000
 11
-113.750000
 21
140.000000
  0
LINE
  8
0
  6
CONTINUOUS
 62
7
 10
-115.250000
 20
136.050003
 11
-113.750000
 21
136.050003
  0
LINE
  8
0
  6
CONTINUOUS
 62
7
 10
-140.750000
 20
68.500000
 11
-140.750000
 21
69.949997
  0
LINE
  8
0
  6
CONTINUOUS
 62
2
 10
-142.500000
 20
70.599998
 11
-142.250000
 21
70.599998
  0
LINE
  8
0
  6
CONTINUOUS
 62
7
 10
-142.500000
 20
71.000000
 11
-142.250000
 21
71.000000
  0
LINE
  8
0
  6
CONTINUOUS
 62
7
 10
-142.250000
 20
68.500000
 11
-142.250000
 21
71.000000
  0
LINE
  8
0
  6
CONTINUOUS
 62
7
 10
-140.750000
 20
69.949997
 11
-142.250000
 21
69.949997
  0
LINE
  8
0
  6
CONTINUOUS
 62
7
 10
-140.750000
 20
-45.950001
 11
-140.750000
 21
-44.500000
  0
LINE
  8
0
  6
CONTINUOUS
 62
7
 10
-140.750000
 20
-45.950001
 11
-142.250000
 21
-45.950001
  0
LINE
  8
0
  6
CONTINUOUS
 62
7
 10
-142.500000
 20
-47.000000
 11
-142.250000
 21
-47.000000
  0
LINE
  8
0
  6
CONTINUOUS
 62
2
 10
-142.500000
 20
-46.599998
 11
-142.250000
 21
-46.599998
  0
LINE
  8
0
  6
CONTINUOUS
 62
7
 10
-142.250000
 20
-47.000000
 11
-142.250000
 21
-44.500000
  0
LINE
  8
0
  6
CONTINUOUS
 62
7
 10
-140.750000
 20
-92.949997
 11
-140.750000
 21
-90.050003
  0
LINE
  8
0
  6
CONTINUOUS
 62
7
 10
-140.750000
 20
-92.949997
 11
-142.250000
 21
-92.949997
  0
LINE
  8
0
  6
CONTINUOUS
 62
7
 10
-142.500000
 20
-94.000000
 11
-142.250000
 21
-94.000000
  0
LINE
  8
0
  6
CONTINUOUS
 62
2
 10
-142.500000
 20
-89.400002
 11
-142.250000
 21
-89.400002
  0
LINE
  8
0
  6
CONTINUOUS
 62
2
 10
-142.500000
 20
-93.599998
 11
-142.250000
 21
-93.599998
  0
LINE
  8
0
  6
CONTINUOUS
 62
7
 10
-142.500000
 20
-89.000000
 11
-142.250000
 21
-89.000000
  0
LINE
  8
0
  6
CONTINUOUS
 62
7
 10
-142.250000
 20
-94.000000
 11
-142.250000
 21
-89.000000
  0
LINE
  8
0
  6
CONTINUOUS
 62
7
 10
-140.750000
 20
-90.050003
 11
-142.250000
 21
-90.050003
  0
LINE
  8
0
  6
CONTINUOUS
 62
7
 10
-140.750000
 20
-111.949997
 11
-140.750000
 21
-109.050003
  0
LINE
  8
0
  6
CONTINUOUS
 62
7
 10
-140.750000
 20
-111.949997
 11
-142.250000
 21
-111.949997
  0
LINE
  8
0
  6
CONTINUOUS
 62
7
 10
-142.500000
 20
-113.000000
 11
-142.250000
 21
-113.000000
  0
LINE
  8
0
  6
CONTINUOUS
 62
2
 10
-142.500000
 20
-108.400002
 11
-142.250000
 21
-108.400002
  0
LINE
  8
0
  6
CONTINUOUS
 62
2
 10
-142.500000
 20
-112.599998
 11
-142.250000
 21
-112.599998
  0
LINE
  8
0
  6
CONTINUOUS
 62
7
 10
-142.500000
 20
-108.000000
 11
-142.250000
 21
-108.000000
  0
LINE
  8
0
  6
CONTINUOUS
 62
7
 10
-142.250000
 20
-113.000000
 11
-142.250000
 21
-108.000000
  0
LINE
  8
0
  6
CONTINUOUS
 62
7
 10
-140.750000
 20
-109.050003
 11
-142.250000
 21
-109.050003
  0
LINE
  8
0
  6
CONTINUOUS
 62
2
 10
-113.500000
 20
-93.599998
 11
-113.750000
 21
-93.599998
  0
LINE
  8
0
  6
CONTINUOUS
 62
7
 10
-113.500000
 20
-89.000000
 11
-113.750000
 21
-89.000000
  0
LINE
  8
0
  6
CONTINUOUS
 62
7
 10
-115.250000
 20
-111.949997
 11
-113.750000
 21
-111.949997
  0
LINE
  8
0
  6
CONTINUOUS
 62
7
 10
-113.500000
 20
-113.000000
 11
-113.750000
 21
-113.000000
  0
LINE
  8
0
  6
CONTINUOUS
 62
2
 10
-113.500000
 20
-108.400002
 11
-113.750000
 21
-108.400002
  0
LINE
  8
0
  6
CONTINUOUS
 62
2
 10
-113.500000
 20
-112.599998
 11
-113.750000
 21
-112.599998
  0
LINE
  8
0
  6
CONTINUOUS
 62
7
 10
-113.500000
 20
-108.000000
 11
-113.750000
 21
-108.000000
  0
LINE
  8
0
  6
CONTINUOUS
 62
7
 10
-113.750000
 20
-113.000000
 11
-113.750000
 21
-108.000000
  0
LINE
  8
0
  6
CONTINUOUS
 62
7
 10
-115.250000
 20
-109.050003
 11
-113.750000
 21
-109.050003
  0
LINE
  8
0
  6
CONTINUOUS
 62
7
 10
-115.250000
 20
-90.050003
 11
-113.750000
 21
-90.050003
  0
LINE
  8
0
  6
CONTINUOUS
 62
7
 10
-113.750000
 20
-94.000000
 11
-113.750000
 21
-89.000000
  0
LINE
  8
0
  6
CONTINUOUS
 62
7
 10
-115.250000
 20
-92.949997
 11
-113.750000
 21
-92.949997
  0
LINE
  8
0
  6
CONTINUOUS
 62
7
 10
-113.500000
 20
-94.000000
 11
-113.750000
 21
-94.000000
  0
LINE
  8
0
  6
CONTINUOUS
 62
2
 10
-113.500000
 20
-89.400002
 11
-113.750000
 21
-89.400002
  0
LINE
  8
0
  6
CONTINUOUS
 62
7
 10
120.250000
 20
136.050003
 11
120.250000
 21
138.949997
  0
LINE
  8
0
  6
CONTINUOUS
 62
7
 10
120.250000
 20
136.050003
 11
118.750000
 21
136.050003
  0
LINE
  8
0
  6
CONTINUOUS
 62
7
 10
118.500000
 20
135.000000
 11
118.750000
 21
135.000000
  0
LINE
  8
0
  6
CONTINUOUS
 62
2
 10
118.500000
 20
139.600006
 11
118.750000
 21
139.600006
  0
LINE
  8
0
  6
CONTINUOUS
 62
2
 10
118.500000
 20
135.399994
 11
118.750000
 21
135.399994
  0
LINE
  8
0
  6
CONTINUOUS
 62
7
 10
118.500000
 20
140.000000
 11
118.750000
 21
140.000000
  0
LINE
  8
0
  6
CONTINUOUS
 62
7
 10
118.750000
 20
135.000000
 11
118.750000
 21
140.000000
  0
LINE
  8
0
  6
CONTINUOUS
 62
7
 10
120.250000
 20
138.949997
 11
118.750000
 21
138.949997
  0
LINE
  8
0
  6
CONTINUOUS
 62
7
 10
120.250000
 20
117.050003
 11
120.250000
 21
119.949997
  0
LINE
  8
0
  6
CONTINUOUS
 62
7
 10
120.250000
 20
117.050003
 11
118.750000
 21
117.050003
  0
LINE
  8
0
  6
CONTINUOUS
 62
7
 10
118.500000
 20
116.000000
 11
118.750000
 21
116.000000
  0
LINE
  8
0
  6
CONTINUOUS
 62
2
 10
118.500000
 20
120.599998
 11
118.750000
 21
120.599998
  0
LINE
  8
0
  6
CONTINUOUS
 62
2
 10
118.500000
 20
116.400002
 11
118.750000
 21
116.400002
  0
LINE
  8
0
  6
CONTINUOUS
 62
7
 10
118.500000
 20
121.000000
 11
118.750000
 21
121.000000
  0
LINE
  8
0
  6
CONTINUOUS
 62
7
 10
118.750000
 20
116.000000
 11
118.750000
 21
121.000000
  0
LINE
  8
0
  6
CONTINUOUS
 62
7
 10
120.250000
 20
119.949997
 11
118.750000
 21
119.949997
  0
LINE
  8
0
  6
CONTINUOUS
 62
2
 10
157.500000
 20
135.399994
 11
157.250000
 21
135.399994
  0
LINE
  8
0
  6
CONTINUOUS
 62
7
 10
157.500000
 20
140.000000
 11
157.250000
 21
140.000000
  0
LINE
  8
0
  6
CONTINUOUS
 62
7
 10
155.750000
 20
117.050003
 11
157.250000
 21
117.050003
  0
LINE
  8
0
  6
CONTINUOUS
 62
7
 10
157.500000
 20
116.000000
 11
157.250000
 21
116.000000
  0
LINE
  8
0
  6
CONTINUOUS
 62
2
 10
157.500000
 20
120.599998
 11
157.250000
 21
120.599998
  0
LINE
  8
0
  6
CONTINUOUS
 62
2
 10
157.500000
 20
116.400002
 11
157.250000
 21
116.400002
  0
LINE
  8
0
  6
CONTINUOUS
 62
7
 10
157.500000
 20
121.000000
 11
157.250000
 21
121.000000
  0
LINE
  8
0
  6
CONTINUOUS
 62
7
 10
157.250000
 20
116.000000
 11
157.250000
 21
121.000000
  0
LINE
  8
0
  6
CONTINUOUS
 62
7
 10
155.750000
 20
119.949997
 11
157.250000
 21
119.949997
  0
LINE
  8
0
  6
CONTINUOUS
 62
7
 10
155.750000
 20
138.949997
 11
157.250000
 21
138.949997
  0
LINE
  8
0
  6
CONTINUOUS
 62
7
 10
157.250000
 20
135.000000
 11
157.250000
 21
140.000000
  0
LINE
  8
0
  6
CONTINUOUS
 62
7
 10
155.750000
 20
136.050003
 11
157.250000
 21
136.050003
  0
LINE
  8
0
  6
CONTINUOUS
 62
7
 10
157.500000
 20
135.000000
 11
157.250000
 21
135.000000
  0
LINE
  8
0
  6
CONTINUOUS
 62
2
 10
157.500000
 20
139.600006
 11
157.250000
 21
139.600006
  0
LINE
  8
0
  6
CONTINUOUS
 62
7
 10
120.250000
 20
68.500000
 11
120.250000
 21
69.949997
  0
LINE
  8
0
  6
CONTINUOUS
 62
2
 10
118.500000
 20
70.599998
 11
118.750000
 21
70.599998
  0
LINE
  8
0
  6
CONTINUOUS
 62
7
 10
118.500000
 20
71.000000
 11
118.750000
 21
71.000000
  0
LINE
  8
0
  6
CONTINUOUS
 62
7
 10
118.750000
 20
68.500000
 11
118.750000
 21
71.000000
  0
LINE
  8
0
  6
CONTINUOUS
 62
7
 10
120.250000
 20
69.949997
 11
118.750000
 21
69.949997
  0
LINE
  8
0
  6
CONTINUOUS
 62
7
 10
120.250000
 20
-45.950001
 11
120.250000
 21
-44.500000
  0
LINE
  8
0
  6
CONTINUOUS
 62
7
 10
120.250000
 20
-45.950001
 11
118.750000
 21
-45.950001
  0
LINE
  8
0
  6
CONTINUOUS
 62
7
 10
118.500000
 20
-47.000000
 11
118.750000
 21
-47.000000
  0
LINE
  8
0
  6
CONTINUOUS
 62
2
 10
118.500000
 20
-46.599998
 11
118.750000
 21
-46.599998
  0
LINE
  8
0
  6
CONTINUOUS
 62
7
 10
118.750000
 20
-47.000000
 11
118.750000
 21
-44.500000
  0
LINE
  8
0
  6
CONTINUOUS
 62
7
 10
120.250000
 20
-111.949997
 11
120.250000
 21
-109.050003
  0
LINE
  8
0
  6
CONTINUOUS
 62
7
 10
120.250000
 20
-111.949997
 11
118.750000
 21
-111.949997
  0
LINE
  8
0
  6
CONTINUOUS
 62
7
 10
118.500000
 20
-113.000000
 11
118.750000
 21
-113.000000
  0
LINE
  8
0
  6
CONTINUOUS
 62
2
 10
118.500000
 20
-108.400002
 11
118.750000
 21
-108.400002
  0
LINE
  8
0
  6
CONTINUOUS
 62
2
 10
118.500000
 20
-112.599998
 11
118.750000
 21
-112.599998
  0
LINE
  8
0
  6
CONTINUOUS
 62
7
 10
118.500000
 20
-108.000000
 11
118.750000
 21
-108.000000
  0
LINE
  8
0
  6
CONTINUOUS
 62
7
 10
118.750000
 20
-113.000000
 11
118.750000
 21
-108.000000
  0
LINE
  8
0
  6
CONTINUOUS
 62
7
 10
120.250000
 20
-109.050003
 11
118.750000
 21
-109.050003
  0
LINE
  8
0
  6
CONTINUOUS
 62
7
 10
120.250000
 20
-92.949997
 11
120.250000
 21
-90.050003
  0
LINE
  8
0
  6
CONTINUOUS
 62
7
 10
120.250000
 20
-92.949997
 11
118.750000
 21
-92.949997
  0
LINE
  8
0
  6
CONTINUOUS
 62
7
 10
118.500000
 20
-94.000000
 11
118.750000
 21
-94.000000
  0
LINE
  8
0
  6
CONTINUOUS
 62
2
 10
118.500000
 20
-89.400002
 11
118.750000
 21
-89.400002
  0
LINE
  8
0
  6
CONTINUOUS
 62
2
 10
118.500000
 20
-93.599998
 11
118.750000
 21
-93.599998
  0
LINE
  8
0
  6
CONTINUOUS
 62
7
 10
118.500000
 20
-89.000000
 11
118.750000
 21
-89.000000
  0
LINE
  8
0
  6
CONTINUOUS
 62
7
 10
118.750000
 20
-94.000000
 11
118.750000
 21
-89.000000
  0
LINE
  8
0
  6
CONTINUOUS
 62
7
 10
120.250000
 20
-90.050003
 11
118.750000
 21
-90.050003
  0
LINE
  8
0
  6
CONTINUOUS
 62
2
 10
157.500000
 20
-93.599998
 11
157.250000
 21
-93.599998
  0
LINE
  8
0
  6
CONTINUOUS
 62
7
 10
157.500000
 20
-89.000000
 11
157.250000
 21
-89.000000
  0
LINE
  8
0
  6
CONTINUOUS
 62
7
 10
155.750000
 20
-111.949997
 11
157.250000
 21
-111.949997
  0
LINE
  8
0
  6
CONTINUOUS
 62
7
 10
157.500000
 20
-113.000000
 11
157.250000
 21
-113.000000
  0
LINE
  8
0
  6
CONTINUOUS
 62
2
 10
157.500000
 20
-108.400002
 11
157.250000
 21
-108.400002
  0
LINE
  8
0
  6
CONTINUOUS
 62
2
 10
157.500000
 20
-112.599998
 11
157.250000
 21
-112.599998
  0
LINE
  8
0
  6
CONTINUOUS
 62
7
 10
157.500000
 20
-108.000000
 11
157.250000
 21
-108.000000
  0
LINE
  8
0
  6
CONTINUOUS
 62
7
 10
157.250000
 20
-113.000000
 11
157.250000
 21
-108.000000
  0
LINE
  8
0
  6
CONTINUOUS
 62
7
 10
155.750000
 20
-109.050003
 11
157.250000
 21
-109.050003
  0
LINE
  8
0
  6
CONTINUOUS
 62
7
 10
157.250000
 20
-94.000000
 11
157.250000
 21
-89.000000
  0
LINE
  8
0
  6
CONTINUOUS
 62
7
 10
155.750000
 20
-90.050003
 11
157.250000
 21
-90.050003
  0
LINE
  8
0
  6
CONTINUOUS
 62
7
 10
155.750000
 20
-92.949997
 11
157.250000
 21
-92.949997
  0
LINE
  8
0
  6
CONTINUOUS
 62
7
 10
157.500000
 20
-94.000000
 11
157.250000
 21
-94.000000
  0
LINE
  8
0
  6
CONTINUOUS
 62
2
 10
157.500000
 20
-89.400002
 11
157.250000
 21
-89.400002
  0
LINE
  8
0
  6
CENTER
 62
2
 10
-152.500000
 20
64.000000
 11
-152.500000
 21
55.000000
  0
LINE
  8
0
  6
CENTER
 62
2
 10
-157.000000
 20
59.500000
 11
-148.000000
 21
59.500000
  0
LINE
  8
0
  6
CENTER
 62
2
 10
-103.500000
 20
64.000000
 11
-103.500000
 21
55.000000
  0
LINE
  8
0
  6
CENTER
 62
2
 10
-108.000000
 20
59.500000
 11
-99.000000
 21
59.500000
  0
LINE
  8
0
  6
CENTER
 62
2
 10
98.500000
 20
64.000000
 11
98.500000
 21
55.000000
  0
LINE
  8
0
  6
CENTER
 62
2
 10
94.000000
 20
59.500000
 11
103.000000
 21
59.500000
  0
LINE
  8
0
  6
CENTER
 62
2
 10
177.500000
 20
64.000000
 11
177.500000
 21
55.000000
  0
LINE
  8
0
  6
CENTER
 62
2
 10
173.000000
 20
59.500000
 11
182.000000
 21
59.500000
  0
LINE
  8
0
  6
CENTER
 62
2
 10
-152.500000
 20
-115.000000
 11
-152.500000
 21
-124.000000
  0
LINE
  8
0
  6
CENTER
 62
2
 10
-157.000000
 20
-119.500000
 11
-148.000000
 21
-119.500000
  0
LINE
  8
0
  6
CENTER
 62
2
 10
-103.500000
 20
-115.000000
 11
-103.500000
 21
-124.000000
  0
LINE
  8
0
  6
CENTER
 62
2
 10
-108.000000
 20
-119.500000
 11
-99.000000
 21
-119.500000
  0
LINE
  8
0
  6
CENTER
 62
2
 10
98.500000
 20
-115.000000
 11
98.500000
 21
-124.000000
  0
LINE
  8
0
  6
CENTER
 62
2
 10
94.000000
 20
-119.500000
 11
103.000000
 21
-119.500000
  0
LINE
  8
0
  6
CENTER
 62
2
 10
177.500000
 20
-115.000000
 11
177.500000
 21
-124.000000
  0
LINE
  8
0
  6
CENTER
 62
2
 10
173.000000
 20
-119.500000
 11
182.000000
 21
-119.500000
  0
LINE
  8
0
  6
CONTINUOUS
 62
7
 10
0.424988
 20
195.500000
 11
0.424988
 21
-195.000000
  0
LINE
  8
0
  6
CONTINUOUS
 62
7
 10
-281.250000
 20
0.250000
 11
282.100006
 21
0.250000
  0
ARC
  8
0
  6
CONTINUOUS
 62
7
 10
-152.500000
 20
-35.799999
 40
4.800000
 50
303.557007
 51
351.614014
  0
ARC
  8
0
  6
CONTINUOUS
 62
7
 10
-103.500000
 20
-35.799999
 40
4.800000
 50
188.384995
 51
236.442993
  0
CIRCLE
  8
0
  6
CONTINUOUS
 62
7
 10
-117.500000
 20
-33.500000
 40
1.250000
  0
CIRCLE
  8
0
  6
CONTINUOUS
 62
2
 10
-117.500000
 20
-33.500000
 40
1.500000
  0
ARC
  8
0
  6
CONTINUOUS
 62
7
 10
-117.500000
 20
-33.500000
 40
3.000000
 50
236.442993
 51
270.000000
  0
CIRCLE
  8
0
  6
CONTINUOUS
 62
7
 10
-138.500000
 20
-33.500000
 40
1.250000
  0
CIRCLE
  8
0
  6
CONTINUOUS
 62
2
 10
-138.500000
 20
-33.500000
 40
1.500000
  0
ARC
  8
0
  6
CONTINUOUS
 62
7
 10
-138.500000
 20
-33.500000
 40
3.000000
 50
270.000000
 51
303.557007
  0
CIRCLE
  8
0
  6
CONTINUOUS
 62
2
 10
-127.800003
 20
-45.700001
 40
0.800000
  0
CIRCLE
  8
0
  6
CONTINUOUS
 62
7
 10
-127.800003
 20
-45.700001
 40
0.640000
  0
CIRCLE
  8
0
  6
CONTINUOUS
 62
2
 10
-118.199997
 20
-45.700001
 40
0.800000
  0
CIRCLE
  8
0
  6
CONTINUOUS
 62
7
 10
-118.199997
 20
-45.700001
 40
0.640000
  0
CIRCLE
  8
0
  6
CONTINUOUS
 62
7
 10
-115.500000
 20
-68.500000
 40
1.250000
  0
CIRCLE
  8
0
  6
CONTINUOUS
 62
2
 10
-115.500000
 20
-68.500000
 40
1.500000
  0
CIRCLE
  8
0
  6
CONTINUOUS
 62
7
 10
-130.500000
 20
-83.500000
 40
1.250000
  0
CIRCLE
  8
0
  6
CONTINUOUS
 62
7
 10
-130.500000
 20
-68.500000
 40
1.250000
  0
CIRCLE
  8
0
  6
CONTINUOUS
 62
2
 10
-130.500000
 20
-68.500000
 40
1.500000
  0
CIRCLE
  8
0
  6
CONTINUOUS
 62
2
 10
-130.500000
 20
-83.500000
 40
1.500000
  0
CIRCLE
  8
0
  6
CONTINUOUS
 62
7
 10
-115.500000
 20
-83.500000
 40
1.250000
  0
CIRCLE
  8
0
  6
CONTINUOUS
 62
2
 10
-115.500000
 20
-83.500000
 40
1.500000
  0
CIRCLE
  8
0
  6
CONTINUOUS
 62
2
 10
-144.000000
 20
-68.000000
 40
2.000000
  0
CIRCLE
  8
0
  6
CONTINUOUS
 62
7
 10
-144.000000
 20
-68.000000
 40
3.000000
  0
ARC
  8
0
  6
CONTINUOUS
 62
7
 10
-112.000000
 20
-84.000000
 40
3.000000
 50
221.809998
 51
325.481995
  0
CIRCLE
  8
0
  6
CONTINUOUS
 62
7
 10
-144.000000
 20
-84.000000
 40
3.000000
  0
CIRCLE
  8
0
  6
CONTINUOUS
 62
2
 10
-144.000000
 20
-84.000000
 40
2.000000
  0
ARC
  8
0
  6
DASHED
 62
2
 10
-112.000000
 20
-84.000000
 40
3.000000
 50
325.481995
 51
221.809998
  0
CIRCLE
  8
0
  6
DASHED
 62
2
 10
-112.000000
 20
-84.000000
 40
2.000000
  0
CIRCLE
  8
0
  6
DASHED
 62
2
 10
-112.000000
 20
-68.000000
 40
2.000000
  0
ARC
  8
0
  6
CONTINUOUS
 62
7
 10
-112.000000
 20
-68.000000
 40
3.000000
 50
34.518398
 51
138.190002
  0
ARC
  8
0
  6
DASHED
 62
2
 10
-112.000000
 20
-68.000000
 40
3.000000
 50
138.190002
 51
394.518005
  0
CIRCLE
  8
0
  6
CONTINUOUS
 62
2
 10
-144.000000
 20
-164.500000
 40
2.000000
  0
CIRCLE
  8
0
  6
CONTINUOUS
 62
7
 10
-144.000000
 20
-164.500000
 40
1.750000
  0
CIRCLE
  8
0
  6
CONTINUOUS
 62
7
 10
-144.000000
 20
-148.500000
 40
1.750000
  0
CIRCLE
  8
0
  6
CONTINUOUS
 62
7
 10
-112.000000
 20
-164.500000
 40
1.750000
  0
CIRCLE
  8
0
  6
CONTINUOUS
 62
2
 10
-112.000000
 20
-164.500000
 40
2.000000
  0
CIRCLE
  8
0
  6
CONTINUOUS
 62
7
 10
-112.000000
 20
-148.500000
 40
1.750000
  0
CIRCLE
  8
0
  6
CONTINUOUS
 62
2
 10
-112.000000
 20
-148.500000
 40
2.000000
  0
CIRCLE
  8
0
  6
CONTINUOUS
 62
2
 10
-144.000000
 20
-148.500000
 40
2.000000
  0
CIRCLE
  8
0
  6
CONTINUOUS
 62
7
 10
-151.000000
 20
-154.500000
 40
5.900000
  0
CIRCLE
  8
0
  6
CONTINUOUS
 62
7
 10
-105.000000
 20
-154.500000
 40
5.900000
  0
ARC
  8
0
  6
CONTINUOUS
 62
7
 10
-152.500000
 20
-119.199997
 40
4.800000
 50
8.385500
 51
56.442600
  0
CIRCLE
  8
0
  6
CONTINUOUS
 62
7
 10
-101.500000
 20
-34.500000
 40
1.250000
  0
CIRCLE
  8
0
  6
CONTINUOUS
 62
2
 10
-101.500000
 20
-34.500000
 40
1.500000
  0
ARC
  8
0
  6
CONTINUOUS
 62
7
 10
-103.500000
 20
-119.199997
 40
4.800000
 50
123.556999
 51
171.615005
  0
CIRCLE
  8
0
  6
CONTINUOUS
 62
7
 10
-154.500000
 20
-34.500000
 40
1.250000
  0
CIRCLE
  8
0
  6
CONTINUOUS
 62
2
 10
-154.500000
 20
-34.500000
 40
1.500000
  0
CIRCLE
  8
0
  6
CONTINUOUS
 62
2
 10
108.000000
 20
-164.500000
 40
2.000000
  0
CIRCLE
  8
0
  6
CONTINUOUS
 62
7
 10
108.000000
 20
-164.500000
 40
1.750000
  0
CIRCLE
  8
0
  6
CONTINUOUS
 62
7
 10
108.000000
 20
-148.500000
 40
1.750000
  0
CIRCLE
  8
0
  6
CONTINUOUS
 62
7
 10
168.000000
 20
-164.500000
 40
1.750000
  0
CIRCLE
  8
0
  6
CONTINUOUS
 62
2
 10
168.000000
 20
-164.500000
 40
2.000000
  0
CIRCLE
  8
0
  6
CONTINUOUS
 62
7
 10
168.000000
 20
-148.500000
 40
1.750000
  0
CIRCLE
  8
0
  6
CONTINUOUS
 62
2
 10
168.000000
 20
-148.500000
 40
2.000000
  0
CIRCLE
  8
0
  6
CONTINUOUS
 62
2
 10
108.000000
 20
-148.500000
 40
2.000000
  0
CIRCLE
  8
0
  6
CONTINUOUS
 62
7
 10
100.000000
 20
-154.500000
 40
5.900000
  0
CIRCLE
  8
0
  6
CONTINUOUS
 62
7
 10
176.000000
 20
-154.500000
 40
5.900000
  0
ARC
  8
0
  6
CONTINUOUS
 62
7
 10
99.500000
 20
-35.799999
 40
4.800000
 50
303.557007
 51
351.614014
  0
ARC
  8
0
  6
CONTINUOUS
 62
7
 10
176.500000
 20
-35.799999
 40
4.800000
 50
188.384995
 51
236.442993
  0
CIRCLE
  8
0
  6
CONTINUOUS
 62
7
 10
118.000000
 20
-33.500000
 40
1.250000
  0
CIRCLE
  8
0
  6
CONTINUOUS
 62
2
 10
118.000000
 20
-33.500000
 40
1.500000
  0
CIRCLE
  8
0
  6
CONTINUOUS
 62
7
 10
158.000000
 20
-33.500000
 40
1.250000
  0
CIRCLE
  8
0
  6
CONTINUOUS
 62
2
 10
158.000000
 20
-33.500000
 40
1.500000
  0
ARC
  8
0
  6
CONTINUOUS
 62
7
 10
158.000000
 20
-33.500000
 40
3.000000
 50
236.442993
 51
270.000000
  0
ARC
  8
0
  6
CONTINUOUS
 62
7
 10
118.000000
 20
-33.500000
 40
3.000000
 50
270.000000
 51
303.557007
  0
CIRCLE
  8
0
  6
CONTINUOUS
 62
2
 10
143.199997
 20
-45.700001
 40
0.800000
  0
CIRCLE
  8
0
  6
CONTINUOUS
 62
7
 10
143.199997
 20
-45.700001
 40
0.640000
  0
CIRCLE
  8
0
  6
CONTINUOUS
 62
2
 10
152.800003
 20
-45.700001
 40
0.800000
  0
CIRCLE
  8
0
  6
CONTINUOUS
 62
7
 10
152.800003
 20
-45.700001
 40
0.640000
  0
ARC
  8
0
  6
DASHED
 62
2
 10
168.000000
 20
-68.000000
 40
3.000000
 50
145.481995
 51
326.442993
  0
CIRCLE
  8
0
  6
DASHED
 62
2
 10
168.000000
 20
-68.000000
 40
2.000000
  0
CIRCLE
  8
0
  6
CONTINUOUS
 62
2
 10
156.000000
 20
-83.500000
 40
1.500000
  0
CIRCLE
  8
0
  6
CONTINUOUS
 62
7
 10
140.000000
 20
-68.500000
 40
1.250000
  0
CIRCLE
  8
0
  6
CONTINUOUS
 62
2
 10
140.000000
 20
-68.500000
 40
1.500000
  0
CIRCLE
  8
0
  6
CONTINUOUS
 62
7
 10
156.000000
 20
-68.500000
 40
1.250000
  0
CIRCLE
  8
0
  6
CONTINUOUS
 62
2
 10
156.000000
 20
-68.500000
 40
1.500000
  0
CIRCLE
  8
0
  6
CONTINUOUS
 62
2
 10
140.000000
 20
-83.500000
 40
1.500000
  0
CIRCLE
  8
0
  6
CONTINUOUS
 62
7
 10
140.000000
 20
-83.500000
 40
1.250000
  0
CIRCLE
  8
0
  6
CONTINUOUS
 62
7
 10
156.000000
 20
-83.500000
 40
1.250000
  0
ARC
  8
0
  6
CONTINUOUS
 62
7
 10
168.000000
 20
-84.000000
 40
3.000000
 50
214.518005
 51
33.556702
  0
CIRCLE
  8
0
  6
DASHED
 62
2
 10
168.000000
 20
-84.000000
 40
2.000000
  0
CIRCLE
  8
0
  6
CONTINUOUS
 62
2
 10
108.000000
 20
-84.000000
 40
2.000000
  0
CIRCLE
  8
0
  6
CONTINUOUS
 62
7
 10
108.000000
 20
-68.000000
 40
3.000000
  0
CIRCLE
  8
0
  6
CONTINUOUS
 62
2
 10
108.000000
 20
-68.000000
 40
2.000000
  0
CIRCLE
  8
0
  6
CONTINUOUS
 62
7
 10
108.000000
 20
-84.000000
 40
3.000000
  0
ARC
  8
0
  6
DASHED
 62
2
 10
168.000000
 20
-84.000000
 40
3.000000
 50
33.556702
 51
214.518005
  0
ARC
  8
0
  6
CONTINUOUS
 62
7
 10
168.000000
 20
-68.000000
 40
3.000000
 50
326.442993
 51
145.481995
  0
ARC
  8
0
  6
CONTINUOUS
 62
7
 10
99.500000
 20
-119.199997
 40
4.800000
 50
8.385500
 51
56.442699
  0
CIRCLE
  8
0
  6
CONTINUOUS
 62
2
 10
102.000000
 20
-34.500000
 40
1.500000
  0
ARC
  8
0
  6
CONTINUOUS
 62
7
 10
176.500000
 20
-119.199997
 40
4.800000
 50
123.556999
 51
171.615005
  0
CIRCLE
  8
0
  6
CONTINUOUS
 62
7
 10
102.000000
 20
-34.500000
 40
1.250000
  0
CIRCLE
  8
0
  6
CONTINUOUS
 62
2
 10
174.000000
 20
-34.500000
 40
1.500000
  0
CIRCLE
  8
0
  6
CONTINUOUS
 62
7
 10
174.000000
 20
-34.500000
 40
1.250000
  0
ARC
  8
0
  6
CONTINUOUS
 62
7
 10
-140.000000
 20
-113.500000
 40
2.500000
 50
180.000000
 51
270.000000
  0
ARC
  8
0
  6
CONTINUOUS
 62
7
 10
-116.000000
 20
-113.500000
 40
2.500000
 50
270.000000
 51
0.000000
  0
ARC
  8
0
  6
CONTINUOUS
 62
7
 10
58.842602
 20
-112.161003
 40
1.200000
 50
99.579399
 51
100.733002
  0
ARC
  8
0
  6
CONTINUOUS
 62
7
 10
68.000000
 20
-112.000000
 40
1.000000
 50
120.001999
 51
240.001999
  0
ARC
  8
0
  6
CONTINUOUS
 62
7
 10
58.000000
 20
-112.000000
 40
1.000000
 50
300.001007
 51
60.000401
  0
CIRCLE
  8
0
  6
CONTINUOUS
 62
7
 10
63.000000
 20
-118.500000
 40
4.450000
  0
CIRCLE
  8
0
  6
CONTINUOUS
 62
7
 10
78.500000
 20
-110.500000
 40
2.500000
  0
ARC
  8
0
  6
CONTINUOUS
 62
7
 10
78.500000
 20
-110.500000
 40
3.700000
 50
78.924797
 51
101.075996
  0
ARC
  8
0
  6
CONTINUOUS
 62
7
 10
78.500000
 20
-110.500000
 40
3.700000
 50
18.924801
 51
41.075600
  0
ARC
  8
0
  6
CONTINUOUS
 62
7
 10
78.500000
 20
-110.500000
 40
3.700000
 50
318.924988
 51
341.075989
  0
ARC
  8
0
  6
CONTINUOUS
 62
7
 10
78.500000
 20
-110.500000
 40
3.700000
 50
258.924988
 51
281.075989
  0
ARC
  8
0
  6
CONTINUOUS
 62
7
 10
78.500000
 20
-110.500000
 40
3.700000
 50
138.925003
 51
161.076004
  0
ARC
  8
0
  6
CONTINUOUS
 62
7
 10
78.500000
 20
-110.500000
 40
3.700000
 50
198.925003
 51
221.076004
  0
ARC
  8
0
  6
CONTINUOUS
 62
7
 10
197.500000
 20
-110.500000
 40
3.699990
 50
318.924011
 51
341.075012
  0
ARC
  8
0
  6
CONTINUOUS
 62
7
 10
217.156998
 20
-112.161003
 40
1.200000
 50
79.266998
 51
80.420799
  0
ARC
  8
0
  6
CONTINUOUS
 62
7
 10
208.000000
 20
-112.000000
 40
1.000000
 50
299.997986
 51
59.998100
  0
ARC
  8
0
  6
CONTINUOUS
 62
7
 10
218.000000
 20
-112.000000
 40
1.000000
 50
120.000000
 51
239.998993
  0
CIRCLE
  8
0
  6
CONTINUOUS
 62
7
 10
213.000000
 20
-118.500000
 40
4.450000
  0
CIRCLE
  8
0
  6
CONTINUOUS
 62
7
 10
197.500000
 20
-110.500000
 40
2.500000
  0
ARC
  8
0
  6
CONTINUOUS
 62
7
 10
197.500000
 20
-110.500000
 40
3.700000
 50
78.924400
 51
101.074997
  0
ARC
  8
0
  6
CONTINUOUS
 62
7
 10
197.500000
 20
-110.500000
 40
3.699990
 50
138.923996
 51
161.074997
  0
ARC
  8
0
  6
CONTINUOUS
 62
7
 10
197.500000
 20
-110.500000
 40
3.699990
 50
198.923996
 51
221.074997
  0
ARC
  8
0
  6
CONTINUOUS
 62
7
 10
197.500000
 20
-110.500000
 40
3.700000
 50
258.924011
 51
281.075012
  0
ARC
  8
0
  6
CONTINUOUS
 62
7
 10
197.500000
 20
-110.500000
 40
3.699990
 50
18.924400
 51
41.075298
  0
ARC
  8
0
  6
CONTINUOUS
 62
7
 10
121.000000
 20
-113.500000
 40
2.500000
 50
180.000000
 51
270.000000
  0
ARC
  8
0
  6
CONTINUOUS
 62
7
 10
155.000000
 20
-113.500000
 40
2.500000
 50
270.000000
 51
0.000000
  0
ARC
  8
0
  6
CONTINUOUS
 62
7
 10
121.000000
 20
140.500000
 40
2.500000
 50
90.000000
 51
180.000000
  0
ARC
  8
0
  6
CONTINUOUS
 62
7
 10
155.000000
 20
140.500000
 40
2.500000
 50
0.000000
 51
90.000000
  0
ARC
  8
0
  6
CONTINUOUS
 62
7
 10
-58.500000
 20
68.500000
 40
3.700000
 50
138.925003
 51
161.076004
  0
ARC
  8
0
  6
CONTINUOUS
 62
7
 10
-152.500000
 20
59.799999
 40
4.800000
 50
8.385500
 51
56.442600
  0
ARC
  8
0
  6
CONTINUOUS
 62
7
 10
-103.500000
 20
59.799999
 40
4.800000
 50
123.556999
 51
171.615005
  0
CIRCLE
  8
0
  6
CONTINUOUS
 62
7
 10
-117.500000
 20
57.500000
 40
1.250000
  0
CIRCLE
  8
0
  6
CONTINUOUS
 62
2
 10
-117.500000
 20
57.500000
 40
1.500000
  0
ARC
  8
0
  6
CONTINUOUS
 62
7
 10
-117.500000
 20
57.500000
 40
3.000000
 50
90.000000
 51
123.556999
  0
CIRCLE
  8
0
  6
CONTINUOUS
 62
7
 10
-138.500000
 20
57.500000
 40
1.250000
  0
CIRCLE
  8
0
  6
CONTINUOUS
 62
2
 10
-138.500000
 20
57.500000
 40
1.500000
  0
ARC
  8
0
  6
CONTINUOUS
 62
7
 10
-138.500000
 20
57.500000
 40
3.000000
 50
56.442699
 51
90.000000
  0
CIRCLE
  8
0
  6
CONTINUOUS
 62
2
 10
-127.800003
 20
69.699997
 40
0.800000
  0
CIRCLE
  8
0
  6
CONTINUOUS
 62
7
 10
-127.800003
 20
69.699997
 40
0.640000
  0
CIRCLE
  8
0
  6
CONTINUOUS
 62
2
 10
-118.199997
 20
69.699997
 40
0.800000
  0
CIRCLE
  8
0
  6
CONTINUOUS
 62
7
 10
-118.199997
 20
69.699997
 40
0.640000
  0
CIRCLE
  8
0
  6
CONTINUOUS
 62
7
 10
-115.500000
 20
95.500000
 40
1.250000
  0
CIRCLE
  8
0
  6
CONTINUOUS
 62
2
 10
-115.500000
 20
95.500000
 40
1.500000
  0
CIRCLE
  8
0
  6
CONTINUOUS
 62
7
 10
-130.500000
 20
110.500000
 40
1.250000
  0
CIRCLE
  8
0
  6
CONTINUOUS
 62
7
 10
-130.500000
 20
95.500000
 40
1.250000
  0
CIRCLE
  8
0
  6
CONTINUOUS
 62
2
 10
-130.500000
 20
95.500000
 40
1.500000
  0
CIRCLE
  8
0
  6
CONTINUOUS
 62
2
 10
-130.500000
 20
110.500000
 40
1.500000
  0
CIRCLE
  8
0
  6
CONTINUOUS
 62
7
 10
-115.500000
 20
110.500000
 40
1.250000
  0
CIRCLE
  8
0
  6
CONTINUOUS
 62
2
 10
-115.500000
 20
110.500000
 40
1.500000
  0
CIRCLE
  8
0
  6
CONTINUOUS
 62
2
 10
-144.000000
 20
95.000000
 40
2.000000
  0
CIRCLE
  8
0
  6
CONTINUOUS
 62
7
 10
-144.000000
 20
95.000000
 40
3.000000
  0
ARC
  8
0
  6
CONTINUOUS
 62
7
 10
-112.000000
 20
111.000000
 40
3.000000
 50
34.518398
 51
138.190002
  0
CIRCLE
  8
0
  6
CONTINUOUS
 62
7
 10
-144.000000
 20
111.000000
 40
3.000000
  0
CIRCLE
  8
0
  6
CONTINUOUS
 62
2
 10
-144.000000
 20
111.000000
 40
2.000000
  0
ARC
  8
0
  6
DASHED
 62
2
 10
-112.000000
 20
111.000000
 40
3.000000
 50
138.190002
 51
394.518005
  0
CIRCLE
  8
0
  6
DASHED
 62
2
 10
-112.000000
 20
111.000000
 40
2.000000
  0
CIRCLE
  8
0
  6
DASHED
 62
2
 10
-112.000000
 20
95.000000
 40
2.000000
  0
ARC
  8
0
  6
CONTINUOUS
 62
7
 10
-112.000000
 20
95.000000
 40
3.000000
 50
221.809998
 51
325.481995
  0
ARC
  8
0
  6
DASHED
 62
2
 10
-112.000000
 20
95.000000
 40
3.000000
 50
325.481995
 51
221.809998
  0
CIRCLE
  8
0
  6
CONTINUOUS
 62
2
 10
-144.000000
 20
19.500000
 40
2.000000
  0
CIRCLE
  8
0
  6
CONTINUOUS
 62
7
 10
-144.000000
 20
19.500000
 40
1.750000
  0
CIRCLE
  8
0
  6
CONTINUOUS
 62
7
 10
-144.000000
 20
35.500000
 40
1.750000
  0
CIRCLE
  8
0
  6
CONTINUOUS
 62
7
 10
-112.000000
 20
19.500000
 40
1.750000
  0
CIRCLE
  8
0
  6
CONTINUOUS
 62
2
 10
-112.000000
 20
19.500000
 40
2.000000
  0
CIRCLE
  8
0
  6
CONTINUOUS
 62
7
 10
-112.000000
 20
35.500000
 40
1.750000
  0
CIRCLE
  8
0
  6
CONTINUOUS
 62
2
 10
-112.000000
 20
35.500000
 40
2.000000
  0
CIRCLE
  8
0
  6
CONTINUOUS
 62
2
 10
-144.000000
 20
35.500000
 40
2.000000
  0
CIRCLE
  8
0
  6
CONTINUOUS
 62
7
 10
-151.000000
 20
29.500000
 40
5.900000
  0
CIRCLE
  8
0
  6
CONTINUOUS
 62
7
 10
-105.000000
 20
29.500000
 40
5.900000
  0
ARC
  8
0
  6
CONTINUOUS
 62
7
 10
-152.500000
 20
146.199997
 40
4.800000
 50
303.557007
 51
351.614014
  0
CIRCLE
  8
0
  6
CONTINUOUS
 62
7
 10
-101.500000
 20
147.500000
 40
1.250000
  0
CIRCLE
  8
0
  6
CONTINUOUS
 62
2
 10
-101.500000
 20
147.500000
 40
1.500000
  0
ARC
  8
0
  6
CONTINUOUS
 62
7
 10
-103.500000
 20
146.199997
 40
4.800000
 50
188.384995
 51
236.442993
  0
CIRCLE
  8
0
  6
CONTINUOUS
 62
7
 10
-154.500000
 20
147.500000
 40
1.250000
  0
CIRCLE
  8
0
  6
CONTINUOUS
 62
2
 10
-154.500000
 20
147.500000
 40
1.500000
  0
ARC
  8
0
  6
CONTINUOUS
 62
7
 10
64.842598
 20
66.839203
 40
1.200000
 50
99.579201
 51
100.733002
  0
ARC
  8
0
  6
CONTINUOUS
 62
7
 10
74.000000
 20
67.000000
 40
1.000000
 50
120.001999
 51
240.001999
  0
ARC
  8
0
  6
CONTINUOUS
 62
7
 10
64.000000
 20
67.000000
 40
1.000000
 50
300.001007
 51
60.000401
  0
CIRCLE
  8
0
  6
CONTINUOUS
 62
7
 10
69.000000
 20
60.500000
 40
4.450000
  0
CIRCLE
  8
0
  6
CONTINUOUS
 62
2
 10
108.000000
 20
19.500000
 40
2.000000
  0
CIRCLE
  8
0
  6
CONTINUOUS
 62
7
 10
108.000000
 20
19.500000
 40
1.750000
  0
CIRCLE
  8
0
  6
CONTINUOUS
 62
7
 10
108.000000
 20
35.500000
 40
1.750000
  0
CIRCLE
  8
0
  6
CONTINUOUS
 62
7
 10
168.000000
 20
19.500000
 40
1.750000
  0
CIRCLE
  8
0
  6
CONTINUOUS
 62
2
 10
168.000000
 20
19.500000
 40
2.000000
  0
CIRCLE
  8
0
  6
CONTINUOUS
 62
7
 10
168.000000
 20
35.500000
 40
1.750000
  0
CIRCLE
  8
0
  6
CONTINUOUS
 62
2
 10
168.000000
 20
35.500000
 40
2.000000
  0
CIRCLE
  8
0
  6
CONTINUOUS
 62
2
 10
108.000000
 20
35.500000
 40
2.000000
  0
CIRCLE
  8
0
  6
CONTINUOUS
 62
7
 10
100.000000
 20
29.500000
 40
5.900000
  0
CIRCLE
  8
0
  6
CONTINUOUS
 62
7
 10
176.000000
 20
29.500000
 40
5.900000
  0
ARC
  8
0
  6
CONTINUOUS
 62
7
 10
99.500000
 20
59.799999
 40
4.800000
 50
8.385500
 51
56.442699
  0
ARC
  8
0
  6
CONTINUOUS
 62
7
 10
176.500000
 20
59.799999
 40
4.800000
 50
123.556999
 51
171.615005
  0
CIRCLE
  8
0
  6
CONTINUOUS
 62
7
 10
118.000000
 20
57.500000
 40
1.250000
  0
CIRCLE
  8
0
  6
CONTINUOUS
 62
2
 10
118.000000
 20
57.500000
 40
1.500000
  0
CIRCLE
  8
0
  6
CONTINUOUS
 62
7
 10
158.000000
 20
57.500000
 40
1.250000
  0
CIRCLE
  8
0
  6
CONTINUOUS
 62
2
 10
158.000000
 20
57.500000
 40
1.500000
  0
ARC
  8
0
  6
CONTINUOUS
 62
7
 10
158.000000
 20
57.500000
 40
3.000000
 50
90.000000
 51
123.556999
  0
ARC
  8
0
  6
CONTINUOUS
 62
7
 10
118.000000
 20
57.500000
 40
3.000000
 50
56.442699
 51
90.000000
  0
CIRCLE
  8
0
  6
CONTINUOUS
 62
2
 10
143.199997
 20
69.699997
 40
0.800000
  0
CIRCLE
  8
0
  6
CONTINUOUS
 62
7
 10
143.199997
 20
69.699997
 40
0.640000
  0
CIRCLE
  8
0
  6
CONTINUOUS
 62
2
 10
152.800003
 20
69.699997
 40
0.800000
  0
CIRCLE
  8
0
  6
CONTINUOUS
 62
7
 10
152.800003
 20
69.699997
 40
0.640000
  0
ARC
  8
0
  6
DASHED
 62
2
 10
168.000000
 20
95.000000
 40
3.000000
 50
33.556702
 51
214.518005
  0
CIRCLE
  8
0
  6
DASHED
 62
2
 10
168.000000
 20
95.000000
 40
2.000000
  0
CIRCLE
  8
0
  6
CONTINUOUS
 62
2
 10
156.000000
 20
110.500000
 40
1.500000
  0
CIRCLE
  8
0
  6
CONTINUOUS
 62
7
 10
140.000000
 20
95.500000
 40
1.250000
  0
CIRCLE
  8
0
  6
CONTINUOUS
 62
2
 10
140.000000
 20
95.500000
 40
1.500000
  0
CIRCLE
  8
0
  6
CONTINUOUS
 62
7
 10
156.000000
 20
95.500000
 40
1.250000
  0
CIRCLE
  8
0
  6
CONTINUOUS
 62
2
 10
156.000000
 20
95.500000
 40
1.500000
  0
CIRCLE
  8
0
  6
CONTINUOUS
 62
2
 10
140.000000
 20
110.500000
 40
1.500000
  0
CIRCLE
  8
0
  6
CONTINUOUS
 62
7
 10
140.000000
 20
110.500000
 40
1.250000
  0
CIRCLE
  8
0
  6
CONTINUOUS
 62
7
 10
156.000000
 20
110.500000
 40
1.250000
  0
ARC
  8
0
  6
CONTINUOUS
 62
7
 10
168.000000
 20
111.000000
 40
3.000000
 50
326.442993
 51
145.481995
  0
CIRCLE
  8
0
  6
DASHED
 62
2
 10
168.000000
 20
111.000000
 40
2.000000
  0
CIRCLE
  8
0
  6
CONTINUOUS
 62
2
 10
108.000000
 20
111.000000
 40
2.000000
  0
CIRCLE
  8
0
  6
CONTINUOUS
 62
7
 10
108.000000
 20
95.000000
 40
3.000000
  0
CIRCLE
  8
0
  6
CONTINUOUS
 62
2
 10
108.000000
 20
95.000000
 40
2.000000
  0
CIRCLE
  8
0
  6
CONTINUOUS
 62
7
 10
108.000000
 20
111.000000
 40
3.000000
  0
ARC
  8
0
  6
DASHED
 62
2
 10
168.000000
 20
111.000000
 40
3.000000
 50
145.481995
 51
326.442993
  0
ARC
  8
0
  6
CONTINUOUS
 62
7
 10
168.000000
 20
95.000000
 40
3.000000
 50
214.518005
 51
33.556702
  0
ARC
  8
0
  6
CONTINUOUS
 62
7
 10
99.500000
 20
146.199997
 40
4.800000
 50
303.557007
 51
351.614014
  0
CIRCLE
  8
0
  6
CONTINUOUS
 62
2
 10
102.000000
 20
147.500000
 40
1.500000
  0
ARC
  8
0
  6
CONTINUOUS
 62
7
 10
176.500000
 20
146.199997
 40
4.800000
 50
188.384995
 51
236.442993
  0
CIRCLE
  8
0
  6
CONTINUOUS
 62
7
 10
102.000000
 20
147.500000
 40
1.250000
  0
CIRCLE
  8
0
  6
CONTINUOUS
 62
2
 10
174.000000
 20
147.500000
 40
1.500000
  0
CIRCLE
  8
0
  6
CONTINUOUS
 62
7
 10
174.000000
 20
147.500000
 40
1.250000
  0
CIRCLE
  8
0
  6
CONTINUOUS
 62
7
 10
53.500000
 20
68.500000
 40
2.500000
  0
ARC
  8
0
  6
CONTINUOUS
 62
7
 10
53.500000
 20
68.500000
 40
3.700000
 50
78.924400
 51
101.074997
  0
ARC
  8
0
  6
CONTINUOUS
 62
7
 10
53.500000
 20
68.500000
 40
3.700000
 50
138.923996
 51
161.074997
  0
ARC
  8
0
  6
CONTINUOUS
 62
7
 10
53.500000
 20
68.500000
 40
3.700000
 50
198.923996
 51
221.074997
  0
ARC
  8
0
  6
CONTINUOUS
 62
7
 10
53.500000
 20
68.500000
 40
3.700000
 50
258.924011
 51
281.075012
  0
ARC
  8
0
  6
CONTINUOUS
 62
7
 10
53.500000
 20
68.500000
 40
3.700000
 50
18.924400
 51
41.075199
  0
ARC
  8
0
  6
CONTINUOUS
 62
7
 10
53.500000
 20
68.500000
 40
3.700000
 50
318.924011
 51
341.075012
  0
ARC
  8
0
  6
CONTINUOUS
 62
7
 10
222.500000
 20
68.500000
 40
3.700000
 50
198.925003
 51
221.076004
  0
ARC
  8
0
  6
CONTINUOUS
 62
7
 10
211.156998
 20
66.839203
 40
1.200000
 50
79.266998
 51
80.420799
  0
ARC
  8
0
  6
CONTINUOUS
 62
7
 10
202.000000
 20
67.000000
 40
1.000000
 50
299.997986
 51
59.998100
  0
ARC
  8
0
  6
CONTINUOUS
 62
7
 10
212.000000
 20
67.000000
 40
1.000000
 50
120.000000
 51
239.998993
  0
CIRCLE
  8
0
  6
CONTINUOUS
 62
7
 10
207.000000
 20
60.500000
 40
4.450000
  0
CIRCLE
  8
0
  6
CONTINUOUS
 62
7
 10
222.500000
 20
68.500000
 40
2.500000
  0
ARC
  8
0
  6
CONTINUOUS
 62
7
 10
222.500000
 20
68.500000
 40
3.700000
 50
78.924896
 51
101.075996
  0
ARC
  8
0
  6
CONTINUOUS
 62
7
 10
222.500000
 20
68.500000
 40
3.700000
 50
18.924801
 51
41.075600
  0
ARC
  8
0
  6
CONTINUOUS
 62
7
 10
222.500000
 20
68.500000
 40
3.700000
 50
318.924988
 51
341.075989
  0
ARC
  8
0
  6
CONTINUOUS
 62
7
 10
222.500000
 20
68.500000
 40
3.700000
 50
258.924988
 51
281.075989
  0
ARC
  8
0
  6
CONTINUOUS
 62
7
 10
222.500000
 20
68.500000
 40
3.700000
 50
138.925003
 51
161.076004
  0
ARC
  8
0
  6
CONTINUOUS
 62
7
 10
-140.000000
 20
140.500000
 40
2.500000
 50
90.000000
 51
180.000000
  0
ARC
  8
0
  6
CONTINUOUS
 62
7
 10
-116.000000
 20
140.500000
 40
2.500000
 50
0.000000
 51
90.000000
  0
ARC
  8
0
  6
CONTINUOUS
 62
7
 10
-186.156998
 20
66.839203
 40
1.200000
 50
99.579201
 51
100.733002
  0
ARC
  8
0
  6
CONTINUOUS
 62
7
 10
-177.000000
 20
67.000000
 40
1.000000
 50
120.001999
 51
240.001999
  0
ARC
  8
0
  6
CONTINUOUS
 62
7
 10
-187.000000
 20
67.000000
 40
0.999996
 50
300.001007
 51
60.000099
  0
CIRCLE
  8
0
  6
CONTINUOUS
 62
7
 10
-182.000000
 20
60.500000
 40
4.450000
  0
CIRCLE
  8
0
  6
CONTINUOUS
 62
7
 10
-197.500000
 20
68.500000
 40
2.500000
  0
ARC
  8
0
  6
CONTINUOUS
 62
7
 10
-197.500000
 20
68.500000
 40
3.700000
 50
78.924400
 51
101.074997
  0
ARC
  8
0
  6
CONTINUOUS
 62
7
 10
-197.500000
 20
68.500000
 40
3.699990
 50
138.923996
 51
161.074997
  0
ARC
  8
0
  6
CONTINUOUS
 62
7
 10
-197.500000
 20
68.500000
 40
3.699990
 50
198.923996
 51
221.074997
  0
ARC
  8
0
  6
CONTINUOUS
 62
7
 10
-197.500000
 20
68.500000
 40
3.700000
 50
258.924011
 51
281.075012
  0
ARC
  8
0
  6
CONTINUOUS
 62
7
 10
-197.500000
 20
68.500000
 40
3.699990
 50
18.924400
 51
41.075298
  0
ARC
  8
0
  6
CONTINUOUS
 62
7
 10
-197.500000
 20
68.500000
 40
3.699990
 50
318.924011
 51
341.075012
  0
ARC
  8
0
  6
CONTINUOUS
 62
7
 10
-58.500000
 20
68.500000
 40
3.700000
 50
198.925003
 51
221.076004
  0
ARC
  8
0
  6
CONTINUOUS
 62
7
 10
-69.842598
 20
66.839203
 40
1.200000
 50
79.267303
 51
80.420502
  0
ARC
  8
0
  6
CONTINUOUS
 62
7
 10
-79.000000
 20
67.000000
 40
1.000000
 50
299.997986
 51
59.998100
  0
ARC
  8
0
  6
CONTINUOUS
 62
7
 10
-69.000000
 20
67.000000
 40
0.999998
 50
120.000000
 51
239.998001
  0
CIRCLE
  8
0
  6
CONTINUOUS
 62
7
 10
-74.000000
 20
60.500000
 40
4.450000
  0
CIRCLE
  8
0
  6
CONTINUOUS
 62
7
 10
-58.500000
 20
68.500000
 40
2.500000
  0
ARC
  8
0
  6
CONTINUOUS
 62
7
 10
-58.500000
 20
68.500000
 40
3.700000
 50
78.924797
 51
101.075996
  0
ARC
  8
0
  6
CONTINUOUS
 62
7
 10
-58.500000
 20
68.500000
 40
3.700000
 50
18.924801
 51
41.075600
  0
ARC
  8
0
  6
CONTINUOUS
 62
7
 10
-58.500000
 20
68.500000
 40
3.700000
 50
318.924988
 51
341.075989
  0
ARC
  8
0
  6
CONTINUOUS
 62
7
 10
-58.500000
 20
68.500000
 40
3.700000
 50
258.924988
 51
281.075989
  0
ARC
  8
0
  6
CONTINUOUS
 62
7
 10
-192.156998
 20
-112.161003
 40
1.200000
 50
99.579201
 51
100.733002
  0
ARC
  8
0
  6
CONTINUOUS
 62
7
 10
-183.000000
 20
-112.000000
 40
1.000000
 50
120.001999
 51
240.001999
  0
ARC
  8
0
  6
CONTINUOUS
 62
7
 10
-193.000000
 20
-112.000000
 40
0.999996
 50
300.001007
 51
60.000099
  0
CIRCLE
  8
0
  6
CONTINUOUS
 62
7
 10
-188.000000
 20
-118.500000
 40
4.450000
  0
CIRCLE
  8
0
  6
CONTINUOUS
 62
7
 10
-172.500000
 20
-110.500000
 40
2.500000
  0
ARC
  8
0
  6
CONTINUOUS
 62
7
 10
-172.500000
 20
-110.500000
 40
3.700000
 50
78.924896
 51
101.075996
  0
ARC
  8
0
  6
CONTINUOUS
 62
7
 10
-172.500000
 20
-110.500000
 40
3.700000
 50
18.924801
 51
41.075600
  0
ARC
  8
0
  6
CONTINUOUS
 62
7
 10
-172.500000
 20
-110.500000
 40
3.700000
 50
318.924988
 51
341.075989
  0
ARC
  8
0
  6
CONTINUOUS
 62
7
 10
-172.500000
 20
-110.500000
 40
3.700000
 50
258.924988
 51
281.075989
  0
ARC
  8
0
  6
CONTINUOUS
 62
7
 10
-172.500000
 20
-110.500000
 40
3.700000
 50
138.925003
 51
161.076004
  0
ARC
  8
0
  6
CONTINUOUS
 62
7
 10
-172.500000
 20
-110.500000
 40
3.700000
 50
198.925003
 51
221.076004
  0
ARC
  8
0
  6
CONTINUOUS
 62
7
 10
-83.500000
 20
-110.500000
 40
3.700000
 50
318.924011
 51
341.075012
  0
ARC
  8
0
  6
CONTINUOUS
 62
7
 10
-63.842602
 20
-112.161003
 40
1.200000
 50
79.267097
 51
80.420700
  0
ARC
  8
0
  6
CONTINUOUS
 62
7
 10
-73.000000
 20
-112.000000
 40
1.000000
 50
299.997986
 51
59.998100
  0
ARC
  8
0
  6
CONTINUOUS
 62
7
 10
-63.000000
 20
-112.000000
 40
0.999998
 50
120.000000
 51
239.998001
  0
CIRCLE
  8
0
  6
CONTINUOUS
 62
7
 10
-68.000000
 20
-118.500000
 40
4.450000
  0
CIRCLE
  8
0
  6
CONTINUOUS
 62
7
 10
-83.500000
 20
-110.500000
 40
2.500000
  0
ARC
  8
0
  6
CONTINUOUS
 62
7
 10
-83.500000
 20
-110.500000
 40
3.700000
 50
78.924400
 51
101.074997
  0
ARC
  8
0
  6
CONTINUOUS
 62
7
 10
-83.500000
 20
-110.500000
 40
3.699990
 50
138.923996
 51
161.074997
  0
ARC
  8
0
  6
CONTINUOUS
 62
7
 10
-83.500000
 20
-110.500000
 40
3.700000
 50
198.923996
 51
221.074997
  0
ARC
  8
0
  6
CONTINUOUS
 62
7
 10
-83.500000
 20
-110.500000
 40
3.700000
 50
258.924011
 51
281.075012
  0
ARC
  8
0
  6
CONTINUOUS
 62
7
 10
-83.500000
 20
-110.500000
 40
3.700000
 50
18.924299
 51
41.075199
  0
CIRCLE
  8
0
  6
CONTINUOUS
 62
2
 10
-152.500000
 20
59.500000
 40
2.500000
  0
CIRCLE
  8
0
  6
CONTINUOUS
 62
7
 10
-152.500000
 20
59.500000
 40
2.100000
  0
CIRCLE
  8
0
  6
CONTINUOUS
 62
2
 10
-103.500000
 20
59.500000
 40
2.500000
  0
CIRCLE
  8
0
  6
CONTINUOUS
 62
7
 10
-103.500000
 20
59.500000
 40
2.100000
  0
CIRCLE
  8
0
  6
CONTINUOUS
 62
2
 10
98.500000
 20
59.500000
 40
2.500000
  0
CIRCLE
  8
0
  6
CONTINUOUS
 62
7
 10
98.500000
 20
59.500000
 40
2.100000
  0
CIRCLE
  8
0
  6
CONTINUOUS
 62
2
 10
177.500000
 20
59.500000
 40
2.500000
  0
CIRCLE
  8
0
  6
CONTINUOUS
 62
7
 10
177.500000
 20
59.500000
 40
2.100000
  0
CIRCLE
  8
0
  6
CONTINUOUS
 62
2
 10
-152.500000
 20
-119.500000
 40
2.500000
  0
CIRCLE
  8
0
  6
CONTINUOUS
 62
7
 10
-152.500000
 20
-119.500000
 40
2.100000
  0
CIRCLE
  8
0
  6
CONTINUOUS
 62
2
 10
-103.500000
 20
-119.500000
 40
2.500000
  0
CIRCLE
  8
0
  6
CONTINUOUS
 62
7
 10
-103.500000
 20
-119.500000
 40
2.100000
  0
CIRCLE
  8
0
  6
CONTINUOUS
 62
2
 10
98.500000
 20
-119.500000
 40
2.500000
  0
CIRCLE
  8
0
  6
CONTINUOUS
 62
7
 10
98.500000
 20
-119.500000
 40
2.100000
  0
CIRCLE
  8
0
  6
CONTINUOUS
 62
2
 10
177.500000
 20
-119.500000
 40
2.500000
  0
CIRCLE
  8
0
  6
CONTINUOUS
 62
7
 10
177.500000
 20
-119.500000
 40
2.100000
  0
CIRCLE
  8
0
  6
CONTINUOUS
 62
7
 10
108.000000
 20
95.000000
 40
1.650000
  0
CIRCLE
  8
0
  6
CONTINUOUS
 62
7
 10
108.000000
 20
111.000000
 40
1.650000
  0
CIRCLE
  8
0
  6
DASHED
 62
2
 10
168.000000
 20
111.000000
 40
1.650000
  0
CIRCLE
  8
0
  6
DASHED
 62
2
 10
168.000000
 20
95.000000
 40
1.650000
  0
CIRCLE
  8
0
  6
CONTINUOUS
 62
7
 10
108.000000
 20
-84.000000
 40
1.650000
  0
CIRCLE
  8
0
  6
CONTINUOUS
 62
7
 10
108.000000
 20
-68.000000
 40
1.650000
  0
CIRCLE
  8
0
  6
DASHED
 62
2
 10
168.000000
 20
-68.000000
 40
1.650000
  0
CIRCLE
  8
0
  6
DASHED
 62
2
 10
168.000000
 20
-84.000000
 40
1.650000
  0
CIRCLE
  8
0
  6
CONTINUOUS
 62
7
 10
-144.000000
 20
111.000000
 40
1.650000
  0
CIRCLE
  8
0
  6
CONTINUOUS
 62
7
 10
-144.000000
 20
95.000000
 40
1.650000
  0
CIRCLE
  8
0
  6
DASHED
 62
2
 10
-112.000000
 20
95.000000
 40
1.650000
  0
CIRCLE
  8
0
  6
DASHED
 62
2
 10
-112.000000
 20
111.000000
 40
1.650000
  0
CIRCLE
  8
0
  6
CONTINUOUS
 62
7
 10
-144.000000
 20
-68.000000
 40
1.650000
  0
CIRCLE
  8
0
  6
CONTINUOUS
 62
7
 10
-144.000000
 20
-84.000000
 40
1.650000
  0
CIRCLE
  8
0
  6
DASHED
 62
2
 10
-112.000000
 20
-84.000000
 40
1.650000
  0
CIRCLE
  8
0
  6
DASHED
 62
2
 10
-112.000000
 20
-68.000000
 40
1.650000
  0
TEXT
  8
0
 62
7
 10
202.930283
 20
183.925003
 40
6.300000
  1
Ver.1.0
 50
0.000000
 41
1.010330
 51
0.000000
  7
STANDARD
  0
TEXT
  8
0
 62
7
 10
172.714691
 20
-187.250000
 40
9.000000
  1
KOGANEI CORP.
 50
0.000000
 41
0.771524
 51
0.000000
  7
STANDARD
  0
TEXT
  8
0
 62
7
 10
-243.569717
 20
183.925003
 40
6.300000
  1
AP TABLE
 50
0.000000
 41
0.775607
 51
0.000000
  7
STANDARD
  0
TEXT
  8
0
 62
7
 10
12.274609
 20
158.925003
 40
6.300000
  1
MODEL:APT-SD8-20-TPQT
 50
0.000000
 41
0.767797
 51
0.000000
  7
STANDARD
  0
TEXT
  8
0
 62
7
 10
12.274609
 20
-16.325001
 40
6.300000
  1
MODEL:APT-GT8-20-TPQT
 50
0.000000
 41
0.767797
 51
0.000000
  7
STANDARD
  0
TEXT
  8
0
 62
7
 10
-269.400391
 20
158.925003
 40
6.300000
  1
MODEL:APT-SD8-10-TPQT
 50
0.000000
 41
0.781387
 51
0.000000
  7
STANDARD
  0
TEXT
  8
0
 62
7
 10
-269.400391
 20
-16.325001
 40
6.300000
  1
MODEL:APT-GT8-10-TPQT
 50
0.000000
 41
0.781387
 51
0.000000
  7
STANDARD
  0
ENDSEC
  0
EOF
