  0
SECTION
  2
HEADER
  0
ENDSEC
  0
SECTION
  2
TABLES
  0
TABLE
  2
LTYPE
 70
     4
  0
LTYPE
  2
CONTINUOUS
 70
    64
  3
Solid line
 72
    65
 73
     0
 40
0.000000
  0
LTYPE
  2
DASHED
 70
    64
  3
__ __ __ __ __ __ __ __ __ __ __ __ __ __ __
 72
    65
 73
     2
 40
3.500000
 49
2.000000
 49
-1.500000
  0
LTYPE
  2
CENTER
 70
    64
  3
____ _ ____ _ ____ _ ____ _ ____ _ ____ _ ____
 72
    65
 73
     4
 40
17.500000
 49
13.000000
 49
-1.500000
 49
1.500000
 49
-1.500000
  0
LTYPE
  2
PHANTOM
 70
    64
  3
_____ _ _ _____ _ _ _____ _ _ _____ _ _ ____  
 72
    65
 73
     6
 40
15.500000
 49
8.000000
 49
-1.500000
 49
1.500000
 49
-1.500000
 49
1.500000
 49
-1.500000
  0
ENDTAB
  0
TABLE
  2
LAYER
 70
     1
  0
LAYER
  2
0
 70
     0
 62
     7
  6
CONTINUOUS
  0
ENDTAB
  0
TABLE
  2
STYLE
 70
     1
  0
STYLE
  2
STANDARD
 70
     0
 40
0.000000
 41
1.000000
 50
0.000000
 71
     0
 42
0.200000
  3
txt
  4
BIGFONT
  0
ENDTAB
  0
TABLE
  2
VIEW
 70
     0
  0
ENDTAB
  0
ENDSEC
  0
SECTION
  2
BLOCKS
  0
ENDSEC
  0
SECTION
  2
ENTITIES
  0
LINE
  8
0
  6
CONTINUOUS
 62
7
 10
-281.250000
 20
195.500000
 11
282.100006
 21
195.500000
  0
LINE
  8
0
  6
CONTINUOUS
 62
7
 10
-281.250000
 20
195.500000
 11
-281.250000
 21
-195.000000
  0
LINE
  8
0
  6
CONTINUOUS
 62
7
 10
282.100006
 20
195.500000
 11
282.100006
 21
-195.000000
  0
LINE
  8
0
  6
CONTINUOUS
 62
7
 10
-281.250000
 20
-195.000000
 11
282.100006
 21
-195.000000
  0
LINE
  8
0
  6
CONTINUOUS
 62
7
 10
162.100006
 20
-175.000000
 11
162.100006
 21
-195.000000
  0
LINE
  8
0
  6
CONTINUOUS
 62
7
 10
162.100006
 20
-175.000000
 11
282.100006
 21
-175.000000
  0
LINE
  8
0
  6
CONTINUOUS
 62
7
 10
162.100006
 20
175.500000
 11
282.100006
 21
175.500000
  0
LINE
  8
0
  6
CONTINUOUS
 62
7
 10
-281.250000
 20
175.500000
 11
-161.250000
 21
175.500000
  0
LINE
  8
0
  6
CONTINUOUS
 62
7
 10
162.100006
 20
195.500000
 11
162.100006
 21
175.500000
  0
LINE
  8
0
  6
CONTINUOUS
 62
7
 10
-161.250000
 20
195.500000
 11
-161.250000
 21
175.500000
  0
LINE
  8
0
  6
CENTER
 62
2
 10
51.000000
 20
-2.513210
 11
51.000000
 21
-23.006399
  0
LINE
  8
0
  6
CONTINUOUS
 62
7
 10
55.500000
 20
-9.866030
 11
55.500000
 21
-12.200000
  0
LINE
  8
0
  6
CONTINUOUS
 62
7
 10
46.500000
 20
-9.866030
 11
46.500000
 21
-12.200000
  0
LINE
  8
0
  6
CONTINUOUS
 62
7
 10
61.000000
 20
-3.000000
 11
56.500000
 21
-3.000000
  0
LINE
  8
0
  6
CONTINUOUS
 62
7
 10
61.000000
 20
-3.000000
 11
61.000000
 21
-10.800000
  0
LINE
  8
0
  6
CONTINUOUS
 62
7
 10
61.000000
 20
-10.800000
 11
55.500000
 21
-10.800000
  0
LINE
  8
0
  6
CONTINUOUS
 62
7
 10
56.200001
 20
-3.300000
 11
45.799999
 21
-3.300000
  0
LINE
  8
0
  6
CONTINUOUS
 62
7
 10
46.500000
 20
-10.800000
 11
41.000000
 21
-10.800000
  0
LINE
  8
0
  6
CONTINUOUS
 62
7
 10
45.799999
 20
-3.300020
 11
45.500000
 21
-3.000030
  0
LINE
  8
0
  6
CONTINUOUS
 62
7
 10
56.200001
 20
-3.300040
 11
56.500000
 21
-3.000050
  0
LINE
  8
0
  6
CONTINUOUS
 62
7
 10
45.500000
 20
-3.000000
 11
41.000000
 21
-3.000000
  0
LINE
  8
0
  6
CONTINUOUS
 62
7
 10
55.500000
 20
-7.500000
 11
55.500000
 21
-8.133970
  0
LINE
  8
0
  6
CONTINUOUS
 62
7
 10
46.500000
 20
-7.500000
 11
55.500000
 21
-7.500000
  0
LINE
  8
0
  6
CONTINUOUS
 62
7
 10
46.500000
 20
-7.500000
 11
46.500000
 21
-8.133970
  0
LINE
  8
0
  6
CONTINUOUS
 62
7
 10
62.500000
 20
-22.000000
 11
39.500000
 21
-22.000000
  0
LINE
  8
0
  6
CONTINUOUS
 62
7
 10
62.500000
 20
-12.200000
 11
62.500000
 21
-22.000000
  0
LINE
  8
0
  6
CONTINUOUS
 62
7
 10
39.500000
 20
-12.200000
 11
46.500000
 21
-12.200000
  0
LINE
  8
0
  6
CENTER
 62
2
 10
57.500000
 20
-15.500000
 11
44.500000
 21
-15.500000
  0
LINE
  8
0
  6
CONTINUOUS
 62
7
 10
62.500000
 20
-12.200000
 11
55.500000
 21
-12.200000
  0
LINE
  8
0
  6
CONTINUOUS
 62
7
 10
41.000000
 20
-3.000000
 11
41.000000
 21
-10.800000
  0
LINE
  8
0
  6
CENTER
 62
2
 10
59.000000
 20
-20.000000
 11
59.000000
 21
-24.000000
  0
LINE
  8
0
  6
CENTER
 62
2
 10
43.000000
 20
-20.000000
 11
43.000000
 21
-24.000000
  0
LINE
  8
0
  6
CENTER
 62
2
 10
43.500000
 20
-1.000000
 11
43.500000
 21
-5.000000
  0
LINE
  8
0
  6
CENTER
 62
2
 10
58.500000
 20
-1.000000
 11
58.500000
 21
-5.000000
  0
LINE
  8
0
  6
CONTINUOUS
 62
7
 10
-170.000000
 20
-82.000000
 11
-170.000000
 21
-47.000000
  0
LINE
  8
0
  6
CONTINUOUS
 62
7
 10
-110.000000
 20
-47.000000
 11
-170.000000
 21
-47.000000
  0
LINE
  8
0
  6
CONTINUOUS
 62
7
 10
-110.000000
 20
-82.000000
 11
-110.000000
 21
-47.000000
  0
LINE
  8
0
  6
CENTER
 62
2
 10
-108.401001
 20
-58.500000
 11
-172.630005
 21
-58.500000
  0
LINE
  8
0
  6
CENTER
 62
2
 10
-156.000000
 20
-61.500000
 11
-156.000000
 21
-71.500000
  0
LINE
  8
0
  6
CENTER
 62
2
 10
-151.000000
 20
-66.500000
 11
-161.000000
 21
-66.500000
  0
LINE
  8
0
  6
CENTER
 62
2
 10
-156.000000
 20
-55.500000
 11
-156.000000
 21
-45.500000
  0
LINE
  8
0
  6
CENTER
 62
2
 10
-151.000000
 20
-50.500000
 11
-161.000000
 21
-50.500000
  0
LINE
  8
0
  6
CENTER
 62
2
 10
-124.000000
 20
-71.500000
 11
-124.000000
 21
-61.500000
  0
LINE
  8
0
  6
CENTER
 62
2
 10
-119.000000
 20
-66.500000
 11
-129.000000
 21
-66.500000
  0
LINE
  8
0
  6
CENTER
 62
2
 10
-124.000000
 20
-45.500000
 11
-124.000000
 21
-55.500000
  0
LINE
  8
0
  6
CENTER
 62
2
 10
-119.000000
 20
-50.500000
 11
-129.000000
 21
-50.500000
  0
LINE
  8
0
  6
CENTER
 62
2
 10
-163.000000
 20
-49.099998
 11
-163.000000
 21
-63.900002
  0
LINE
  8
0
  6
CENTER
 62
2
 10
-170.399994
 20
-56.500000
 11
-155.600006
 21
-56.500000
  0
LINE
  8
0
  6
CENTER
 62
2
 10
-117.000000
 20
-49.099998
 11
-117.000000
 21
-63.900002
  0
LINE
  8
0
  6
CENTER
 62
2
 10
-109.599998
 20
-56.500000
 11
-124.400002
 21
-56.500000
  0
LINE
  8
0
  6
CONTINUOUS
 62
7
 10
-125.099998
 20
-3.000000
 11
-144.899994
 21
-3.000000
  0
LINE
  8
0
  6
CONTINUOUS
 62
7
 10
-119.500000
 20
-3.300000
 11
-125.099998
 21
-3.300000
  0
LINE
  8
0
  6
CONTINUOUS
 62
7
 10
-119.500000
 20
-10.800000
 11
-150.500000
 21
-10.800000
  0
LINE
  8
0
  6
CONTINUOUS
 62
7
 10
-119.500000
 20
-3.300000
 11
-119.500000
 21
-10.800000
  0
LINE
  8
0
  6
CONTINUOUS
 62
7
 10
-144.899994
 20
-3.300000
 11
-150.500000
 21
-3.300000
  0
LINE
  8
0
  6
CONTINUOUS
 62
7
 10
-150.500000
 20
-10.800000
 11
-150.500000
 21
-3.300000
  0
LINE
  8
0
  6
CONTINUOUS
 62
7
 10
-110.000000
 20
-7.500000
 11
-119.500000
 21
-7.500000
  0
LINE
  8
0
  6
CONTINUOUS
 62
7
 10
-150.500000
 20
-7.500000
 11
-170.000000
 21
-7.500000
  0
LINE
  8
0
  6
CONTINUOUS
 62
7
 10
-110.000000
 20
-22.000000
 11
-170.000000
 21
-22.000000
  0
LINE
  8
0
  6
CONTINUOUS
 62
7
 10
-170.000000
 20
-12.200000
 11
-161.847000
 21
-12.200000
  0
LINE
  8
0
  6
CONTINUOUS
 62
7
 10
-125.099998
 20
-3.000000
 11
-125.099998
 21
-10.800000
  0
LINE
  8
0
  6
CONTINUOUS
 62
7
 10
-144.899994
 20
-3.000000
 11
-144.899994
 21
-10.800000
  0
LINE
  8
0
  6
CONTINUOUS
 62
7
 10
-120.249001
 20
-15.500000
 11
-129.500000
 21
-15.500000
  0
LINE
  8
0
  6
CONTINUOUS
 62
7
 10
-110.000000
 20
-12.200000
 11
-118.153000
 21
-12.200000
  0
LINE
  8
0
  6
CENTER
 62
2
 10
-154.000000
 20
-18.500000
 11
-147.000000
 21
-18.500000
  0
LINE
  8
0
  6
CENTER
 62
2
 10
-150.500000
 20
-22.000000
 11
-150.500000
 21
-15.000000
  0
LINE
  8
0
  6
CENTER
 62
2
 10
-133.000000
 20
-18.500000
 11
-126.000000
 21
-18.500000
  0
LINE
  8
0
  6
CENTER
 62
2
 10
-129.500000
 20
-22.000000
 11
-129.500000
 21
-15.000000
  0
LINE
  8
0
  6
CONTINUOUS
 62
7
 10
-148.841995
 20
-16.000000
 11
-131.158005
 21
-16.000000
  0
LINE
  8
0
  6
CONTINUOUS
 62
7
 10
-159.751007
 20
-15.500000
 11
-150.500000
 21
-15.500000
  0
LINE
  8
0
  6
CENTER
 62
2
 10
-139.800003
 20
-4.550000
 11
-139.800003
 21
-8.050000
  0
LINE
  8
0
  6
CENTER
 62
2
 10
-141.550003
 20
-6.300000
 11
-138.050003
 21
-6.300000
  0
LINE
  8
0
  6
CENTER
 62
2
 10
-130.199997
 20
-4.550000
 11
-130.199997
 21
-8.050000
  0
LINE
  8
0
  6
CENTER
 62
2
 10
-131.949997
 20
-6.300000
 11
-128.449997
 21
-6.300000
  0
LINE
  8
0
  6
DASHED
 62
2
 10
-121.000000
 20
-15.500000
 11
-121.000000
 21
-17.000000
  0
LINE
  8
0
  6
DASHED
 62
2
 10
-127.000000
 20
-15.500000
 11
-127.000000
 21
-17.000000
  0
LINE
  8
0
  6
DASHED
 62
2
 10
-125.750000
 20
-17.000000
 11
-125.750000
 21
-22.000000
  0
LINE
  8
0
  6
DASHED
 62
2
 10
-122.250000
 20
-17.000000
 11
-122.250000
 21
-22.000000
  0
LINE
  8
0
  6
DASHED
 62
2
 10
-126.000000
 20
-17.000000
 11
-126.000000
 21
-22.000000
  0
LINE
  8
0
  6
DASHED
 62
2
 10
-122.000000
 20
-17.000000
 11
-122.000000
 21
-22.000000
  0
LINE
  8
0
  6
DASHED
 62
2
 10
-121.000000
 20
-17.000000
 11
-127.000000
 21
-17.000000
  0
LINE
  8
0
  6
CENTER
 62
2
 10
-124.000000
 20
-13.500000
 11
-124.000000
 21
-24.000000
  0
LINE
  8
0
  6
CENTER
 62
2
 10
-156.000000
 20
-13.500000
 11
-156.000000
 21
-24.000000
  0
LINE
  8
0
  6
DASHED
 62
2
 10
-153.000000
 20
-15.500000
 11
-153.000000
 21
-17.000000
  0
LINE
  8
0
  6
DASHED
 62
2
 10
-159.000000
 20
-15.500000
 11
-159.000000
 21
-17.000000
  0
LINE
  8
0
  6
DASHED
 62
2
 10
-157.750000
 20
-17.000000
 11
-157.750000
 21
-22.000000
  0
LINE
  8
0
  6
DASHED
 62
2
 10
-154.250000
 20
-17.000000
 11
-154.250000
 21
-22.000000
  0
LINE
  8
0
  6
DASHED
 62
2
 10
-158.000000
 20
-17.000000
 11
-158.000000
 21
-22.000000
  0
LINE
  8
0
  6
DASHED
 62
2
 10
-154.000000
 20
-17.000000
 11
-154.000000
 21
-22.000000
  0
LINE
  8
0
  6
DASHED
 62
2
 10
-153.000000
 20
-17.000000
 11
-159.000000
 21
-17.000000
  0
LINE
  8
0
  6
CENTER
 62
2
 10
-142.500000
 20
-1.000000
 11
-142.500000
 21
-5.000000
  0
LINE
  8
0
  6
CENTER
 62
2
 10
-127.500000
 20
-1.000000
 11
-127.500000
 21
-5.000000
  0
LINE
  8
0
  6
CONTINUOUS
 62
7
 10
-125.099998
 20
22.000000
 11
-144.899994
 21
22.000000
  0
LINE
  8
0
  6
CONTINUOUS
 62
7
 10
-125.099998
 20
37.000000
 11
-144.899994
 21
37.000000
  0
LINE
  8
0
  6
CONTINUOUS
 62
7
 10
-125.099998
 20
27.000000
 11
-144.899994
 21
27.000000
  0
LINE
  8
0
  6
CONTINUOUS
 62
7
 10
-119.500000
 20
22.299999
 11
-125.099998
 21
22.299999
  0
LINE
  8
0
  6
CONTINUOUS
 62
7
 10
-144.899994
 20
22.299999
 11
-150.500000
 21
22.299999
  0
LINE
  8
0
  6
CENTER
 62
2
 10
-108.429001
 20
32.000000
 11
-172.061996
 21
32.000000
  0
LINE
  8
0
  6
CONTINUOUS
 62
7
 10
-110.000000
 20
20.500000
 11
-170.000000
 21
20.500000
  0
LINE
  8
0
  6
CONTINUOUS
 62
7
 10
-110.000000
 20
27.500000
 11
-119.500000
 21
27.500000
  0
LINE
  8
0
  6
CONTINUOUS
 62
7
 10
-110.000000
 20
36.500000
 11
-119.500000
 21
36.500000
  0
LINE
  8
0
  6
CONTINUOUS
 62
7
 10
-150.500000
 20
36.500000
 11
-170.000000
 21
36.500000
  0
LINE
  8
0
  6
CONTINUOUS
 62
7
 10
-150.500000
 20
27.500000
 11
-170.000000
 21
27.500000
  0
LINE
  8
0
  6
CENTER
 62
2
 10
-131.000000
 20
24.500000
 11
-124.000000
 21
24.500000
  0
LINE
  8
0
  6
CENTER
 62
2
 10
-127.500000
 20
21.000000
 11
-127.500000
 21
28.000000
  0
LINE
  8
0
  6
CONTINUOUS
 62
7
 10
-125.099998
 20
42.000000
 11
-144.899994
 21
42.000000
  0
LINE
  8
0
  6
CONTINUOUS
 62
7
 10
-119.500000
 20
41.700001
 11
-119.500000
 21
22.299999
  0
LINE
  8
0
  6
CONTINUOUS
 62
7
 10
-119.500000
 20
41.700001
 11
-125.099998
 21
41.700001
  0
LINE
  8
0
  6
CONTINUOUS
 62
7
 10
-144.899994
 20
41.700001
 11
-150.500000
 21
41.700001
  0
LINE
  8
0
  6
CONTINUOUS
 62
7
 10
-125.099998
 20
22.000000
 11
-125.099998
 21
42.000000
  0
LINE
  8
0
  6
CONTINUOUS
 62
7
 10
-144.899994
 20
22.000000
 11
-144.899994
 21
42.000000
  0
LINE
  8
0
  6
CENTER
 62
2
 10
-146.000000
 20
24.500000
 11
-139.000000
 21
24.500000
  0
LINE
  8
0
  6
CENTER
 62
2
 10
-142.500000
 20
21.000000
 11
-142.500000
 21
28.000000
  0
LINE
  8
0
  6
CENTER
 62
2
 10
-146.000000
 20
39.500000
 11
-139.000000
 21
39.500000
  0
LINE
  8
0
  6
CENTER
 62
2
 10
-131.000000
 20
39.500000
 11
-124.000000
 21
39.500000
  0
LINE
  8
0
  6
CENTER
 62
2
 10
-127.500000
 20
43.000000
 11
-127.500000
 21
36.000000
  0
LINE
  8
0
  6
CENTER
 62
2
 10
-142.500000
 20
43.000000
 11
-142.500000
 21
36.000000
  0
LINE
  8
0
  6
CENTER
 62
2
 10
-161.000000
 20
40.000000
 11
-151.000000
 21
40.000000
  0
LINE
  8
0
  6
CENTER
 62
2
 10
-156.000000
 20
45.000000
 11
-156.000000
 21
35.000000
  0
LINE
  8
0
  6
CENTER
 62
2
 10
-161.000000
 20
24.000000
 11
-151.000000
 21
24.000000
  0
LINE
  8
0
  6
CENTER
 62
2
 10
-156.000000
 20
19.000000
 11
-156.000000
 21
29.000000
  0
LINE
  8
0
  6
CENTER
 62
2
 10
-119.000000
 20
40.000000
 11
-129.000000
 21
40.000000
  0
LINE
  8
0
  6
CENTER
 62
2
 10
-124.000000
 20
45.000000
 11
-124.000000
 21
35.000000
  0
LINE
  8
0
  6
CENTER
 62
2
 10
-124.000000
 20
19.000000
 11
-124.000000
 21
29.000000
  0
LINE
  8
0
  6
CENTER
 62
2
 10
-119.000000
 20
24.000000
 11
-129.000000
 21
24.000000
  0
LINE
  8
0
  6
CONTINUOUS
 62
7
 10
-150.500000
 20
22.299999
 11
-150.500000
 21
41.700001
  0
LINE
  8
0
  6
CONTINUOUS
 62
7
 10
-125.099998
 20
78.500000
 11
-144.899994
 21
78.500000
  0
LINE
  8
0
  6
CONTINUOUS
 62
7
 10
-119.500000
 20
78.800003
 11
-125.099998
 21
78.800003
  0
LINE
  8
0
  6
CONTINUOUS
 62
7
 10
-142.750000
 20
86.300003
 11
-150.500000
 21
86.300003
  0
LINE
  8
0
  6
CONTINUOUS
 62
7
 10
-119.500000
 20
78.800003
 11
-119.500000
 21
81.000000
  0
LINE
  8
0
  6
CONTINUOUS
 62
7
 10
-144.899994
 20
78.800003
 11
-150.500000
 21
78.800003
  0
LINE
  8
0
  6
CONTINUOUS
 62
7
 10
-150.500000
 20
86.300003
 11
-150.500000
 21
86.000000
  0
LINE
  8
0
  6
CONTINUOUS
 62
7
 10
-150.500000
 20
83.000000
 11
-152.750000
 21
83.000000
  0
LINE
  8
0
  6
CONTINUOUS
 62
7
 10
-125.099998
 20
78.500000
 11
-125.099998
 21
79.500000
  0
LINE
  8
0
  6
CONTINUOUS
 62
7
 10
-144.899994
 20
78.500000
 11
-144.899994
 21
86.300003
  0
LINE
  8
0
  6
CENTER
 62
2
 10
-156.000000
 20
89.000000
 11
-156.000000
 21
99.500000
  0
LINE
  8
0
  6
DASHED
 62
2
 10
-153.000000
 20
91.000000
 11
-153.000000
 21
92.500000
  0
LINE
  8
0
  6
DASHED
 62
2
 10
-159.000000
 20
91.000000
 11
-159.000000
 21
92.500000
  0
LINE
  8
0
  6
DASHED
 62
2
 10
-157.750000
 20
92.500000
 11
-157.750000
 21
97.500000
  0
LINE
  8
0
  6
DASHED
 62
2
 10
-154.250000
 20
92.500000
 11
-154.250000
 21
97.500000
  0
LINE
  8
0
  6
DASHED
 62
2
 10
-158.000000
 20
92.500000
 11
-158.000000
 21
97.500000
  0
LINE
  8
0
  6
DASHED
 62
2
 10
-154.000000
 20
92.500000
 11
-154.000000
 21
97.500000
  0
LINE
  8
0
  6
DASHED
 62
2
 10
-153.000000
 20
92.500000
 11
-159.000000
 21
92.500000
  0
LINE
  8
0
  6
DASHED
 62
2
 10
-121.000000
 20
91.000000
 11
-121.000000
 21
92.500000
  0
LINE
  8
0
  6
DASHED
 62
2
 10
-127.000000
 20
91.000000
 11
-127.000000
 21
92.500000
  0
LINE
  8
0
  6
DASHED
 62
2
 10
-125.750000
 20
92.500000
 11
-125.750000
 21
97.500000
  0
LINE
  8
0
  6
DASHED
 62
2
 10
-122.250000
 20
92.500000
 11
-122.250000
 21
97.500000
  0
LINE
  8
0
  6
DASHED
 62
2
 10
-126.000000
 20
92.500000
 11
-126.000000
 21
97.500000
  0
LINE
  8
0
  6
DASHED
 62
2
 10
-122.000000
 20
92.500000
 11
-122.000000
 21
97.500000
  0
LINE
  8
0
  6
DASHED
 62
2
 10
-121.000000
 20
92.500000
 11
-127.000000
 21
92.500000
  0
LINE
  8
0
  6
CENTER
 62
2
 10
-124.000000
 20
89.000000
 11
-124.000000
 21
99.500000
  0
LINE
  8
0
  6
CENTER
 62
2
 10
-142.500000
 20
80.500000
 11
-142.500000
 21
76.500000
  0
LINE
  8
0
  6
CENTER
 62
2
 10
-127.500000
 20
80.500000
 11
-127.500000
 21
76.500000
  0
LINE
  8
0
  6
CONTINUOUS
 62
7
 10
27.500000
 20
-3.500000
 11
27.500000
 21
-21.500000
  0
LINE
  8
0
  6
CONTINUOUS
 62
7
 10
41.000000
 20
-3.500000
 11
27.500000
 21
-3.500000
  0
LINE
  8
0
  6
CONTINUOUS
 62
7
 10
39.500000
 20
-21.500000
 11
27.500000
 21
-21.500000
  0
LINE
  8
0
  6
CONTINUOUS
 62
7
 10
38.326599
 20
-13.064100
 11
34.173302
 21
-15.462100
  0
LINE
  8
0
  6
CONTINUOUS
 62
7
 10
34.173302
 20
-3.537880
 11
38.326698
 21
-5.935800
  0
LINE
  8
0
  6
CONTINUOUS
 62
7
 10
28.673300
 20
-5.935800
 11
32.826599
 21
-3.537880
  0
LINE
  8
0
  6
CONTINUOUS
 62
7
 10
32.826698
 20
-15.462100
 11
28.673401
 21
-13.064100
  0
LINE
  8
0
  6
CONTINUOUS
 62
7
 10
37.429001
 20
-10.250000
 11
35.136299
 21
-10.250000
  0
LINE
  8
0
  6
CONTINUOUS
 62
7
 10
37.429001
 20
-8.750000
 11
35.136299
 21
-8.750000
  0
LINE
  8
0
  6
CONTINUOUS
 62
7
 10
31.863701
 20
-8.750000
 11
29.570900
 21
-8.750000
  0
LINE
  8
0
  6
CONTINUOUS
 62
7
 10
31.863701
 20
-10.250000
 11
29.570900
 21
-10.250000
  0
LINE
  8
0
  6
CONTINUOUS
 62
7
 10
28.000000
 20
-7.102080
 11
28.000000
 21
-11.897900
  0
LINE
  8
0
  6
CONTINUOUS
 62
7
 10
39.000000
 20
-7.102080
 11
39.000000
 21
-11.897900
  0
LINE
  8
0
  6
CENTER
 62
2
 10
33.500000
 20
-1.460000
 11
33.500000
 21
-17.540001
  0
LINE
  8
0
  6
CENTER
 62
2
 10
25.459999
 20
-9.500000
 11
41.540001
 21
-9.500000
  0
LINE
  8
0
  6
CONTINUOUS
 62
7
 10
39.500000
 20
-3.500000
 11
39.500000
 21
-22.000000
  0
LINE
  8
0
  6
CENTER
 62
2
 10
229.000000
 20
-2.513210
 11
229.000000
 21
-23.006399
  0
LINE
  8
0
  6
CONTINUOUS
 62
7
 10
224.500000
 20
-9.866030
 11
224.500000
 21
-12.200000
  0
LINE
  8
0
  6
CONTINUOUS
 62
7
 10
233.500000
 20
-9.866030
 11
233.500000
 21
-12.200000
  0
LINE
  8
0
  6
CONTINUOUS
 62
7
 10
219.000000
 20
-3.000000
 11
223.500000
 21
-3.000000
  0
LINE
  8
0
  6
CONTINUOUS
 62
7
 10
219.000000
 20
-3.000000
 11
219.000000
 21
-10.800000
  0
LINE
  8
0
  6
CONTINUOUS
 62
7
 10
219.000000
 20
-10.800000
 11
224.500000
 21
-10.800000
  0
LINE
  8
0
  6
CONTINUOUS
 62
7
 10
223.800003
 20
-3.300000
 11
234.199997
 21
-3.300000
  0
LINE
  8
0
  6
CONTINUOUS
 62
7
 10
233.500000
 20
-10.800000
 11
239.000000
 21
-10.800000
  0
LINE
  8
0
  6
CONTINUOUS
 62
7
 10
234.199997
 20
-3.300110
 11
234.500000
 21
-3.000110
  0
LINE
  8
0
  6
CONTINUOUS
 62
7
 10
223.800003
 20
-3.299950
 11
223.500000
 21
-2.999950
  0
LINE
  8
0
  6
CONTINUOUS
 62
7
 10
234.500000
 20
-3.000000
 11
239.000000
 21
-3.000000
  0
LINE
  8
0
  6
CONTINUOUS
 62
7
 10
224.500000
 20
-7.500000
 11
224.500000
 21
-8.133970
  0
LINE
  8
0
  6
CONTINUOUS
 62
7
 10
233.500000
 20
-7.500000
 11
224.500000
 21
-7.500000
  0
LINE
  8
0
  6
CONTINUOUS
 62
7
 10
233.500000
 20
-7.500000
 11
233.500000
 21
-8.133970
  0
LINE
  8
0
  6
CONTINUOUS
 62
7
 10
217.500000
 20
-22.000000
 11
240.500000
 21
-22.000000
  0
LINE
  8
0
  6
CONTINUOUS
 62
7
 10
217.500000
 20
-12.200000
 11
217.500000
 21
-22.000000
  0
LINE
  8
0
  6
CONTINUOUS
 62
7
 10
240.500000
 20
-12.200000
 11
233.500000
 21
-12.200000
  0
LINE
  8
0
  6
CENTER
 62
2
 10
222.500000
 20
-15.500000
 11
235.500000
 21
-15.500000
  0
LINE
  8
0
  6
CONTINUOUS
 62
7
 10
217.500000
 20
-12.200000
 11
224.500000
 21
-12.200000
  0
LINE
  8
0
  6
CONTINUOUS
 62
7
 10
239.000000
 20
-3.000000
 11
239.000000
 21
-10.800000
  0
LINE
  8
0
  6
CENTER
 62
2
 10
221.000000
 20
-20.000000
 11
221.000000
 21
-24.000000
  0
LINE
  8
0
  6
CENTER
 62
2
 10
237.000000
 20
-20.000000
 11
237.000000
 21
-24.000000
  0
LINE
  8
0
  6
CENTER
 62
2
 10
236.500000
 20
-1.000000
 11
236.500000
 21
-5.000000
  0
LINE
  8
0
  6
CENTER
 62
2
 10
221.500000
 20
-1.000000
 11
221.500000
 21
-5.000000
  0
LINE
  8
0
  6
CONTINUOUS
 62
7
 10
252.500000
 20
-3.500000
 11
252.500000
 21
-21.500000
  0
LINE
  8
0
  6
CONTINUOUS
 62
7
 10
239.000000
 20
-3.500000
 11
252.500000
 21
-3.500000
  0
LINE
  8
0
  6
CONTINUOUS
 62
7
 10
240.500000
 20
-21.500000
 11
252.500000
 21
-21.500000
  0
LINE
  8
0
  6
CONTINUOUS
 62
7
 10
241.673004
 20
-13.064200
 11
245.826996
 21
-15.462100
  0
LINE
  8
0
  6
CONTINUOUS
 62
7
 10
245.826996
 20
-3.537860
 11
241.673004
 21
-5.935780
  0
LINE
  8
0
  6
CONTINUOUS
 62
7
 10
251.326996
 20
-5.935850
 11
247.173004
 21
-3.537950
  0
LINE
  8
0
  6
CONTINUOUS
 62
7
 10
247.173004
 20
-15.462000
 11
251.326996
 21
-13.064100
  0
LINE
  8
0
  6
CONTINUOUS
 62
7
 10
242.570999
 20
-10.250000
 11
244.863998
 21
-10.250000
  0
LINE
  8
0
  6
CONTINUOUS
 62
7
 10
242.570999
 20
-8.750000
 11
244.863998
 21
-8.750000
  0
LINE
  8
0
  6
CONTINUOUS
 62
7
 10
248.136002
 20
-8.750000
 11
250.429001
 21
-8.750000
  0
LINE
  8
0
  6
CONTINUOUS
 62
7
 10
248.136002
 20
-10.250000
 11
250.429001
 21
-10.250000
  0
LINE
  8
0
  6
CONTINUOUS
 62
7
 10
252.000000
 20
-7.102080
 11
252.000000
 21
-11.897900
  0
LINE
  8
0
  6
CONTINUOUS
 62
7
 10
241.000000
 20
-7.102080
 11
241.000000
 21
-11.897900
  0
LINE
  8
0
  6
CENTER
 62
2
 10
246.500000
 20
-1.460000
 11
246.500000
 21
-17.540001
  0
LINE
  8
0
  6
CENTER
 62
2
 10
254.539993
 20
-9.500000
 11
238.460007
 21
-9.500000
  0
LINE
  8
0
  6
CONTINUOUS
 62
7
 10
240.500000
 20
-3.500000
 11
240.500000
 21
-22.000000
  0
LINE
  8
0
  6
CONTINUOUS
 62
7
 10
-110.000000
 20
-70.000000
 11
-170.000000
 21
-70.000000
  0
LINE
  8
0
  6
CENTER
 62
2
 10
-165.815002
 20
-76.000000
 11
-186.582001
 21
-76.000000
  0
LINE
  8
0
  6
CONTINUOUS
 62
7
 10
-172.000000
 20
-80.000000
 11
-183.750000
 21
-80.000000
  0
LINE
  8
0
  6
CONTINUOUS
 62
2
 10
-172.000000
 20
-79.300003
 11
-183.750000
 21
-79.300003
  0
LINE
  8
0
  6
CONTINUOUS
 62
7
 10
-184.750000
 20
-79.300003
 11
-184.750000
 21
-72.699997
  0
LINE
  8
0
  6
CONTINUOUS
 62
7
 10
-183.750000
 20
-79.300003
 11
-184.750000
 21
-79.300003
  0
LINE
  8
0
  6
CONTINUOUS
 62
7
 10
-172.000000
 20
-72.000000
 11
-183.750000
 21
-72.000000
  0
LINE
  8
0
  6
CONTINUOUS
 62
7
 10
-183.750000
 20
-80.000000
 11
-183.750000
 21
-72.000000
  0
LINE
  8
0
  6
CONTINUOUS
 62
7
 10
-183.750000
 20
-72.699997
 11
-184.750000
 21
-72.699997
  0
LINE
  8
0
  6
CONTINUOUS
 62
2
 10
-172.000000
 20
-72.699997
 11
-183.750000
 21
-72.699997
  0
LINE
  8
0
  6
CONTINUOUS
 62
7
 10
-172.000000
 20
-70.500000
 11
-172.000000
 21
-81.500000
  0
LINE
  8
0
  6
CONTINUOUS
 62
7
 10
-172.000000
 20
-70.500000
 11
-170.000000
 21
-70.500000
  0
LINE
  8
0
  6
CONTINUOUS
 62
7
 10
-172.000000
 20
-75.326698
 11
-170.000000
 21
-75.326698
  0
LINE
  8
0
  6
CONTINUOUS
 62
7
 10
-172.000000
 20
-71.173302
 11
-170.000000
 21
-71.173302
  0
LINE
  8
0
  6
CONTINUOUS
 62
7
 10
-172.000000
 20
-76.673302
 11
-170.000000
 21
-76.673302
  0
LINE
  8
0
  6
CONTINUOUS
 62
7
 10
-172.000000
 20
-80.826698
 11
-170.000000
 21
-80.826698
  0
LINE
  8
0
  6
CONTINUOUS
 62
7
 10
-172.000000
 20
-81.500000
 11
-170.000000
 21
-81.500000
  0
LINE
  8
0
  6
CONTINUOUS
 62
7
 10
-170.000000
 20
-82.000000
 11
-147.500000
 21
-82.000000
  0
LINE
  8
0
  6
CONTINUOUS
 62
7
 10
-147.500000
 20
-70.000000
 11
-147.500000
 21
-82.000000
  0
LINE
  8
0
  6
CONTINUOUS
 62
7
 10
-153.500000
 20
-79.000000
 11
-147.500000
 21
-79.000000
  0
LINE
  8
0
  6
CONTINUOUS
 62
7
 10
-153.500000
 20
-82.000000
 11
-153.500000
 21
-79.000000
  0
LINE
  8
0
  6
CONTINUOUS
 62
7
 10
-110.000000
 20
-82.000000
 11
-132.500000
 21
-82.000000
  0
LINE
  8
0
  6
CONTINUOUS
 62
7
 10
-132.500000
 20
-70.000000
 11
-132.500000
 21
-82.000000
  0
LINE
  8
0
  6
CONTINUOUS
 62
7
 10
-142.750000
 20
-70.000000
 11
-142.750000
 21
-77.500000
  0
LINE
  8
0
  6
CONTINUOUS
 62
7
 10
-132.500000
 20
-77.500000
 11
-142.750000
 21
-77.500000
  0
LINE
  8
0
  6
CONTINUOUS
 62
7
 10
-126.500000
 20
-79.000000
 11
-132.500000
 21
-79.000000
  0
LINE
  8
0
  6
CONTINUOUS
 62
7
 10
-126.500000
 20
-82.000000
 11
-126.500000
 21
-79.000000
  0
LINE
  8
0
  6
CONTINUOUS
 62
7
 10
-108.000000
 20
-80.826698
 11
-110.000000
 21
-80.826698
  0
LINE
  8
0
  6
CONTINUOUS
 62
7
 10
-108.000000
 20
-81.500000
 11
-110.000000
 21
-81.500000
  0
LINE
  8
0
  6
CENTER
 62
2
 10
-114.184998
 20
-76.000000
 11
-93.417603
 21
-76.000000
  0
LINE
  8
0
  6
CONTINUOUS
 62
7
 10
-108.000000
 20
-80.000000
 11
-96.250000
 21
-80.000000
  0
LINE
  8
0
  6
CONTINUOUS
 62
2
 10
-108.000000
 20
-79.300003
 11
-96.250000
 21
-79.300003
  0
LINE
  8
0
  6
CONTINUOUS
 62
7
 10
-95.250000
 20
-79.300003
 11
-95.250000
 21
-72.699997
  0
LINE
  8
0
  6
CONTINUOUS
 62
7
 10
-96.250000
 20
-79.300003
 11
-95.250000
 21
-79.300003
  0
LINE
  8
0
  6
CONTINUOUS
 62
7
 10
-108.000000
 20
-72.000000
 11
-96.250000
 21
-72.000000
  0
LINE
  8
0
  6
CONTINUOUS
 62
7
 10
-96.250000
 20
-80.000000
 11
-96.250000
 21
-72.000000
  0
LINE
  8
0
  6
CONTINUOUS
 62
7
 10
-96.250000
 20
-72.699997
 11
-95.250000
 21
-72.699997
  0
LINE
  8
0
  6
CONTINUOUS
 62
2
 10
-108.000000
 20
-72.699997
 11
-96.250000
 21
-72.699997
  0
LINE
  8
0
  6
CONTINUOUS
 62
7
 10
-108.000000
 20
-70.500000
 11
-108.000000
 21
-81.500000
  0
LINE
  8
0
  6
CONTINUOUS
 62
7
 10
-108.000000
 20
-70.500000
 11
-110.000000
 21
-70.500000
  0
LINE
  8
0
  6
CONTINUOUS
 62
7
 10
-108.000000
 20
-75.326698
 11
-110.000000
 21
-75.326698
  0
LINE
  8
0
  6
CONTINUOUS
 62
7
 10
-108.000000
 20
-71.173302
 11
-110.000000
 21
-71.173302
  0
LINE
  8
0
  6
CONTINUOUS
 62
7
 10
-108.000000
 20
-76.673302
 11
-110.000000
 21
-76.673302
  0
LINE
  8
0
  6
CENTER
 62
2
 10
-168.136993
 20
-9.500000
 11
-186.582001
 21
-9.500000
  0
LINE
  8
0
  6
CONTINUOUS
 62
7
 10
-172.000000
 20
-5.500020
 11
-183.750000
 21
-5.500020
  0
LINE
  8
0
  6
CONTINUOUS
 62
7
 10
-172.000000
 20
-3.500000
 11
-170.000000
 21
-3.500000
  0
LINE
  8
0
  6
CONTINUOUS
 62
7
 10
-172.000000
 20
-3.500000
 11
-172.000000
 21
-15.500000
  0
LINE
  8
0
  6
CONTINUOUS
 62
7
 10
-172.000000
 20
-7.102080
 11
-170.000000
 21
-7.102080
  0
LINE
  8
0
  6
CONTINUOUS
 62
2
 10
-172.000000
 20
-6.200010
 11
-183.750000
 21
-6.200010
  0
LINE
  8
0
  6
CONTINUOUS
 62
7
 10
-184.750000
 20
-6.200010
 11
-184.750000
 21
-8.750020
  0
LINE
  8
0
  6
CONTINUOUS
 62
7
 10
-183.750000
 20
-6.200010
 11
-184.750000
 21
-6.200010
  0
LINE
  8
0
  6
CONTINUOUS
 62
7
 10
-172.000000
 20
-13.500000
 11
-183.750000
 21
-13.500000
  0
LINE
  8
0
  6
CONTINUOUS
 62
7
 10
-183.750000
 20
-5.500020
 11
-183.750000
 21
-13.500000
  0
LINE
  8
0
  6
CONTINUOUS
 62
7
 10
-184.750000
 20
-10.250000
 11
-184.750000
 21
-12.800000
  0
LINE
  8
0
  6
CONTINUOUS
 62
7
 10
-183.750000
 20
-12.800000
 11
-184.750000
 21
-12.800000
  0
LINE
  8
0
  6
CONTINUOUS
 62
7
 10
-183.750000
 20
-10.250000
 11
-184.750000
 21
-10.250000
  0
LINE
  8
0
  6
CONTINUOUS
 62
7
 10
-183.750000
 20
-8.750020
 11
-184.750000
 21
-8.750020
  0
LINE
  8
0
  6
CONTINUOUS
 62
7
 10
-172.000000
 20
-15.500000
 11
-170.000000
 21
-15.500000
  0
LINE
  8
0
  6
CONTINUOUS
 62
7
 10
-172.000000
 20
-11.897900
 11
-170.000000
 21
-11.897900
  0
LINE
  8
0
  6
CONTINUOUS
 62
7
 10
-172.000000
 20
-13.064200
 11
-170.000000
 21
-13.064200
  0
LINE
  8
0
  6
CONTINUOUS
 62
2
 10
-172.000000
 20
-12.800000
 11
-183.750000
 21
-12.800000
  0
LINE
  8
0
  6
CONTINUOUS
 62
7
 10
-162.000000
 20
-3.500000
 11
-170.000000
 21
-3.500000
  0
LINE
  8
0
  6
CONTINUOUS
 62
2
 10
-158.750000
 20
-6.200010
 11
-162.000000
 21
-6.200010
  0
LINE
  8
0
  6
CONTINUOUS
 62
7
 10
-158.750000
 20
-5.500020
 11
-161.949997
 21
-5.500020
  0
LINE
  8
0
  6
CONTINUOUS
 62
7
 10
-152.750000
 20
-4.000000
 11
-158.750000
 21
-4.000000
  0
LINE
  8
0
  6
CONTINUOUS
 62
7
 10
-158.750000
 20
-4.000000
 11
-158.750000
 21
-7.500000
  0
LINE
  8
0
  6
CONTINUOUS
 62
7
 10
-152.750000
 20
-4.000000
 11
-152.750000
 21
-7.500000
  0
LINE
  8
0
  6
CONTINUOUS
 62
7
 10
-162.000000
 20
-3.500000
 11
-162.000000
 21
-7.500000
  0
LINE
  8
0
  6
CONTINUOUS
 62
7
 10
-172.000000
 20
-5.935810
 11
-170.000000
 21
-5.935810
  0
LINE
  8
0
  6
CONTINUOUS
 62
7
 10
-110.000000
 20
-3.500000
 11
-110.000000
 21
-22.000000
  0
LINE
  8
0
  6
CONTINUOUS
 62
7
 10
-170.000000
 20
-3.500000
 11
-170.000000
 21
-22.000000
  0
LINE
  8
0
  6
CENTER
 62
2
 10
-111.862999
 20
-9.500000
 11
-93.417603
 21
-9.500000
  0
LINE
  8
0
  6
CONTINUOUS
 62
7
 10
-108.000000
 20
-5.500020
 11
-96.250000
 21
-5.500020
  0
LINE
  8
0
  6
CONTINUOUS
 62
7
 10
-108.000000
 20
-3.500000
 11
-110.000000
 21
-3.500000
  0
LINE
  8
0
  6
CONTINUOUS
 62
7
 10
-108.000000
 20
-3.500000
 11
-108.000000
 21
-15.500000
  0
LINE
  8
0
  6
CONTINUOUS
 62
7
 10
-108.000000
 20
-7.102080
 11
-110.000000
 21
-7.102080
  0
LINE
  8
0
  6
CONTINUOUS
 62
2
 10
-108.000000
 20
-6.200010
 11
-96.250000
 21
-6.200010
  0
LINE
  8
0
  6
CONTINUOUS
 62
7
 10
-95.250000
 20
-6.200010
 11
-95.250000
 21
-8.750020
  0
LINE
  8
0
  6
CONTINUOUS
 62
7
 10
-96.250000
 20
-6.200010
 11
-95.250000
 21
-6.200010
  0
LINE
  8
0
  6
CONTINUOUS
 62
7
 10
-108.000000
 20
-13.500000
 11
-96.250000
 21
-13.500000
  0
LINE
  8
0
  6
CONTINUOUS
 62
7
 10
-96.250000
 20
-5.500020
 11
-96.250000
 21
-13.500000
  0
LINE
  8
0
  6
CONTINUOUS
 62
7
 10
-95.250000
 20
-10.250000
 11
-95.250000
 21
-12.800000
  0
LINE
  8
0
  6
CONTINUOUS
 62
7
 10
-96.250000
 20
-12.800000
 11
-95.250000
 21
-12.800000
  0
LINE
  8
0
  6
CONTINUOUS
 62
7
 10
-96.250000
 20
-10.250000
 11
-95.250000
 21
-10.250000
  0
LINE
  8
0
  6
CONTINUOUS
 62
7
 10
-96.250000
 20
-8.750020
 11
-95.250000
 21
-8.750020
  0
LINE
  8
0
  6
CONTINUOUS
 62
7
 10
-108.000000
 20
-15.500000
 11
-110.000000
 21
-15.500000
  0
LINE
  8
0
  6
CONTINUOUS
 62
7
 10
-108.000000
 20
-11.897900
 11
-110.000000
 21
-11.897900
  0
LINE
  8
0
  6
CONTINUOUS
 62
7
 10
-108.000000
 20
-13.064200
 11
-110.000000
 21
-13.064200
  0
LINE
  8
0
  6
CONTINUOUS
 62
2
 10
-108.000000
 20
-12.800000
 11
-96.250000
 21
-12.800000
  0
LINE
  8
0
  6
CONTINUOUS
 62
7
 10
-118.000000
 20
-3.500000
 11
-110.000000
 21
-3.500000
  0
LINE
  8
0
  6
CONTINUOUS
 62
2
 10
-119.500000
 20
-6.200010
 11
-118.000000
 21
-6.200010
  0
LINE
  8
0
  6
CONTINUOUS
 62
7
 10
-119.500000
 20
-5.500020
 11
-118.051003
 21
-5.500020
  0
LINE
  8
0
  6
CONTINUOUS
 62
7
 10
-118.000000
 20
-3.500000
 11
-118.000000
 21
-7.500000
  0
LINE
  8
0
  6
CONTINUOUS
 62
7
 10
-108.000000
 20
-5.935810
 11
-110.000000
 21
-5.935810
  0
LINE
  8
0
  6
CONTINUOUS
 62
7
 10
-110.000000
 20
43.500000
 11
-127.250000
 21
43.500000
  0
LINE
  8
0
  6
CENTER
 62
2
 10
-128.444000
 20
49.500000
 11
-93.417603
 21
49.500000
  0
LINE
  8
0
  6
CONTINUOUS
 62
2
 10
-121.250000
 20
46.200001
 11
-118.000000
 21
46.200001
  0
LINE
  8
0
  6
CONTINUOUS
 62
7
 10
-121.250000
 20
45.500000
 11
-118.051003
 21
45.500000
  0
LINE
  8
0
  6
CONTINUOUS
 62
7
 10
-121.250000
 20
53.500000
 11
-118.000000
 21
53.500000
  0
LINE
  8
0
  6
CONTINUOUS
 62
2
 10
-121.250000
 20
52.799999
 11
-118.000000
 21
52.799999
  0
LINE
  8
0
  6
CONTINUOUS
 62
7
 10
-127.250000
 20
44.000000
 11
-121.250000
 21
44.000000
  0
LINE
  8
0
  6
CONTINUOUS
 62
7
 10
-121.250000
 20
44.000000
 11
-121.250000
 21
55.000000
  0
LINE
  8
0
  6
CONTINUOUS
 62
7
 10
-127.250000
 20
55.000000
 11
-121.250000
 21
55.000000
  0
LINE
  8
0
  6
CONTINUOUS
 62
7
 10
-110.000000
 20
55.500000
 11
-132.500000
 21
55.500000
  0
LINE
  8
0
  6
CONTINUOUS
 62
7
 10
-127.250000
 20
51.000000
 11
-142.750000
 21
51.000000
  0
LINE
  8
0
  6
CONTINUOUS
 62
7
 10
-142.750000
 20
51.000000
 11
-142.750000
 21
42.000000
  0
LINE
  8
0
  6
CONTINUOUS
 62
7
 10
-127.250000
 20
42.000000
 11
-127.250000
 21
55.000000
  0
LINE
  8
0
  6
CONTINUOUS
 62
7
 10
-142.750000
 20
43.500000
 11
-170.000000
 21
43.500000
  0
LINE
  8
0
  6
CONTINUOUS
 62
7
 10
-132.500000
 20
55.500000
 11
-132.500000
 21
51.000000
  0
LINE
  8
0
  6
CONTINUOUS
 62
7
 10
-127.250000
 20
52.500000
 11
-132.500000
 21
52.500000
  0
LINE
  8
0
  6
CONTINUOUS
 62
7
 10
-126.500000
 20
55.500000
 11
-126.500000
 21
55.000000
  0
LINE
  8
0
  6
CONTINUOUS
 62
7
 10
-118.000000
 20
55.500000
 11
-118.000000
 21
43.500000
  0
LINE
  8
0
  6
CENTER
 62
2
 10
-146.737000
 20
49.500000
 11
-186.582001
 21
49.500000
  0
LINE
  8
0
  6
CONTINUOUS
 62
2
 10
-158.750000
 20
46.200001
 11
-162.000000
 21
46.200001
  0
LINE
  8
0
  6
CONTINUOUS
 62
7
 10
-158.750000
 20
45.500000
 11
-161.949997
 21
45.500000
  0
LINE
  8
0
  6
CONTINUOUS
 62
7
 10
-158.750000
 20
53.500000
 11
-162.000000
 21
53.500000
  0
LINE
  8
0
  6
CONTINUOUS
 62
2
 10
-158.750000
 20
52.799999
 11
-162.000000
 21
52.799999
  0
LINE
  8
0
  6
CONTINUOUS
 62
7
 10
-152.750000
 20
44.000000
 11
-158.750000
 21
44.000000
  0
LINE
  8
0
  6
CONTINUOUS
 62
7
 10
-158.750000
 20
44.000000
 11
-158.750000
 21
55.000000
  0
LINE
  8
0
  6
CONTINUOUS
 62
7
 10
-152.750000
 20
55.000000
 11
-158.750000
 21
55.000000
  0
LINE
  8
0
  6
CONTINUOUS
 62
7
 10
-170.000000
 20
55.500000
 11
-147.500000
 21
55.500000
  0
LINE
  8
0
  6
CONTINUOUS
 62
7
 10
-170.000000
 20
55.500000
 11
-170.000000
 21
20.500000
  0
LINE
  8
0
  6
CONTINUOUS
 62
7
 10
-152.750000
 20
44.000000
 11
-152.750000
 21
55.000000
  0
LINE
  8
0
  6
CONTINUOUS
 62
7
 10
-152.750000
 20
52.500000
 11
-147.500000
 21
52.500000
  0
LINE
  8
0
  6
CONTINUOUS
 62
7
 10
-153.500000
 20
55.500000
 11
-153.500000
 21
55.000000
  0
LINE
  8
0
  6
CONTINUOUS
 62
7
 10
-147.500000
 20
55.500000
 11
-147.500000
 21
43.500000
  0
LINE
  8
0
  6
CONTINUOUS
 62
7
 10
-172.000000
 20
45.500000
 11
-183.750000
 21
45.500000
  0
LINE
  8
0
  6
CONTINUOUS
 62
2
 10
-172.000000
 20
46.200001
 11
-183.750000
 21
46.200001
  0
LINE
  8
0
  6
CONTINUOUS
 62
7
 10
-184.750000
 20
46.200001
 11
-184.750000
 21
52.799999
  0
LINE
  8
0
  6
CONTINUOUS
 62
7
 10
-183.750000
 20
46.200001
 11
-184.750000
 21
46.200001
  0
LINE
  8
0
  6
CONTINUOUS
 62
7
 10
-172.000000
 20
53.500000
 11
-183.750000
 21
53.500000
  0
LINE
  8
0
  6
CONTINUOUS
 62
7
 10
-183.750000
 20
45.500000
 11
-183.750000
 21
53.500000
  0
LINE
  8
0
  6
CONTINUOUS
 62
7
 10
-183.750000
 20
52.799999
 11
-184.750000
 21
52.799999
  0
LINE
  8
0
  6
CONTINUOUS
 62
2
 10
-172.000000
 20
52.799999
 11
-183.750000
 21
52.799999
  0
LINE
  8
0
  6
CONTINUOUS
 62
7
 10
-162.000000
 20
55.500000
 11
-162.000000
 21
43.500000
  0
LINE
  8
0
  6
CONTINUOUS
 62
7
 10
-148.750000
 20
48.500000
 11
-148.750000
 21
50.500000
  0
LINE
  8
0
  6
CONTINUOUS
 62
7
 10
-148.750000
 20
50.500000
 11
-152.750000
 21
50.500000
  0
LINE
  8
0
  6
CONTINUOUS
 62
7
 10
-148.750000
 20
48.500000
 11
-152.750000
 21
48.500000
  0
LINE
  8
0
  6
CONTINUOUS
 62
7
 10
-172.000000
 20
55.000000
 11
-172.000000
 21
44.000000
  0
LINE
  8
0
  6
CONTINUOUS
 62
7
 10
-172.000000
 20
55.000000
 11
-170.000000
 21
55.000000
  0
LINE
  8
0
  6
CONTINUOUS
 62
7
 10
-172.000000
 20
50.173302
 11
-170.000000
 21
50.173302
  0
LINE
  8
0
  6
CONTINUOUS
 62
7
 10
-172.000000
 20
54.326698
 11
-170.000000
 21
54.326698
  0
LINE
  8
0
  6
CONTINUOUS
 62
7
 10
-172.000000
 20
48.826698
 11
-170.000000
 21
48.826698
  0
LINE
  8
0
  6
CONTINUOUS
 62
7
 10
-172.000000
 20
44.673302
 11
-170.000000
 21
44.673302
  0
LINE
  8
0
  6
CONTINUOUS
 62
7
 10
-172.000000
 20
44.000000
 11
-170.000000
 21
44.000000
  0
LINE
  8
0
  6
CONTINUOUS
 62
7
 10
-108.000000
 20
48.826698
 11
-110.000000
 21
48.826698
  0
LINE
  8
0
  6
CONTINUOUS
 62
7
 10
-108.000000
 20
44.000000
 11
-110.000000
 21
44.000000
  0
LINE
  8
0
  6
CONTINUOUS
 62
7
 10
-108.000000
 20
44.673302
 11
-110.000000
 21
44.673302
  0
LINE
  8
0
  6
CONTINUOUS
 62
7
 10
-110.000000
 20
55.500000
 11
-110.000000
 21
20.500000
  0
LINE
  8
0
  6
CONTINUOUS
 62
7
 10
-108.000000
 20
45.500000
 11
-96.250000
 21
45.500000
  0
LINE
  8
0
  6
CONTINUOUS
 62
2
 10
-108.000000
 20
46.200001
 11
-96.250000
 21
46.200001
  0
LINE
  8
0
  6
CONTINUOUS
 62
7
 10
-95.250000
 20
46.200001
 11
-95.250000
 21
52.799999
  0
LINE
  8
0
  6
CONTINUOUS
 62
7
 10
-96.250000
 20
46.200001
 11
-95.250000
 21
46.200001
  0
LINE
  8
0
  6
CONTINUOUS
 62
7
 10
-108.000000
 20
53.500000
 11
-96.250000
 21
53.500000
  0
LINE
  8
0
  6
CONTINUOUS
 62
7
 10
-96.250000
 20
45.500000
 11
-96.250000
 21
53.500000
  0
LINE
  8
0
  6
CONTINUOUS
 62
7
 10
-96.250000
 20
52.799999
 11
-95.250000
 21
52.799999
  0
LINE
  8
0
  6
CONTINUOUS
 62
2
 10
-108.000000
 20
52.799999
 11
-96.250000
 21
52.799999
  0
LINE
  8
0
  6
CONTINUOUS
 62
7
 10
-108.000000
 20
55.000000
 11
-108.000000
 21
44.000000
  0
LINE
  8
0
  6
CONTINUOUS
 62
7
 10
-108.000000
 20
55.000000
 11
-110.000000
 21
55.000000
  0
LINE
  8
0
  6
CONTINUOUS
 62
7
 10
-108.000000
 20
50.173302
 11
-110.000000
 21
50.173302
  0
LINE
  8
0
  6
CONTINUOUS
 62
7
 10
-108.000000
 20
54.326698
 11
-110.000000
 21
54.326698
  0
LINE
  8
0
  6
CONTINUOUS
 62
7
 10
-170.000000
 20
79.000000
 11
-170.000000
 21
97.500000
  0
LINE
  8
0
  6
CONTINUOUS
 62
7
 10
-110.000000
 20
97.500000
 11
-170.000000
 21
97.500000
  0
LINE
  8
0
  6
CONTINUOUS
 62
7
 10
-147.500000
 20
91.500000
 11
-132.500000
 21
91.500000
  0
LINE
  8
0
  6
CONTINUOUS
 62
7
 10
-142.750000
 20
79.000000
 11
-127.250000
 21
79.000000
  0
LINE
  8
0
  6
CONTINUOUS
 62
7
 10
-127.250000
 20
79.000000
 11
-127.250000
 21
90.500000
  0
LINE
  8
0
  6
CONTINUOUS
 62
7
 10
-142.750000
 20
87.000000
 11
-142.750000
 21
79.000000
  0
LINE
  8
0
  6
CONTINUOUS
 62
7
 10
-142.750000
 20
87.000000
 11
-127.250000
 21
87.000000
  0
LINE
  8
0
  6
CONTINUOUS
 62
7
 10
-147.500000
 20
97.000000
 11
-170.000000
 21
97.000000
  0
LINE
  8
0
  6
CONTINUOUS
 62
7
 10
-153.500000
 20
91.000000
 11
-153.500000
 21
97.000000
  0
LINE
  8
0
  6
CONTINUOUS
 62
7
 10
-147.500000
 20
91.000000
 11
-159.500000
 21
91.000000
  0
LINE
  8
0
  6
CONTINUOUS
 62
7
 10
-147.500000
 20
91.000000
 11
-147.500000
 21
97.000000
  0
LINE
  8
0
  6
CONTINUOUS
 62
7
 10
-162.000000
 20
79.000000
 11
-162.000000
 21
88.500000
  0
LINE
  8
0
  6
CONTINUOUS
 62
7
 10
-162.000000
 20
79.000000
 11
-172.000000
 21
79.000000
  0
LINE
  8
0
  6
CENTER
 62
2
 10
-147.220993
 20
85.000000
 11
-186.582001
 21
85.000000
  0
LINE
  8
0
  6
CONTINUOUS
 62
7
 10
-172.000000
 20
81.000000
 11
-183.750000
 21
81.000000
  0
LINE
  8
0
  6
CONTINUOUS
 62
7
 10
-172.000000
 20
79.000000
 11
-172.000000
 21
91.000000
  0
LINE
  8
0
  6
CONTINUOUS
 62
7
 10
-172.000000
 20
81.435799
 11
-170.000000
 21
81.435799
  0
LINE
  8
0
  6
CONTINUOUS
 62
7
 10
-172.000000
 20
82.602097
 11
-170.000000
 21
82.602097
  0
LINE
  8
0
  6
CONTINUOUS
 62
2
 10
-172.000000
 20
81.699997
 11
-183.750000
 21
81.699997
  0
LINE
  8
0
  6
CONTINUOUS
 62
7
 10
-184.750000
 20
81.699997
 11
-184.750000
 21
84.250000
  0
LINE
  8
0
  6
CONTINUOUS
 62
7
 10
-183.750000
 20
81.699997
 11
-184.750000
 21
81.699997
  0
LINE
  8
0
  6
CONTINUOUS
 62
7
 10
-172.000000
 20
89.000000
 11
-183.750000
 21
89.000000
  0
LINE
  8
0
  6
CONTINUOUS
 62
7
 10
-183.750000
 20
81.000000
 11
-183.750000
 21
89.000000
  0
LINE
  8
0
  6
CONTINUOUS
 62
7
 10
-184.750000
 20
85.750000
 11
-184.750000
 21
88.300003
  0
LINE
  8
0
  6
CONTINUOUS
 62
7
 10
-183.750000
 20
88.300003
 11
-184.750000
 21
88.300003
  0
LINE
  8
0
  6
CONTINUOUS
 62
7
 10
-183.750000
 20
85.750000
 11
-184.750000
 21
85.750000
  0
LINE
  8
0
  6
CONTINUOUS
 62
7
 10
-183.750000
 20
84.250000
 11
-184.750000
 21
84.250000
  0
LINE
  8
0
  6
CONTINUOUS
 62
7
 10
-172.000000
 20
91.000000
 11
-170.000000
 21
91.000000
  0
LINE
  8
0
  6
CONTINUOUS
 62
7
 10
-172.000000
 20
87.397903
 11
-170.000000
 21
87.397903
  0
LINE
  8
0
  6
CONTINUOUS
 62
7
 10
-172.000000
 20
88.564201
 11
-170.000000
 21
88.564201
  0
LINE
  8
0
  6
CONTINUOUS
 62
2
 10
-172.000000
 20
88.300003
 11
-183.750000
 21
88.300003
  0
LINE
  8
0
  6
CONTINUOUS
 62
7
 10
-148.750000
 20
86.000000
 11
-152.750000
 21
86.000000
  0
LINE
  8
0
  6
CONTINUOUS
 62
7
 10
-148.750000
 20
84.000000
 11
-152.750000
 21
84.000000
  0
LINE
  8
0
  6
CONTINUOUS
 62
7
 10
-152.750000
 20
79.500000
 11
-158.750000
 21
79.500000
  0
LINE
  8
0
  6
CONTINUOUS
 62
2
 10
-158.750000
 20
81.699997
 11
-162.000000
 21
81.699997
  0
LINE
  8
0
  6
CONTINUOUS
 62
7
 10
-158.750000
 20
81.000000
 11
-161.949997
 21
81.000000
  0
LINE
  8
0
  6
CONTINUOUS
 62
7
 10
-158.750000
 20
79.500000
 11
-158.750000
 21
90.500000
  0
LINE
  8
0
  6
CONTINUOUS
 62
7
 10
-158.750000
 20
89.000000
 11
-161.949005
 21
89.000000
  0
LINE
  8
0
  6
CONTINUOUS
 62
2
 10
-158.750000
 20
88.300003
 11
-162.000000
 21
88.300003
  0
LINE
  8
0
  6
CONTINUOUS
 62
7
 10
-152.750000
 20
90.500000
 11
-158.750000
 21
90.500000
  0
LINE
  8
0
  6
CONTINUOUS
 62
7
 10
-152.750000
 20
79.500000
 11
-152.750000
 21
90.500000
  0
LINE
  8
0
  6
CONTINUOUS
 62
7
 10
-148.750000
 20
84.000000
 11
-148.750000
 21
86.000000
  0
LINE
  8
0
  6
CONTINUOUS
 62
7
 10
-132.500000
 20
97.000000
 11
-110.000000
 21
97.000000
  0
LINE
  8
0
  6
CONTINUOUS
 62
7
 10
-118.000000
 20
79.000000
 11
-118.000000
 21
88.500000
  0
LINE
  8
0
  6
CONTINUOUS
 62
7
 10
-132.500000
 20
91.000000
 11
-120.500000
 21
91.000000
  0
LINE
  8
0
  6
CONTINUOUS
 62
7
 10
-126.500000
 20
91.000000
 11
-126.500000
 21
97.000000
  0
LINE
  8
0
  6
CONTINUOUS
 62
7
 10
-132.500000
 20
91.000000
 11
-132.500000
 21
97.000000
  0
LINE
  8
0
  6
CONTINUOUS
 62
7
 10
-127.250000
 20
90.500000
 11
-121.250000
 21
90.500000
  0
LINE
  8
0
  6
CONTINUOUS
 62
7
 10
-127.250000
 20
79.500000
 11
-121.250000
 21
79.500000
  0
LINE
  8
0
  6
CONTINUOUS
 62
7
 10
-121.250000
 20
79.500000
 11
-121.250000
 21
90.500000
  0
LINE
  8
0
  6
CONTINUOUS
 62
7
 10
-121.250000
 20
89.000000
 11
-118.051003
 21
89.000000
  0
LINE
  8
0
  6
CONTINUOUS
 62
2
 10
-121.250000
 20
88.300003
 11
-118.000000
 21
88.300003
  0
LINE
  8
0
  6
CONTINUOUS
 62
2
 10
-121.250000
 20
81.699997
 11
-118.000000
 21
81.699997
  0
LINE
  8
0
  6
CONTINUOUS
 62
7
 10
-121.250000
 20
81.000000
 11
-118.051003
 21
81.000000
  0
LINE
  8
0
  6
CENTER
 62
2
 10
-128.328995
 20
85.000000
 11
-93.417603
 21
85.000000
  0
LINE
  8
0
  6
CONTINUOUS
 62
7
 10
-110.000000
 20
79.000000
 11
-110.000000
 21
97.500000
  0
LINE
  8
0
  6
CONTINUOUS
 62
7
 10
-118.000000
 20
79.000000
 11
-108.000000
 21
79.000000
  0
LINE
  8
0
  6
CONTINUOUS
 62
2
 10
-108.000000
 20
88.300003
 11
-96.250000
 21
88.300003
  0
LINE
  8
0
  6
CONTINUOUS
 62
7
 10
-108.000000
 20
81.000000
 11
-96.250000
 21
81.000000
  0
LINE
  8
0
  6
CONTINUOUS
 62
7
 10
-108.000000
 20
79.000000
 11
-108.000000
 21
91.000000
  0
LINE
  8
0
  6
CONTINUOUS
 62
7
 10
-108.000000
 20
81.435799
 11
-110.000000
 21
81.435799
  0
LINE
  8
0
  6
CONTINUOUS
 62
7
 10
-108.000000
 20
82.602097
 11
-110.000000
 21
82.602097
  0
LINE
  8
0
  6
CONTINUOUS
 62
2
 10
-108.000000
 20
81.699997
 11
-96.250000
 21
81.699997
  0
LINE
  8
0
  6
CONTINUOUS
 62
7
 10
-95.250000
 20
81.699997
 11
-95.250000
 21
84.250000
  0
LINE
  8
0
  6
CONTINUOUS
 62
7
 10
-96.250000
 20
81.699997
 11
-95.250000
 21
81.699997
  0
LINE
  8
0
  6
CONTINUOUS
 62
7
 10
-108.000000
 20
89.000000
 11
-96.250000
 21
89.000000
  0
LINE
  8
0
  6
CONTINUOUS
 62
7
 10
-96.250000
 20
81.000000
 11
-96.250000
 21
89.000000
  0
LINE
  8
0
  6
CONTINUOUS
 62
7
 10
-95.250000
 20
85.750000
 11
-95.250000
 21
88.300003
  0
LINE
  8
0
  6
CONTINUOUS
 62
7
 10
-96.250000
 20
88.300003
 11
-95.250000
 21
88.300003
  0
LINE
  8
0
  6
CONTINUOUS
 62
7
 10
-96.250000
 20
85.750000
 11
-95.250000
 21
85.750000
  0
LINE
  8
0
  6
CONTINUOUS
 62
7
 10
-96.250000
 20
84.250000
 11
-95.250000
 21
84.250000
  0
LINE
  8
0
  6
CONTINUOUS
 62
7
 10
-108.000000
 20
91.000000
 11
-110.000000
 21
91.000000
  0
LINE
  8
0
  6
CONTINUOUS
 62
7
 10
-108.000000
 20
87.397903
 11
-110.000000
 21
87.397903
  0
LINE
  8
0
  6
CONTINUOUS
 62
7
 10
-108.000000
 20
88.564201
 11
-110.000000
 21
88.564201
  0
LINE
  8
0
  6
CONTINUOUS
 62
7
 10
-150.500000
 20
84.000000
 11
-150.500000
 21
78.800003
  0
LINE
  8
0
  6
CONTINUOUS
 62
7
 10
185.000000
 20
-70.000000
 11
95.000000
 21
-70.000000
  0
LINE
  8
0
  6
CONTINUOUS
 62
7
 10
95.000000
 20
-70.000000
 11
95.000000
 21
-47.000000
  0
LINE
  8
0
  6
CONTINUOUS
 62
7
 10
185.000000
 20
-47.000000
 11
95.000000
 21
-47.000000
  0
LINE
  8
0
  6
CONTINUOUS
 62
7
 10
185.000000
 20
-70.000000
 11
185.000000
 21
-47.000000
  0
LINE
  8
0
  6
CENTER
 62
2
 10
186.598999
 20
-58.500000
 11
92.369797
 21
-58.500000
  0
LINE
  8
0
  6
CENTER
 62
2
 10
110.000000
 20
-61.500000
 11
110.000000
 21
-71.500000
  0
LINE
  8
0
  6
CENTER
 62
2
 10
115.000000
 20
-66.500000
 11
105.000000
 21
-66.500000
  0
LINE
  8
0
  6
CENTER
 62
2
 10
110.000000
 20
-55.500000
 11
110.000000
 21
-45.500000
  0
LINE
  8
0
  6
CENTER
 62
2
 10
115.000000
 20
-50.500000
 11
105.000000
 21
-50.500000
  0
LINE
  8
0
  6
CENTER
 62
2
 10
170.000000
 20
-71.500000
 11
170.000000
 21
-61.500000
  0
LINE
  8
0
  6
CENTER
 62
2
 10
175.000000
 20
-66.500000
 11
165.000000
 21
-66.500000
  0
LINE
  8
0
  6
CENTER
 62
2
 10
170.000000
 20
-45.500000
 11
170.000000
 21
-55.500000
  0
LINE
  8
0
  6
CENTER
 62
2
 10
175.000000
 20
-50.500000
 11
165.000000
 21
-50.500000
  0
LINE
  8
0
  6
CENTER
 62
2
 10
102.000000
 20
-49.099998
 11
102.000000
 21
-63.900002
  0
LINE
  8
0
  6
CENTER
 62
2
 10
94.599998
 20
-56.500000
 11
109.400002
 21
-56.500000
  0
LINE
  8
0
  6
CENTER
 62
2
 10
178.000000
 20
-49.099998
 11
178.000000
 21
-63.900002
  0
LINE
  8
0
  6
CENTER
 62
2
 10
185.399994
 20
-56.500000
 11
170.600006
 21
-56.500000
  0
LINE
  8
0
  6
CONTINUOUS
 62
7
 10
166.899994
 20
-3.000000
 11
133.100006
 21
-3.000000
  0
LINE
  8
0
  6
CONTINUOUS
 62
7
 10
172.500000
 20
-3.300000
 11
166.899994
 21
-3.300000
  0
LINE
  8
0
  6
CONTINUOUS
 62
7
 10
172.500000
 20
-10.800000
 11
127.500000
 21
-10.800000
  0
LINE
  8
0
  6
CONTINUOUS
 62
7
 10
172.500000
 20
-3.300000
 11
172.500000
 21
-10.800000
  0
LINE
  8
0
  6
CONTINUOUS
 62
7
 10
133.100006
 20
-3.300000
 11
127.500000
 21
-3.300000
  0
LINE
  8
0
  6
CONTINUOUS
 62
7
 10
127.500000
 20
-10.800000
 11
127.500000
 21
-3.300000
  0
LINE
  8
0
  6
CONTINUOUS
 62
7
 10
185.000000
 20
-7.500000
 11
172.500000
 21
-7.500000
  0
LINE
  8
0
  6
CONTINUOUS
 62
7
 10
127.500000
 20
-7.500000
 11
95.000000
 21
-7.500000
  0
LINE
  8
0
  6
CONTINUOUS
 62
7
 10
95.000000
 20
-7.500000
 11
95.000000
 21
-22.000000
  0
LINE
  8
0
  6
CONTINUOUS
 62
7
 10
185.000000
 20
-7.500000
 11
185.000000
 21
-22.000000
  0
LINE
  8
0
  6
CONTINUOUS
 62
7
 10
185.000000
 20
-22.000000
 11
95.000000
 21
-22.000000
  0
LINE
  8
0
  6
CONTINUOUS
 62
7
 10
95.000000
 20
-12.200000
 11
104.153000
 21
-12.200000
  0
LINE
  8
0
  6
CONTINUOUS
 62
7
 10
166.899994
 20
-3.000000
 11
166.899994
 21
-10.800000
  0
LINE
  8
0
  6
CONTINUOUS
 62
7
 10
133.100006
 20
-3.000000
 11
133.100006
 21
-10.800000
  0
LINE
  8
0
  6
CONTINUOUS
 62
7
 10
173.751007
 20
-15.500000
 11
160.000000
 21
-15.500000
  0
LINE
  8
0
  6
CONTINUOUS
 62
7
 10
185.000000
 20
-12.200000
 11
175.847000
 21
-12.200000
  0
LINE
  8
0
  6
CENTER
 62
2
 10
116.500000
 20
-18.500000
 11
123.500000
 21
-18.500000
  0
LINE
  8
0
  6
CENTER
 62
2
 10
120.000000
 20
-22.000000
 11
120.000000
 21
-15.000000
  0
LINE
  8
0
  6
CENTER
 62
2
 10
156.500000
 20
-18.500000
 11
163.500000
 21
-18.500000
  0
LINE
  8
0
  6
CENTER
 62
2
 10
160.000000
 20
-22.000000
 11
160.000000
 21
-15.000000
  0
LINE
  8
0
  6
CONTINUOUS
 62
7
 10
121.657997
 20
-16.000000
 11
158.341995
 21
-16.000000
  0
LINE
  8
0
  6
CONTINUOUS
 62
7
 10
106.249001
 20
-15.500000
 11
120.000000
 21
-15.500000
  0
LINE
  8
0
  6
CENTER
 62
2
 10
145.199997
 20
-4.550000
 11
145.199997
 21
-8.050000
  0
LINE
  8
0
  6
CENTER
 62
2
 10
143.449997
 20
-6.300000
 11
146.949997
 21
-6.300000
  0
LINE
  8
0
  6
CENTER
 62
2
 10
154.800003
 20
-4.550000
 11
154.800003
 21
-8.050000
  0
LINE
  8
0
  6
CENTER
 62
2
 10
153.050003
 20
-6.300000
 11
156.550003
 21
-6.300000
  0
LINE
  8
0
  6
CENTER
 62
2
 10
187.042999
 20
32.000000
 11
91.855202
 21
32.000000
  0
LINE
  8
0
  6
CONTINUOUS
 62
7
 10
185.000000
 20
43.500000
 11
185.000000
 21
20.500000
  0
LINE
  8
0
  6
CONTINUOUS
 62
7
 10
185.000000
 20
27.500000
 11
172.500000
 21
27.500000
  0
LINE
  8
0
  6
CENTER
 62
2
 10
170.000000
 20
19.000000
 11
170.000000
 21
29.000000
  0
LINE
  8
0
  6
CENTER
 62
2
 10
175.000000
 20
24.000000
 11
165.000000
 21
24.000000
  0
LINE
  8
0
  6
CONTINUOUS
 62
7
 10
166.899994
 20
22.000000
 11
133.100006
 21
22.000000
  0
LINE
  8
0
  6
CONTINUOUS
 62
7
 10
166.899994
 20
37.000000
 11
133.100006
 21
37.000000
  0
LINE
  8
0
  6
CONTINUOUS
 62
7
 10
166.899994
 20
27.000000
 11
133.100006
 21
27.000000
  0
LINE
  8
0
  6
CONTINUOUS
 62
7
 10
133.100006
 20
22.299999
 11
127.500000
 21
22.299999
  0
LINE
  8
0
  6
CENTER
 62
2
 10
145.500000
 20
39.500000
 11
138.600006
 21
39.500000
  0
LINE
  8
0
  6
CENTER
 62
2
 10
145.500000
 20
24.500000
 11
138.600006
 21
24.500000
  0
LINE
  8
0
  6
CENTER
 62
2
 10
142.000000
 20
21.000000
 11
142.000000
 21
28.000000
  0
LINE
  8
0
  6
CENTER
 62
2
 10
154.500000
 20
24.500000
 11
160.891006
 21
24.500000
  0
LINE
  8
0
  6
CENTER
 62
2
 10
158.000000
 20
21.000000
 11
158.000000
 21
28.000000
  0
LINE
  8
0
  6
CENTER
 62
2
 10
142.000000
 20
43.000000
 11
142.000000
 21
36.000000
  0
LINE
  8
0
  6
CONTINUOUS
 62
7
 10
133.100006
 20
22.000000
 11
133.100006
 21
42.000000
  0
LINE
  8
0
  6
CENTER
 62
2
 10
154.488007
 20
39.500000
 11
160.932999
 21
39.500000
  0
LINE
  8
0
  6
CENTER
 62
2
 10
158.000000
 20
43.000000
 11
158.000000
 21
36.000000
  0
LINE
  8
0
  6
CONTINUOUS
 62
7
 10
166.899994
 20
42.000000
 11
133.100006
 21
42.000000
  0
LINE
  8
0
  6
CONTINUOUS
 62
7
 10
133.100006
 20
41.700001
 11
127.500000
 21
41.700001
  0
LINE
  8
0
  6
CONTINUOUS
 62
7
 10
127.500000
 20
22.299999
 11
127.500000
 21
41.700001
  0
LINE
  8
0
  6
CONTINUOUS
 62
7
 10
172.500000
 20
22.299999
 11
166.899994
 21
22.299999
  0
LINE
  8
0
  6
CONTINUOUS
 62
7
 10
172.500000
 20
41.700001
 11
166.899994
 21
41.700001
  0
LINE
  8
0
  6
CONTINUOUS
 62
7
 10
166.899994
 20
22.000000
 11
166.899994
 21
42.000000
  0
LINE
  8
0
  6
CONTINUOUS
 62
7
 10
172.500000
 20
41.700001
 11
172.500000
 21
22.299999
  0
LINE
  8
0
  6
CONTINUOUS
 62
7
 10
185.000000
 20
20.500000
 11
95.000000
 21
20.500000
  0
LINE
  8
0
  6
CONTINUOUS
 62
7
 10
185.000000
 20
36.500000
 11
172.500000
 21
36.500000
  0
LINE
  8
0
  6
CENTER
 62
2
 10
170.000000
 20
45.000000
 11
170.000000
 21
35.000000
  0
LINE
  8
0
  6
CENTER
 62
2
 10
175.000000
 20
40.000000
 11
165.000000
 21
40.000000
  0
LINE
  8
0
  6
CONTINUOUS
 62
7
 10
95.000000
 20
27.500000
 11
127.500000
 21
27.500000
  0
LINE
  8
0
  6
CENTER
 62
2
 10
110.000000
 20
19.000000
 11
110.000000
 21
29.000000
  0
LINE
  8
0
  6
CENTER
 62
2
 10
105.000000
 20
24.000000
 11
115.000000
 21
24.000000
  0
LINE
  8
0
  6
CONTINUOUS
 62
7
 10
95.000000
 20
43.500000
 11
95.000000
 21
20.500000
  0
LINE
  8
0
  6
CONTINUOUS
 62
7
 10
95.000000
 20
36.500000
 11
127.500000
 21
36.500000
  0
LINE
  8
0
  6
CENTER
 62
2
 10
110.000000
 20
45.000000
 11
110.000000
 21
35.000000
  0
LINE
  8
0
  6
CENTER
 62
2
 10
105.000000
 20
40.000000
 11
115.000000
 21
40.000000
  0
LINE
  8
0
  6
CONTINUOUS
 62
7
 10
166.899994
 20
78.500000
 11
133.100006
 21
78.500000
  0
LINE
  8
0
  6
CONTINUOUS
 62
7
 10
172.500000
 20
78.800003
 11
166.899994
 21
78.800003
  0
LINE
  8
0
  6
CONTINUOUS
 62
7
 10
142.250000
 20
86.300003
 11
127.500000
 21
86.300003
  0
LINE
  8
0
  6
CONTINUOUS
 62
7
 10
172.500000
 20
78.800003
 11
172.500000
 21
79.000000
  0
LINE
  8
0
  6
CONTINUOUS
 62
7
 10
133.100006
 20
78.800003
 11
127.500000
 21
78.800003
  0
LINE
  8
0
  6
CONTINUOUS
 62
7
 10
127.500000
 20
86.300003
 11
127.500000
 21
78.800003
  0
LINE
  8
0
  6
CONTINUOUS
 62
7
 10
127.500000
 20
83.000000
 11
122.250000
 21
83.000000
  0
LINE
  8
0
  6
CONTINUOUS
 62
7
 10
166.899994
 20
78.500000
 11
166.899994
 21
81.000000
  0
LINE
  8
0
  6
CONTINUOUS
 62
7
 10
133.100006
 20
78.500000
 11
133.100006
 21
86.300003
  0
LINE
  8
0
  6
DASHED
 62
2
 10
113.000000
 20
-17.000000
 11
107.000000
 21
-17.000000
  0
LINE
  8
0
  6
CENTER
 62
2
 10
110.000000
 20
-13.500000
 11
110.000000
 21
-24.000000
  0
LINE
  8
0
  6
DASHED
 62
2
 10
113.000000
 20
-15.500000
 11
113.000000
 21
-17.000000
  0
LINE
  8
0
  6
DASHED
 62
2
 10
107.000000
 20
-15.500000
 11
107.000000
 21
-17.000000
  0
LINE
  8
0
  6
DASHED
 62
2
 10
108.250000
 20
-17.000000
 11
108.250000
 21
-22.000000
  0
LINE
  8
0
  6
DASHED
 62
2
 10
111.750000
 20
-17.000000
 11
111.750000
 21
-22.000000
  0
LINE
  8
0
  6
DASHED
 62
2
 10
108.000000
 20
-17.000000
 11
108.000000
 21
-22.000000
  0
LINE
  8
0
  6
DASHED
 62
2
 10
112.000000
 20
-17.000000
 11
112.000000
 21
-22.000000
  0
LINE
  8
0
  6
DASHED
 62
2
 10
173.000000
 20
-17.000000
 11
167.000000
 21
-17.000000
  0
LINE
  8
0
  6
CENTER
 62
2
 10
170.000000
 20
-13.500000
 11
170.000000
 21
-24.000000
  0
LINE
  8
0
  6
DASHED
 62
2
 10
173.000000
 20
-15.500000
 11
173.000000
 21
-17.000000
  0
LINE
  8
0
  6
DASHED
 62
2
 10
167.000000
 20
-15.500000
 11
167.000000
 21
-17.000000
  0
LINE
  8
0
  6
DASHED
 62
2
 10
168.250000
 20
-17.000000
 11
168.250000
 21
-22.000000
  0
LINE
  8
0
  6
DASHED
 62
2
 10
171.750000
 20
-17.000000
 11
171.750000
 21
-22.000000
  0
LINE
  8
0
  6
DASHED
 62
2
 10
168.000000
 20
-17.000000
 11
168.000000
 21
-22.000000
  0
LINE
  8
0
  6
DASHED
 62
2
 10
172.000000
 20
-17.000000
 11
172.000000
 21
-22.000000
  0
LINE
  8
0
  6
CENTER
 62
2
 10
142.000000
 20
-1.000000
 11
142.000000
 21
-5.000000
  0
LINE
  8
0
  6
CENTER
 62
2
 10
158.000000
 20
-1.000000
 11
158.000000
 21
-5.000000
  0
LINE
  8
0
  6
CENTER
 62
2
 10
142.000000
 20
80.500000
 11
142.000000
 21
76.500000
  0
LINE
  8
0
  6
CENTER
 62
2
 10
158.000000
 20
80.500000
 11
158.000000
 21
76.500000
  0
LINE
  8
0
  6
CENTER
 62
2
 10
128.263000
 20
-76.000000
 11
88.417603
 21
-76.000000
  0
LINE
  8
0
  6
CONTINUOUS
 62
7
 10
100.500000
 20
-70.000000
 11
100.500000
 21
-82.000000
  0
LINE
  8
0
  6
CONTINUOUS
 62
7
 10
98.500000
 20
-80.000000
 11
91.250000
 21
-80.000000
  0
LINE
  8
0
  6
CONTINUOUS
 62
2
 10
98.500000
 20
-79.300003
 11
91.250000
 21
-79.300003
  0
LINE
  8
0
  6
CONTINUOUS
 62
7
 10
90.250000
 20
-79.300003
 11
90.250000
 21
-72.699997
  0
LINE
  8
0
  6
CONTINUOUS
 62
7
 10
91.250000
 20
-79.300003
 11
90.250000
 21
-79.300003
  0
LINE
  8
0
  6
CONTINUOUS
 62
7
 10
98.500000
 20
-72.000000
 11
91.250000
 21
-72.000000
  0
LINE
  8
0
  6
CONTINUOUS
 62
7
 10
91.250000
 20
-80.000000
 11
91.250000
 21
-72.000000
  0
LINE
  8
0
  6
CONTINUOUS
 62
7
 10
91.250000
 20
-72.699997
 11
90.250000
 21
-72.699997
  0
LINE
  8
0
  6
CONTINUOUS
 62
2
 10
98.500000
 20
-72.699997
 11
91.250000
 21
-72.699997
  0
LINE
  8
0
  6
CONTINUOUS
 62
7
 10
98.500000
 20
-70.500000
 11
98.500000
 21
-81.500000
  0
LINE
  8
0
  6
CONTINUOUS
 62
7
 10
98.500000
 20
-70.500000
 11
100.500000
 21
-70.500000
  0
LINE
  8
0
  6
CONTINUOUS
 62
7
 10
98.500000
 20
-75.326698
 11
100.500000
 21
-75.326698
  0
LINE
  8
0
  6
CONTINUOUS
 62
7
 10
98.500000
 20
-71.173302
 11
100.500000
 21
-71.173302
  0
LINE
  8
0
  6
CONTINUOUS
 62
7
 10
100.500000
 20
-82.000000
 11
123.000000
 21
-82.000000
  0
LINE
  8
0
  6
CONTINUOUS
 62
7
 10
123.000000
 20
-70.000000
 11
123.000000
 21
-82.000000
  0
LINE
  8
0
  6
CONTINUOUS
 62
7
 10
117.000000
 20
-79.000000
 11
123.000000
 21
-79.000000
  0
LINE
  8
0
  6
CONTINUOUS
 62
7
 10
117.000000
 20
-82.000000
 11
117.000000
 21
-79.000000
  0
LINE
  8
0
  6
CONTINUOUS
 62
7
 10
126.250000
 20
-75.000000
 11
123.000000
 21
-75.000000
  0
LINE
  8
0
  6
CONTINUOUS
 62
7
 10
126.250000
 20
-77.000000
 11
123.000000
 21
-77.000000
  0
LINE
  8
0
  6
CONTINUOUS
 62
7
 10
126.250000
 20
-77.000000
 11
126.250000
 21
-75.000000
  0
LINE
  8
0
  6
CONTINUOUS
 62
7
 10
142.250000
 20
-70.000000
 11
142.250000
 21
-77.500000
  0
LINE
  8
0
  6
CONTINUOUS
 62
7
 10
157.000000
 20
-77.500000
 11
142.250000
 21
-77.500000
  0
LINE
  8
0
  6
CONTINUOUS
 62
7
 10
98.500000
 20
-76.673302
 11
100.500000
 21
-76.673302
  0
LINE
  8
0
  6
CONTINUOUS
 62
7
 10
98.500000
 20
-80.826698
 11
100.500000
 21
-80.826698
  0
LINE
  8
0
  6
CONTINUOUS
 62
7
 10
98.500000
 20
-81.500000
 11
100.500000
 21
-81.500000
  0
LINE
  8
0
  6
CONTINUOUS
 62
7
 10
157.000000
 20
-70.000000
 11
157.000000
 21
-82.000000
  0
LINE
  8
0
  6
CONTINUOUS
 62
7
 10
163.000000
 20
-82.000000
 11
163.000000
 21
-79.000000
  0
LINE
  8
0
  6
CENTER
 62
2
 10
159.292999
 20
-76.000000
 11
191.582001
 21
-76.000000
  0
LINE
  8
0
  6
CONTINUOUS
 62
7
 10
179.500000
 20
-70.000000
 11
179.500000
 21
-82.000000
  0
LINE
  8
0
  6
CONTINUOUS
 62
7
 10
181.500000
 20
-80.000000
 11
188.750000
 21
-80.000000
  0
LINE
  8
0
  6
CONTINUOUS
 62
2
 10
181.500000
 20
-79.300003
 11
188.750000
 21
-79.300003
  0
LINE
  8
0
  6
CONTINUOUS
 62
7
 10
189.750000
 20
-79.300003
 11
189.750000
 21
-72.699997
  0
LINE
  8
0
  6
CONTINUOUS
 62
7
 10
188.750000
 20
-79.300003
 11
189.750000
 21
-79.300003
  0
LINE
  8
0
  6
CONTINUOUS
 62
7
 10
181.500000
 20
-72.000000
 11
188.750000
 21
-72.000000
  0
LINE
  8
0
  6
CONTINUOUS
 62
7
 10
188.750000
 20
-80.000000
 11
188.750000
 21
-72.000000
  0
LINE
  8
0
  6
CONTINUOUS
 62
7
 10
188.750000
 20
-72.699997
 11
189.750000
 21
-72.699997
  0
LINE
  8
0
  6
CONTINUOUS
 62
2
 10
181.500000
 20
-72.699997
 11
188.750000
 21
-72.699997
  0
LINE
  8
0
  6
CONTINUOUS
 62
7
 10
181.500000
 20
-70.500000
 11
181.500000
 21
-81.500000
  0
LINE
  8
0
  6
CONTINUOUS
 62
7
 10
181.500000
 20
-70.500000
 11
179.500000
 21
-70.500000
  0
LINE
  8
0
  6
CONTINUOUS
 62
7
 10
181.500000
 20
-75.326698
 11
179.500000
 21
-75.326698
  0
LINE
  8
0
  6
CONTINUOUS
 62
7
 10
181.500000
 20
-71.173302
 11
179.500000
 21
-71.173302
  0
LINE
  8
0
  6
CONTINUOUS
 62
7
 10
179.500000
 20
-82.000000
 11
157.000000
 21
-82.000000
  0
LINE
  8
0
  6
CONTINUOUS
 62
7
 10
181.500000
 20
-76.673302
 11
179.500000
 21
-76.673302
  0
LINE
  8
0
  6
CONTINUOUS
 62
7
 10
181.500000
 20
-80.826698
 11
179.500000
 21
-80.826698
  0
LINE
  8
0
  6
CONTINUOUS
 62
7
 10
181.500000
 20
-81.500000
 11
179.500000
 21
-81.500000
  0
LINE
  8
0
  6
CONTINUOUS
 62
7
 10
163.000000
 20
-79.000000
 11
157.000000
 21
-79.000000
  0
LINE
  8
0
  6
CENTER
 62
2
 10
97.941597
 20
-9.500020
 11
88.417603
 21
-9.500020
  0
LINE
  8
0
  6
CONTINUOUS
 62
7
 10
98.500000
 20
-5.500000
 11
91.250000
 21
-5.500000
  0
LINE
  8
0
  6
CONTINUOUS
 62
7
 10
98.500000
 20
-3.499990
 11
98.500000
 21
-7.500000
  0
LINE
  8
0
  6
CONTINUOUS
 62
7
 10
98.500000
 20
-5.935820
 11
100.500000
 21
-5.935820
  0
LINE
  8
0
  6
CONTINUOUS
 62
7
 10
98.500000
 20
-7.102080
 11
100.500000
 21
-7.102080
  0
LINE
  8
0
  6
CONTINUOUS
 62
2
 10
98.500000
 20
-6.200010
 11
91.250000
 21
-6.200010
  0
LINE
  8
0
  6
CONTINUOUS
 62
7
 10
90.250000
 20
-6.200010
 11
90.250000
 21
-8.750000
  0
LINE
  8
0
  6
CONTINUOUS
 62
7
 10
91.250000
 20
-6.200010
 11
90.250000
 21
-6.200010
  0
LINE
  8
0
  6
CONTINUOUS
 62
7
 10
95.000000
 20
-13.500000
 11
91.250000
 21
-13.500000
  0
LINE
  8
0
  6
CONTINUOUS
 62
7
 10
91.250000
 20
-5.500000
 11
91.250000
 21
-13.500000
  0
LINE
  8
0
  6
CONTINUOUS
 62
7
 10
90.250000
 20
-10.250000
 11
90.250000
 21
-12.800000
  0
LINE
  8
0
  6
CONTINUOUS
 62
7
 10
91.250000
 20
-12.800000
 11
90.250000
 21
-12.800000
  0
LINE
  8
0
  6
CONTINUOUS
 62
7
 10
91.250000
 20
-10.250000
 11
90.250000
 21
-10.250000
  0
LINE
  8
0
  6
CONTINUOUS
 62
7
 10
91.250000
 20
-8.750000
 11
90.250000
 21
-8.750000
  0
LINE
  8
0
  6
CONTINUOUS
 62
2
 10
95.000000
 20
-12.800000
 11
91.250000
 21
-12.800000
  0
LINE
  8
0
  6
CONTINUOUS
 62
7
 10
108.500000
 20
-3.499990
 11
98.500000
 21
-3.499990
  0
LINE
  8
0
  6
CONTINUOUS
 62
2
 10
116.250000
 20
-6.200010
 11
108.500000
 21
-6.200010
  0
LINE
  8
0
  6
CONTINUOUS
 62
7
 10
116.250000
 20
-5.500000
 11
108.550003
 21
-5.500000
  0
LINE
  8
0
  6
CONTINUOUS
 62
7
 10
122.250000
 20
-3.999990
 11
116.250000
 21
-3.999990
  0
LINE
  8
0
  6
CONTINUOUS
 62
7
 10
116.250000
 20
-3.999990
 11
116.250000
 21
-7.500000
  0
LINE
  8
0
  6
CONTINUOUS
 62
7
 10
122.250000
 20
-3.999990
 11
122.250000
 21
-7.500000
  0
LINE
  8
0
  6
CONTINUOUS
 62
7
 10
100.500000
 20
-3.499990
 11
100.500000
 21
-7.500000
  0
LINE
  8
0
  6
CONTINUOUS
 62
7
 10
108.500000
 20
-3.499990
 11
108.500000
 21
-7.500000
  0
LINE
  8
0
  6
CONTINUOUS
 62
7
 10
179.500000
 20
-3.499990
 11
179.500000
 21
-7.500000
  0
LINE
  8
0
  6
CENTER
 62
2
 10
182.057999
 20
-9.500020
 11
191.582001
 21
-9.500020
  0
LINE
  8
0
  6
CONTINUOUS
 62
7
 10
181.500000
 20
-5.500000
 11
188.750000
 21
-5.500000
  0
LINE
  8
0
  6
CONTINUOUS
 62
2
 10
181.500000
 20
-6.200010
 11
188.750000
 21
-6.200010
  0
LINE
  8
0
  6
CONTINUOUS
 62
7
 10
189.750000
 20
-6.200010
 11
189.750000
 21
-8.750000
  0
LINE
  8
0
  6
CONTINUOUS
 62
7
 10
188.750000
 20
-6.200010
 11
189.750000
 21
-6.200010
  0
LINE
  8
0
  6
CONTINUOUS
 62
7
 10
185.000000
 20
-13.500000
 11
188.750000
 21
-13.500000
  0
LINE
  8
0
  6
CONTINUOUS
 62
7
 10
188.750000
 20
-5.500000
 11
188.750000
 21
-13.500000
  0
LINE
  8
0
  6
CONTINUOUS
 62
7
 10
189.750000
 20
-10.250000
 11
189.750000
 21
-12.800000
  0
LINE
  8
0
  6
CONTINUOUS
 62
7
 10
188.750000
 20
-12.800000
 11
189.750000
 21
-12.800000
  0
LINE
  8
0
  6
CONTINUOUS
 62
7
 10
188.750000
 20
-10.250000
 11
189.750000
 21
-10.250000
  0
LINE
  8
0
  6
CONTINUOUS
 62
7
 10
188.750000
 20
-8.750000
 11
189.750000
 21
-8.750000
  0
LINE
  8
0
  6
CONTINUOUS
 62
2
 10
185.000000
 20
-12.800000
 11
188.750000
 21
-12.800000
  0
LINE
  8
0
  6
CONTINUOUS
 62
7
 10
181.500000
 20
-3.499990
 11
181.500000
 21
-7.500000
  0
LINE
  8
0
  6
CONTINUOUS
 62
7
 10
181.500000
 20
-5.935820
 11
179.500000
 21
-5.935820
  0
LINE
  8
0
  6
CONTINUOUS
 62
7
 10
181.500000
 20
-7.102080
 11
179.500000
 21
-7.102080
  0
LINE
  8
0
  6
CONTINUOUS
 62
7
 10
172.500000
 20
-3.499990
 11
181.500000
 21
-3.499990
  0
LINE
  8
0
  6
CONTINUOUS
 62
7
 10
157.750000
 20
51.000000
 11
142.250000
 21
51.000000
  0
LINE
  8
0
  6
CONTINUOUS
 62
7
 10
142.250000
 20
51.000000
 11
142.250000
 21
42.000000
  0
LINE
  8
0
  6
CONTINUOUS
 62
7
 10
157.750000
 20
55.000000
 11
157.750000
 21
42.000000
  0
LINE
  8
0
  6
CONTINUOUS
 62
7
 10
142.250000
 20
43.500000
 11
95.000000
 21
43.500000
  0
LINE
  8
0
  6
CONTINUOUS
 62
7
 10
126.250000
 20
50.500000
 11
122.250000
 21
50.500000
  0
LINE
  8
0
  6
CONTINUOUS
 62
7
 10
100.500000
 20
55.500000
 11
123.000000
 21
55.500000
  0
LINE
  8
0
  6
CONTINUOUS
 62
7
 10
100.500000
 20
55.500000
 11
100.500000
 21
43.500000
  0
LINE
  8
0
  6
CONTINUOUS
 62
7
 10
98.500000
 20
45.500000
 11
91.250000
 21
45.500000
  0
LINE
  8
0
  6
CONTINUOUS
 62
2
 10
98.500000
 20
46.200001
 11
91.250000
 21
46.200001
  0
LINE
  8
0
  6
CONTINUOUS
 62
7
 10
90.250000
 20
46.200001
 11
90.250000
 21
52.799999
  0
LINE
  8
0
  6
CONTINUOUS
 62
7
 10
91.250000
 20
46.200001
 11
90.250000
 21
46.200001
  0
LINE
  8
0
  6
CONTINUOUS
 62
7
 10
98.500000
 20
53.500000
 11
91.250000
 21
53.500000
  0
LINE
  8
0
  6
CONTINUOUS
 62
7
 10
91.250000
 20
45.500000
 11
91.250000
 21
53.500000
  0
LINE
  8
0
  6
CONTINUOUS
 62
7
 10
91.250000
 20
52.799999
 11
90.250000
 21
52.799999
  0
LINE
  8
0
  6
CONTINUOUS
 62
2
 10
98.500000
 20
52.799999
 11
91.250000
 21
52.799999
  0
LINE
  8
0
  6
CONTINUOUS
 62
7
 10
98.499901
 20
55.000000
 11
100.500000
 21
55.000000
  0
LINE
  8
0
  6
CONTINUOUS
 62
7
 10
98.499901
 20
50.173302
 11
100.500000
 21
50.173302
  0
LINE
  8
0
  6
CONTINUOUS
 62
7
 10
98.499901
 20
54.326698
 11
100.500000
 21
54.326698
  0
LINE
  8
0
  6
CONTINUOUS
 62
7
 10
126.250000
 20
48.500000
 11
122.250000
 21
48.500000
  0
LINE
  8
0
  6
CONTINUOUS
 62
2
 10
116.250000
 20
46.200001
 11
108.500000
 21
46.200001
  0
LINE
  8
0
  6
CONTINUOUS
 62
7
 10
116.250000
 20
45.500000
 11
108.500000
 21
45.500000
  0
LINE
  8
0
  6
CONTINUOUS
 62
7
 10
116.250000
 20
53.500000
 11
108.500000
 21
53.500000
  0
LINE
  8
0
  6
CONTINUOUS
 62
2
 10
116.250000
 20
52.799999
 11
108.500000
 21
52.799999
  0
LINE
  8
0
  6
CONTINUOUS
 62
7
 10
122.250000
 20
44.000000
 11
116.250000
 21
44.000000
  0
LINE
  8
0
  6
CONTINUOUS
 62
7
 10
116.250000
 20
44.000000
 11
116.250000
 21
55.000000
  0
LINE
  8
0
  6
CONTINUOUS
 62
7
 10
122.250000
 20
55.000000
 11
116.250000
 21
55.000000
  0
LINE
  8
0
  6
CONTINUOUS
 62
7
 10
122.250000
 20
44.000000
 11
122.250000
 21
55.000000
  0
LINE
  8
0
  6
CONTINUOUS
 62
7
 10
122.250000
 20
52.500000
 11
123.000000
 21
52.500000
  0
LINE
  8
0
  6
CONTINUOUS
 62
7
 10
117.000000
 20
55.500000
 11
117.000000
 21
55.000000
  0
LINE
  8
0
  6
CONTINUOUS
 62
7
 10
123.000000
 20
55.500000
 11
123.000000
 21
50.500000
  0
LINE
  8
0
  6
CONTINUOUS
 62
7
 10
108.500000
 20
55.500000
 11
108.500000
 21
43.500000
  0
LINE
  8
0
  6
CONTINUOUS
 62
7
 10
126.250000
 20
48.500000
 11
126.250000
 21
50.500000
  0
LINE
  8
0
  6
CONTINUOUS
 62
7
 10
123.000000
 20
48.500000
 11
123.000000
 21
43.500000
  0
LINE
  8
0
  6
CONTINUOUS
 62
7
 10
157.750000
 20
44.000000
 11
163.750000
 21
44.000000
  0
LINE
  8
0
  6
CONTINUOUS
 62
7
 10
163.750000
 20
44.000000
 11
163.750000
 21
55.000000
  0
LINE
  8
0
  6
CONTINUOUS
 62
7
 10
157.750000
 20
55.000000
 11
163.750000
 21
55.000000
  0
LINE
  8
0
  6
CONTINUOUS
 62
7
 10
157.750000
 20
52.500000
 11
157.000000
 21
52.500000
  0
LINE
  8
0
  6
CONTINUOUS
 62
7
 10
163.000000
 20
55.500000
 11
163.000000
 21
55.000000
  0
LINE
  8
0
  6
CONTINUOUS
 62
7
 10
157.000000
 20
55.500000
 11
157.000000
 21
51.000000
  0
LINE
  8
0
  6
CENTER
 62
2
 10
128.263000
 20
49.500000
 11
88.417603
 21
49.500000
  0
LINE
  8
0
  6
CONTINUOUS
 62
7
 10
98.499901
 20
48.826698
 11
100.500000
 21
48.826698
  0
LINE
  8
0
  6
CONTINUOUS
 62
7
 10
98.499901
 20
44.673302
 11
100.500000
 21
44.673302
  0
LINE
  8
0
  6
CONTINUOUS
 62
7
 10
98.499901
 20
44.000000
 11
100.500000
 21
44.000000
  0
LINE
  8
0
  6
CONTINUOUS
 62
7
 10
98.500000
 20
55.000000
 11
98.500000
 21
43.500000
  0
LINE
  8
0
  6
CONTINUOUS
 62
7
 10
157.750000
 20
43.500000
 11
185.000000
 21
43.500000
  0
LINE
  8
0
  6
CONTINUOUS
 62
7
 10
179.500000
 20
55.500000
 11
157.000000
 21
55.500000
  0
LINE
  8
0
  6
CONTINUOUS
 62
7
 10
179.500000
 20
55.500000
 11
179.500000
 21
43.500000
  0
LINE
  8
0
  6
CONTINUOUS
 62
7
 10
181.500000
 20
45.500000
 11
188.750000
 21
45.500000
  0
LINE
  8
0
  6
CONTINUOUS
 62
2
 10
181.500000
 20
46.200001
 11
188.750000
 21
46.200001
  0
LINE
  8
0
  6
CONTINUOUS
 62
7
 10
189.750000
 20
46.200001
 11
189.750000
 21
52.799999
  0
LINE
  8
0
  6
CONTINUOUS
 62
7
 10
188.750000
 20
46.200001
 11
189.750000
 21
46.200001
  0
LINE
  8
0
  6
CONTINUOUS
 62
7
 10
181.500000
 20
53.500000
 11
188.750000
 21
53.500000
  0
LINE
  8
0
  6
CONTINUOUS
 62
7
 10
188.750000
 20
45.500000
 11
188.750000
 21
53.500000
  0
LINE
  8
0
  6
CONTINUOUS
 62
7
 10
188.750000
 20
52.799999
 11
189.750000
 21
52.799999
  0
LINE
  8
0
  6
CONTINUOUS
 62
2
 10
181.500000
 20
52.799999
 11
188.750000
 21
52.799999
  0
LINE
  8
0
  6
CONTINUOUS
 62
7
 10
181.500000
 20
55.000000
 11
179.500000
 21
55.000000
  0
LINE
  8
0
  6
CONTINUOUS
 62
7
 10
181.500000
 20
50.173302
 11
179.500000
 21
50.173302
  0
LINE
  8
0
  6
CONTINUOUS
 62
7
 10
181.500000
 20
54.326698
 11
179.500000
 21
54.326698
  0
LINE
  8
0
  6
CONTINUOUS
 62
2
 10
163.750000
 20
46.200001
 11
171.500000
 21
46.200001
  0
LINE
  8
0
  6
CONTINUOUS
 62
7
 10
163.750000
 20
45.500000
 11
171.500000
 21
45.500000
  0
LINE
  8
0
  6
CONTINUOUS
 62
7
 10
163.750000
 20
53.500000
 11
171.500000
 21
53.500000
  0
LINE
  8
0
  6
CONTINUOUS
 62
2
 10
163.750000
 20
52.799999
 11
171.500000
 21
52.799999
  0
LINE
  8
0
  6
CONTINUOUS
 62
7
 10
171.500000
 20
55.500000
 11
171.500000
 21
43.500000
  0
LINE
  8
0
  6
CENTER
 62
2
 10
155.003006
 20
49.500000
 11
191.582001
 21
49.500000
  0
LINE
  8
0
  6
CONTINUOUS
 62
7
 10
181.500000
 20
48.826698
 11
179.500000
 21
48.826698
  0
LINE
  8
0
  6
CONTINUOUS
 62
7
 10
181.500000
 20
44.673302
 11
179.500000
 21
44.673302
  0
LINE
  8
0
  6
CONTINUOUS
 62
7
 10
181.500000
 20
44.000000
 11
179.500000
 21
44.000000
  0
LINE
  8
0
  6
CONTINUOUS
 62
7
 10
181.500000
 20
55.000000
 11
181.500000
 21
43.500000
  0
LINE
  8
0
  6
CONTINUOUS
 62
7
 10
95.000000
 20
89.000000
 11
95.000000
 21
97.500000
  0
LINE
  8
0
  6
CONTINUOUS
 62
7
 10
185.000000
 20
97.500000
 11
95.000000
 21
97.500000
  0
LINE
  8
0
  6
CONTINUOUS
 62
7
 10
142.250000
 20
87.000000
 11
142.250000
 21
79.000000
  0
LINE
  8
0
  6
CONTINUOUS
 62
7
 10
142.250000
 20
87.000000
 11
157.750000
 21
87.000000
  0
LINE
  8
0
  6
CONTINUOUS
 62
7
 10
142.250000
 20
79.000000
 11
157.750000
 21
79.000000
  0
LINE
  8
0
  6
CONTINUOUS
 62
7
 10
157.750000
 20
90.500000
 11
157.750000
 21
79.000000
  0
LINE
  8
0
  6
CONTINUOUS
 62
7
 10
126.250000
 20
84.000000
 11
126.250000
 21
86.000000
  0
LINE
  8
0
  6
CONTINUOUS
 62
7
 10
100.500000
 20
79.000000
 11
100.500000
 21
97.000000
  0
LINE
  8
0
  6
CONTINUOUS
 62
7
 10
123.000000
 20
97.000000
 11
100.500000
 21
97.000000
  0
LINE
  8
0
  6
CONTINUOUS
 62
7
 10
117.000000
 20
91.000000
 11
117.000000
 21
97.000000
  0
LINE
  8
0
  6
CONTINUOUS
 62
7
 10
123.000000
 20
91.000000
 11
111.000000
 21
91.000000
  0
LINE
  8
0
  6
CONTINUOUS
 62
7
 10
108.500000
 20
79.000000
 11
108.500000
 21
88.500000
  0
LINE
  8
0
  6
CONTINUOUS
 62
7
 10
108.500000
 20
79.000000
 11
100.500000
 21
79.000000
  0
LINE
  8
0
  6
CENTER
 62
2
 10
127.778999
 20
85.000000
 11
88.417603
 21
85.000000
  0
LINE
  8
0
  6
CONTINUOUS
 62
7
 10
98.500000
 20
81.000000
 11
91.250000
 21
81.000000
  0
LINE
  8
0
  6
CONTINUOUS
 62
7
 10
98.500000
 20
79.000000
 11
98.500000
 21
91.000000
  0
LINE
  8
0
  6
CONTINUOUS
 62
2
 10
98.500000
 20
81.699997
 11
91.250000
 21
81.699997
  0
LINE
  8
0
  6
CONTINUOUS
 62
7
 10
90.250000
 20
81.699997
 11
90.250000
 21
84.250000
  0
LINE
  8
0
  6
CONTINUOUS
 62
7
 10
91.250000
 20
81.699997
 11
90.250000
 21
81.699997
  0
LINE
  8
0
  6
CONTINUOUS
 62
7
 10
98.500000
 20
89.000000
 11
91.250000
 21
89.000000
  0
LINE
  8
0
  6
CONTINUOUS
 62
7
 10
91.250000
 20
81.000000
 11
91.250000
 21
89.000000
  0
LINE
  8
0
  6
CONTINUOUS
 62
7
 10
90.250000
 20
85.750000
 11
90.250000
 21
88.300003
  0
LINE
  8
0
  6
CONTINUOUS
 62
7
 10
91.250000
 20
88.300003
 11
90.250000
 21
88.300003
  0
LINE
  8
0
  6
CONTINUOUS
 62
7
 10
91.250000
 20
85.750000
 11
90.250000
 21
85.750000
  0
LINE
  8
0
  6
CONTINUOUS
 62
7
 10
91.250000
 20
84.250000
 11
90.250000
 21
84.250000
  0
LINE
  8
0
  6
CONTINUOUS
 62
7
 10
98.500000
 20
91.000000
 11
100.500000
 21
91.000000
  0
LINE
  8
0
  6
CONTINUOUS
 62
7
 10
98.500000
 20
87.397903
 11
100.500000
 21
87.397903
  0
LINE
  8
0
  6
CONTINUOUS
 62
7
 10
98.500000
 20
88.564201
 11
100.500000
 21
88.564201
  0
LINE
  8
0
  6
CONTINUOUS
 62
2
 10
98.500000
 20
88.300003
 11
91.250000
 21
88.300003
  0
LINE
  8
0
  6
CONTINUOUS
 62
7
 10
126.250000
 20
86.000000
 11
122.250000
 21
86.000000
  0
LINE
  8
0
  6
CONTINUOUS
 62
7
 10
126.250000
 20
84.000000
 11
122.250000
 21
84.000000
  0
LINE
  8
0
  6
CONTINUOUS
 62
7
 10
122.250000
 20
79.500000
 11
116.250000
 21
79.500000
  0
LINE
  8
0
  6
CONTINUOUS
 62
2
 10
116.250000
 20
81.699997
 11
108.500000
 21
81.699997
  0
LINE
  8
0
  6
CONTINUOUS
 62
7
 10
116.250000
 20
81.000000
 11
108.500000
 21
81.000000
  0
LINE
  8
0
  6
CONTINUOUS
 62
7
 10
116.250000
 20
79.500000
 11
116.250000
 21
90.500000
  0
LINE
  8
0
  6
CONTINUOUS
 62
7
 10
116.250000
 20
89.000000
 11
108.550003
 21
89.000000
  0
LINE
  8
0
  6
CONTINUOUS
 62
2
 10
116.250000
 20
88.300003
 11
108.500000
 21
88.300003
  0
LINE
  8
0
  6
CONTINUOUS
 62
7
 10
122.250000
 20
90.500000
 11
116.250000
 21
90.500000
  0
LINE
  8
0
  6
CONTINUOUS
 62
7
 10
122.250000
 20
79.500000
 11
122.250000
 21
90.500000
  0
LINE
  8
0
  6
CONTINUOUS
 62
7
 10
123.000000
 20
91.000000
 11
123.000000
 21
97.000000
  0
LINE
  8
0
  6
CONTINUOUS
 62
2
 10
163.750000
 20
81.699997
 11
171.500000
 21
81.699997
  0
LINE
  8
0
  6
CENTER
 62
2
 10
156.145996
 20
85.000000
 11
191.582001
 21
85.000000
  0
LINE
  8
0
  6
CONTINUOUS
 62
7
 10
171.500000
 20
79.000000
 11
171.500000
 21
88.500000
  0
LINE
  8
0
  6
CONTINUOUS
 62
7
 10
157.750000
 20
79.500000
 11
163.750000
 21
79.500000
  0
LINE
  8
0
  6
CONTINUOUS
 62
7
 10
157.000000
 20
91.000000
 11
169.000000
 21
91.000000
  0
LINE
  8
0
  6
CONTINUOUS
 62
7
 10
163.000000
 20
91.000000
 11
163.000000
 21
97.000000
  0
LINE
  8
0
  6
CONTINUOUS
 62
7
 10
157.000000
 20
91.000000
 11
157.000000
 21
97.000000
  0
LINE
  8
0
  6
CONTINUOUS
 62
2
 10
163.750000
 20
88.300003
 11
171.500000
 21
88.300003
  0
LINE
  8
0
  6
CONTINUOUS
 62
7
 10
163.750000
 20
89.000000
 11
171.449005
 21
89.000000
  0
LINE
  8
0
  6
CONTINUOUS
 62
7
 10
157.750000
 20
90.500000
 11
163.750000
 21
90.500000
  0
LINE
  8
0
  6
CONTINUOUS
 62
7
 10
163.750000
 20
79.500000
 11
163.750000
 21
90.500000
  0
LINE
  8
0
  6
CONTINUOUS
 62
7
 10
157.000000
 20
91.500000
 11
123.000000
 21
91.500000
  0
LINE
  8
0
  6
CONTINUOUS
 62
7
 10
98.500000
 20
82.602097
 11
100.500000
 21
82.602097
  0
LINE
  8
0
  6
CONTINUOUS
 62
7
 10
98.500000
 20
81.435799
 11
100.500000
 21
81.435799
  0
LINE
  8
0
  6
CONTINUOUS
 62
7
 10
98.500000
 20
79.000000
 11
100.500000
 21
79.000000
  0
LINE
  8
0
  6
CONTINUOUS
 62
7
 10
185.000000
 20
89.000000
 11
185.000000
 21
97.500000
  0
LINE
  8
0
  6
CONTINUOUS
 62
7
 10
181.500000
 20
79.000000
 11
179.500000
 21
79.000000
  0
LINE
  8
0
  6
CONTINUOUS
 62
7
 10
179.500000
 20
79.000000
 11
179.500000
 21
97.000000
  0
LINE
  8
0
  6
CONTINUOUS
 62
7
 10
157.000000
 20
97.000000
 11
179.500000
 21
97.000000
  0
LINE
  8
0
  6
CONTINUOUS
 62
7
 10
171.500000
 20
79.000000
 11
179.500000
 21
79.000000
  0
LINE
  8
0
  6
CONTINUOUS
 62
7
 10
181.500000
 20
81.435799
 11
179.500000
 21
81.435799
  0
LINE
  8
0
  6
CONTINUOUS
 62
7
 10
181.500000
 20
81.000000
 11
188.750000
 21
81.000000
  0
LINE
  8
0
  6
CONTINUOUS
 62
7
 10
181.500000
 20
79.000000
 11
181.500000
 21
91.000000
  0
LINE
  8
0
  6
CONTINUOUS
 62
2
 10
181.500000
 20
81.699997
 11
188.750000
 21
81.699997
  0
LINE
  8
0
  6
CONTINUOUS
 62
7
 10
189.750000
 20
81.699997
 11
189.750000
 21
84.250000
  0
LINE
  8
0
  6
CONTINUOUS
 62
7
 10
188.750000
 20
81.699997
 11
189.750000
 21
81.699997
  0
LINE
  8
0
  6
CONTINUOUS
 62
7
 10
181.500000
 20
89.000000
 11
188.750000
 21
89.000000
  0
LINE
  8
0
  6
CONTINUOUS
 62
7
 10
188.750000
 20
81.000000
 11
188.750000
 21
89.000000
  0
LINE
  8
0
  6
CONTINUOUS
 62
7
 10
189.750000
 20
85.750000
 11
189.750000
 21
88.300003
  0
LINE
  8
0
  6
CONTINUOUS
 62
7
 10
188.750000
 20
88.300003
 11
189.750000
 21
88.300003
  0
LINE
  8
0
  6
CONTINUOUS
 62
7
 10
188.750000
 20
85.750000
 11
189.750000
 21
85.750000
  0
LINE
  8
0
  6
CONTINUOUS
 62
7
 10
188.750000
 20
84.250000
 11
189.750000
 21
84.250000
  0
LINE
  8
0
  6
CONTINUOUS
 62
7
 10
181.500000
 20
91.000000
 11
179.500000
 21
91.000000
  0
LINE
  8
0
  6
CONTINUOUS
 62
7
 10
181.500000
 20
87.397903
 11
179.500000
 21
87.397903
  0
LINE
  8
0
  6
CONTINUOUS
 62
7
 10
181.500000
 20
88.564201
 11
179.500000
 21
88.564201
  0
LINE
  8
0
  6
CONTINUOUS
 62
2
 10
181.500000
 20
88.300003
 11
188.750000
 21
88.300003
  0
LINE
  8
0
  6
CONTINUOUS
 62
7
 10
181.500000
 20
82.602097
 11
179.500000
 21
82.602097
  0
LINE
  8
0
  6
CONTINUOUS
 62
7
 10
163.750000
 20
81.000000
 11
171.500000
 21
81.000000
  0
LINE
  8
0
  6
CENTER
 62
2
 10
-214.000000
 20
-2.513210
 11
-214.000000
 21
-23.006399
  0
LINE
  8
0
  6
CONTINUOUS
 62
7
 10
-209.500000
 20
-9.866030
 11
-209.500000
 21
-12.200000
  0
LINE
  8
0
  6
CONTINUOUS
 62
7
 10
-218.500000
 20
-9.866020
 11
-218.500000
 21
-12.200000
  0
LINE
  8
0
  6
CONTINUOUS
 62
7
 10
-204.000000
 20
-3.000000
 11
-208.500000
 21
-3.000000
  0
LINE
  8
0
  6
CONTINUOUS
 62
7
 10
-204.000000
 20
-3.000000
 11
-204.000000
 21
-10.800000
  0
LINE
  8
0
  6
CONTINUOUS
 62
7
 10
-204.000000
 20
-10.800000
 11
-209.500000
 21
-10.800000
  0
LINE
  8
0
  6
CONTINUOUS
 62
7
 10
-208.800003
 20
-3.300000
 11
-219.199997
 21
-3.300000
  0
LINE
  8
0
  6
CONTINUOUS
 62
7
 10
-218.500000
 20
-10.800000
 11
-224.000000
 21
-10.800000
  0
LINE
  8
0
  6
CONTINUOUS
 62
7
 10
-219.199997
 20
-3.300040
 11
-219.500000
 21
-3.000050
  0
LINE
  8
0
  6
CONTINUOUS
 62
7
 10
-208.800003
 20
-3.299930
 11
-208.500000
 21
-2.999940
  0
LINE
  8
0
  6
CONTINUOUS
 62
7
 10
-219.500000
 20
-3.000000
 11
-224.000000
 21
-3.000000
  0
LINE
  8
0
  6
CONTINUOUS
 62
7
 10
-209.500000
 20
-7.500000
 11
-209.500000
 21
-8.133970
  0
LINE
  8
0
  6
CONTINUOUS
 62
7
 10
-218.500000
 20
-7.500000
 11
-209.500000
 21
-7.500000
  0
LINE
  8
0
  6
CONTINUOUS
 62
7
 10
-218.500000
 20
-7.500000
 11
-218.500000
 21
-8.133970
  0
LINE
  8
0
  6
CONTINUOUS
 62
7
 10
-202.500000
 20
-22.000000
 11
-225.500000
 21
-22.000000
  0
LINE
  8
0
  6
CONTINUOUS
 62
7
 10
-202.500000
 20
-12.200000
 11
-202.500000
 21
-22.000000
  0
LINE
  8
0
  6
CONTINUOUS
 62
7
 10
-225.500000
 20
-12.200000
 11
-218.500000
 21
-12.200000
  0
LINE
  8
0
  6
CENTER
 62
2
 10
-207.500000
 20
-15.500000
 11
-220.500000
 21
-15.500000
  0
LINE
  8
0
  6
CONTINUOUS
 62
7
 10
-202.500000
 20
-12.200000
 11
-209.500000
 21
-12.200000
  0
LINE
  8
0
  6
CONTINUOUS
 62
7
 10
-224.000000
 20
-3.000000
 11
-224.000000
 21
-10.800000
  0
LINE
  8
0
  6
CENTER
 62
2
 10
-206.000000
 20
-20.000000
 11
-206.000000
 21
-24.000000
  0
LINE
  8
0
  6
CENTER
 62
2
 10
-222.000000
 20
-20.000000
 11
-222.000000
 21
-24.000000
  0
LINE
  8
0
  6
CENTER
 62
2
 10
-221.500000
 20
-1.000000
 11
-221.500000
 21
-5.000000
  0
LINE
  8
0
  6
CENTER
 62
2
 10
-206.500000
 20
-1.000000
 11
-206.500000
 21
-5.000000
  0
LINE
  8
0
  6
CONTINUOUS
 62
7
 10
-237.500000
 20
-3.500000
 11
-237.500000
 21
-21.500000
  0
LINE
  8
0
  6
CONTINUOUS
 62
7
 10
-224.000000
 20
-3.500000
 11
-237.500000
 21
-3.500000
  0
LINE
  8
0
  6
CONTINUOUS
 62
7
 10
-225.500000
 20
-21.500000
 11
-237.500000
 21
-21.500000
  0
LINE
  8
0
  6
CONTINUOUS
 62
7
 10
-226.673004
 20
-13.064200
 11
-230.826996
 21
-15.462200
  0
LINE
  8
0
  6
CONTINUOUS
 62
7
 10
-230.826996
 20
-3.537870
 11
-226.673004
 21
-5.935790
  0
LINE
  8
0
  6
CONTINUOUS
 62
7
 10
-236.326996
 20
-5.935860
 11
-232.173004
 21
-3.537950
  0
LINE
  8
0
  6
CONTINUOUS
 62
7
 10
-232.173004
 20
-15.462100
 11
-236.326996
 21
-13.064200
  0
LINE
  8
0
  6
CONTINUOUS
 62
7
 10
-227.570999
 20
-10.250000
 11
-229.863998
 21
-10.250000
  0
LINE
  8
0
  6
CONTINUOUS
 62
7
 10
-227.570999
 20
-8.750000
 11
-229.863998
 21
-8.750000
  0
LINE
  8
0
  6
CONTINUOUS
 62
7
 10
34.207100
 20
-8.792940
 11
32.792900
 21
-10.207200
  0
LINE
  8
0
  6
CONTINUOUS
 62
7
 10
-233.136002
 20
-8.750000
 11
-235.429001
 21
-8.750000
  0
LINE
  8
0
  6
CONTINUOUS
 62
7
 10
-233.136002
 20
-10.250000
 11
-235.429001
 21
-10.250000
  0
LINE
  8
0
  6
CONTINUOUS
 62
7
 10
-237.000000
 20
-7.102080
 11
-237.000000
 21
-11.897900
  0
LINE
  8
0
  6
CONTINUOUS
 62
7
 10
-226.000000
 20
-7.102080
 11
-226.000000
 21
-11.897900
  0
LINE
  8
0
  6
CENTER
 62
2
 10
-231.500000
 20
-1.460000
 11
-231.500000
 21
-17.540001
  0
LINE
  8
0
  6
CENTER
 62
2
 10
-239.539993
 20
-9.500000
 11
-223.460007
 21
-9.500000
  0
LINE
  8
0
  6
CONTINUOUS
 62
7
 10
-225.500000
 20
-3.500000
 11
-225.500000
 21
-22.000000
  0
LINE
  8
0
  6
CENTER
 62
2
 10
-66.000000
 20
-2.513210
 11
-66.000000
 21
-23.006399
  0
LINE
  8
0
  6
CONTINUOUS
 62
7
 10
-70.500000
 20
-9.866030
 11
-70.500000
 21
-12.200000
  0
LINE
  8
0
  6
CONTINUOUS
 62
7
 10
-61.500000
 20
-9.866020
 11
-61.500000
 21
-12.200000
  0
LINE
  8
0
  6
CONTINUOUS
 62
7
 10
-76.000000
 20
-3.000000
 11
-71.500000
 21
-3.000000
  0
LINE
  8
0
  6
CONTINUOUS
 62
7
 10
-76.000000
 20
-3.000000
 11
-76.000000
 21
-10.800000
  0
LINE
  8
0
  6
CONTINUOUS
 62
7
 10
-76.000000
 20
-10.800000
 11
-70.500000
 21
-10.800000
  0
LINE
  8
0
  6
CONTINUOUS
 62
7
 10
-71.199997
 20
-3.300000
 11
-60.799999
 21
-3.300000
  0
LINE
  8
0
  6
CONTINUOUS
 62
7
 10
-61.500000
 20
-10.800000
 11
-56.000000
 21
-10.800000
  0
LINE
  8
0
  6
CONTINUOUS
 62
7
 10
-60.799999
 20
-3.299990
 11
-60.500000
 21
-3.000000
  0
LINE
  8
0
  6
CONTINUOUS
 62
7
 10
-71.199997
 20
-3.299980
 11
-71.500000
 21
-2.999980
  0
LINE
  8
0
  6
CONTINUOUS
 62
7
 10
-60.500000
 20
-3.000000
 11
-56.000000
 21
-3.000000
  0
LINE
  8
0
  6
CONTINUOUS
 62
7
 10
-70.500000
 20
-7.500000
 11
-70.500000
 21
-8.133970
  0
LINE
  8
0
  6
CONTINUOUS
 62
7
 10
-61.500000
 20
-7.500000
 11
-70.500000
 21
-7.500000
  0
LINE
  8
0
  6
CONTINUOUS
 62
7
 10
-61.500000
 20
-7.500000
 11
-61.500000
 21
-8.133970
  0
LINE
  8
0
  6
CONTINUOUS
 62
7
 10
-77.500000
 20
-22.000000
 11
-54.500000
 21
-22.000000
  0
LINE
  8
0
  6
CONTINUOUS
 62
7
 10
-77.500000
 20
-12.200000
 11
-77.500000
 21
-22.000000
  0
LINE
  8
0
  6
CONTINUOUS
 62
7
 10
-54.500000
 20
-12.200000
 11
-61.500000
 21
-12.200000
  0
LINE
  8
0
  6
CENTER
 62
2
 10
-72.500000
 20
-15.500000
 11
-59.500000
 21
-15.500000
  0
LINE
  8
0
  6
CONTINUOUS
 62
7
 10
-77.500000
 20
-12.200000
 11
-70.500000
 21
-12.200000
  0
LINE
  8
0
  6
CONTINUOUS
 62
7
 10
-56.000000
 20
-3.000000
 11
-56.000000
 21
-10.800000
  0
LINE
  8
0
  6
CENTER
 62
2
 10
-74.000000
 20
-20.000000
 11
-74.000000
 21
-24.000000
  0
LINE
  8
0
  6
CENTER
 62
2
 10
-58.000000
 20
-20.000000
 11
-58.000000
 21
-24.000000
  0
LINE
  8
0
  6
CENTER
 62
2
 10
-58.500000
 20
-1.000000
 11
-58.500000
 21
-5.000000
  0
LINE
  8
0
  6
CENTER
 62
2
 10
-73.500000
 20
-1.000000
 11
-73.500000
 21
-5.000000
  0
LINE
  8
0
  6
CONTINUOUS
 62
7
 10
-42.500000
 20
-3.500000
 11
-42.500000
 21
-21.500000
  0
LINE
  8
0
  6
CONTINUOUS
 62
7
 10
-56.000000
 20
-3.500000
 11
-42.500000
 21
-3.500000
  0
LINE
  8
0
  6
CONTINUOUS
 62
7
 10
-54.500000
 20
-21.500000
 11
-42.500000
 21
-21.500000
  0
LINE
  8
0
  6
CONTINUOUS
 62
7
 10
-53.326698
 20
-13.064200
 11
-49.173302
 21
-15.462100
  0
LINE
  8
0
  6
CONTINUOUS
 62
7
 10
-49.173302
 20
-3.537900
 11
-53.326698
 21
-5.935820
  0
LINE
  8
0
  6
CONTINUOUS
 62
7
 10
-43.673401
 20
-5.935830
 11
-47.826698
 21
-3.537910
  0
LINE
  8
0
  6
CONTINUOUS
 62
7
 10
-47.826698
 20
-15.462100
 11
-43.673401
 21
-13.064200
  0
LINE
  8
0
  6
CONTINUOUS
 62
7
 10
-52.429100
 20
-10.250000
 11
-50.136299
 21
-10.250000
  0
LINE
  8
0
  6
CONTINUOUS
 62
7
 10
-52.429100
 20
-8.750000
 11
-50.136299
 21
-8.750000
  0
LINE
  8
0
  6
CONTINUOUS
 62
7
 10
-46.863701
 20
-8.750000
 11
-44.570999
 21
-8.750000
  0
LINE
  8
0
  6
CONTINUOUS
 62
7
 10
-46.863701
 20
-10.250000
 11
-44.570999
 21
-10.250000
  0
LINE
  8
0
  6
CONTINUOUS
 62
7
 10
-43.000000
 20
-7.102080
 11
-43.000000
 21
-11.897900
  0
LINE
  8
0
  6
CONTINUOUS
 62
7
 10
-54.000000
 20
-7.102080
 11
-54.000000
 21
-11.897900
  0
LINE
  8
0
  6
CENTER
 62
2
 10
-48.500000
 20
-1.460000
 11
-48.500000
 21
-17.540001
  0
LINE
  8
0
  6
CENTER
 62
2
 10
-40.459999
 20
-9.500000
 11
-56.540001
 21
-9.500000
  0
LINE
  8
0
  6
CONTINUOUS
 62
7
 10
-54.500000
 20
-3.500000
 11
-54.500000
 21
-22.000000
  0
LINE
  8
0
  6
CENTER
 62
2
 10
-164.500000
 20
-12.000000
 11
-164.500000
 21
-21.000000
  0
LINE
  8
0
  6
CENTER
 62
2
 10
-169.000000
 20
-16.500000
 11
-160.000000
 21
-16.500000
  0
LINE
  8
0
  6
CENTER
 62
2
 10
-115.500000
 20
-12.000000
 11
-115.500000
 21
-21.000000
  0
LINE
  8
0
  6
CENTER
 62
2
 10
-120.000000
 20
-16.500000
 11
-111.000000
 21
-16.500000
  0
LINE
  8
0
  6
CENTER
 62
2
 10
100.500000
 20
-12.000000
 11
100.500000
 21
-21.000000
  0
LINE
  8
0
  6
CENTER
 62
2
 10
96.000000
 20
-16.500000
 11
105.000000
 21
-16.500000
  0
LINE
  8
0
  6
CENTER
 62
2
 10
179.500000
 20
-12.000000
 11
179.500000
 21
-21.000000
  0
LINE
  8
0
  6
CENTER
 62
2
 10
175.000000
 20
-16.500000
 11
184.000000
 21
-16.500000
  0
LINE
  8
0
  6
DASHED
 62
2
 10
112.000000
 20
92.500000
 11
112.000000
 21
97.500000
  0
LINE
  8
0
  6
DASHED
 62
2
 10
113.000000
 20
92.500000
 11
107.000000
 21
92.500000
  0
LINE
  8
0
  6
CENTER
 62
2
 10
110.000000
 20
89.000000
 11
110.000000
 21
99.500000
  0
LINE
  8
0
  6
DASHED
 62
2
 10
113.000000
 20
91.000000
 11
113.000000
 21
92.500000
  0
LINE
  8
0
  6
DASHED
 62
2
 10
107.000000
 20
91.000000
 11
107.000000
 21
92.500000
  0
LINE
  8
0
  6
DASHED
 62
2
 10
108.250000
 20
92.500000
 11
108.250000
 21
97.500000
  0
LINE
  8
0
  6
DASHED
 62
2
 10
111.750000
 20
92.500000
 11
111.750000
 21
97.500000
  0
LINE
  8
0
  6
DASHED
 62
2
 10
108.000000
 20
92.500000
 11
108.000000
 21
97.500000
  0
LINE
  8
0
  6
DASHED
 62
2
 10
168.000000
 20
92.500000
 11
168.000000
 21
97.500000
  0
LINE
  8
0
  6
DASHED
 62
2
 10
172.000000
 20
92.500000
 11
172.000000
 21
97.500000
  0
LINE
  8
0
  6
DASHED
 62
2
 10
173.000000
 20
92.500000
 11
167.000000
 21
92.500000
  0
LINE
  8
0
  6
CENTER
 62
2
 10
170.000000
 20
89.000000
 11
170.000000
 21
99.500000
  0
LINE
  8
0
  6
DASHED
 62
2
 10
173.000000
 20
91.000000
 11
173.000000
 21
92.500000
  0
LINE
  8
0
  6
DASHED
 62
2
 10
167.000000
 20
91.000000
 11
167.000000
 21
92.500000
  0
LINE
  8
0
  6
DASHED
 62
2
 10
168.250000
 20
92.500000
 11
168.250000
 21
97.500000
  0
LINE
  8
0
  6
DASHED
 62
2
 10
171.750000
 20
92.500000
 11
171.750000
 21
97.500000
  0
LINE
  8
0
  6
CONTINUOUS
 62
7
 10
32.792801
 20
-8.792950
 11
34.207100
 21
-10.207200
  0
LINE
  8
0
  6
CONTINUOUS
 62
7
 10
-232.207001
 20
-8.792980
 11
-230.792999
 21
-10.207200
  0
LINE
  8
0
  6
CONTINUOUS
 62
7
 10
-230.792999
 20
-8.792860
 11
-232.207001
 21
-10.207100
  0
LINE
  8
0
  6
CONTINUOUS
 62
7
 10
-49.207100
 20
-8.792890
 11
-47.792900
 21
-10.207100
  0
LINE
  8
0
  6
CONTINUOUS
 62
7
 10
-47.792900
 20
-8.792910
 11
-49.207100
 21
-10.207100
  0
LINE
  8
0
  6
CONTINUOUS
 62
7
 10
245.792999
 20
-8.792860
 11
247.207001
 21
-10.207100
  0
LINE
  8
0
  6
CONTINUOUS
 62
7
 10
247.207001
 20
-8.793000
 11
245.792999
 21
-10.207200
  0
LINE
  8
0
  6
CONTINUOUS
 62
7
 10
0.424988
 20
195.500000
 11
0.424988
 21
-195.000000
  0
ARC
  8
0
  6
CONTINUOUS
 62
7
 10
46.842499
 20
-9.160770
 40
1.200000
 50
99.579399
 51
100.733002
  0
ARC
  8
0
  6
CONTINUOUS
 62
7
 10
56.000000
 20
-9.000000
 40
1.000000
 50
120.001999
 51
240.001999
  0
ARC
  8
0
  6
CONTINUOUS
 62
7
 10
46.000000
 20
-9.000000
 40
0.999999
 50
300.002014
 51
60.000401
  0
CIRCLE
  8
0
  6
CONTINUOUS
 62
7
 10
51.000000
 20
-15.500000
 40
4.450000
  0
CIRCLE
  8
0
  6
CONTINUOUS
 62
2
 10
-156.000000
 20
-66.500000
 40
2.000000
  0
CIRCLE
  8
0
  6
CONTINUOUS
 62
7
 10
-156.000000
 20
-66.500000
 40
1.750000
  0
CIRCLE
  8
0
  6
CONTINUOUS
 62
7
 10
-156.000000
 20
-50.500000
 40
1.750000
  0
CIRCLE
  8
0
  6
CONTINUOUS
 62
7
 10
-124.000000
 20
-66.500000
 40
1.750000
  0
CIRCLE
  8
0
  6
CONTINUOUS
 62
2
 10
-124.000000
 20
-66.500000
 40
2.000000
  0
CIRCLE
  8
0
  6
CONTINUOUS
 62
7
 10
-124.000000
 20
-50.500000
 40
1.750000
  0
CIRCLE
  8
0
  6
CONTINUOUS
 62
2
 10
-124.000000
 20
-50.500000
 40
2.000000
  0
CIRCLE
  8
0
  6
CONTINUOUS
 62
2
 10
-156.000000
 20
-50.500000
 40
2.000000
  0
CIRCLE
  8
0
  6
CONTINUOUS
 62
7
 10
-163.000000
 20
-56.500000
 40
5.900000
  0
CIRCLE
  8
0
  6
CONTINUOUS
 62
7
 10
-117.000000
 20
-56.500000
 40
5.900000
  0
ARC
  8
0
  6
CONTINUOUS
 62
7
 10
-164.500000
 20
-16.200001
 40
4.800000
 50
8.385500
 51
56.442600
  0
ARC
  8
0
  6
CONTINUOUS
 62
7
 10
-115.500000
 20
-16.200001
 40
4.800000
 50
123.556999
 51
171.615005
  0
CIRCLE
  8
0
  6
CONTINUOUS
 62
7
 10
-129.500000
 20
-18.500000
 40
1.250000
  0
CIRCLE
  8
0
  6
CONTINUOUS
 62
2
 10
-129.500000
 20
-18.500000
 40
1.500000
  0
ARC
  8
0
  6
CONTINUOUS
 62
7
 10
-129.500000
 20
-18.500000
 40
3.000000
 50
90.000000
 51
123.556999
  0
CIRCLE
  8
0
  6
CONTINUOUS
 62
7
 10
-150.500000
 20
-18.500000
 40
1.250000
  0
CIRCLE
  8
0
  6
CONTINUOUS
 62
2
 10
-150.500000
 20
-18.500000
 40
1.500000
  0
ARC
  8
0
  6
CONTINUOUS
 62
7
 10
-150.500000
 20
-18.500000
 40
3.000000
 50
56.442699
 51
90.000000
  0
CIRCLE
  8
0
  6
CONTINUOUS
 62
2
 10
-139.800003
 20
-6.300000
 40
0.800000
  0
CIRCLE
  8
0
  6
CONTINUOUS
 62
7
 10
-139.800003
 20
-6.300000
 40
0.640000
  0
CIRCLE
  8
0
  6
CONTINUOUS
 62
2
 10
-130.199997
 20
-6.300000
 40
0.800000
  0
CIRCLE
  8
0
  6
CONTINUOUS
 62
7
 10
-130.199997
 20
-6.300000
 40
0.640000
  0
CIRCLE
  8
0
  6
CONTINUOUS
 62
7
 10
-127.500000
 20
24.500000
 40
1.250000
  0
CIRCLE
  8
0
  6
CONTINUOUS
 62
2
 10
-127.500000
 20
24.500000
 40
1.500000
  0
CIRCLE
  8
0
  6
CONTINUOUS
 62
7
 10
-142.500000
 20
39.500000
 40
1.250000
  0
CIRCLE
  8
0
  6
CONTINUOUS
 62
7
 10
-142.500000
 20
24.500000
 40
1.250000
  0
CIRCLE
  8
0
  6
CONTINUOUS
 62
2
 10
-142.500000
 20
24.500000
 40
1.500000
  0
CIRCLE
  8
0
  6
CONTINUOUS
 62
2
 10
-142.500000
 20
39.500000
 40
1.500000
  0
CIRCLE
  8
0
  6
CONTINUOUS
 62
7
 10
-127.500000
 20
39.500000
 40
1.250000
  0
CIRCLE
  8
0
  6
CONTINUOUS
 62
2
 10
-127.500000
 20
39.500000
 40
1.500000
  0
CIRCLE
  8
0
  6
CONTINUOUS
 62
2
 10
-156.000000
 20
24.000000
 40
2.000000
  0
CIRCLE
  8
0
  6
CONTINUOUS
 62
7
 10
-156.000000
 20
24.000000
 40
3.000000
  0
ARC
  8
0
  6
CONTINUOUS
 62
7
 10
-124.000000
 20
40.000000
 40
3.000000
 50
34.518398
 51
138.190002
  0
CIRCLE
  8
0
  6
CONTINUOUS
 62
7
 10
-156.000000
 20
40.000000
 40
3.000000
  0
CIRCLE
  8
0
  6
CONTINUOUS
 62
2
 10
-156.000000
 20
40.000000
 40
2.000000
  0
ARC
  8
0
  6
DASHED
 62
2
 10
-124.000000
 20
40.000000
 40
3.000000
 50
138.190002
 51
394.518005
  0
CIRCLE
  8
0
  6
DASHED
 62
2
 10
-124.000000
 20
40.000000
 40
2.000000
  0
CIRCLE
  8
0
  6
DASHED
 62
2
 10
-124.000000
 20
24.000000
 40
2.000000
  0
ARC
  8
0
  6
CONTINUOUS
 62
7
 10
-124.000000
 20
24.000000
 40
3.000000
 50
221.809998
 51
325.481995
  0
ARC
  8
0
  6
DASHED
 62
2
 10
-124.000000
 20
24.000000
 40
3.000000
 50
325.481995
 51
221.809998
  0
ARC
  8
0
  6
CONTINUOUS
 62
7
 10
-148.697006
 20
91.000000
 40
0.500000
 50
90.000000
 51
121.001999
  0
ARC
  8
0
  6
CONTINUOUS
 62
7
 10
-131.302994
 20
91.000000
 40
0.500001
 50
58.997601
 51
90.000000
  0
ARC
  8
0
  6
CONTINUOUS
 62
7
 10
33.500000
 20
-9.500000
 40
6.000000
 50
263.556000
 51
276.444000
  0
ARC
  8
0
  6
CONTINUOUS
 62
7
 10
33.500000
 20
-9.500000
 40
6.000000
 50
323.556000
 51
336.444000
  0
ARC
  8
0
  6
CONTINUOUS
 62
7
 10
33.500000
 20
-9.500000
 40
6.000000
 50
143.556000
 51
156.444000
  0
ARC
  8
0
  6
CONTINUOUS
 62
7
 10
33.500000
 20
-9.500000
 40
6.000000
 50
23.556499
 51
36.443501
  0
ARC
  8
0
  6
CONTINUOUS
 62
7
 10
33.500000
 20
-9.500000
 40
6.000000
 50
203.556000
 51
216.444000
  0
CIRCLE
  8
0
  6
CONTINUOUS
 62
7
 10
33.500000
 20
-9.500000
 40
1.800000
  0
CIRCLE
  8
0
  6
CONTINUOUS
 62
7
 10
33.500000
 20
-9.500000
 40
4.000000
  0
ARC
  8
0
  6
CONTINUOUS
 62
7
 10
33.500000
 20
-9.500000
 40
6.000000
 50
83.556503
 51
96.443604
  0
ARC
  8
0
  6
CONTINUOUS
 62
7
 10
246.500000
 20
-9.500000
 40
6.000000
 50
83.556503
 51
96.443497
  0
ARC
  8
0
  6
CONTINUOUS
 62
7
 10
233.156998
 20
-9.160770
 40
1.200000
 50
79.266899
 51
80.420799
  0
ARC
  8
0
  6
CONTINUOUS
 62
7
 10
224.000000
 20
-9.000000
 40
1.000000
 50
299.997986
 51
59.998100
  0
ARC
  8
0
  6
CONTINUOUS
 62
7
 10
234.000000
 20
-9.000000
 40
1.000000
 50
120.000000
 51
239.998993
  0
CIRCLE
  8
0
  6
CONTINUOUS
 62
7
 10
229.000000
 20
-15.500000
 40
4.450000
  0
ARC
  8
0
  6
CONTINUOUS
 62
7
 10
246.500000
 20
-9.500000
 40
6.000000
 50
263.556000
 51
276.442993
  0
ARC
  8
0
  6
CONTINUOUS
 62
7
 10
246.500000
 20
-9.500000
 40
6.000000
 50
203.556000
 51
216.442993
  0
ARC
  8
0
  6
CONTINUOUS
 62
7
 10
246.500000
 20
-9.500000
 40
6.000000
 50
23.556499
 51
36.443501
  0
ARC
  8
0
  6
CONTINUOUS
 62
7
 10
246.500000
 20
-9.500000
 40
6.000000
 50
143.557007
 51
156.444000
  0
ARC
  8
0
  6
CONTINUOUS
 62
7
 10
246.500000
 20
-9.500000
 40
6.000000
 50
323.556000
 51
336.444000
  0
CIRCLE
  8
0
  6
CONTINUOUS
 62
7
 10
246.500000
 20
-9.500000
 40
1.800000
  0
CIRCLE
  8
0
  6
CONTINUOUS
 62
7
 10
246.500000
 20
-9.500000
 40
4.000000
  0
ARC
  8
0
  6
CONTINUOUS
 62
7
 10
-159.500000
 20
88.500000
 40
2.500000
 50
90.000000
 51
180.000000
  0
ARC
  8
0
  6
CONTINUOUS
 62
7
 10
-120.500000
 20
88.500000
 40
2.500000
 50
0.000000
 51
90.000000
  0
CIRCLE
  8
0
  6
CONTINUOUS
 62
2
 10
110.000000
 20
-66.500000
 40
2.000000
  0
CIRCLE
  8
0
  6
CONTINUOUS
 62
7
 10
110.000000
 20
-66.500000
 40
1.750000
  0
CIRCLE
  8
0
  6
CONTINUOUS
 62
7
 10
110.000000
 20
-50.500000
 40
1.750000
  0
CIRCLE
  8
0
  6
CONTINUOUS
 62
7
 10
170.000000
 20
-66.500000
 40
1.750000
  0
CIRCLE
  8
0
  6
CONTINUOUS
 62
2
 10
170.000000
 20
-66.500000
 40
2.000000
  0
CIRCLE
  8
0
  6
CONTINUOUS
 62
7
 10
170.000000
 20
-50.500000
 40
1.750000
  0
CIRCLE
  8
0
  6
CONTINUOUS
 62
2
 10
170.000000
 20
-50.500000
 40
2.000000
  0
CIRCLE
  8
0
  6
CONTINUOUS
 62
2
 10
110.000000
 20
-50.500000
 40
2.000000
  0
CIRCLE
  8
0
  6
CONTINUOUS
 62
7
 10
102.000000
 20
-56.500000
 40
5.900000
  0
CIRCLE
  8
0
  6
CONTINUOUS
 62
7
 10
178.000000
 20
-56.500000
 40
5.900000
  0
ARC
  8
0
  6
CONTINUOUS
 62
7
 10
101.500000
 20
-16.200001
 40
4.800000
 50
8.385500
 51
56.442699
  0
ARC
  8
0
  6
CONTINUOUS
 62
7
 10
178.500000
 20
-16.200001
 40
4.800000
 50
123.556999
 51
171.615005
  0
CIRCLE
  8
0
  6
CONTINUOUS
 62
7
 10
120.000000
 20
-18.500000
 40
1.250000
  0
CIRCLE
  8
0
  6
CONTINUOUS
 62
2
 10
120.000000
 20
-18.500000
 40
1.500000
  0
CIRCLE
  8
0
  6
CONTINUOUS
 62
7
 10
160.000000
 20
-18.500000
 40
1.250000
  0
CIRCLE
  8
0
  6
CONTINUOUS
 62
2
 10
160.000000
 20
-18.500000
 40
1.500000
  0
ARC
  8
0
  6
CONTINUOUS
 62
7
 10
160.000000
 20
-18.500000
 40
3.000000
 50
90.000000
 51
123.556999
  0
ARC
  8
0
  6
CONTINUOUS
 62
7
 10
120.000000
 20
-18.500000
 40
3.000000
 50
56.442699
 51
90.000000
  0
CIRCLE
  8
0
  6
CONTINUOUS
 62
2
 10
145.199997
 20
-6.300000
 40
0.800000
  0
CIRCLE
  8
0
  6
CONTINUOUS
 62
7
 10
145.199997
 20
-6.300000
 40
0.640000
  0
CIRCLE
  8
0
  6
CONTINUOUS
 62
2
 10
154.800003
 20
-6.300000
 40
0.800000
  0
CIRCLE
  8
0
  6
CONTINUOUS
 62
7
 10
154.800003
 20
-6.300000
 40
0.640000
  0
ARC
  8
0
  6
DASHED
 62
2
 10
170.000000
 20
24.000000
 40
3.000000
 50
33.556801
 51
214.518005
  0
CIRCLE
  8
0
  6
DASHED
 62
2
 10
170.000000
 20
24.000000
 40
2.000000
  0
CIRCLE
  8
0
  6
CONTINUOUS
 62
2
 10
158.000000
 20
39.500000
 40
1.500000
  0
CIRCLE
  8
0
  6
CONTINUOUS
 62
7
 10
142.000000
 20
24.500000
 40
1.250000
  0
CIRCLE
  8
0
  6
CONTINUOUS
 62
2
 10
142.000000
 20
24.500000
 40
1.500000
  0
CIRCLE
  8
0
  6
CONTINUOUS
 62
7
 10
158.000000
 20
24.500000
 40
1.250000
  0
CIRCLE
  8
0
  6
CONTINUOUS
 62
2
 10
158.000000
 20
24.500000
 40
1.500000
  0
CIRCLE
  8
0
  6
CONTINUOUS
 62
2
 10
142.000000
 20
39.500000
 40
1.500000
  0
CIRCLE
  8
0
  6
CONTINUOUS
 62
7
 10
142.000000
 20
39.500000
 40
1.250000
  0
CIRCLE
  8
0
  6
CONTINUOUS
 62
7
 10
158.000000
 20
39.500000
 40
1.250000
  0
ARC
  8
0
  6
CONTINUOUS
 62
7
 10
170.000000
 20
40.000000
 40
3.000000
 50
326.442993
 51
145.481995
  0
CIRCLE
  8
0
  6
DASHED
 62
2
 10
170.000000
 20
40.000000
 40
2.000000
  0
CIRCLE
  8
0
  6
CONTINUOUS
 62
2
 10
110.000000
 20
40.000000
 40
2.000000
  0
CIRCLE
  8
0
  6
CONTINUOUS
 62
7
 10
110.000000
 20
24.000000
 40
3.000000
  0
CIRCLE
  8
0
  6
CONTINUOUS
 62
2
 10
110.000000
 20
24.000000
 40
2.000000
  0
CIRCLE
  8
0
  6
CONTINUOUS
 62
7
 10
110.000000
 20
40.000000
 40
3.000000
  0
ARC
  8
0
  6
DASHED
 62
2
 10
170.000000
 20
40.000000
 40
3.000000
 50
145.481995
 51
326.442993
  0
ARC
  8
0
  6
CONTINUOUS
 62
7
 10
170.000000
 20
24.000000
 40
3.000000
 50
214.518005
 51
33.556801
  0
ARC
  8
0
  6
CONTINUOUS
 62
7
 10
111.000000
 20
88.500000
 40
2.500000
 50
90.000000
 51
180.000000
  0
ARC
  8
0
  6
CONTINUOUS
 62
7
 10
169.000000
 20
88.500000
 40
2.500000
 50
0.000000
 51
90.000000
  0
ARC
  8
0
  6
CONTINUOUS
 62
7
 10
-218.156998
 20
-9.160770
 40
1.200000
 50
99.579201
 51
100.733002
  0
ARC
  8
0
  6
CONTINUOUS
 62
7
 10
-209.000000
 20
-9.000000
 40
1.000000
 50
120.001999
 51
240.001999
  0
ARC
  8
0
  6
CONTINUOUS
 62
7
 10
-219.000000
 20
-9.000000
 40
0.999995
 50
300.001007
 51
60.000099
  0
CIRCLE
  8
0
  6
CONTINUOUS
 62
7
 10
-214.000000
 20
-15.500000
 40
4.450000
  0
ARC
  8
0
  6
CONTINUOUS
 62
7
 10
-231.500000
 20
-9.500000
 40
6.000000
 50
263.556000
 51
276.442993
  0
ARC
  8
0
  6
CONTINUOUS
 62
7
 10
-231.500000
 20
-9.500000
 40
6.000000
 50
323.556000
 51
336.444000
  0
ARC
  8
0
  6
CONTINUOUS
 62
7
 10
-231.500000
 20
-9.500000
 40
6.000000
 50
143.557007
 51
156.444000
  0
ARC
  8
0
  6
CONTINUOUS
 62
7
 10
-231.500000
 20
-9.500000
 40
6.000000
 50
23.556499
 51
36.443501
  0
ARC
  8
0
  6
CONTINUOUS
 62
7
 10
-231.500000
 20
-9.500000
 40
6.000000
 50
203.556000
 51
216.442993
  0
CIRCLE
  8
0
  6
CONTINUOUS
 62
7
 10
-231.500000
 20
-9.500000
 40
1.800000
  0
CIRCLE
  8
0
  6
CONTINUOUS
 62
7
 10
-231.500000
 20
-9.500000
 40
4.000000
  0
ARC
  8
0
  6
CONTINUOUS
 62
7
 10
-231.500000
 20
-9.500000
 40
6.000000
 50
83.556503
 51
96.443497
  0
ARC
  8
0
  6
CONTINUOUS
 62
7
 10
-48.500000
 20
-9.500000
 40
6.000000
 50
83.556503
 51
96.443604
  0
ARC
  8
0
  6
CONTINUOUS
 62
7
 10
-61.842602
 20
-9.160770
 40
1.200000
 50
79.267097
 51
80.420700
  0
ARC
  8
0
  6
CONTINUOUS
 62
7
 10
-71.000000
 20
-9.000000
 40
1.000000
 50
299.997986
 51
59.998100
  0
ARC
  8
0
  6
CONTINUOUS
 62
7
 10
-61.000000
 20
-9.000000
 40
0.999998
 50
120.000000
 51
239.998001
  0
CIRCLE
  8
0
  6
CONTINUOUS
 62
7
 10
-66.000000
 20
-15.500000
 40
4.450000
  0
ARC
  8
0
  6
CONTINUOUS
 62
7
 10
-48.500000
 20
-9.500000
 40
6.000000
 50
263.556000
 51
276.444000
  0
ARC
  8
0
  6
CONTINUOUS
 62
7
 10
-48.500000
 20
-9.500000
 40
6.000000
 50
203.556000
 51
216.444000
  0
ARC
  8
0
  6
CONTINUOUS
 62
7
 10
-48.500000
 20
-9.500000
 40
6.000000
 50
23.556499
 51
36.443501
  0
ARC
  8
0
  6
CONTINUOUS
 62
7
 10
-48.500000
 20
-9.500000
 40
6.000000
 50
143.556000
 51
156.444000
  0
ARC
  8
0
  6
CONTINUOUS
 62
7
 10
-48.500000
 20
-9.500000
 40
6.000000
 50
323.556000
 51
336.444000
  0
CIRCLE
  8
0
  6
CONTINUOUS
 62
7
 10
-48.500000
 20
-9.500000
 40
1.800000
  0
CIRCLE
  8
0
  6
CONTINUOUS
 62
7
 10
-48.500000
 20
-9.500000
 40
4.000000
  0
CIRCLE
  8
0
  6
CONTINUOUS
 62
2
 10
-164.500000
 20
-16.500000
 40
2.500000
  0
CIRCLE
  8
0
  6
CONTINUOUS
 62
7
 10
-164.500000
 20
-16.500000
 40
2.100000
  0
CIRCLE
  8
0
  6
CONTINUOUS
 62
2
 10
-115.500000
 20
-16.500000
 40
2.500000
  0
CIRCLE
  8
0
  6
CONTINUOUS
 62
7
 10
-115.500000
 20
-16.500000
 40
2.100000
  0
CIRCLE
  8
0
  6
CONTINUOUS
 62
2
 10
100.500000
 20
-16.500000
 40
2.500000
  0
CIRCLE
  8
0
  6
CONTINUOUS
 62
7
 10
100.500000
 20
-16.500000
 40
2.100000
  0
CIRCLE
  8
0
  6
CONTINUOUS
 62
2
 10
179.500000
 20
-16.500000
 40
2.500000
  0
CIRCLE
  8
0
  6
CONTINUOUS
 62
7
 10
179.500000
 20
-16.500000
 40
2.100000
  0
CIRCLE
  8
0
  6
CONTINUOUS
 62
7
 10
-156.000000
 20
40.000000
 40
1.650000
  0
CIRCLE
  8
0
  6
CONTINUOUS
 62
7
 10
-156.000000
 20
24.000000
 40
1.650000
  0
CIRCLE
  8
0
  6
DASHED
 62
2
 10
-124.000000
 20
24.000000
 40
1.650000
  0
CIRCLE
  8
0
  6
DASHED
 62
2
 10
-124.000000
 20
40.000000
 40
1.650000
  0
CIRCLE
  8
0
  6
CONTINUOUS
 62
7
 10
110.000000
 20
24.000000
 40
1.650000
  0
CIRCLE
  8
0
  6
CONTINUOUS
 62
7
 10
110.000000
 20
40.000000
 40
1.650000
  0
CIRCLE
  8
0
  6
DASHED
 62
2
 10
170.000000
 20
40.000000
 40
1.650000
  0
CIRCLE
  8
0
  6
DASHED
 62
2
 10
170.000000
 20
24.000000
 40
1.650000
  0
TEXT
  8
0
 62
7
 10
202.930283
 20
183.925003
 40
6.300000
  1
Ver.1.0
 50
0.000000
 41
1.010330
 51
0.000000
  7
STANDARD
  0
TEXT
  8
0
 62
7
 10
172.714691
 20
-187.250000
 40
9.000000
  1
KOGANEI CORP.
 50
0.000000
 41
0.771524
 51
0.000000
  7
STANDARD
  0
TEXT
  8
0
 62
7
 10
-243.569717
 20
183.925003
 40
6.300000
  1
AP TABLE
 50
0.000000
 41
0.775607
 51
0.000000
  7
STANDARD
  0
TEXT
  8
0
 62
7
 10
12.274609
 20
158.925003
 40
6.300000
  1
MODEL:APT-SD8-20-TPQZ
 50
0.000000
 41
0.767797
 51
0.000000
  7
STANDARD
  0
TEXT
  8
0
 62
7
 10
-269.400391
 20
158.925003
 40
6.300000
  1
MODEL:APT-SD8-10-TPQZ
 50
0.000000
 41
0.781387
 51
0.000000
  7
STANDARD
  0
ENDSEC
  0
EOF
