  0
SECTION
  2
HEADER
  0
ENDSEC
  0
SECTION
  2
TABLES
  0
TABLE
  2
LTYPE
 70
     4
  0
LTYPE
  2
CONTINUOUS
 70
    64
  3
Solid line
 72
    65
 73
     0
 40
0.000000
  0
LTYPE
  2
DASHED
 70
    64
  3
__ __ __ __ __ __ __ __ __ __ __ __ __ __ __
 72
    65
 73
     2
 40
3.500000
 49
2.000000
 49
-1.500000
  0
LTYPE
  2
CENTER
 70
    64
  3
____ _ ____ _ ____ _ ____ _ ____ _ ____ _ ____
 72
    65
 73
     4
 40
17.500000
 49
13.000000
 49
-1.500000
 49
1.500000
 49
-1.500000
  0
LTYPE
  2
PHANTOM
 70
    64
  3
_____ _ _ _____ _ _ _____ _ _ _____ _ _ ____  
 72
    65
 73
     6
 40
15.500000
 49
8.000000
 49
-1.500000
 49
1.500000
 49
-1.500000
 49
1.500000
 49
-1.500000
  0
ENDTAB
  0
TABLE
  2
LAYER
 70
     1
  0
LAYER
  2
0
 70
     0
 62
     7
  6
CONTINUOUS
  0
ENDTAB
  0
TABLE
  2
STYLE
 70
     1
  0
STYLE
  2
STANDARD
 70
     0
 40
0.000000
 41
1.000000
 50
0.000000
 71
     0
 42
0.200000
  3
txt
  4
BIGFONT
  0
ENDTAB
  0
TABLE
  2
VIEW
 70
     0
  0
ENDTAB
  0
ENDSEC
  0
SECTION
  2
BLOCKS
  0
ENDSEC
  0
SECTION
  2
ENTITIES
  0
LINE
  8
0
  6
CONTINUOUS
 62
7
 10
-281.250000
 20
195.500000
 11
282.100006
 21
195.500000
  0
LINE
  8
0
  6
CONTINUOUS
 62
7
 10
-281.250000
 20
195.500000
 11
-281.250000
 21
-195.000000
  0
LINE
  8
0
  6
CONTINUOUS
 62
7
 10
282.100006
 20
195.500000
 11
282.100006
 21
-195.000000
  0
LINE
  8
0
  6
CONTINUOUS
 62
7
 10
-281.250000
 20
-195.000000
 11
282.100006
 21
-195.000000
  0
LINE
  8
0
  6
CONTINUOUS
 62
7
 10
162.100006
 20
-175.000000
 11
162.100006
 21
-195.000000
  0
LINE
  8
0
  6
CONTINUOUS
 62
7
 10
162.100006
 20
-175.000000
 11
282.100006
 21
-175.000000
  0
LINE
  8
0
  6
CONTINUOUS
 62
7
 10
162.100006
 20
175.500000
 11
282.100006
 21
175.500000
  0
LINE
  8
0
  6
CONTINUOUS
 62
7
 10
-281.250000
 20
175.500000
 11
-161.250000
 21
175.500000
  0
LINE
  8
0
  6
CONTINUOUS
 62
7
 10
162.100006
 20
195.500000
 11
162.100006
 21
175.500000
  0
LINE
  8
0
  6
CONTINUOUS
 62
7
 10
-161.250000
 20
195.500000
 11
-161.250000
 21
175.500000
  0
LINE
  8
0
  6
CONTINUOUS
 62
7
 10
-148.500000
 20
-49.000000
 11
-127.500000
 21
-49.000000
  0
LINE
  8
0
  6
CONTINUOUS
 62
7
 10
-148.500000
 20
-49.000000
 11
-148.500000
 21
-48.500000
  0
LINE
  8
0
  6
CONTINUOUS
 62
7
 10
-121.000000
 20
-48.500000
 11
-121.000000
 21
-39.000000
  0
LINE
  8
0
  6
CONTINUOUS
 62
7
 10
-127.500000
 20
-49.000000
 11
-127.500000
 21
-48.500000
  0
LINE
  8
0
  6
CONTINUOUS
 62
7
 10
-173.000000
 20
-44.500000
 11
-161.000000
 21
-44.500000
  0
LINE
  8
0
  6
CONTINUOUS
 62
7
 10
-121.000000
 20
-44.500000
 11
-113.000000
 21
-44.500000
  0
LINE
  8
0
  6
CONTINUOUS
 62
7
 10
-173.000000
 20
-29.000000
 11
-173.000000
 21
-44.500000
  0
LINE
  8
0
  6
CONTINUOUS
 62
7
 10
-113.000000
 20
-29.000000
 11
-113.000000
 21
-44.500000
  0
LINE
  8
0
  6
CONTINUOUS
 62
7
 10
-173.000000
 20
-29.000000
 11
-113.000000
 21
-29.000000
  0
LINE
  8
0
  6
CENTER
 62
2
 10
-110.702003
 20
-80.000000
 11
-176.587006
 21
-80.000000
  0
LINE
  8
0
  6
CONTINUOUS
 62
7
 10
-127.500000
 20
-66.500000
 11
-148.500000
 21
-66.500000
  0
LINE
  8
0
  6
CONTINUOUS
 62
7
 10
-148.500000
 20
-66.500000
 11
-148.500000
 21
-93.500000
  0
LINE
  8
0
  6
CONTINUOUS
 62
7
 10
-127.500000
 20
-93.500000
 11
-148.500000
 21
-93.500000
  0
LINE
  8
0
  6
CONTINUOUS
 62
7
 10
-127.500000
 20
-66.500000
 11
-127.500000
 21
-93.500000
  0
LINE
  8
0
  6
CONTINUOUS
 62
7
 10
-173.000000
 20
-74.000000
 11
-155.000000
 21
-74.000000
  0
LINE
  8
0
  6
CONTINUOUS
 62
7
 10
-121.000000
 20
-74.000000
 11
-113.000000
 21
-74.000000
  0
LINE
  8
0
  6
CONTINUOUS
 62
7
 10
-173.000000
 20
-86.000000
 11
-155.000000
 21
-86.000000
  0
LINE
  8
0
  6
CONTINUOUS
 62
7
 10
-121.000000
 20
-86.000000
 11
-113.000000
 21
-86.000000
  0
LINE
  8
0
  6
CONTINUOUS
 62
7
 10
-127.500000
 20
-87.000000
 11
-148.500000
 21
-87.000000
  0
LINE
  8
0
  6
CONTINUOUS
 62
7
 10
-127.500000
 20
-73.000000
 11
-148.500000
 21
-73.000000
  0
LINE
  8
0
  6
CONTINUOUS
 62
7
 10
-121.000000
 20
-66.699997
 11
-127.500000
 21
-66.699997
  0
LINE
  8
0
  6
CONTINUOUS
 62
7
 10
-121.000000
 20
-93.300003
 11
-121.000000
 21
-66.699997
  0
LINE
  8
0
  6
CONTINUOUS
 62
7
 10
-121.000000
 20
-93.300003
 11
-127.500000
 21
-93.300003
  0
LINE
  8
0
  6
CONTINUOUS
 62
7
 10
-113.000000
 20
-66.000000
 11
-173.000000
 21
-66.000000
  0
LINE
  8
0
  6
CONTINUOUS
 62
7
 10
-113.000000
 20
-94.000000
 11
-173.000000
 21
-94.000000
  0
LINE
  8
0
  6
CONTINUOUS
 62
7
 10
-173.000000
 20
-66.000000
 11
-173.000000
 21
-94.000000
  0
LINE
  8
0
  6
CONTINUOUS
 62
7
 10
-113.000000
 20
-66.000000
 11
-113.000000
 21
-94.000000
  0
LINE
  8
0
  6
CENTER
 62
2
 10
-159.000000
 20
-85.464699
 11
-159.000000
 21
-95.000000
  0
LINE
  8
0
  6
CENTER
 62
2
 10
-159.000000
 20
-74.500000
 11
-159.000000
 21
-65.500000
  0
LINE
  8
0
  6
CENTER
 62
2
 10
-145.500000
 20
-73.500000
 11
-145.500000
 21
-66.500000
  0
LINE
  8
0
  6
CENTER
 62
2
 10
-162.500000
 20
-69.500000
 11
-154.582993
 21
-69.500000
  0
LINE
  8
0
  6
CENTER
 62
2
 10
-145.500000
 20
-86.500000
 11
-145.500000
 21
-93.500000
  0
LINE
  8
0
  6
CENTER
 62
2
 10
-162.500000
 20
-90.500000
 11
-154.582993
 21
-90.500000
  0
LINE
  8
0
  6
CONTINUOUS
 62
7
 10
-123.800003
 20
-34.500000
 11
-125.000000
 21
-34.500000
  0
LINE
  8
0
  6
CONTINUOUS
 62
7
 10
-173.000000
 20
-38.500000
 11
-164.347000
 21
-38.500000
  0
LINE
  8
0
  6
CONTINUOUS
 62
7
 10
-161.000000
 20
-34.500000
 11
-162.199997
 21
-34.500000
  0
LINE
  8
0
  6
CONTINUOUS
 62
7
 10
-125.000000
 20
-39.000000
 11
-121.000000
 21
-39.000000
  0
LINE
  8
0
  6
CENTER
 62
2
 10
-127.000000
 20
-74.500000
 11
-127.000000
 21
-65.500000
  0
LINE
  8
0
  6
CENTER
 62
2
 10
-123.500000
 20
-69.500000
 11
-131.399994
 21
-69.500000
  0
LINE
  8
0
  6
CENTER
 62
2
 10
-130.500000
 20
-73.500000
 11
-130.500000
 21
-66.500000
  0
LINE
  8
0
  6
CENTER
 62
2
 10
-123.500000
 20
-90.500000
 11
-130.822998
 21
-90.500000
  0
LINE
  8
0
  6
CENTER
 62
2
 10
-130.500000
 20
-86.500000
 11
-130.500000
 21
-93.500000
  0
LINE
  8
0
  6
CENTER
 62
2
 10
-127.000000
 20
-85.464699
 11
-127.000000
 21
-95.000000
  0
LINE
  8
0
  6
CONTINUOUS
 62
7
 10
-155.000000
 20
-104.500000
 11
-155.000000
 21
-114.000000
  0
LINE
  8
0
  6
CONTINUOUS
 62
7
 10
-148.500000
 20
-104.000000
 11
-127.500000
 21
-104.000000
  0
LINE
  8
0
  6
CONTINUOUS
 62
7
 10
-148.500000
 20
-104.000000
 11
-148.500000
 21
-114.000000
  0
LINE
  8
0
  6
CONTINUOUS
 62
7
 10
-161.000000
 20
-104.500000
 11
-148.500000
 21
-104.500000
  0
LINE
  8
0
  6
CONTINUOUS
 62
7
 10
-121.000000
 20
-104.500000
 11
-121.000000
 21
-114.000000
  0
LINE
  8
0
  6
CONTINUOUS
 62
7
 10
-127.500000
 20
-104.000000
 11
-127.500000
 21
-114.000000
  0
LINE
  8
0
  6
CONTINUOUS
 62
7
 10
-121.000000
 20
-104.500000
 11
-127.500000
 21
-104.500000
  0
LINE
  8
0
  6
CONTINUOUS
 62
7
 10
-173.000000
 20
-108.500000
 11
-155.000000
 21
-108.500000
  0
LINE
  8
0
  6
CONTINUOUS
 62
7
 10
-121.000000
 20
-108.500000
 11
-113.000000
 21
-108.500000
  0
LINE
  8
0
  6
CONTINUOUS
 62
7
 10
-173.000000
 20
-124.000000
 11
-173.000000
 21
-108.500000
  0
LINE
  8
0
  6
CONTINUOUS
 62
7
 10
-113.000000
 20
-124.000000
 11
-113.000000
 21
-108.500000
  0
LINE
  8
0
  6
CONTINUOUS
 62
7
 10
-173.000000
 20
-124.000000
 11
-113.000000
 21
-124.000000
  0
LINE
  8
0
  6
CONTINUOUS
 62
7
 10
-123.800003
 20
-118.500000
 11
-130.401993
 21
-118.500000
  0
LINE
  8
0
  6
CONTINUOUS
 62
7
 10
-155.598007
 20
-118.500000
 11
-162.199997
 21
-118.500000
  0
LINE
  8
0
  6
CONTINUOUS
 62
7
 10
-173.000000
 20
-114.500000
 11
-164.347000
 21
-114.500000
  0
LINE
  8
0
  6
CONTINUOUS
 62
7
 10
-155.000000
 20
-114.000000
 11
-121.000000
 21
-114.000000
  0
LINE
  8
0
  6
CENTER
 62
2
 10
-148.500000
 20
-90.000000
 11
-142.000000
 21
-90.000000
  0
LINE
  8
0
  6
CENTER
 62
2
 10
-148.500000
 20
-70.000000
 11
-142.000000
 21
-70.000000
  0
LINE
  8
0
  6
CENTER
 62
2
 10
-127.500000
 20
-70.000000
 11
-134.000000
 21
-70.000000
  0
LINE
  8
0
  6
CENTER
 62
2
 10
-127.500000
 20
-90.000000
 11
-134.000000
 21
-90.000000
  0
LINE
  8
0
  6
CONTINUOUS
 62
7
 10
-155.000000
 20
-93.300003
 11
-155.000000
 21
-66.699997
  0
LINE
  8
0
  6
CONTINUOUS
 62
7
 10
-155.000000
 20
-66.699997
 11
-148.500000
 21
-66.699997
  0
LINE
  8
0
  6
CONTINUOUS
 62
7
 10
-155.000000
 20
-93.300003
 11
-148.500000
 21
-93.300003
  0
LINE
  8
0
  6
CONTINUOUS
 62
7
 10
-121.653000
 20
-38.500000
 11
-113.000000
 21
-38.500000
  0
LINE
  8
0
  6
CONTINUOUS
 62
7
 10
-121.653000
 20
-114.500000
 11
-113.000000
 21
-114.500000
  0
LINE
  8
0
  6
CENTER
 62
2
 10
-133.000000
 20
-123.500000
 11
-133.000000
 21
-116.500000
  0
LINE
  8
0
  6
CENTER
 62
2
 10
-136.500000
 20
-120.000000
 11
-129.500000
 21
-120.000000
  0
LINE
  8
0
  6
CENTER
 62
2
 10
-153.000000
 20
-123.500000
 11
-153.000000
 21
-116.500000
  0
LINE
  8
0
  6
CENTER
 62
2
 10
-156.500000
 20
-120.000000
 11
-149.500000
 21
-120.000000
  0
LINE
  8
0
  6
CENTER
 62
2
 10
-142.000000
 20
-111.500000
 11
-142.000000
 21
-104.500000
  0
LINE
  8
0
  6
CENTER
 62
2
 10
-145.500000
 20
-108.000000
 11
-138.500000
 21
-108.000000
  0
LINE
  8
0
  6
CENTER
 62
2
 10
-134.000000
 20
-111.500000
 11
-134.000000
 21
-104.500000
  0
LINE
  8
0
  6
CENTER
 62
2
 10
-137.500000
 20
-108.000000
 11
-130.500000
 21
-108.000000
  0
LINE
  8
0
  6
DASHED
 62
2
 10
-130.000000
 20
-34.000000
 11
-124.000000
 21
-34.000000
  0
LINE
  8
0
  6
CENTER
 62
2
 10
-127.000000
 20
-36.500000
 11
-127.000000
 21
-27.000000
  0
LINE
  8
0
  6
DASHED
 62
2
 10
-130.000000
 20
-34.500000
 11
-130.000000
 21
-34.000000
  0
LINE
  8
0
  6
DASHED
 62
2
 10
-156.000000
 20
-34.500000
 11
-156.000000
 21
-34.000000
  0
LINE
  8
0
  6
DASHED
 62
2
 10
-129.000000
 20
-34.000000
 11
-129.000000
 21
-29.000000
  0
LINE
  8
0
  6
DASHED
 62
2
 10
-125.000000
 20
-34.000000
 11
-125.000000
 21
-29.000000
  0
LINE
  8
0
  6
DASHED
 62
2
 10
-125.349998
 20
-34.000000
 11
-125.349998
 21
-29.000000
  0
LINE
  8
0
  6
DASHED
 62
2
 10
-128.649994
 20
-34.000000
 11
-128.649994
 21
-29.000000
  0
LINE
  8
0
  6
DASHED
 62
2
 10
-162.000000
 20
-34.000000
 11
-156.000000
 21
-34.000000
  0
LINE
  8
0
  6
CENTER
 62
2
 10
-159.000000
 20
-36.500000
 11
-159.000000
 21
-27.000000
  0
LINE
  8
0
  6
DASHED
 62
2
 10
-162.000000
 20
-34.500000
 11
-162.000000
 21
-34.000000
  0
LINE
  8
0
  6
DASHED
 62
2
 10
-161.000000
 20
-34.000000
 11
-161.000000
 21
-29.000000
  0
LINE
  8
0
  6
DASHED
 62
2
 10
-157.000000
 20
-34.000000
 11
-157.000000
 21
-29.000000
  0
LINE
  8
0
  6
DASHED
 62
2
 10
-157.350006
 20
-34.000000
 11
-157.350006
 21
-29.000000
  0
LINE
  8
0
  6
DASHED
 62
2
 10
-160.649994
 20
-34.000000
 11
-160.649994
 21
-29.000000
  0
LINE
  8
0
  6
DASHED
 62
2
 10
-162.000000
 20
-119.000000
 11
-156.000000
 21
-119.000000
  0
LINE
  8
0
  6
CENTER
 62
2
 10
-159.000000
 20
-116.500000
 11
-159.000000
 21
-126.000000
  0
LINE
  8
0
  6
DASHED
 62
2
 10
-162.000000
 20
-118.500000
 11
-162.000000
 21
-119.000000
  0
LINE
  8
0
  6
DASHED
 62
2
 10
-161.000000
 20
-119.000000
 11
-161.000000
 21
-124.000000
  0
LINE
  8
0
  6
DASHED
 62
2
 10
-157.000000
 20
-119.000000
 11
-157.000000
 21
-124.000000
  0
LINE
  8
0
  6
DASHED
 62
2
 10
-157.350006
 20
-119.000000
 11
-157.350006
 21
-124.000000
  0
LINE
  8
0
  6
DASHED
 62
2
 10
-160.649994
 20
-119.000000
 11
-160.649994
 21
-124.000000
  0
LINE
  8
0
  6
DASHED
 62
2
 10
-130.000000
 20
-119.000000
 11
-124.000000
 21
-119.000000
  0
LINE
  8
0
  6
CENTER
 62
2
 10
-127.000000
 20
-116.500000
 11
-127.000000
 21
-126.000000
  0
LINE
  8
0
  6
DASHED
 62
2
 10
-129.000000
 20
-119.000000
 11
-129.000000
 21
-124.000000
  0
LINE
  8
0
  6
DASHED
 62
2
 10
-125.000000
 20
-119.000000
 11
-125.000000
 21
-124.000000
  0
LINE
  8
0
  6
DASHED
 62
2
 10
-125.349998
 20
-119.000000
 11
-125.349998
 21
-124.000000
  0
LINE
  8
0
  6
DASHED
 62
2
 10
-128.649994
 20
-119.000000
 11
-128.649994
 21
-124.000000
  0
LINE
  8
0
  6
DASHED
 62
2
 10
-130.000000
 20
-118.500000
 11
-130.000000
 21
-119.000000
  0
LINE
  8
0
  6
DASHED
 62
2
 10
-156.000000
 20
-118.500000
 11
-156.000000
 21
-119.000000
  0
LINE
  8
0
  6
DASHED
 62
2
 10
-124.000000
 20
-34.500000
 11
-124.000000
 21
-34.000000
  0
LINE
  8
0
  6
DASHED
 62
2
 10
-124.000000
 20
-118.500000
 11
-124.000000
 21
-119.000000
  0
LINE
  8
0
  6
CONTINUOUS
 62
7
 10
-150.000000
 20
-120.000000
 11
-136.000000
 21
-120.000000
  0
LINE
  8
0
  6
CENTER
 62
2
 10
-145.500000
 20
-51.000000
 11
-145.500000
 21
-47.000000
  0
LINE
  8
0
  6
CENTER
 62
2
 10
-130.500000
 20
-51.000000
 11
-130.500000
 21
-47.000000
  0
LINE
  8
0
  6
CONTINUOUS
 62
7
 10
-113.000000
 20
-161.000000
 11
-173.000000
 21
-161.000000
  0
LINE
  8
0
  6
CONTINUOUS
 62
7
 10
-173.000000
 20
-161.000000
 11
-173.000000
 21
-133.000000
  0
LINE
  8
0
  6
CONTINUOUS
 62
7
 10
-113.000000
 20
-133.000000
 11
-173.000000
 21
-133.000000
  0
LINE
  8
0
  6
CONTINUOUS
 62
7
 10
-113.000000
 20
-161.000000
 11
-113.000000
 21
-133.000000
  0
LINE
  8
0
  6
CENTER
 62
2
 10
-110.366997
 20
-147.000000
 11
-177.000000
 21
-147.000000
  0
LINE
  8
0
  6
CENTER
 62
2
 10
-165.500000
 20
-135.600006
 11
-165.500000
 21
-151.399994
  0
LINE
  8
0
  6
CENTER
 62
2
 10
-173.399994
 20
-143.500000
 11
-157.600006
 21
-143.500000
  0
LINE
  8
0
  6
CENTER
 62
2
 10
-159.000000
 20
-132.500000
 11
-159.000000
 21
-140.500000
  0
LINE
  8
0
  6
CENTER
 62
2
 10
-163.000000
 20
-136.500000
 11
-155.000000
 21
-136.500000
  0
LINE
  8
0
  6
CENTER
 62
2
 10
-127.000000
 20
-132.500000
 11
-127.000000
 21
-140.500000
  0
LINE
  8
0
  6
CENTER
 62
2
 10
-131.000000
 20
-136.500000
 11
-123.000000
 21
-136.500000
  0
LINE
  8
0
  6
CENTER
 62
2
 10
-120.500000
 20
-135.600006
 11
-120.500000
 21
-151.399994
  0
LINE
  8
0
  6
CENTER
 62
2
 10
-128.399994
 20
-143.500000
 11
-112.599998
 21
-143.500000
  0
LINE
  8
0
  6
CENTER
 62
2
 10
-127.000000
 20
-153.500000
 11
-127.000000
 21
-161.500000
  0
LINE
  8
0
  6
CENTER
 62
2
 10
-131.000000
 20
-157.500000
 11
-123.000000
 21
-157.500000
  0
LINE
  8
0
  6
CENTER
 62
2
 10
-159.000000
 20
-153.500000
 11
-159.000000
 21
-161.500000
  0
LINE
  8
0
  6
CENTER
 62
2
 10
-163.000000
 20
-157.500000
 11
-155.000000
 21
-157.500000
  0
LINE
  8
0
  6
CENTER
 62
2
 10
-145.500000
 20
-106.000000
 11
-145.500000
 21
-102.000000
  0
LINE
  8
0
  6
CENTER
 62
2
 10
-130.500000
 20
-106.000000
 11
-130.500000
 21
-102.000000
  0
LINE
  8
0
  6
CONTINUOUS
 62
2
 10
-125.000000
 20
-40.299999
 11
-161.000000
 21
-40.299999
  0
LINE
  8
0
  6
CONTINUOUS
 62
2
 10
-125.000000
 20
-43.700001
 11
-161.000000
 21
-43.700001
  0
LINE
  8
0
  6
CONTINUOUS
 62
2
 10
-125.000000
 20
-46.299999
 11
-161.000000
 21
-46.299999
  0
LINE
  8
0
  6
CONTINUOUS
 62
2
 10
-125.000000
 20
-37.700001
 11
-161.000000
 21
-37.700001
  0
LINE
  8
0
  6
CONTINUOUS
 62
7
 10
-161.000000
 20
-48.500000
 11
-161.000000
 21
-29.500000
  0
LINE
  8
0
  6
CONTINUOUS
 62
7
 10
-121.000000
 20
-48.500000
 11
-161.000000
 21
-48.500000
  0
LINE
  8
0
  6
CONTINUOUS
 62
7
 10
-125.000000
 20
-48.500000
 11
-125.000000
 21
-29.500000
  0
LINE
  8
0
  6
CONTINUOUS
 62
7
 10
-161.000000
 20
-29.500000
 11
-125.000000
 21
-29.500000
  0
LINE
  8
0
  6
CONTINUOUS
 62
7
 10
-161.000000
 20
-66.000000
 11
-161.000000
 21
-56.000000
  0
LINE
  8
0
  6
CONTINUOUS
 62
7
 10
-125.000000
 20
-63.500000
 11
-161.000000
 21
-63.500000
  0
LINE
  8
0
  6
CONTINUOUS
 62
7
 10
-141.250000
 20
-66.000000
 11
-141.250000
 21
-64.500000
  0
LINE
  8
0
  6
CONTINUOUS
 62
7
 10
-134.750000
 20
-64.500000
 11
-141.250000
 21
-64.500000
  0
LINE
  8
0
  6
CONTINUOUS
 62
7
 10
-134.750000
 20
-66.000000
 11
-134.750000
 21
-64.500000
  0
LINE
  8
0
  6
CONTINUOUS
 62
7
 10
-125.000000
 20
-66.000000
 11
-125.000000
 21
-56.000000
  0
LINE
  8
0
  6
CONTINUOUS
 62
7
 10
-125.000000
 20
-56.000000
 11
-161.000000
 21
-56.000000
  0
LINE
  8
0
  6
CONTINUOUS
 62
7
 10
-125.000000
 20
-171.000000
 11
-161.000000
 21
-171.000000
  0
LINE
  8
0
  6
CONTINUOUS
 62
7
 10
-125.000000
 20
-161.000000
 11
-125.000000
 21
-171.000000
  0
LINE
  8
0
  6
CONTINUOUS
 62
7
 10
-161.000000
 20
-161.000000
 11
-161.000000
 21
-171.000000
  0
LINE
  8
0
  6
CONTINUOUS
 62
7
 10
-161.000000
 20
-108.500000
 11
-161.000000
 21
-104.500000
  0
LINE
  8
0
  6
CONTINUOUS
 62
7
 10
73.000000
 20
-108.500000
 11
85.000000
 21
-108.500000
  0
LINE
  8
0
  6
CONTINUOUS
 62
7
 10
73.000000
 20
-111.709000
 11
73.000000
 21
-114.500000
  0
LINE
  8
0
  6
CONTINUOUS
 62
7
 10
73.000000
 20
-108.500000
 11
73.000000
 21
-109.291000
  0
LINE
  8
0
  6
CONTINUOUS
 62
7
 10
65.500000
 20
-104.000000
 11
72.000000
 21
-104.000000
  0
LINE
  8
0
  6
CONTINUOUS
 62
7
 10
65.500000
 20
-114.000000
 11
73.000000
 21
-114.000000
  0
LINE
  8
0
  6
CONTINUOUS
 62
7
 10
72.300003
 20
-104.300003
 11
85.699997
 21
-104.300003
  0
LINE
  8
0
  6
CONTINUOUS
 62
7
 10
85.000000
 20
-111.709000
 11
85.000000
 21
-114.500000
  0
LINE
  8
0
  6
CONTINUOUS
 62
7
 10
85.000000
 20
-108.500000
 11
85.000000
 21
-109.291000
  0
LINE
  8
0
  6
CONTINUOUS
 62
7
 10
92.500000
 20
-104.000000
 11
86.000000
 21
-104.000000
  0
LINE
  8
0
  6
CONTINUOUS
 62
7
 10
92.500000
 20
-104.000000
 11
92.500000
 21
-114.000000
  0
LINE
  8
0
  6
CONTINUOUS
 62
7
 10
92.500000
 20
-114.000000
 11
85.000000
 21
-114.000000
  0
LINE
  8
0
  6
CONTINUOUS
 62
7
 10
65.500000
 20
-104.000000
 11
65.500000
 21
-114.000000
  0
LINE
  8
0
  6
CONTINUOUS
 62
7
 10
72.000000
 20
-104.000000
 11
72.300003
 21
-104.300003
  0
LINE
  8
0
  6
CONTINUOUS
 62
7
 10
86.000000
 20
-104.000000
 11
85.699997
 21
-104.300003
  0
LINE
  8
0
  6
CONTINUOUS
 62
7
 10
93.000000
 20
-114.500000
 11
85.000000
 21
-114.500000
  0
LINE
  8
0
  6
CONTINUOUS
 62
7
 10
93.000000
 20
-124.000000
 11
65.000000
 21
-124.000000
  0
LINE
  8
0
  6
CONTINUOUS
 62
7
 10
65.000000
 20
-114.500000
 11
73.000000
 21
-114.500000
  0
LINE
  8
0
  6
CONTINUOUS
 62
7
 10
65.000000
 20
-114.500000
 11
65.000000
 21
-124.000000
  0
LINE
  8
0
  6
CONTINUOUS
 62
7
 10
93.000000
 20
-114.500000
 11
93.000000
 21
-124.000000
  0
LINE
  8
0
  6
CENTER
 62
2
 10
70.000000
 20
-116.500000
 11
70.000000
 21
-123.500000
  0
LINE
  8
0
  6
CENTER
 62
2
 10
66.500000
 20
-120.000000
 11
73.500000
 21
-120.000000
  0
LINE
  8
0
  6
CENTER
 62
2
 10
79.000000
 20
-102.000000
 11
79.000000
 21
-126.000000
  0
LINE
  8
0
  6
CENTER
 62
2
 10
71.599998
 20
-117.000000
 11
86.400002
 21
-117.000000
  0
LINE
  8
0
  6
CENTER
 62
2
 10
69.000000
 20
-102.000000
 11
69.000000
 21
-106.000000
  0
LINE
  8
0
  6
CENTER
 62
2
 10
89.000000
 20
-102.000000
 11
89.000000
 21
-106.000000
  0
LINE
  8
0
  6
CENTER
 62
2
 10
89.500000
 20
-122.000000
 11
89.500000
 21
-126.000000
  0
LINE
  8
0
  6
CENTER
 62
2
 10
68.500000
 20
-122.000000
 11
68.500000
 21
-126.000000
  0
LINE
  8
0
  6
CONTINUOUS
 62
7
 10
55.000000
 20
-123.500000
 11
65.000000
 21
-123.500000
  0
LINE
  8
0
  6
CONTINUOUS
 62
2
 10
56.000000
 20
-105.849998
 11
56.000000
 21
-106.699997
  0
LINE
  8
0
  6
CONTINUOUS
 62
7
 10
55.000000
 20
-104.500000
 11
55.000000
 21
-123.500000
  0
LINE
  8
0
  6
CONTINUOUS
 62
7
 10
55.000000
 20
-104.500000
 11
62.500000
 21
-104.500000
  0
LINE
  8
0
  6
CONTINUOUS
 62
7
 10
62.500000
 20
-104.500000
 11
62.500000
 21
-117.000000
  0
LINE
  8
0
  6
CONTINUOUS
 62
7
 10
63.500000
 20
-105.500000
 11
63.500000
 21
-116.500000
  0
LINE
  8
0
  6
CONTINUOUS
 62
7
 10
63.500000
 20
-105.500000
 11
65.500000
 21
-105.500000
  0
LINE
  8
0
  6
CONTINUOUS
 62
7
 10
63.500000
 20
-116.500000
 11
65.000000
 21
-116.500000
  0
LINE
  8
0
  6
CONTINUOUS
 62
7
 10
62.500000
 20
-117.000000
 11
65.000000
 21
-117.000000
  0
LINE
  8
0
  6
CONTINUOUS
 62
2
 10
56.000000
 20
-105.849998
 11
59.799999
 21
-105.849998
  0
LINE
  8
0
  6
CONTINUOUS
 62
2
 10
61.299999
 20
-107.349998
 11
61.299999
 21
-108.650002
  0
LINE
  8
0
  6
CONTINUOUS
 62
2
 10
56.000000
 20
-110.150002
 11
59.799999
 21
-110.150002
  0
LINE
  8
0
  6
CONTINUOUS
 62
2
 10
55.000000
 20
-109.300003
 11
56.000000
 21
-109.300003
  0
LINE
  8
0
  6
CONTINUOUS
 62
2
 10
55.000000
 20
-106.699997
 11
56.000000
 21
-106.699997
  0
LINE
  8
0
  6
CONTINUOUS
 62
2
 10
56.000000
 20
-109.300003
 11
56.000000
 21
-110.150002
  0
LINE
  8
0
  6
CENTER
 62
2
 10
53.000000
 20
-108.000000
 11
63.299999
 21
-108.000000
  0
LINE
  8
0
  6
CENTER
 62
2
 10
53.000000
 20
-114.000000
 11
63.299999
 21
-114.000000
  0
LINE
  8
0
  6
CONTINUOUS
 62
7
 10
213.000000
 20
-108.500000
 11
201.000000
 21
-108.500000
  0
LINE
  8
0
  6
CONTINUOUS
 62
7
 10
213.000000
 20
-111.709000
 11
213.000000
 21
-114.500000
  0
LINE
  8
0
  6
CONTINUOUS
 62
7
 10
213.000000
 20
-108.500000
 11
213.000000
 21
-109.291000
  0
LINE
  8
0
  6
CONTINUOUS
 62
7
 10
220.500000
 20
-104.000000
 11
214.000000
 21
-104.000000
  0
LINE
  8
0
  6
CONTINUOUS
 62
7
 10
220.500000
 20
-114.000000
 11
213.000000
 21
-114.000000
  0
LINE
  8
0
  6
CONTINUOUS
 62
7
 10
213.699997
 20
-104.300003
 11
200.300003
 21
-104.300003
  0
LINE
  8
0
  6
CONTINUOUS
 62
7
 10
201.000000
 20
-111.709000
 11
201.000000
 21
-114.500000
  0
LINE
  8
0
  6
CONTINUOUS
 62
7
 10
201.000000
 20
-108.500000
 11
201.000000
 21
-109.291000
  0
LINE
  8
0
  6
CONTINUOUS
 62
7
 10
193.500000
 20
-104.000000
 11
200.000000
 21
-104.000000
  0
LINE
  8
0
  6
CONTINUOUS
 62
7
 10
193.500000
 20
-104.000000
 11
193.500000
 21
-114.000000
  0
LINE
  8
0
  6
CONTINUOUS
 62
7
 10
193.500000
 20
-114.000000
 11
201.000000
 21
-114.000000
  0
LINE
  8
0
  6
CONTINUOUS
 62
7
 10
220.500000
 20
-104.000000
 11
220.500000
 21
-114.000000
  0
LINE
  8
0
  6
CONTINUOUS
 62
7
 10
214.000000
 20
-104.000000
 11
213.699997
 21
-104.300003
  0
LINE
  8
0
  6
CONTINUOUS
 62
7
 10
200.000000
 20
-104.000000
 11
200.300003
 21
-104.300003
  0
LINE
  8
0
  6
CONTINUOUS
 62
7
 10
193.000000
 20
-114.500000
 11
201.000000
 21
-114.500000
  0
LINE
  8
0
  6
CONTINUOUS
 62
7
 10
193.000000
 20
-124.000000
 11
221.000000
 21
-124.000000
  0
LINE
  8
0
  6
CONTINUOUS
 62
7
 10
221.000000
 20
-114.500000
 11
213.000000
 21
-114.500000
  0
LINE
  8
0
  6
CONTINUOUS
 62
7
 10
221.000000
 20
-114.500000
 11
221.000000
 21
-124.000000
  0
LINE
  8
0
  6
CONTINUOUS
 62
7
 10
193.000000
 20
-114.500000
 11
193.000000
 21
-124.000000
  0
LINE
  8
0
  6
CENTER
 62
2
 10
216.000000
 20
-116.500000
 11
216.000000
 21
-123.500000
  0
LINE
  8
0
  6
CENTER
 62
2
 10
219.500000
 20
-120.000000
 11
212.500000
 21
-120.000000
  0
LINE
  8
0
  6
CENTER
 62
2
 10
207.000000
 20
-102.000000
 11
207.000000
 21
-126.000000
  0
LINE
  8
0
  6
CENTER
 62
2
 10
214.399994
 20
-117.000000
 11
199.600006
 21
-117.000000
  0
LINE
  8
0
  6
CENTER
 62
2
 10
197.000000
 20
-102.000000
 11
197.000000
 21
-106.000000
  0
LINE
  8
0
  6
CENTER
 62
2
 10
217.000000
 20
-102.000000
 11
217.000000
 21
-106.000000
  0
LINE
  8
0
  6
CENTER
 62
2
 10
217.500000
 20
-122.000000
 11
217.500000
 21
-126.000000
  0
LINE
  8
0
  6
CENTER
 62
2
 10
196.500000
 20
-122.000000
 11
196.500000
 21
-126.000000
  0
LINE
  8
0
  6
CONTINUOUS
 62
7
 10
231.000000
 20
-123.500000
 11
221.000000
 21
-123.500000
  0
LINE
  8
0
  6
CONTINUOUS
 62
2
 10
230.000000
 20
-110.150002
 11
230.000000
 21
-109.300003
  0
LINE
  8
0
  6
CONTINUOUS
 62
2
 10
230.000000
 20
-105.849998
 11
230.000000
 21
-106.699997
  0
LINE
  8
0
  6
CONTINUOUS
 62
7
 10
231.000000
 20
-104.500000
 11
231.000000
 21
-123.500000
  0
LINE
  8
0
  6
CONTINUOUS
 62
7
 10
231.000000
 20
-104.500000
 11
223.500000
 21
-104.500000
  0
LINE
  8
0
  6
CONTINUOUS
 62
7
 10
223.500000
 20
-104.500000
 11
223.500000
 21
-117.000000
  0
LINE
  8
0
  6
CONTINUOUS
 62
7
 10
222.500000
 20
-105.500000
 11
222.500000
 21
-116.500000
  0
LINE
  8
0
  6
CONTINUOUS
 62
7
 10
222.500000
 20
-105.500000
 11
220.500000
 21
-105.500000
  0
LINE
  8
0
  6
CONTINUOUS
 62
7
 10
222.500000
 20
-116.500000
 11
221.000000
 21
-116.500000
  0
LINE
  8
0
  6
CONTINUOUS
 62
7
 10
223.500000
 20
-117.000000
 11
221.000000
 21
-117.000000
  0
LINE
  8
0
  6
CONTINUOUS
 62
2
 10
230.000000
 20
-105.849998
 11
226.199997
 21
-105.849998
  0
LINE
  8
0
  6
CONTINUOUS
 62
2
 10
224.699997
 20
-107.349998
 11
224.699997
 21
-108.650002
  0
LINE
  8
0
  6
CONTINUOUS
 62
2
 10
230.000000
 20
-110.150002
 11
226.199997
 21
-110.150002
  0
LINE
  8
0
  6
CONTINUOUS
 62
2
 10
231.000000
 20
-109.300003
 11
230.000000
 21
-109.300003
  0
LINE
  8
0
  6
CONTINUOUS
 62
2
 10
231.000000
 20
-106.699997
 11
230.000000
 21
-106.699997
  0
LINE
  8
0
  6
CENTER
 62
2
 10
233.000000
 20
-108.000000
 11
222.699997
 21
-108.000000
  0
LINE
  8
0
  6
CENTER
 62
2
 10
233.000000
 20
-114.000000
 11
222.699997
 21
-114.000000
  0
LINE
  8
0
  6
CONTINUOUS
 62
7
 10
135.000000
 20
-49.000000
 11
171.000000
 21
-49.000000
  0
LINE
  8
0
  6
CONTINUOUS
 62
7
 10
135.000000
 20
-49.000000
 11
135.000000
 21
-48.500000
  0
LINE
  8
0
  6
CONTINUOUS
 62
7
 10
128.500000
 20
-48.500000
 11
135.000000
 21
-48.500000
  0
LINE
  8
0
  6
CONTINUOUS
 62
7
 10
177.500000
 20
-48.500000
 11
177.500000
 21
-39.000000
  0
LINE
  8
0
  6
CONTINUOUS
 62
7
 10
171.000000
 20
-49.000000
 11
171.000000
 21
-48.500000
  0
LINE
  8
0
  6
CONTINUOUS
 62
7
 10
177.500000
 20
-48.500000
 11
171.000000
 21
-48.500000
  0
LINE
  8
0
  6
CONTINUOUS
 62
7
 10
98.000000
 20
-44.500000
 11
110.000000
 21
-44.500000
  0
LINE
  8
0
  6
CONTINUOUS
 62
7
 10
177.500000
 20
-44.500000
 11
188.000000
 21
-44.500000
  0
LINE
  8
0
  6
CONTINUOUS
 62
7
 10
98.000000
 20
-29.000000
 11
98.000000
 21
-44.500000
  0
LINE
  8
0
  6
CONTINUOUS
 62
7
 10
188.000000
 20
-29.000000
 11
188.000000
 21
-44.500000
  0
LINE
  8
0
  6
CONTINUOUS
 62
7
 10
98.000000
 20
-29.000000
 11
188.000000
 21
-29.000000
  0
LINE
  8
0
  6
CONTINUOUS
 62
7
 10
171.000000
 20
-66.500000
 11
135.000000
 21
-66.500000
  0
LINE
  8
0
  6
CONTINUOUS
 62
7
 10
135.000000
 20
-66.500000
 11
135.000000
 21
-93.500000
  0
LINE
  8
0
  6
CONTINUOUS
 62
7
 10
171.000000
 20
-93.500000
 11
135.000000
 21
-93.500000
  0
LINE
  8
0
  6
CONTINUOUS
 62
7
 10
171.000000
 20
-66.500000
 11
171.000000
 21
-93.500000
  0
LINE
  8
0
  6
CONTINUOUS
 62
7
 10
98.000000
 20
-74.000000
 11
128.500000
 21
-74.000000
  0
LINE
  8
0
  6
CONTINUOUS
 62
7
 10
177.500000
 20
-74.000000
 11
188.000000
 21
-74.000000
  0
LINE
  8
0
  6
CONTINUOUS
 62
7
 10
98.000000
 20
-86.000000
 11
128.500000
 21
-86.000000
  0
LINE
  8
0
  6
CONTINUOUS
 62
7
 10
177.500000
 20
-86.000000
 11
188.000000
 21
-86.000000
  0
LINE
  8
0
  6
CONTINUOUS
 62
7
 10
171.000000
 20
-87.000000
 11
135.000000
 21
-87.000000
  0
LINE
  8
0
  6
CONTINUOUS
 62
7
 10
171.000000
 20
-73.000000
 11
135.000000
 21
-73.000000
  0
LINE
  8
0
  6
CONTINUOUS
 62
7
 10
177.500000
 20
-66.699997
 11
171.000000
 21
-66.699997
  0
LINE
  8
0
  6
CONTINUOUS
 62
7
 10
177.500000
 20
-93.300003
 11
177.500000
 21
-66.699997
  0
LINE
  8
0
  6
CONTINUOUS
 62
7
 10
177.500000
 20
-93.300003
 11
171.000000
 21
-93.300003
  0
LINE
  8
0
  6
CONTINUOUS
 62
7
 10
188.000000
 20
-66.000000
 11
98.000000
 21
-66.000000
  0
LINE
  8
0
  6
CONTINUOUS
 62
7
 10
188.000000
 20
-94.000000
 11
98.000000
 21
-94.000000
  0
LINE
  8
0
  6
CONTINUOUS
 62
7
 10
98.000000
 20
-66.000000
 11
98.000000
 21
-94.000000
  0
LINE
  8
0
  6
CONTINUOUS
 62
7
 10
188.000000
 20
-66.000000
 11
188.000000
 21
-94.000000
  0
LINE
  8
0
  6
CONTINUOUS
 62
7
 10
177.199997
 20
-34.500000
 11
176.000000
 21
-34.500000
  0
LINE
  8
0
  6
CONTINUOUS
 62
7
 10
98.000000
 20
-38.500000
 11
106.653000
 21
-38.500000
  0
LINE
  8
0
  6
CONTINUOUS
 62
7
 10
110.000000
 20
-34.500000
 11
108.800003
 21
-34.500000
  0
LINE
  8
0
  6
CONTINUOUS
 62
7
 10
176.000000
 20
-39.000000
 11
177.500000
 21
-39.000000
  0
LINE
  8
0
  6
CONTINUOUS
 62
7
 10
128.500000
 20
-104.500000
 11
128.500000
 21
-114.000000
  0
LINE
  8
0
  6
CONTINUOUS
 62
7
 10
135.000000
 20
-104.000000
 11
171.000000
 21
-104.000000
  0
LINE
  8
0
  6
CONTINUOUS
 62
7
 10
135.000000
 20
-104.000000
 11
135.000000
 21
-114.000000
  0
LINE
  8
0
  6
CONTINUOUS
 62
7
 10
110.000000
 20
-104.500000
 11
135.000000
 21
-104.500000
  0
LINE
  8
0
  6
CONTINUOUS
 62
7
 10
177.500000
 20
-104.500000
 11
177.500000
 21
-114.000000
  0
LINE
  8
0
  6
CONTINUOUS
 62
7
 10
171.000000
 20
-104.000000
 11
171.000000
 21
-114.000000
  0
LINE
  8
0
  6
CONTINUOUS
 62
7
 10
177.500000
 20
-104.500000
 11
171.000000
 21
-104.500000
  0
LINE
  8
0
  6
CONTINUOUS
 62
7
 10
98.000000
 20
-108.500000
 11
128.500000
 21
-108.500000
  0
LINE
  8
0
  6
CONTINUOUS
 62
7
 10
177.500000
 20
-108.500000
 11
188.000000
 21
-108.500000
  0
LINE
  8
0
  6
CONTINUOUS
 62
7
 10
98.000000
 20
-124.000000
 11
98.000000
 21
-108.500000
  0
LINE
  8
0
  6
CONTINUOUS
 62
7
 10
188.000000
 20
-124.000000
 11
188.000000
 21
-108.500000
  0
LINE
  8
0
  6
CONTINUOUS
 62
7
 10
98.000000
 20
-124.000000
 11
188.000000
 21
-124.000000
  0
LINE
  8
0
  6
CONTINUOUS
 62
7
 10
177.199997
 20
-118.500000
 11
170.598007
 21
-118.500000
  0
LINE
  8
0
  6
CONTINUOUS
 62
7
 10
98.000000
 20
-114.500000
 11
106.653000
 21
-114.500000
  0
LINE
  8
0
  6
CONTINUOUS
 62
7
 10
115.402000
 20
-118.500000
 11
108.800003
 21
-118.500000
  0
LINE
  8
0
  6
CONTINUOUS
 62
7
 10
128.500000
 20
-114.000000
 11
177.500000
 21
-114.000000
  0
LINE
  8
0
  6
CONTINUOUS
 62
7
 10
165.000000
 20
-120.000000
 11
121.000000
 21
-120.000000
  0
LINE
  8
0
  6
CONTINUOUS
 62
7
 10
128.500000
 20
-93.300003
 11
128.500000
 21
-66.699997
  0
LINE
  8
0
  6
CONTINUOUS
 62
7
 10
128.500000
 20
-93.300003
 11
135.000000
 21
-93.300003
  0
LINE
  8
0
  6
CONTINUOUS
 62
7
 10
128.500000
 20
-66.699997
 11
135.000000
 21
-66.699997
  0
LINE
  8
0
  6
CONTINUOUS
 62
7
 10
179.347000
 20
-114.500000
 11
188.000000
 21
-114.500000
  0
LINE
  8
0
  6
CONTINUOUS
 62
7
 10
179.347000
 20
-38.500000
 11
188.000000
 21
-38.500000
  0
LINE
  8
0
  6
CENTER
 62
2
 10
118.000000
 20
-123.500000
 11
118.000000
 21
-116.500000
  0
LINE
  8
0
  6
CENTER
 62
2
 10
114.500000
 20
-120.000000
 11
121.500000
 21
-120.000000
  0
LINE
  8
0
  6
CENTER
 62
2
 10
168.000000
 20
-123.500000
 11
168.000000
 21
-116.500000
  0
LINE
  8
0
  6
CENTER
 62
2
 10
164.500000
 20
-120.000000
 11
171.500000
 21
-120.000000
  0
LINE
  8
0
  6
CENTER
 62
2
 10
157.000000
 20
-111.500000
 11
157.000000
 21
-104.500000
  0
LINE
  8
0
  6
CENTER
 62
2
 10
153.500000
 20
-108.000000
 11
160.500000
 21
-108.000000
  0
LINE
  8
0
  6
CENTER
 62
2
 10
149.000000
 20
-111.500000
 11
149.000000
 21
-104.500000
  0
LINE
  8
0
  6
CENTER
 62
2
 10
145.500000
 20
-108.000000
 11
152.500000
 21
-108.000000
  0
LINE
  8
0
  6
CENTER
 62
2
 10
112.000000
 20
-64.500000
 11
112.000000
 21
-74.500000
  0
LINE
  8
0
  6
CENTER
 62
2
 10
107.000000
 20
-69.500000
 11
117.000000
 21
-69.500000
  0
LINE
  8
0
  6
CENTER
 62
2
 10
112.000000
 20
-85.500000
 11
112.000000
 21
-95.500000
  0
LINE
  8
0
  6
CENTER
 62
2
 10
107.000000
 20
-90.500000
 11
117.000000
 21
-90.500000
  0
LINE
  8
0
  6
CENTER
 62
2
 10
138.000000
 20
-66.500000
 11
138.000000
 21
-73.500000
  0
LINE
  8
0
  6
CENTER
 62
2
 10
134.500000
 20
-70.000000
 11
141.500000
 21
-70.000000
  0
LINE
  8
0
  6
CENTER
 62
2
 10
153.000000
 20
-66.500000
 11
153.000000
 21
-73.500000
  0
LINE
  8
0
  6
CENTER
 62
2
 10
149.500000
 20
-70.000000
 11
156.500000
 21
-70.000000
  0
LINE
  8
0
  6
CENTER
 62
2
 10
168.000000
 20
-66.500000
 11
168.000000
 21
-73.500000
  0
LINE
  8
0
  6
CENTER
 62
2
 10
164.500000
 20
-70.000000
 11
171.500000
 21
-70.000000
  0
LINE
  8
0
  6
CENTER
 62
2
 10
174.000000
 20
-64.500000
 11
174.000000
 21
-74.500000
  0
LINE
  8
0
  6
CENTER
 62
2
 10
169.000000
 20
-69.500000
 11
179.000000
 21
-69.500000
  0
LINE
  8
0
  6
CENTER
 62
2
 10
174.000000
 20
-85.500000
 11
174.000000
 21
-95.500000
  0
LINE
  8
0
  6
CENTER
 62
2
 10
169.000000
 20
-90.500000
 11
179.000000
 21
-90.500000
  0
LINE
  8
0
  6
CENTER
 62
2
 10
168.000000
 20
-86.500000
 11
168.000000
 21
-93.500000
  0
LINE
  8
0
  6
CENTER
 62
2
 10
164.500000
 20
-90.000000
 11
171.500000
 21
-90.000000
  0
LINE
  8
0
  6
CENTER
 62
2
 10
96.000000
 20
-80.000000
 11
190.000000
 21
-80.000000
  0
LINE
  8
0
  6
CENTER
 62
2
 10
153.000000
 20
-86.500000
 11
153.000000
 21
-93.500000
  0
LINE
  8
0
  6
CENTER
 62
2
 10
149.500000
 20
-90.000000
 11
156.500000
 21
-90.000000
  0
LINE
  8
0
  6
CENTER
 62
2
 10
138.000000
 20
-86.500000
 11
138.000000
 21
-93.500000
  0
LINE
  8
0
  6
CENTER
 62
2
 10
134.500000
 20
-90.000000
 11
141.500000
 21
-90.000000
  0
LINE
  8
0
  6
DASHED
 62
2
 10
110.000000
 20
-34.000000
 11
110.000000
 21
-29.000000
  0
LINE
  8
0
  6
DASHED
 62
2
 10
110.349998
 20
-34.000000
 11
110.349998
 21
-29.000000
  0
LINE
  8
0
  6
DASHED
 62
2
 10
109.000000
 20
-34.000000
 11
115.000000
 21
-34.000000
  0
LINE
  8
0
  6
CENTER
 62
2
 10
112.000000
 20
-36.500000
 11
112.000000
 21
-27.000000
  0
LINE
  8
0
  6
DASHED
 62
2
 10
113.650002
 20
-34.000000
 11
113.650002
 21
-29.000000
  0
LINE
  8
0
  6
DASHED
 62
2
 10
114.000000
 20
-34.000000
 11
114.000000
 21
-29.000000
  0
LINE
  8
0
  6
DASHED
 62
2
 10
115.000000
 20
-34.500000
 11
115.000000
 21
-34.000000
  0
LINE
  8
0
  6
DASHED
 62
2
 10
109.000000
 20
-34.500000
 11
109.000000
 21
-34.000000
  0
LINE
  8
0
  6
DASHED
 62
2
 10
172.000000
 20
-34.000000
 11
172.000000
 21
-29.000000
  0
LINE
  8
0
  6
DASHED
 62
2
 10
172.350006
 20
-34.000000
 11
172.350006
 21
-29.000000
  0
LINE
  8
0
  6
DASHED
 62
2
 10
171.000000
 20
-34.000000
 11
177.000000
 21
-34.000000
  0
LINE
  8
0
  6
CENTER
 62
2
 10
174.000000
 20
-36.500000
 11
174.000000
 21
-27.000000
  0
LINE
  8
0
  6
DASHED
 62
2
 10
175.649994
 20
-34.000000
 11
175.649994
 21
-29.000000
  0
LINE
  8
0
  6
DASHED
 62
2
 10
176.000000
 20
-34.000000
 11
176.000000
 21
-29.000000
  0
LINE
  8
0
  6
DASHED
 62
2
 10
177.000000
 20
-34.500000
 11
177.000000
 21
-34.000000
  0
LINE
  8
0
  6
DASHED
 62
2
 10
171.000000
 20
-34.500000
 11
171.000000
 21
-34.000000
  0
LINE
  8
0
  6
DASHED
 62
2
 10
114.000000
 20
-119.000000
 11
114.000000
 21
-124.000000
  0
LINE
  8
0
  6
DASHED
 62
2
 10
113.650002
 20
-119.000000
 11
113.650002
 21
-124.000000
  0
LINE
  8
0
  6
DASHED
 62
2
 10
115.000000
 20
-119.000000
 11
109.000000
 21
-119.000000
  0
LINE
  8
0
  6
CENTER
 62
2
 10
112.000000
 20
-116.500000
 11
112.000000
 21
-126.000000
  0
LINE
  8
0
  6
DASHED
 62
2
 10
110.349998
 20
-119.000000
 11
110.349998
 21
-124.000000
  0
LINE
  8
0
  6
DASHED
 62
2
 10
110.000000
 20
-119.000000
 11
110.000000
 21
-124.000000
  0
LINE
  8
0
  6
DASHED
 62
2
 10
109.000000
 20
-118.500000
 11
109.000000
 21
-119.000000
  0
LINE
  8
0
  6
DASHED
 62
2
 10
115.000000
 20
-118.500000
 11
115.000000
 21
-119.000000
  0
LINE
  8
0
  6
DASHED
 62
2
 10
176.000000
 20
-119.000000
 11
176.000000
 21
-124.000000
  0
LINE
  8
0
  6
DASHED
 62
2
 10
175.649994
 20
-119.000000
 11
175.649994
 21
-124.000000
  0
LINE
  8
0
  6
DASHED
 62
2
 10
177.000000
 20
-119.000000
 11
171.000000
 21
-119.000000
  0
LINE
  8
0
  6
CENTER
 62
2
 10
174.000000
 20
-116.500000
 11
174.000000
 21
-126.000000
  0
LINE
  8
0
  6
DASHED
 62
2
 10
172.350006
 20
-119.000000
 11
172.350006
 21
-124.000000
  0
LINE
  8
0
  6
DASHED
 62
2
 10
172.000000
 20
-119.000000
 11
172.000000
 21
-124.000000
  0
LINE
  8
0
  6
DASHED
 62
2
 10
171.000000
 20
-118.500000
 11
171.000000
 21
-119.000000
  0
LINE
  8
0
  6
DASHED
 62
2
 10
177.000000
 20
-118.500000
 11
177.000000
 21
-119.000000
  0
LINE
  8
0
  6
CENTER
 62
2
 10
138.000000
 20
-51.000000
 11
138.000000
 21
-47.000000
  0
LINE
  8
0
  6
CENTER
 62
2
 10
153.000000
 20
-51.000000
 11
153.000000
 21
-47.000000
  0
LINE
  8
0
  6
CENTER
 62
2
 10
168.000000
 20
-51.000000
 11
168.000000
 21
-47.000000
  0
LINE
  8
0
  6
CENTER
 62
2
 10
138.000000
 20
-102.000000
 11
138.000000
 21
-106.000000
  0
LINE
  8
0
  6
CENTER
 62
2
 10
153.000000
 20
-102.000000
 11
153.000000
 21
-106.000000
  0
LINE
  8
0
  6
CENTER
 62
2
 10
168.000000
 20
-102.000000
 11
168.000000
 21
-106.000000
  0
LINE
  8
0
  6
CONTINUOUS
 62
7
 10
188.000000
 20
-161.000000
 11
98.000000
 21
-161.000000
  0
LINE
  8
0
  6
CONTINUOUS
 62
7
 10
98.000000
 20
-161.000000
 11
98.000000
 21
-133.000000
  0
LINE
  8
0
  6
CONTINUOUS
 62
7
 10
188.000000
 20
-133.000000
 11
98.000000
 21
-133.000000
  0
LINE
  8
0
  6
CONTINUOUS
 62
7
 10
188.000000
 20
-161.000000
 11
188.000000
 21
-133.000000
  0
LINE
  8
0
  6
CENTER
 62
2
 10
112.000000
 20
-132.500000
 11
112.000000
 21
-140.500000
  0
LINE
  8
0
  6
CENTER
 62
2
 10
108.000000
 20
-136.500000
 11
116.000000
 21
-136.500000
  0
LINE
  8
0
  6
CENTER
 62
2
 10
105.500000
 20
-135.600006
 11
105.500000
 21
-151.399994
  0
LINE
  8
0
  6
CENTER
 62
2
 10
97.599998
 20
-143.500000
 11
113.400002
 21
-143.500000
  0
LINE
  8
0
  6
CENTER
 62
2
 10
112.000000
 20
-153.500000
 11
112.000000
 21
-161.500000
  0
LINE
  8
0
  6
CENTER
 62
2
 10
108.000000
 20
-157.500000
 11
116.000000
 21
-157.500000
  0
LINE
  8
0
  6
CENTER
 62
2
 10
174.000000
 20
-153.500000
 11
174.000000
 21
-161.500000
  0
LINE
  8
0
  6
CENTER
 62
2
 10
170.000000
 20
-157.500000
 11
178.000000
 21
-157.500000
  0
LINE
  8
0
  6
CENTER
 62
2
 10
174.000000
 20
-132.500000
 11
174.000000
 21
-140.500000
  0
LINE
  8
0
  6
CENTER
 62
2
 10
170.000000
 20
-136.500000
 11
178.000000
 21
-136.500000
  0
LINE
  8
0
  6
CENTER
 62
2
 10
180.500000
 20
-135.600006
 11
180.500000
 21
-151.399994
  0
LINE
  8
0
  6
CENTER
 62
2
 10
172.600006
 20
-143.500000
 11
188.399994
 21
-143.500000
  0
LINE
  8
0
  6
CENTER
 62
2
 10
96.000000
 20
-147.000000
 11
190.000000
 21
-147.000000
  0
LINE
  8
0
  6
CONTINUOUS
 62
7
 10
110.000000
 20
-161.000000
 11
110.000000
 21
-171.000000
  0
LINE
  8
0
  6
CONTINUOUS
 62
7
 10
176.000000
 20
-171.000000
 11
110.000000
 21
-171.000000
  0
LINE
  8
0
  6
CONTINUOUS
 62
7
 10
176.000000
 20
-161.000000
 11
176.000000
 21
-171.000000
  0
LINE
  8
0
  6
CONTINUOUS
 62
7
 10
110.000000
 20
-48.500000
 11
110.000000
 21
-29.500000
  0
LINE
  8
0
  6
CONTINUOUS
 62
7
 10
110.000000
 20
-29.500000
 11
176.000000
 21
-29.500000
  0
LINE
  8
0
  6
CONTINUOUS
 62
2
 10
110.000000
 20
-37.700001
 11
176.000000
 21
-37.700001
  0
LINE
  8
0
  6
CONTINUOUS
 62
2
 10
110.000000
 20
-40.299999
 11
176.000000
 21
-40.299999
  0
LINE
  8
0
  6
CONTINUOUS
 62
2
 10
110.000000
 20
-43.700001
 11
176.000000
 21
-43.700001
  0
LINE
  8
0
  6
CONTINUOUS
 62
2
 10
110.000000
 20
-46.299999
 11
176.000000
 21
-46.299999
  0
LINE
  8
0
  6
CONTINUOUS
 62
7
 10
177.500000
 20
-48.500000
 11
110.000000
 21
-48.500000
  0
LINE
  8
0
  6
CONTINUOUS
 62
7
 10
176.000000
 20
-48.500000
 11
176.000000
 21
-29.500000
  0
LINE
  8
0
  6
CONTINUOUS
 62
7
 10
176.000000
 20
-56.000000
 11
110.000000
 21
-56.000000
  0
LINE
  8
0
  6
CONTINUOUS
 62
7
 10
176.000000
 20
-63.500000
 11
110.000000
 21
-63.500000
  0
LINE
  8
0
  6
CONTINUOUS
 62
7
 10
156.250000
 20
-64.500000
 11
149.750000
 21
-64.500000
  0
LINE
  8
0
  6
CONTINUOUS
 62
7
 10
149.750000
 20
-66.000000
 11
149.750000
 21
-64.500000
  0
LINE
  8
0
  6
CONTINUOUS
 62
7
 10
156.250000
 20
-66.000000
 11
156.250000
 21
-64.500000
  0
LINE
  8
0
  6
CONTINUOUS
 62
7
 10
176.000000
 20
-66.000000
 11
176.000000
 21
-56.000000
  0
LINE
  8
0
  6
CONTINUOUS
 62
7
 10
110.000000
 20
-108.500000
 11
110.000000
 21
-104.500000
  0
LINE
  8
0
  6
CONTINUOUS
 62
7
 10
110.000000
 20
-66.000000
 11
110.000000
 21
-56.000000
  0
LINE
  8
0
  6
CONTINUOUS
 62
7
 10
-148.500000
 20
68.000000
 11
-127.500000
 21
68.000000
  0
LINE
  8
0
  6
CONTINUOUS
 62
7
 10
-148.500000
 20
68.000000
 11
-148.500000
 21
67.500000
  0
LINE
  8
0
  6
CONTINUOUS
 62
7
 10
-121.000000
 20
67.500000
 11
-121.000000
 21
58.000000
  0
LINE
  8
0
  6
CONTINUOUS
 62
7
 10
-127.500000
 20
68.000000
 11
-127.500000
 21
67.500000
  0
LINE
  8
0
  6
CONTINUOUS
 62
7
 10
-173.000000
 20
63.500000
 11
-161.000000
 21
63.500000
  0
LINE
  8
0
  6
CONTINUOUS
 62
7
 10
-121.000000
 20
63.500000
 11
-113.000000
 21
63.500000
  0
LINE
  8
0
  6
CONTINUOUS
 62
7
 10
-173.000000
 20
48.000000
 11
-173.000000
 21
63.500000
  0
LINE
  8
0
  6
CONTINUOUS
 62
7
 10
-113.000000
 20
48.000000
 11
-113.000000
 21
63.500000
  0
LINE
  8
0
  6
CONTINUOUS
 62
7
 10
-173.000000
 20
48.000000
 11
-113.000000
 21
48.000000
  0
LINE
  8
0
  6
CENTER
 62
2
 10
-110.702003
 20
100.000000
 11
-176.587006
 21
100.000000
  0
LINE
  8
0
  6
CONTINUOUS
 62
7
 10
-127.500000
 20
113.500000
 11
-148.500000
 21
113.500000
  0
LINE
  8
0
  6
CONTINUOUS
 62
7
 10
-148.500000
 20
113.500000
 11
-148.500000
 21
86.500000
  0
LINE
  8
0
  6
CONTINUOUS
 62
7
 10
-127.500000
 20
86.500000
 11
-148.500000
 21
86.500000
  0
LINE
  8
0
  6
CONTINUOUS
 62
7
 10
-127.500000
 20
113.500000
 11
-127.500000
 21
86.500000
  0
LINE
  8
0
  6
CONTINUOUS
 62
7
 10
-173.000000
 20
106.000000
 11
-155.000000
 21
106.000000
  0
LINE
  8
0
  6
CONTINUOUS
 62
7
 10
-121.000000
 20
106.000000
 11
-113.000000
 21
106.000000
  0
LINE
  8
0
  6
CONTINUOUS
 62
7
 10
-173.000000
 20
94.000000
 11
-155.000000
 21
94.000000
  0
LINE
  8
0
  6
CONTINUOUS
 62
7
 10
-121.000000
 20
94.000000
 11
-113.000000
 21
94.000000
  0
LINE
  8
0
  6
CONTINUOUS
 62
7
 10
-127.500000
 20
93.000000
 11
-148.500000
 21
93.000000
  0
LINE
  8
0
  6
CONTINUOUS
 62
7
 10
-127.500000
 20
107.000000
 11
-148.500000
 21
107.000000
  0
LINE
  8
0
  6
CONTINUOUS
 62
7
 10
-121.000000
 20
113.300003
 11
-127.500000
 21
113.300003
  0
LINE
  8
0
  6
CONTINUOUS
 62
7
 10
-121.000000
 20
86.699997
 11
-121.000000
 21
113.300003
  0
LINE
  8
0
  6
CONTINUOUS
 62
7
 10
-121.000000
 20
86.699997
 11
-127.500000
 21
86.699997
  0
LINE
  8
0
  6
CONTINUOUS
 62
7
 10
-113.000000
 20
114.000000
 11
-173.000000
 21
114.000000
  0
LINE
  8
0
  6
CONTINUOUS
 62
7
 10
-113.000000
 20
86.000000
 11
-173.000000
 21
86.000000
  0
LINE
  8
0
  6
CONTINUOUS
 62
7
 10
-173.000000
 20
114.000000
 11
-173.000000
 21
86.000000
  0
LINE
  8
0
  6
CONTINUOUS
 62
7
 10
-113.000000
 20
114.000000
 11
-113.000000
 21
86.000000
  0
LINE
  8
0
  6
CENTER
 62
2
 10
-159.000000
 20
94.535301
 11
-159.000000
 21
85.000000
  0
LINE
  8
0
  6
CENTER
 62
2
 10
-159.000000
 20
105.500000
 11
-159.000000
 21
114.500000
  0
LINE
  8
0
  6
CENTER
 62
2
 10
-145.500000
 20
106.500000
 11
-145.500000
 21
113.500000
  0
LINE
  8
0
  6
CENTER
 62
2
 10
-162.500000
 20
110.500000
 11
-154.582993
 21
110.500000
  0
LINE
  8
0
  6
CENTER
 62
2
 10
-145.500000
 20
93.500000
 11
-145.500000
 21
86.500000
  0
LINE
  8
0
  6
CENTER
 62
2
 10
-162.500000
 20
89.500000
 11
-154.582993
 21
89.500000
  0
LINE
  8
0
  6
CONTINUOUS
 62
7
 10
-123.800003
 20
53.500000
 11
-125.000000
 21
53.500000
  0
LINE
  8
0
  6
CONTINUOUS
 62
7
 10
-173.000000
 20
57.500000
 11
-164.347000
 21
57.500000
  0
LINE
  8
0
  6
CONTINUOUS
 62
7
 10
-161.000000
 20
53.500000
 11
-162.199997
 21
53.500000
  0
LINE
  8
0
  6
CONTINUOUS
 62
7
 10
-125.000000
 20
58.000000
 11
-121.000000
 21
58.000000
  0
LINE
  8
0
  6
CENTER
 62
2
 10
-127.000000
 20
105.500000
 11
-127.000000
 21
114.500000
  0
LINE
  8
0
  6
CENTER
 62
2
 10
-123.500000
 20
110.500000
 11
-131.399994
 21
110.500000
  0
LINE
  8
0
  6
CENTER
 62
2
 10
-130.500000
 20
106.500000
 11
-130.500000
 21
113.500000
  0
LINE
  8
0
  6
CENTER
 62
2
 10
-123.500000
 20
89.500000
 11
-130.822998
 21
89.500000
  0
LINE
  8
0
  6
CENTER
 62
2
 10
-130.500000
 20
93.500000
 11
-130.500000
 21
86.500000
  0
LINE
  8
0
  6
CENTER
 62
2
 10
-127.000000
 20
94.535301
 11
-127.000000
 21
85.000000
  0
LINE
  8
0
  6
CONTINUOUS
 62
7
 10
-155.000000
 20
126.500000
 11
-155.000000
 21
136.000000
  0
LINE
  8
0
  6
CONTINUOUS
 62
7
 10
-148.500000
 20
126.000000
 11
-127.500000
 21
126.000000
  0
LINE
  8
0
  6
CONTINUOUS
 62
7
 10
-148.500000
 20
126.000000
 11
-148.500000
 21
136.000000
  0
LINE
  8
0
  6
CONTINUOUS
 62
7
 10
-161.000000
 20
126.500000
 11
-148.500000
 21
126.500000
  0
LINE
  8
0
  6
CONTINUOUS
 62
7
 10
-121.000000
 20
126.500000
 11
-121.000000
 21
136.000000
  0
LINE
  8
0
  6
CONTINUOUS
 62
7
 10
-127.500000
 20
126.000000
 11
-127.500000
 21
136.000000
  0
LINE
  8
0
  6
CONTINUOUS
 62
7
 10
-121.000000
 20
126.500000
 11
-127.500000
 21
126.500000
  0
LINE
  8
0
  6
CONTINUOUS
 62
7
 10
-173.000000
 20
130.500000
 11
-155.000000
 21
130.500000
  0
LINE
  8
0
  6
CONTINUOUS
 62
7
 10
-121.000000
 20
130.500000
 11
-113.000000
 21
130.500000
  0
LINE
  8
0
  6
CONTINUOUS
 62
7
 10
-173.000000
 20
146.000000
 11
-173.000000
 21
130.500000
  0
LINE
  8
0
  6
CONTINUOUS
 62
7
 10
-113.000000
 20
146.000000
 11
-113.000000
 21
130.500000
  0
LINE
  8
0
  6
CONTINUOUS
 62
7
 10
-173.000000
 20
146.000000
 11
-113.000000
 21
146.000000
  0
LINE
  8
0
  6
CONTINUOUS
 62
7
 10
-123.800003
 20
140.500000
 11
-130.401993
 21
140.500000
  0
LINE
  8
0
  6
CONTINUOUS
 62
7
 10
-155.598007
 20
140.500000
 11
-162.199997
 21
140.500000
  0
LINE
  8
0
  6
CONTINUOUS
 62
7
 10
-173.000000
 20
136.500000
 11
-164.347000
 21
136.500000
  0
LINE
  8
0
  6
CONTINUOUS
 62
7
 10
-155.000000
 20
136.000000
 11
-121.000000
 21
136.000000
  0
LINE
  8
0
  6
CENTER
 62
2
 10
-148.500000
 20
90.000000
 11
-142.000000
 21
90.000000
  0
LINE
  8
0
  6
CENTER
 62
2
 10
-148.500000
 20
110.000000
 11
-142.000000
 21
110.000000
  0
LINE
  8
0
  6
CENTER
 62
2
 10
-127.500000
 20
110.000000
 11
-134.000000
 21
110.000000
  0
LINE
  8
0
  6
CENTER
 62
2
 10
-127.500000
 20
90.000000
 11
-134.000000
 21
90.000000
  0
LINE
  8
0
  6
CONTINUOUS
 62
7
 10
-155.000000
 20
86.699997
 11
-155.000000
 21
113.300003
  0
LINE
  8
0
  6
CONTINUOUS
 62
7
 10
-155.000000
 20
113.300003
 11
-148.500000
 21
113.300003
  0
LINE
  8
0
  6
CONTINUOUS
 62
7
 10
-155.000000
 20
86.699997
 11
-148.500000
 21
86.699997
  0
LINE
  8
0
  6
CONTINUOUS
 62
7
 10
-121.653000
 20
57.500000
 11
-113.000000
 21
57.500000
  0
LINE
  8
0
  6
CONTINUOUS
 62
7
 10
-121.653000
 20
136.500000
 11
-113.000000
 21
136.500000
  0
LINE
  8
0
  6
CENTER
 62
2
 10
-133.000000
 20
145.500000
 11
-133.000000
 21
138.500000
  0
LINE
  8
0
  6
CENTER
 62
2
 10
-136.500000
 20
142.000000
 11
-129.500000
 21
142.000000
  0
LINE
  8
0
  6
CENTER
 62
2
 10
-153.000000
 20
145.500000
 11
-153.000000
 21
138.500000
  0
LINE
  8
0
  6
CENTER
 62
2
 10
-156.500000
 20
142.000000
 11
-149.500000
 21
142.000000
  0
LINE
  8
0
  6
CENTER
 62
2
 10
-142.000000
 20
133.500000
 11
-142.000000
 21
126.500000
  0
LINE
  8
0
  6
CENTER
 62
2
 10
-145.500000
 20
130.000000
 11
-138.500000
 21
130.000000
  0
LINE
  8
0
  6
CENTER
 62
2
 10
-134.000000
 20
133.500000
 11
-134.000000
 21
126.500000
  0
LINE
  8
0
  6
CENTER
 62
2
 10
-137.500000
 20
130.000000
 11
-130.500000
 21
130.000000
  0
LINE
  8
0
  6
DASHED
 62
2
 10
-130.000000
 20
53.000000
 11
-124.000000
 21
53.000000
  0
LINE
  8
0
  6
CENTER
 62
2
 10
-127.000000
 20
55.500000
 11
-127.000000
 21
46.000000
  0
LINE
  8
0
  6
DASHED
 62
2
 10
-130.000000
 20
53.500000
 11
-130.000000
 21
53.000000
  0
LINE
  8
0
  6
DASHED
 62
2
 10
-156.000000
 20
53.500000
 11
-156.000000
 21
53.000000
  0
LINE
  8
0
  6
DASHED
 62
2
 10
-129.000000
 20
53.000000
 11
-129.000000
 21
48.000000
  0
LINE
  8
0
  6
DASHED
 62
2
 10
-125.000000
 20
53.000000
 11
-125.000000
 21
48.000000
  0
LINE
  8
0
  6
DASHED
 62
2
 10
-125.349998
 20
53.000000
 11
-125.349998
 21
48.000000
  0
LINE
  8
0
  6
DASHED
 62
2
 10
-128.649994
 20
53.000000
 11
-128.649994
 21
48.000000
  0
LINE
  8
0
  6
DASHED
 62
2
 10
-162.000000
 20
53.000000
 11
-156.000000
 21
53.000000
  0
LINE
  8
0
  6
CENTER
 62
2
 10
-159.000000
 20
55.500000
 11
-159.000000
 21
46.000000
  0
LINE
  8
0
  6
DASHED
 62
2
 10
-162.000000
 20
53.500000
 11
-162.000000
 21
53.000000
  0
LINE
  8
0
  6
DASHED
 62
2
 10
-161.000000
 20
53.000000
 11
-161.000000
 21
48.000000
  0
LINE
  8
0
  6
DASHED
 62
2
 10
-157.000000
 20
53.000000
 11
-157.000000
 21
48.000000
  0
LINE
  8
0
  6
DASHED
 62
2
 10
-157.350006
 20
53.000000
 11
-157.350006
 21
48.000000
  0
LINE
  8
0
  6
DASHED
 62
2
 10
-160.649994
 20
53.000000
 11
-160.649994
 21
48.000000
  0
LINE
  8
0
  6
DASHED
 62
2
 10
-162.000000
 20
141.000000
 11
-156.000000
 21
141.000000
  0
LINE
  8
0
  6
CENTER
 62
2
 10
-159.000000
 20
138.500000
 11
-159.000000
 21
148.000000
  0
LINE
  8
0
  6
DASHED
 62
2
 10
-162.000000
 20
140.500000
 11
-162.000000
 21
141.000000
  0
LINE
  8
0
  6
DASHED
 62
2
 10
-161.000000
 20
141.000000
 11
-161.000000
 21
146.000000
  0
LINE
  8
0
  6
DASHED
 62
2
 10
-157.000000
 20
141.000000
 11
-157.000000
 21
146.000000
  0
LINE
  8
0
  6
DASHED
 62
2
 10
-157.350006
 20
141.000000
 11
-157.350006
 21
146.000000
  0
LINE
  8
0
  6
DASHED
 62
2
 10
-160.649994
 20
141.000000
 11
-160.649994
 21
146.000000
  0
LINE
  8
0
  6
DASHED
 62
2
 10
-130.000000
 20
141.000000
 11
-124.000000
 21
141.000000
  0
LINE
  8
0
  6
CENTER
 62
2
 10
-127.000000
 20
138.500000
 11
-127.000000
 21
148.000000
  0
LINE
  8
0
  6
DASHED
 62
2
 10
-129.000000
 20
141.000000
 11
-129.000000
 21
146.000000
  0
LINE
  8
0
  6
DASHED
 62
2
 10
-125.000000
 20
141.000000
 11
-125.000000
 21
146.000000
  0
LINE
  8
0
  6
DASHED
 62
2
 10
-125.349998
 20
141.000000
 11
-125.349998
 21
146.000000
  0
LINE
  8
0
  6
DASHED
 62
2
 10
-128.649994
 20
141.000000
 11
-128.649994
 21
146.000000
  0
LINE
  8
0
  6
DASHED
 62
2
 10
-130.000000
 20
140.500000
 11
-130.000000
 21
141.000000
  0
LINE
  8
0
  6
DASHED
 62
2
 10
-156.000000
 20
140.500000
 11
-156.000000
 21
141.000000
  0
LINE
  8
0
  6
DASHED
 62
2
 10
-124.000000
 20
53.500000
 11
-124.000000
 21
53.000000
  0
LINE
  8
0
  6
DASHED
 62
2
 10
-124.000000
 20
140.500000
 11
-124.000000
 21
141.000000
  0
LINE
  8
0
  6
CONTINUOUS
 62
7
 10
-150.000000
 20
142.000000
 11
-136.000000
 21
142.000000
  0
LINE
  8
0
  6
CENTER
 62
2
 10
-145.500000
 20
70.000000
 11
-145.500000
 21
66.000000
  0
LINE
  8
0
  6
CENTER
 62
2
 10
-130.500000
 20
70.000000
 11
-130.500000
 21
66.000000
  0
LINE
  8
0
  6
CONTINUOUS
 62
7
 10
-113.000000
 20
5.000000
 11
-173.000000
 21
5.000000
  0
LINE
  8
0
  6
CONTINUOUS
 62
7
 10
-173.000000
 20
5.000000
 11
-173.000000
 21
33.000000
  0
LINE
  8
0
  6
CONTINUOUS
 62
7
 10
-113.000000
 20
33.000000
 11
-173.000000
 21
33.000000
  0
LINE
  8
0
  6
CONTINUOUS
 62
7
 10
-113.000000
 20
5.000000
 11
-113.000000
 21
33.000000
  0
LINE
  8
0
  6
CENTER
 62
2
 10
-110.366997
 20
19.000000
 11
-177.000000
 21
19.000000
  0
LINE
  8
0
  6
CENTER
 62
2
 10
-165.500000
 20
30.400000
 11
-165.500000
 21
14.600000
  0
LINE
  8
0
  6
CENTER
 62
2
 10
-173.399994
 20
22.500000
 11
-157.600006
 21
22.500000
  0
LINE
  8
0
  6
CENTER
 62
2
 10
-159.000000
 20
33.500000
 11
-159.000000
 21
25.500000
  0
LINE
  8
0
  6
CENTER
 62
2
 10
-163.000000
 20
29.500000
 11
-155.000000
 21
29.500000
  0
LINE
  8
0
  6
CENTER
 62
2
 10
-127.000000
 20
33.500000
 11
-127.000000
 21
25.500000
  0
LINE
  8
0
  6
CENTER
 62
2
 10
-131.000000
 20
29.500000
 11
-123.000000
 21
29.500000
  0
LINE
  8
0
  6
CENTER
 62
2
 10
-120.500000
 20
30.400000
 11
-120.500000
 21
14.600000
  0
LINE
  8
0
  6
CENTER
 62
2
 10
-128.399994
 20
22.500000
 11
-112.599998
 21
22.500000
  0
LINE
  8
0
  6
CENTER
 62
2
 10
-127.000000
 20
12.500000
 11
-127.000000
 21
4.500000
  0
LINE
  8
0
  6
CENTER
 62
2
 10
-131.000000
 20
8.500000
 11
-123.000000
 21
8.500000
  0
LINE
  8
0
  6
CENTER
 62
2
 10
-159.000000
 20
12.500000
 11
-159.000000
 21
4.500000
  0
LINE
  8
0
  6
CENTER
 62
2
 10
-163.000000
 20
8.500000
 11
-155.000000
 21
8.500000
  0
LINE
  8
0
  6
CENTER
 62
2
 10
-145.500000
 20
128.000000
 11
-145.500000
 21
124.000000
  0
LINE
  8
0
  6
CENTER
 62
2
 10
-130.500000
 20
128.000000
 11
-130.500000
 21
124.000000
  0
LINE
  8
0
  6
CONTINUOUS
 62
2
 10
-125.000000
 20
59.299999
 11
-161.000000
 21
59.299999
  0
LINE
  8
0
  6
CONTINUOUS
 62
2
 10
-125.000000
 20
62.700001
 11
-161.000000
 21
62.700001
  0
LINE
  8
0
  6
CONTINUOUS
 62
2
 10
-125.000000
 20
65.300003
 11
-161.000000
 21
65.300003
  0
LINE
  8
0
  6
CONTINUOUS
 62
2
 10
-125.000000
 20
56.700001
 11
-161.000000
 21
56.700001
  0
LINE
  8
0
  6
CONTINUOUS
 62
7
 10
-161.000000
 20
67.500000
 11
-161.000000
 21
48.500000
  0
LINE
  8
0
  6
CONTINUOUS
 62
7
 10
-121.000000
 20
67.500000
 11
-161.000000
 21
67.500000
  0
LINE
  8
0
  6
CONTINUOUS
 62
7
 10
-125.000000
 20
67.500000
 11
-125.000000
 21
48.500000
  0
LINE
  8
0
  6
CONTINUOUS
 62
7
 10
-161.000000
 20
48.500000
 11
-125.000000
 21
48.500000
  0
LINE
  8
0
  6
CONTINUOUS
 62
7
 10
-161.000000
 20
86.000000
 11
-161.000000
 21
76.000000
  0
LINE
  8
0
  6
CONTINUOUS
 62
7
 10
-125.000000
 20
83.500000
 11
-161.000000
 21
83.500000
  0
LINE
  8
0
  6
CONTINUOUS
 62
7
 10
-141.250000
 20
86.000000
 11
-141.250000
 21
84.500000
  0
LINE
  8
0
  6
CONTINUOUS
 62
7
 10
-134.750000
 20
84.500000
 11
-141.250000
 21
84.500000
  0
LINE
  8
0
  6
CONTINUOUS
 62
7
 10
-134.750000
 20
86.000000
 11
-134.750000
 21
84.500000
  0
LINE
  8
0
  6
CONTINUOUS
 62
7
 10
-125.000000
 20
86.000000
 11
-125.000000
 21
76.000000
  0
LINE
  8
0
  6
CONTINUOUS
 62
7
 10
-125.000000
 20
76.000000
 11
-161.000000
 21
76.000000
  0
LINE
  8
0
  6
CONTINUOUS
 62
7
 10
-125.000000
 20
43.000000
 11
-161.000000
 21
43.000000
  0
LINE
  8
0
  6
CONTINUOUS
 62
7
 10
-125.000000
 20
33.000000
 11
-125.000000
 21
43.000000
  0
LINE
  8
0
  6
CONTINUOUS
 62
7
 10
-161.000000
 20
33.000000
 11
-161.000000
 21
43.000000
  0
LINE
  8
0
  6
CONTINUOUS
 62
7
 10
-161.000000
 20
130.500000
 11
-161.000000
 21
126.500000
  0
LINE
  8
0
  6
CONTINUOUS
 62
7
 10
-208.000000
 20
63.500000
 11
-196.000000
 21
63.500000
  0
LINE
  8
0
  6
CONTINUOUS
 62
7
 10
-208.000000
 20
60.290699
 11
-208.000000
 21
57.500000
  0
LINE
  8
0
  6
CONTINUOUS
 62
7
 10
-208.000000
 20
63.500000
 11
-208.000000
 21
62.709301
  0
LINE
  8
0
  6
CONTINUOUS
 62
7
 10
-215.500000
 20
68.000000
 11
-209.000000
 21
68.000000
  0
LINE
  8
0
  6
CONTINUOUS
 62
7
 10
-215.500000
 20
58.000000
 11
-208.000000
 21
58.000000
  0
LINE
  8
0
  6
CONTINUOUS
 62
7
 10
-208.699997
 20
67.699997
 11
-195.300003
 21
67.699997
  0
LINE
  8
0
  6
CONTINUOUS
 62
7
 10
-196.000000
 20
60.290699
 11
-196.000000
 21
57.500000
  0
LINE
  8
0
  6
CONTINUOUS
 62
7
 10
-196.000000
 20
63.500000
 11
-196.000000
 21
62.709301
  0
LINE
  8
0
  6
CONTINUOUS
 62
7
 10
-188.500000
 20
68.000000
 11
-195.000000
 21
68.000000
  0
LINE
  8
0
  6
CONTINUOUS
 62
7
 10
-188.500000
 20
68.000000
 11
-188.500000
 21
58.000000
  0
LINE
  8
0
  6
CONTINUOUS
 62
7
 10
-188.500000
 20
58.000000
 11
-196.000000
 21
58.000000
  0
LINE
  8
0
  6
CONTINUOUS
 62
7
 10
-215.500000
 20
68.000000
 11
-215.500000
 21
58.000000
  0
LINE
  8
0
  6
CONTINUOUS
 62
7
 10
-209.000000
 20
68.000000
 11
-208.699997
 21
67.699997
  0
LINE
  8
0
  6
CONTINUOUS
 62
7
 10
-195.000000
 20
68.000000
 11
-195.300003
 21
67.699997
  0
LINE
  8
0
  6
CONTINUOUS
 62
7
 10
-188.000000
 20
57.500000
 11
-196.000000
 21
57.500000
  0
LINE
  8
0
  6
CONTINUOUS
 62
7
 10
-188.000000
 20
48.000000
 11
-216.000000
 21
48.000000
  0
LINE
  8
0
  6
CONTINUOUS
 62
7
 10
-216.000000
 20
57.500000
 11
-208.000000
 21
57.500000
  0
LINE
  8
0
  6
CONTINUOUS
 62
7
 10
-216.000000
 20
57.500000
 11
-216.000000
 21
48.000000
  0
LINE
  8
0
  6
CONTINUOUS
 62
7
 10
-188.000000
 20
57.500000
 11
-188.000000
 21
48.000000
  0
LINE
  8
0
  6
CENTER
 62
2
 10
-211.000000
 20
55.500000
 11
-211.000000
 21
48.500000
  0
LINE
  8
0
  6
CENTER
 62
2
 10
-214.500000
 20
52.000000
 11
-207.500000
 21
52.000000
  0
LINE
  8
0
  6
CENTER
 62
2
 10
-202.000000
 20
70.000000
 11
-202.000000
 21
46.000000
  0
LINE
  8
0
  6
CENTER
 62
2
 10
-209.399994
 20
55.000000
 11
-194.600006
 21
55.000000
  0
LINE
  8
0
  6
CENTER
 62
2
 10
-212.000000
 20
70.000000
 11
-212.000000
 21
66.000000
  0
LINE
  8
0
  6
CENTER
 62
2
 10
-192.000000
 20
70.000000
 11
-192.000000
 21
66.000000
  0
LINE
  8
0
  6
CENTER
 62
2
 10
-191.500000
 20
50.000000
 11
-191.500000
 21
46.000000
  0
LINE
  8
0
  6
CENTER
 62
2
 10
-212.500000
 20
50.000000
 11
-212.500000
 21
46.000000
  0
LINE
  8
0
  6
CONTINUOUS
 62
7
 10
-178.000000
 20
48.500000
 11
-188.000000
 21
48.500000
  0
LINE
  8
0
  6
CONTINUOUS
 62
2
 10
-179.000000
 20
66.150002
 11
-179.000000
 21
65.300003
  0
LINE
  8
0
  6
CONTINUOUS
 62
7
 10
-178.000000
 20
67.500000
 11
-178.000000
 21
48.500000
  0
LINE
  8
0
  6
CONTINUOUS
 62
7
 10
-178.000000
 20
67.500000
 11
-185.500000
 21
67.500000
  0
LINE
  8
0
  6
CONTINUOUS
 62
7
 10
-185.500000
 20
67.500000
 11
-185.500000
 21
55.000000
  0
LINE
  8
0
  6
CONTINUOUS
 62
7
 10
-186.500000
 20
66.500000
 11
-186.500000
 21
55.500000
  0
LINE
  8
0
  6
CONTINUOUS
 62
7
 10
-186.500000
 20
66.500000
 11
-188.500000
 21
66.500000
  0
LINE
  8
0
  6
CONTINUOUS
 62
7
 10
-186.500000
 20
55.500000
 11
-188.000000
 21
55.500000
  0
LINE
  8
0
  6
CONTINUOUS
 62
7
 10
-185.500000
 20
55.000000
 11
-188.000000
 21
55.000000
  0
LINE
  8
0
  6
CONTINUOUS
 62
2
 10
-179.000000
 20
66.150002
 11
-182.800003
 21
66.150002
  0
LINE
  8
0
  6
CONTINUOUS
 62
2
 10
-184.300003
 20
64.650002
 11
-184.300003
 21
63.349998
  0
LINE
  8
0
  6
CONTINUOUS
 62
2
 10
-179.000000
 20
61.849998
 11
-182.800003
 21
61.849998
  0
LINE
  8
0
  6
CONTINUOUS
 62
2
 10
-178.000000
 20
62.700001
 11
-179.000000
 21
62.700001
  0
LINE
  8
0
  6
CONTINUOUS
 62
2
 10
-178.000000
 20
65.300003
 11
-179.000000
 21
65.300003
  0
LINE
  8
0
  6
CONTINUOUS
 62
2
 10
-179.000000
 20
62.700001
 11
-179.000000
 21
61.849998
  0
LINE
  8
0
  6
CENTER
 62
2
 10
-176.000000
 20
64.000000
 11
-186.300003
 21
64.000000
  0
LINE
  8
0
  6
CENTER
 62
2
 10
-176.000000
 20
58.000000
 11
-186.300003
 21
58.000000
  0
LINE
  8
0
  6
CONTINUOUS
 62
7
 10
-78.000000
 20
63.500000
 11
-90.000000
 21
63.500000
  0
LINE
  8
0
  6
CONTINUOUS
 62
7
 10
-78.000000
 20
60.290699
 11
-78.000000
 21
57.500000
  0
LINE
  8
0
  6
CONTINUOUS
 62
7
 10
-78.000000
 20
63.500000
 11
-78.000000
 21
62.709301
  0
LINE
  8
0
  6
CONTINUOUS
 62
7
 10
-70.500000
 20
68.000000
 11
-77.000000
 21
68.000000
  0
LINE
  8
0
  6
CONTINUOUS
 62
7
 10
-70.500000
 20
58.000000
 11
-78.000000
 21
58.000000
  0
LINE
  8
0
  6
CONTINUOUS
 62
7
 10
-77.300003
 20
67.699997
 11
-90.699997
 21
67.699997
  0
LINE
  8
0
  6
CONTINUOUS
 62
7
 10
-90.000000
 20
60.290699
 11
-90.000000
 21
57.500000
  0
LINE
  8
0
  6
CONTINUOUS
 62
7
 10
-90.000000
 20
63.500000
 11
-90.000000
 21
62.709301
  0
LINE
  8
0
  6
CONTINUOUS
 62
7
 10
-97.500000
 20
68.000000
 11
-91.000000
 21
68.000000
  0
LINE
  8
0
  6
CONTINUOUS
 62
7
 10
-97.500000
 20
68.000000
 11
-97.500000
 21
58.000000
  0
LINE
  8
0
  6
CONTINUOUS
 62
7
 10
-97.500000
 20
58.000000
 11
-90.000000
 21
58.000000
  0
LINE
  8
0
  6
CONTINUOUS
 62
7
 10
-70.500000
 20
68.000000
 11
-70.500000
 21
58.000000
  0
LINE
  8
0
  6
CONTINUOUS
 62
7
 10
-77.000000
 20
68.000000
 11
-77.300003
 21
67.699997
  0
LINE
  8
0
  6
CONTINUOUS
 62
7
 10
-91.000000
 20
68.000000
 11
-90.699997
 21
67.699997
  0
LINE
  8
0
  6
CONTINUOUS
 62
7
 10
-98.000000
 20
57.500000
 11
-90.000000
 21
57.500000
  0
LINE
  8
0
  6
CONTINUOUS
 62
7
 10
-98.000000
 20
48.000000
 11
-70.000000
 21
48.000000
  0
LINE
  8
0
  6
CONTINUOUS
 62
7
 10
-70.000000
 20
57.500000
 11
-78.000000
 21
57.500000
  0
LINE
  8
0
  6
CONTINUOUS
 62
7
 10
-70.000000
 20
57.500000
 11
-70.000000
 21
48.000000
  0
LINE
  8
0
  6
CONTINUOUS
 62
7
 10
-98.000000
 20
57.500000
 11
-98.000000
 21
48.000000
  0
LINE
  8
0
  6
CENTER
 62
2
 10
-75.000000
 20
55.500000
 11
-75.000000
 21
48.500000
  0
LINE
  8
0
  6
CENTER
 62
2
 10
-71.500000
 20
52.000000
 11
-78.500000
 21
52.000000
  0
LINE
  8
0
  6
CENTER
 62
2
 10
-84.000000
 20
70.000000
 11
-84.000000
 21
46.000000
  0
LINE
  8
0
  6
CENTER
 62
2
 10
-76.599998
 20
55.000000
 11
-91.400002
 21
55.000000
  0
LINE
  8
0
  6
CENTER
 62
2
 10
-94.000000
 20
70.000000
 11
-94.000000
 21
66.000000
  0
LINE
  8
0
  6
CENTER
 62
2
 10
-74.000000
 20
70.000000
 11
-74.000000
 21
66.000000
  0
LINE
  8
0
  6
CENTER
 62
2
 10
-73.500000
 20
50.000000
 11
-73.500000
 21
46.000000
  0
LINE
  8
0
  6
CENTER
 62
2
 10
-94.500000
 20
50.000000
 11
-94.500000
 21
46.000000
  0
LINE
  8
0
  6
CONTINUOUS
 62
7
 10
-108.000000
 20
48.500000
 11
-98.000000
 21
48.500000
  0
LINE
  8
0
  6
CONTINUOUS
 62
2
 10
-107.000000
 20
61.849998
 11
-107.000000
 21
62.700001
  0
LINE
  8
0
  6
CONTINUOUS
 62
2
 10
-107.000000
 20
66.150002
 11
-107.000000
 21
65.300003
  0
LINE
  8
0
  6
CONTINUOUS
 62
7
 10
-108.000000
 20
67.500000
 11
-108.000000
 21
48.500000
  0
LINE
  8
0
  6
CONTINUOUS
 62
7
 10
-108.000000
 20
67.500000
 11
-100.500000
 21
67.500000
  0
LINE
  8
0
  6
CONTINUOUS
 62
7
 10
-100.500000
 20
67.500000
 11
-100.500000
 21
55.000000
  0
LINE
  8
0
  6
CONTINUOUS
 62
7
 10
-99.500000
 20
66.500000
 11
-99.500000
 21
55.500000
  0
LINE
  8
0
  6
CONTINUOUS
 62
7
 10
-99.500000
 20
66.500000
 11
-97.500000
 21
66.500000
  0
LINE
  8
0
  6
CONTINUOUS
 62
7
 10
-99.500000
 20
55.500000
 11
-98.000000
 21
55.500000
  0
LINE
  8
0
  6
CONTINUOUS
 62
7
 10
-100.500000
 20
55.000000
 11
-98.000000
 21
55.000000
  0
LINE
  8
0
  6
CONTINUOUS
 62
2
 10
-107.000000
 20
66.150002
 11
-103.199997
 21
66.150002
  0
LINE
  8
0
  6
CONTINUOUS
 62
2
 10
-101.699997
 20
64.650002
 11
-101.699997
 21
63.349998
  0
LINE
  8
0
  6
CONTINUOUS
 62
2
 10
-107.000000
 20
61.849998
 11
-103.199997
 21
61.849998
  0
LINE
  8
0
  6
CONTINUOUS
 62
2
 10
-108.000000
 20
62.700001
 11
-107.000000
 21
62.700001
  0
LINE
  8
0
  6
CONTINUOUS
 62
2
 10
-108.000000
 20
65.300003
 11
-107.000000
 21
65.300003
  0
LINE
  8
0
  6
CENTER
 62
2
 10
-110.000000
 20
64.000000
 11
-99.699997
 21
64.000000
  0
LINE
  8
0
  6
CENTER
 62
2
 10
-110.000000
 20
58.000000
 11
-99.699997
 21
58.000000
  0
LINE
  8
0
  6
CONTINUOUS
 62
7
 10
135.000000
 20
68.000000
 11
171.000000
 21
68.000000
  0
LINE
  8
0
  6
CONTINUOUS
 62
7
 10
135.000000
 20
68.000000
 11
135.000000
 21
67.500000
  0
LINE
  8
0
  6
CONTINUOUS
 62
7
 10
128.500000
 20
67.500000
 11
135.000000
 21
67.500000
  0
LINE
  8
0
  6
CONTINUOUS
 62
7
 10
177.500000
 20
67.500000
 11
177.500000
 21
58.000000
  0
LINE
  8
0
  6
CONTINUOUS
 62
7
 10
171.000000
 20
68.000000
 11
171.000000
 21
67.500000
  0
LINE
  8
0
  6
CONTINUOUS
 62
7
 10
177.500000
 20
67.500000
 11
171.000000
 21
67.500000
  0
LINE
  8
0
  6
CONTINUOUS
 62
7
 10
98.000000
 20
63.500000
 11
110.000000
 21
63.500000
  0
LINE
  8
0
  6
CONTINUOUS
 62
7
 10
177.500000
 20
63.500000
 11
188.000000
 21
63.500000
  0
LINE
  8
0
  6
CONTINUOUS
 62
7
 10
98.000000
 20
48.000000
 11
98.000000
 21
63.500000
  0
LINE
  8
0
  6
CONTINUOUS
 62
7
 10
188.000000
 20
48.000000
 11
188.000000
 21
63.500000
  0
LINE
  8
0
  6
CONTINUOUS
 62
7
 10
98.000000
 20
48.000000
 11
188.000000
 21
48.000000
  0
LINE
  8
0
  6
CONTINUOUS
 62
7
 10
171.000000
 20
113.500000
 11
135.000000
 21
113.500000
  0
LINE
  8
0
  6
CONTINUOUS
 62
7
 10
135.000000
 20
113.500000
 11
135.000000
 21
86.500000
  0
LINE
  8
0
  6
CONTINUOUS
 62
7
 10
171.000000
 20
86.500000
 11
135.000000
 21
86.500000
  0
LINE
  8
0
  6
CONTINUOUS
 62
7
 10
171.000000
 20
113.500000
 11
171.000000
 21
86.500000
  0
LINE
  8
0
  6
CONTINUOUS
 62
7
 10
98.000000
 20
106.000000
 11
128.500000
 21
106.000000
  0
LINE
  8
0
  6
CONTINUOUS
 62
7
 10
177.500000
 20
106.000000
 11
188.000000
 21
106.000000
  0
LINE
  8
0
  6
CONTINUOUS
 62
7
 10
98.000000
 20
94.000000
 11
128.500000
 21
94.000000
  0
LINE
  8
0
  6
CONTINUOUS
 62
7
 10
177.500000
 20
94.000000
 11
188.000000
 21
94.000000
  0
LINE
  8
0
  6
CONTINUOUS
 62
7
 10
171.000000
 20
93.000000
 11
135.000000
 21
93.000000
  0
LINE
  8
0
  6
CONTINUOUS
 62
7
 10
171.000000
 20
107.000000
 11
135.000000
 21
107.000000
  0
LINE
  8
0
  6
CONTINUOUS
 62
7
 10
177.500000
 20
113.300003
 11
171.000000
 21
113.300003
  0
LINE
  8
0
  6
CONTINUOUS
 62
7
 10
177.500000
 20
86.699997
 11
177.500000
 21
113.300003
  0
LINE
  8
0
  6
CONTINUOUS
 62
7
 10
177.500000
 20
86.699997
 11
171.000000
 21
86.699997
  0
LINE
  8
0
  6
CONTINUOUS
 62
7
 10
188.000000
 20
114.000000
 11
98.000000
 21
114.000000
  0
LINE
  8
0
  6
CONTINUOUS
 62
7
 10
188.000000
 20
86.000000
 11
98.000000
 21
86.000000
  0
LINE
  8
0
  6
CONTINUOUS
 62
7
 10
98.000000
 20
114.000000
 11
98.000000
 21
86.000000
  0
LINE
  8
0
  6
CONTINUOUS
 62
7
 10
188.000000
 20
114.000000
 11
188.000000
 21
86.000000
  0
LINE
  8
0
  6
CONTINUOUS
 62
7
 10
177.199997
 20
53.500000
 11
176.000000
 21
53.500000
  0
LINE
  8
0
  6
CONTINUOUS
 62
7
 10
98.000000
 20
57.500000
 11
106.653000
 21
57.500000
  0
LINE
  8
0
  6
CONTINUOUS
 62
7
 10
110.000000
 20
53.500000
 11
108.800003
 21
53.500000
  0
LINE
  8
0
  6
CONTINUOUS
 62
7
 10
176.000000
 20
58.000000
 11
177.500000
 21
58.000000
  0
LINE
  8
0
  6
CONTINUOUS
 62
7
 10
128.500000
 20
126.500000
 11
128.500000
 21
136.000000
  0
LINE
  8
0
  6
CONTINUOUS
 62
7
 10
135.000000
 20
126.000000
 11
171.000000
 21
126.000000
  0
LINE
  8
0
  6
CONTINUOUS
 62
7
 10
135.000000
 20
126.000000
 11
135.000000
 21
136.000000
  0
LINE
  8
0
  6
CONTINUOUS
 62
7
 10
110.000000
 20
126.500000
 11
135.000000
 21
126.500000
  0
LINE
  8
0
  6
CONTINUOUS
 62
7
 10
177.500000
 20
126.500000
 11
177.500000
 21
136.000000
  0
LINE
  8
0
  6
CONTINUOUS
 62
7
 10
171.000000
 20
126.000000
 11
171.000000
 21
136.000000
  0
LINE
  8
0
  6
CONTINUOUS
 62
7
 10
177.500000
 20
126.500000
 11
171.000000
 21
126.500000
  0
LINE
  8
0
  6
CONTINUOUS
 62
7
 10
98.000000
 20
130.500000
 11
128.500000
 21
130.500000
  0
LINE
  8
0
  6
CONTINUOUS
 62
7
 10
177.500000
 20
130.500000
 11
188.000000
 21
130.500000
  0
LINE
  8
0
  6
CONTINUOUS
 62
7
 10
98.000000
 20
146.000000
 11
98.000000
 21
130.500000
  0
LINE
  8
0
  6
CONTINUOUS
 62
7
 10
188.000000
 20
146.000000
 11
188.000000
 21
130.500000
  0
LINE
  8
0
  6
CONTINUOUS
 62
7
 10
98.000000
 20
146.000000
 11
188.000000
 21
146.000000
  0
LINE
  8
0
  6
CONTINUOUS
 62
7
 10
177.199997
 20
140.500000
 11
170.598007
 21
140.500000
  0
LINE
  8
0
  6
CONTINUOUS
 62
7
 10
98.000000
 20
136.500000
 11
106.653000
 21
136.500000
  0
LINE
  8
0
  6
CONTINUOUS
 62
7
 10
115.402000
 20
140.500000
 11
108.800003
 21
140.500000
  0
LINE
  8
0
  6
CONTINUOUS
 62
7
 10
128.500000
 20
136.000000
 11
177.500000
 21
136.000000
  0
LINE
  8
0
  6
CONTINUOUS
 62
7
 10
165.000000
 20
142.000000
 11
121.000000
 21
142.000000
  0
LINE
  8
0
  6
CONTINUOUS
 62
7
 10
128.500000
 20
86.699997
 11
128.500000
 21
113.300003
  0
LINE
  8
0
  6
CONTINUOUS
 62
7
 10
128.500000
 20
86.699997
 11
135.000000
 21
86.699997
  0
LINE
  8
0
  6
CONTINUOUS
 62
7
 10
128.500000
 20
113.300003
 11
135.000000
 21
113.300003
  0
LINE
  8
0
  6
CONTINUOUS
 62
7
 10
179.347000
 20
136.500000
 11
188.000000
 21
136.500000
  0
LINE
  8
0
  6
CONTINUOUS
 62
7
 10
179.347000
 20
57.500000
 11
188.000000
 21
57.500000
  0
LINE
  8
0
  6
CENTER
 62
2
 10
118.000000
 20
145.500000
 11
118.000000
 21
138.500000
  0
LINE
  8
0
  6
CENTER
 62
2
 10
114.500000
 20
142.000000
 11
121.500000
 21
142.000000
  0
LINE
  8
0
  6
CENTER
 62
2
 10
168.000000
 20
145.500000
 11
168.000000
 21
138.500000
  0
LINE
  8
0
  6
CENTER
 62
2
 10
164.500000
 20
142.000000
 11
171.500000
 21
142.000000
  0
LINE
  8
0
  6
CENTER
 62
2
 10
157.000000
 20
133.500000
 11
157.000000
 21
126.500000
  0
LINE
  8
0
  6
CENTER
 62
2
 10
153.500000
 20
130.000000
 11
160.500000
 21
130.000000
  0
LINE
  8
0
  6
CENTER
 62
2
 10
149.000000
 20
133.500000
 11
149.000000
 21
126.500000
  0
LINE
  8
0
  6
CENTER
 62
2
 10
145.500000
 20
130.000000
 11
152.500000
 21
130.000000
  0
LINE
  8
0
  6
CENTER
 62
2
 10
112.000000
 20
115.500000
 11
112.000000
 21
105.500000
  0
LINE
  8
0
  6
CENTER
 62
2
 10
107.000000
 20
110.500000
 11
117.000000
 21
110.500000
  0
LINE
  8
0
  6
CENTER
 62
2
 10
112.000000
 20
94.500000
 11
112.000000
 21
84.500000
  0
LINE
  8
0
  6
CENTER
 62
2
 10
107.000000
 20
89.500000
 11
117.000000
 21
89.500000
  0
LINE
  8
0
  6
CENTER
 62
2
 10
138.000000
 20
113.500000
 11
138.000000
 21
106.500000
  0
LINE
  8
0
  6
CENTER
 62
2
 10
134.500000
 20
110.000000
 11
141.500000
 21
110.000000
  0
LINE
  8
0
  6
CENTER
 62
2
 10
153.000000
 20
113.500000
 11
153.000000
 21
106.500000
  0
LINE
  8
0
  6
CENTER
 62
2
 10
149.500000
 20
110.000000
 11
156.500000
 21
110.000000
  0
LINE
  8
0
  6
CENTER
 62
2
 10
168.000000
 20
113.500000
 11
168.000000
 21
106.500000
  0
LINE
  8
0
  6
CENTER
 62
2
 10
164.500000
 20
110.000000
 11
171.500000
 21
110.000000
  0
LINE
  8
0
  6
CENTER
 62
2
 10
174.000000
 20
115.500000
 11
174.000000
 21
105.500000
  0
LINE
  8
0
  6
CENTER
 62
2
 10
169.000000
 20
110.500000
 11
179.000000
 21
110.500000
  0
LINE
  8
0
  6
CENTER
 62
2
 10
174.000000
 20
94.500000
 11
174.000000
 21
84.500000
  0
LINE
  8
0
  6
CENTER
 62
2
 10
169.000000
 20
89.500000
 11
179.000000
 21
89.500000
  0
LINE
  8
0
  6
CENTER
 62
2
 10
168.000000
 20
93.500000
 11
168.000000
 21
86.500000
  0
LINE
  8
0
  6
CENTER
 62
2
 10
164.500000
 20
90.000000
 11
171.500000
 21
90.000000
  0
LINE
  8
0
  6
CENTER
 62
2
 10
96.000000
 20
100.000000
 11
190.000000
 21
100.000000
  0
LINE
  8
0
  6
CENTER
 62
2
 10
153.000000
 20
93.500000
 11
153.000000
 21
86.500000
  0
LINE
  8
0
  6
CENTER
 62
2
 10
149.500000
 20
90.000000
 11
156.500000
 21
90.000000
  0
LINE
  8
0
  6
CENTER
 62
2
 10
138.000000
 20
93.500000
 11
138.000000
 21
86.500000
  0
LINE
  8
0
  6
CENTER
 62
2
 10
134.500000
 20
90.000000
 11
141.500000
 21
90.000000
  0
LINE
  8
0
  6
DASHED
 62
2
 10
110.000000
 20
53.000000
 11
110.000000
 21
48.000000
  0
LINE
  8
0
  6
DASHED
 62
2
 10
110.349998
 20
53.000000
 11
110.349998
 21
48.000000
  0
LINE
  8
0
  6
DASHED
 62
2
 10
109.000000
 20
53.000000
 11
115.000000
 21
53.000000
  0
LINE
  8
0
  6
CENTER
 62
2
 10
112.000000
 20
55.500000
 11
112.000000
 21
46.000000
  0
LINE
  8
0
  6
DASHED
 62
2
 10
113.650002
 20
53.000000
 11
113.650002
 21
48.000000
  0
LINE
  8
0
  6
DASHED
 62
2
 10
114.000000
 20
53.000000
 11
114.000000
 21
48.000000
  0
LINE
  8
0
  6
DASHED
 62
2
 10
115.000000
 20
53.500000
 11
115.000000
 21
53.000000
  0
LINE
  8
0
  6
DASHED
 62
2
 10
109.000000
 20
53.500000
 11
109.000000
 21
53.000000
  0
LINE
  8
0
  6
DASHED
 62
2
 10
172.000000
 20
53.000000
 11
172.000000
 21
48.000000
  0
LINE
  8
0
  6
DASHED
 62
2
 10
172.350006
 20
53.000000
 11
172.350006
 21
48.000000
  0
LINE
  8
0
  6
DASHED
 62
2
 10
171.000000
 20
53.000000
 11
177.000000
 21
53.000000
  0
LINE
  8
0
  6
CENTER
 62
2
 10
174.000000
 20
55.500000
 11
174.000000
 21
46.000000
  0
LINE
  8
0
  6
DASHED
 62
2
 10
175.649994
 20
53.000000
 11
175.649994
 21
48.000000
  0
LINE
  8
0
  6
DASHED
 62
2
 10
176.000000
 20
53.000000
 11
176.000000
 21
48.000000
  0
LINE
  8
0
  6
DASHED
 62
2
 10
177.000000
 20
53.500000
 11
177.000000
 21
53.000000
  0
LINE
  8
0
  6
DASHED
 62
2
 10
171.000000
 20
53.500000
 11
171.000000
 21
53.000000
  0
LINE
  8
0
  6
DASHED
 62
2
 10
114.000000
 20
141.000000
 11
114.000000
 21
146.000000
  0
LINE
  8
0
  6
DASHED
 62
2
 10
113.650002
 20
141.000000
 11
113.650002
 21
146.000000
  0
LINE
  8
0
  6
DASHED
 62
2
 10
115.000000
 20
141.000000
 11
109.000000
 21
141.000000
  0
LINE
  8
0
  6
CENTER
 62
2
 10
112.000000
 20
138.500000
 11
112.000000
 21
148.000000
  0
LINE
  8
0
  6
DASHED
 62
2
 10
110.349998
 20
141.000000
 11
110.349998
 21
146.000000
  0
LINE
  8
0
  6
DASHED
 62
2
 10
110.000000
 20
141.000000
 11
110.000000
 21
146.000000
  0
LINE
  8
0
  6
DASHED
 62
2
 10
109.000000
 20
140.500000
 11
109.000000
 21
141.000000
  0
LINE
  8
0
  6
DASHED
 62
2
 10
115.000000
 20
140.500000
 11
115.000000
 21
141.000000
  0
LINE
  8
0
  6
DASHED
 62
2
 10
176.000000
 20
141.000000
 11
176.000000
 21
146.000000
  0
LINE
  8
0
  6
DASHED
 62
2
 10
175.649994
 20
141.000000
 11
175.649994
 21
146.000000
  0
LINE
  8
0
  6
DASHED
 62
2
 10
177.000000
 20
141.000000
 11
171.000000
 21
141.000000
  0
LINE
  8
0
  6
CENTER
 62
2
 10
174.000000
 20
138.500000
 11
174.000000
 21
148.000000
  0
LINE
  8
0
  6
DASHED
 62
2
 10
172.350006
 20
141.000000
 11
172.350006
 21
146.000000
  0
LINE
  8
0
  6
DASHED
 62
2
 10
172.000000
 20
141.000000
 11
172.000000
 21
146.000000
  0
LINE
  8
0
  6
DASHED
 62
2
 10
171.000000
 20
140.500000
 11
171.000000
 21
141.000000
  0
LINE
  8
0
  6
DASHED
 62
2
 10
177.000000
 20
140.500000
 11
177.000000
 21
141.000000
  0
LINE
  8
0
  6
CENTER
 62
2
 10
138.000000
 20
70.000000
 11
138.000000
 21
66.000000
  0
LINE
  8
0
  6
CENTER
 62
2
 10
153.000000
 20
70.000000
 11
153.000000
 21
66.000000
  0
LINE
  8
0
  6
CENTER
 62
2
 10
168.000000
 20
70.000000
 11
168.000000
 21
66.000000
  0
LINE
  8
0
  6
CENTER
 62
2
 10
138.000000
 20
124.000000
 11
138.000000
 21
128.000000
  0
LINE
  8
0
  6
CENTER
 62
2
 10
153.000000
 20
124.000000
 11
153.000000
 21
128.000000
  0
LINE
  8
0
  6
CENTER
 62
2
 10
168.000000
 20
124.000000
 11
168.000000
 21
128.000000
  0
LINE
  8
0
  6
CONTINUOUS
 62
7
 10
63.000000
 20
63.500000
 11
75.000000
 21
63.500000
  0
LINE
  8
0
  6
CONTINUOUS
 62
7
 10
63.000000
 20
60.290699
 11
63.000000
 21
57.500000
  0
LINE
  8
0
  6
CONTINUOUS
 62
7
 10
63.000000
 20
63.500000
 11
63.000000
 21
62.709301
  0
LINE
  8
0
  6
CONTINUOUS
 62
7
 10
55.500000
 20
68.000000
 11
62.000000
 21
68.000000
  0
LINE
  8
0
  6
CONTINUOUS
 62
7
 10
55.500000
 20
58.000000
 11
63.000000
 21
58.000000
  0
LINE
  8
0
  6
CONTINUOUS
 62
7
 10
62.299999
 20
67.699997
 11
75.699997
 21
67.699997
  0
LINE
  8
0
  6
CONTINUOUS
 62
7
 10
75.000000
 20
60.290699
 11
75.000000
 21
57.500000
  0
LINE
  8
0
  6
CONTINUOUS
 62
7
 10
75.000000
 20
63.500000
 11
75.000000
 21
62.709301
  0
LINE
  8
0
  6
CONTINUOUS
 62
7
 10
82.500000
 20
68.000000
 11
76.000000
 21
68.000000
  0
LINE
  8
0
  6
CONTINUOUS
 62
7
 10
82.500000
 20
68.000000
 11
82.500000
 21
58.000000
  0
LINE
  8
0
  6
CONTINUOUS
 62
7
 10
82.500000
 20
58.000000
 11
75.000000
 21
58.000000
  0
LINE
  8
0
  6
CONTINUOUS
 62
7
 10
55.500000
 20
68.000000
 11
55.500000
 21
58.000000
  0
LINE
  8
0
  6
CONTINUOUS
 62
7
 10
62.000000
 20
68.000000
 11
62.299999
 21
67.699997
  0
LINE
  8
0
  6
CONTINUOUS
 62
7
 10
76.000000
 20
68.000000
 11
75.699997
 21
67.699997
  0
LINE
  8
0
  6
CONTINUOUS
 62
7
 10
83.000000
 20
57.500000
 11
75.000000
 21
57.500000
  0
LINE
  8
0
  6
CONTINUOUS
 62
7
 10
83.000000
 20
48.000000
 11
55.000000
 21
48.000000
  0
LINE
  8
0
  6
CONTINUOUS
 62
7
 10
55.000000
 20
57.500000
 11
63.000000
 21
57.500000
  0
LINE
  8
0
  6
CONTINUOUS
 62
7
 10
55.000000
 20
57.500000
 11
55.000000
 21
48.000000
  0
LINE
  8
0
  6
CONTINUOUS
 62
7
 10
83.000000
 20
57.500000
 11
83.000000
 21
48.000000
  0
LINE
  8
0
  6
CENTER
 62
2
 10
60.000000
 20
55.500000
 11
60.000000
 21
48.500000
  0
LINE
  8
0
  6
CENTER
 62
2
 10
56.500000
 20
52.000000
 11
63.500000
 21
52.000000
  0
LINE
  8
0
  6
CENTER
 62
2
 10
69.000000
 20
70.000000
 11
69.000000
 21
46.000000
  0
LINE
  8
0
  6
CENTER
 62
2
 10
61.599998
 20
55.000000
 11
76.400002
 21
55.000000
  0
LINE
  8
0
  6
CONTINUOUS
 62
7
 10
223.000000
 20
63.500000
 11
211.000000
 21
63.500000
  0
LINE
  8
0
  6
CONTINUOUS
 62
7
 10
223.000000
 20
60.290699
 11
223.000000
 21
57.500000
  0
LINE
  8
0
  6
CONTINUOUS
 62
7
 10
223.000000
 20
63.500000
 11
223.000000
 21
62.709301
  0
LINE
  8
0
  6
CONTINUOUS
 62
7
 10
230.500000
 20
68.000000
 11
224.000000
 21
68.000000
  0
LINE
  8
0
  6
CONTINUOUS
 62
7
 10
230.500000
 20
58.000000
 11
223.000000
 21
58.000000
  0
LINE
  8
0
  6
CONTINUOUS
 62
7
 10
223.699997
 20
67.699997
 11
210.300003
 21
67.699997
  0
LINE
  8
0
  6
CONTINUOUS
 62
7
 10
211.000000
 20
60.290699
 11
211.000000
 21
57.500000
  0
LINE
  8
0
  6
CONTINUOUS
 62
7
 10
211.000000
 20
63.500000
 11
211.000000
 21
62.709301
  0
LINE
  8
0
  6
CONTINUOUS
 62
7
 10
203.500000
 20
68.000000
 11
210.000000
 21
68.000000
  0
LINE
  8
0
  6
CONTINUOUS
 62
7
 10
203.500000
 20
68.000000
 11
203.500000
 21
58.000000
  0
LINE
  8
0
  6
CONTINUOUS
 62
7
 10
203.500000
 20
58.000000
 11
211.000000
 21
58.000000
  0
LINE
  8
0
  6
CONTINUOUS
 62
7
 10
230.500000
 20
68.000000
 11
230.500000
 21
58.000000
  0
LINE
  8
0
  6
CONTINUOUS
 62
7
 10
224.000000
 20
68.000000
 11
223.699997
 21
67.699997
  0
LINE
  8
0
  6
CONTINUOUS
 62
7
 10
210.000000
 20
68.000000
 11
210.300003
 21
67.699997
  0
LINE
  8
0
  6
CONTINUOUS
 62
7
 10
203.000000
 20
57.500000
 11
211.000000
 21
57.500000
  0
LINE
  8
0
  6
CONTINUOUS
 62
7
 10
203.000000
 20
48.000000
 11
231.000000
 21
48.000000
  0
LINE
  8
0
  6
CONTINUOUS
 62
7
 10
231.000000
 20
57.500000
 11
223.000000
 21
57.500000
  0
LINE
  8
0
  6
CONTINUOUS
 62
7
 10
231.000000
 20
57.500000
 11
231.000000
 21
48.000000
  0
LINE
  8
0
  6
CONTINUOUS
 62
7
 10
203.000000
 20
57.500000
 11
203.000000
 21
48.000000
  0
LINE
  8
0
  6
CENTER
 62
2
 10
226.000000
 20
55.500000
 11
226.000000
 21
48.500000
  0
LINE
  8
0
  6
CENTER
 62
2
 10
229.500000
 20
52.000000
 11
222.500000
 21
52.000000
  0
LINE
  8
0
  6
CENTER
 62
2
 10
217.000000
 20
70.000000
 11
217.000000
 21
46.000000
  0
LINE
  8
0
  6
CENTER
 62
2
 10
224.399994
 20
55.000000
 11
209.600006
 21
55.000000
  0
LINE
  8
0
  6
CENTER
 62
2
 10
59.000000
 20
70.000000
 11
59.000000
 21
66.000000
  0
LINE
  8
0
  6
CENTER
 62
2
 10
79.000000
 20
70.000000
 11
79.000000
 21
66.000000
  0
LINE
  8
0
  6
CENTER
 62
2
 10
207.000000
 20
70.000000
 11
207.000000
 21
66.000000
  0
LINE
  8
0
  6
CENTER
 62
2
 10
227.000000
 20
70.000000
 11
227.000000
 21
66.000000
  0
LINE
  8
0
  6
CONTINUOUS
 62
7
 10
188.000000
 20
5.000000
 11
98.000000
 21
5.000000
  0
LINE
  8
0
  6
CONTINUOUS
 62
7
 10
98.000000
 20
5.000000
 11
98.000000
 21
33.000000
  0
LINE
  8
0
  6
CONTINUOUS
 62
7
 10
188.000000
 20
33.000000
 11
98.000000
 21
33.000000
  0
LINE
  8
0
  6
CONTINUOUS
 62
7
 10
188.000000
 20
5.000000
 11
188.000000
 21
33.000000
  0
LINE
  8
0
  6
CENTER
 62
2
 10
112.000000
 20
33.500000
 11
112.000000
 21
25.500000
  0
LINE
  8
0
  6
CENTER
 62
2
 10
108.000000
 20
29.500000
 11
116.000000
 21
29.500000
  0
LINE
  8
0
  6
CENTER
 62
2
 10
105.500000
 20
30.400000
 11
105.500000
 21
14.600000
  0
LINE
  8
0
  6
CENTER
 62
2
 10
97.599998
 20
22.500000
 11
113.400002
 21
22.500000
  0
LINE
  8
0
  6
CENTER
 62
2
 10
112.000000
 20
12.500000
 11
112.000000
 21
4.500000
  0
LINE
  8
0
  6
CENTER
 62
2
 10
108.000000
 20
8.500000
 11
116.000000
 21
8.500000
  0
LINE
  8
0
  6
CENTER
 62
2
 10
174.000000
 20
12.500000
 11
174.000000
 21
4.500000
  0
LINE
  8
0
  6
CENTER
 62
2
 10
170.000000
 20
8.500000
 11
178.000000
 21
8.500000
  0
LINE
  8
0
  6
CENTER
 62
2
 10
174.000000
 20
33.500000
 11
174.000000
 21
25.500000
  0
LINE
  8
0
  6
CENTER
 62
2
 10
170.000000
 20
29.500000
 11
178.000000
 21
29.500000
  0
LINE
  8
0
  6
CENTER
 62
2
 10
180.500000
 20
30.400000
 11
180.500000
 21
14.600000
  0
LINE
  8
0
  6
CENTER
 62
2
 10
172.600006
 20
22.500000
 11
188.399994
 21
22.500000
  0
LINE
  8
0
  6
CENTER
 62
2
 10
96.000000
 20
19.000000
 11
190.000000
 21
19.000000
  0
LINE
  8
0
  6
CENTER
 62
2
 10
79.500000
 20
50.000000
 11
79.500000
 21
46.000000
  0
LINE
  8
0
  6
CENTER
 62
2
 10
58.500000
 20
50.000000
 11
58.500000
 21
46.000000
  0
LINE
  8
0
  6
CENTER
 62
2
 10
227.500000
 20
50.000000
 11
227.500000
 21
46.000000
  0
LINE
  8
0
  6
CENTER
 62
2
 10
206.500000
 20
50.000000
 11
206.500000
 21
46.000000
  0
LINE
  8
0
  6
CONTINUOUS
 62
7
 10
93.000000
 20
48.500000
 11
83.000000
 21
48.500000
  0
LINE
  8
0
  6
CONTINUOUS
 62
2
 10
92.000000
 20
66.150002
 11
92.000000
 21
65.300003
  0
LINE
  8
0
  6
CONTINUOUS
 62
7
 10
93.000000
 20
67.500000
 11
93.000000
 21
48.500000
  0
LINE
  8
0
  6
CONTINUOUS
 62
7
 10
93.000000
 20
67.500000
 11
85.500000
 21
67.500000
  0
LINE
  8
0
  6
CONTINUOUS
 62
7
 10
85.500000
 20
67.500000
 11
85.500000
 21
55.000000
  0
LINE
  8
0
  6
CONTINUOUS
 62
7
 10
84.500000
 20
66.500000
 11
84.500000
 21
55.500000
  0
LINE
  8
0
  6
CONTINUOUS
 62
7
 10
84.500000
 20
66.500000
 11
82.500000
 21
66.500000
  0
LINE
  8
0
  6
CONTINUOUS
 62
7
 10
84.500000
 20
55.500000
 11
83.000000
 21
55.500000
  0
LINE
  8
0
  6
CONTINUOUS
 62
7
 10
85.500000
 20
55.000000
 11
83.000000
 21
55.000000
  0
LINE
  8
0
  6
CONTINUOUS
 62
2
 10
92.000000
 20
66.150002
 11
88.199997
 21
66.150002
  0
LINE
  8
0
  6
CONTINUOUS
 62
2
 10
86.699997
 20
64.650002
 11
86.699997
 21
63.349998
  0
LINE
  8
0
  6
CONTINUOUS
 62
2
 10
92.000000
 20
61.849998
 11
88.199997
 21
61.849998
  0
LINE
  8
0
  6
CONTINUOUS
 62
2
 10
93.000000
 20
62.700001
 11
92.000000
 21
62.700001
  0
LINE
  8
0
  6
CONTINUOUS
 62
2
 10
93.000000
 20
65.300003
 11
92.000000
 21
65.300003
  0
LINE
  8
0
  6
CONTINUOUS
 62
7
 10
193.000000
 20
48.500000
 11
203.000000
 21
48.500000
  0
LINE
  8
0
  6
CONTINUOUS
 62
2
 10
194.000000
 20
61.849998
 11
194.000000
 21
62.700001
  0
LINE
  8
0
  6
CONTINUOUS
 62
2
 10
194.000000
 20
66.150002
 11
194.000000
 21
65.300003
  0
LINE
  8
0
  6
CONTINUOUS
 62
7
 10
193.000000
 20
67.500000
 11
193.000000
 21
48.500000
  0
LINE
  8
0
  6
CONTINUOUS
 62
7
 10
193.000000
 20
67.500000
 11
200.500000
 21
67.500000
  0
LINE
  8
0
  6
CONTINUOUS
 62
7
 10
200.500000
 20
67.500000
 11
200.500000
 21
55.000000
  0
LINE
  8
0
  6
CONTINUOUS
 62
7
 10
201.500000
 20
66.500000
 11
201.500000
 21
55.500000
  0
LINE
  8
0
  6
CONTINUOUS
 62
7
 10
201.500000
 20
66.500000
 11
203.500000
 21
66.500000
  0
LINE
  8
0
  6
CONTINUOUS
 62
7
 10
201.500000
 20
55.500000
 11
203.000000
 21
55.500000
  0
LINE
  8
0
  6
CONTINUOUS
 62
7
 10
200.500000
 20
55.000000
 11
203.000000
 21
55.000000
  0
LINE
  8
0
  6
CONTINUOUS
 62
2
 10
194.000000
 20
66.150002
 11
197.800003
 21
66.150002
  0
LINE
  8
0
  6
CONTINUOUS
 62
2
 10
199.300003
 20
64.650002
 11
199.300003
 21
63.349998
  0
LINE
  8
0
  6
CONTINUOUS
 62
2
 10
194.000000
 20
61.849998
 11
197.800003
 21
61.849998
  0
LINE
  8
0
  6
CONTINUOUS
 62
2
 10
193.000000
 20
62.700001
 11
194.000000
 21
62.700001
  0
LINE
  8
0
  6
CONTINUOUS
 62
2
 10
193.000000
 20
65.300003
 11
194.000000
 21
65.300003
  0
LINE
  8
0
  6
CONTINUOUS
 62
7
 10
110.000000
 20
33.000000
 11
110.000000
 21
43.000000
  0
LINE
  8
0
  6
CONTINUOUS
 62
7
 10
176.000000
 20
43.000000
 11
110.000000
 21
43.000000
  0
LINE
  8
0
  6
CONTINUOUS
 62
7
 10
176.000000
 20
33.000000
 11
176.000000
 21
43.000000
  0
LINE
  8
0
  6
CONTINUOUS
 62
7
 10
110.000000
 20
67.500000
 11
110.000000
 21
48.500000
  0
LINE
  8
0
  6
CONTINUOUS
 62
7
 10
110.000000
 20
48.500000
 11
176.000000
 21
48.500000
  0
LINE
  8
0
  6
CONTINUOUS
 62
2
 10
110.000000
 20
56.700001
 11
176.000000
 21
56.700001
  0
LINE
  8
0
  6
CONTINUOUS
 62
2
 10
110.000000
 20
59.299999
 11
176.000000
 21
59.299999
  0
LINE
  8
0
  6
CONTINUOUS
 62
2
 10
110.000000
 20
62.700001
 11
176.000000
 21
62.700001
  0
LINE
  8
0
  6
CONTINUOUS
 62
2
 10
110.000000
 20
65.300003
 11
176.000000
 21
65.300003
  0
LINE
  8
0
  6
CONTINUOUS
 62
7
 10
177.500000
 20
67.500000
 11
110.000000
 21
67.500000
  0
LINE
  8
0
  6
CONTINUOUS
 62
7
 10
176.000000
 20
67.500000
 11
176.000000
 21
48.500000
  0
LINE
  8
0
  6
CONTINUOUS
 62
7
 10
176.000000
 20
76.000000
 11
110.000000
 21
76.000000
  0
LINE
  8
0
  6
CONTINUOUS
 62
7
 10
176.000000
 20
83.500000
 11
110.000000
 21
83.500000
  0
LINE
  8
0
  6
CONTINUOUS
 62
7
 10
156.250000
 20
84.500000
 11
149.750000
 21
84.500000
  0
LINE
  8
0
  6
CONTINUOUS
 62
7
 10
149.750000
 20
86.000000
 11
149.750000
 21
84.500000
  0
LINE
  8
0
  6
CONTINUOUS
 62
7
 10
156.250000
 20
86.000000
 11
156.250000
 21
84.500000
  0
LINE
  8
0
  6
CONTINUOUS
 62
7
 10
176.000000
 20
86.000000
 11
176.000000
 21
76.000000
  0
LINE
  8
0
  6
CONTINUOUS
 62
7
 10
110.000000
 20
130.500000
 11
110.000000
 21
126.500000
  0
LINE
  8
0
  6
CONTINUOUS
 62
7
 10
110.000000
 20
86.000000
 11
110.000000
 21
76.000000
  0
LINE
  8
0
  6
CONTINUOUS
 62
2
 10
92.000000
 20
62.700001
 11
92.000000
 21
61.849998
  0
LINE
  8
0
  6
CENTER
 62
2
 10
95.000000
 20
64.000000
 11
84.699997
 21
64.000000
  0
LINE
  8
0
  6
CENTER
 62
2
 10
95.000000
 20
58.000000
 11
84.699997
 21
58.000000
  0
LINE
  8
0
  6
CENTER
 62
2
 10
191.000000
 20
64.000000
 11
201.300003
 21
64.000000
  0
LINE
  8
0
  6
CENTER
 62
2
 10
191.000000
 20
58.000000
 11
201.300003
 21
58.000000
  0
LINE
  8
0
  6
CONTINUOUS
 62
7
 10
-198.000000
 20
-108.500000
 11
-186.000000
 21
-108.500000
  0
LINE
  8
0
  6
CONTINUOUS
 62
7
 10
-198.000000
 20
-111.709000
 11
-198.000000
 21
-114.500000
  0
LINE
  8
0
  6
CONTINUOUS
 62
7
 10
-198.000000
 20
-108.500000
 11
-198.000000
 21
-109.291000
  0
LINE
  8
0
  6
CONTINUOUS
 62
7
 10
-205.500000
 20
-104.000000
 11
-199.000000
 21
-104.000000
  0
LINE
  8
0
  6
CONTINUOUS
 62
7
 10
-205.500000
 20
-114.000000
 11
-198.000000
 21
-114.000000
  0
LINE
  8
0
  6
CONTINUOUS
 62
7
 10
-198.699997
 20
-104.300003
 11
-185.300003
 21
-104.300003
  0
LINE
  8
0
  6
CONTINUOUS
 62
7
 10
-186.000000
 20
-111.709000
 11
-186.000000
 21
-114.500000
  0
LINE
  8
0
  6
CONTINUOUS
 62
7
 10
-186.000000
 20
-108.500000
 11
-186.000000
 21
-109.291000
  0
LINE
  8
0
  6
CONTINUOUS
 62
7
 10
-178.500000
 20
-104.000000
 11
-185.000000
 21
-104.000000
  0
LINE
  8
0
  6
CONTINUOUS
 62
7
 10
-178.500000
 20
-104.000000
 11
-178.500000
 21
-114.000000
  0
LINE
  8
0
  6
CONTINUOUS
 62
7
 10
-178.500000
 20
-114.000000
 11
-186.000000
 21
-114.000000
  0
LINE
  8
0
  6
CONTINUOUS
 62
7
 10
-205.500000
 20
-104.000000
 11
-205.500000
 21
-114.000000
  0
LINE
  8
0
  6
CONTINUOUS
 62
7
 10
-199.000000
 20
-104.000000
 11
-198.699997
 21
-104.300003
  0
LINE
  8
0
  6
CONTINUOUS
 62
7
 10
-185.000000
 20
-104.000000
 11
-185.300003
 21
-104.300003
  0
LINE
  8
0
  6
CONTINUOUS
 62
7
 10
-178.000000
 20
-114.500000
 11
-186.000000
 21
-114.500000
  0
LINE
  8
0
  6
CONTINUOUS
 62
7
 10
-178.000000
 20
-124.000000
 11
-206.000000
 21
-124.000000
  0
LINE
  8
0
  6
CONTINUOUS
 62
7
 10
-206.000000
 20
-114.500000
 11
-198.000000
 21
-114.500000
  0
LINE
  8
0
  6
CONTINUOUS
 62
7
 10
-206.000000
 20
-114.500000
 11
-206.000000
 21
-124.000000
  0
LINE
  8
0
  6
CONTINUOUS
 62
7
 10
-178.000000
 20
-114.500000
 11
-178.000000
 21
-124.000000
  0
LINE
  8
0
  6
CENTER
 62
2
 10
-201.000000
 20
-116.500000
 11
-201.000000
 21
-123.500000
  0
LINE
  8
0
  6
CENTER
 62
2
 10
-204.500000
 20
-120.000000
 11
-197.500000
 21
-120.000000
  0
LINE
  8
0
  6
CENTER
 62
2
 10
-192.000000
 20
-102.000000
 11
-192.000000
 21
-126.000000
  0
LINE
  8
0
  6
CENTER
 62
2
 10
-199.399994
 20
-117.000000
 11
-184.600006
 21
-117.000000
  0
LINE
  8
0
  6
CENTER
 62
2
 10
-202.000000
 20
-102.000000
 11
-202.000000
 21
-106.000000
  0
LINE
  8
0
  6
CENTER
 62
2
 10
-182.000000
 20
-102.000000
 11
-182.000000
 21
-106.000000
  0
LINE
  8
0
  6
CENTER
 62
2
 10
-181.500000
 20
-122.000000
 11
-181.500000
 21
-126.000000
  0
LINE
  8
0
  6
CENTER
 62
2
 10
-202.500000
 20
-122.000000
 11
-202.500000
 21
-126.000000
  0
LINE
  8
0
  6
CONTINUOUS
 62
7
 10
-216.000000
 20
-123.500000
 11
-206.000000
 21
-123.500000
  0
LINE
  8
0
  6
CONTINUOUS
 62
2
 10
-215.000000
 20
-105.849998
 11
-215.000000
 21
-106.699997
  0
LINE
  8
0
  6
CONTINUOUS
 62
7
 10
-216.000000
 20
-104.500000
 11
-216.000000
 21
-123.500000
  0
LINE
  8
0
  6
CONTINUOUS
 62
7
 10
-216.000000
 20
-104.500000
 11
-208.500000
 21
-104.500000
  0
LINE
  8
0
  6
CONTINUOUS
 62
7
 10
-208.500000
 20
-104.500000
 11
-208.500000
 21
-117.000000
  0
LINE
  8
0
  6
CONTINUOUS
 62
7
 10
-207.500000
 20
-105.500000
 11
-207.500000
 21
-116.500000
  0
LINE
  8
0
  6
CONTINUOUS
 62
7
 10
-207.500000
 20
-105.500000
 11
-205.500000
 21
-105.500000
  0
LINE
  8
0
  6
CONTINUOUS
 62
7
 10
-207.500000
 20
-116.500000
 11
-206.000000
 21
-116.500000
  0
LINE
  8
0
  6
CONTINUOUS
 62
7
 10
-208.500000
 20
-117.000000
 11
-206.000000
 21
-117.000000
  0
LINE
  8
0
  6
CONTINUOUS
 62
2
 10
-215.000000
 20
-105.849998
 11
-211.199997
 21
-105.849998
  0
LINE
  8
0
  6
CONTINUOUS
 62
2
 10
-209.699997
 20
-107.349998
 11
-209.699997
 21
-108.650002
  0
LINE
  8
0
  6
CONTINUOUS
 62
2
 10
-215.000000
 20
-110.150002
 11
-211.199997
 21
-110.150002
  0
LINE
  8
0
  6
CONTINUOUS
 62
2
 10
-216.000000
 20
-109.300003
 11
-215.000000
 21
-109.300003
  0
LINE
  8
0
  6
CONTINUOUS
 62
2
 10
-216.000000
 20
-106.699997
 11
-215.000000
 21
-106.699997
  0
LINE
  8
0
  6
CONTINUOUS
 62
2
 10
-215.000000
 20
-109.300003
 11
-215.000000
 21
-110.150002
  0
LINE
  8
0
  6
CENTER
 62
2
 10
-218.000000
 20
-108.000000
 11
-207.699997
 21
-108.000000
  0
LINE
  8
0
  6
CENTER
 62
2
 10
-218.000000
 20
-114.000000
 11
-207.699997
 21
-114.000000
  0
LINE
  8
0
  6
CONTINUOUS
 62
7
 10
-88.000000
 20
-108.500000
 11
-100.000000
 21
-108.500000
  0
LINE
  8
0
  6
CONTINUOUS
 62
7
 10
-88.000000
 20
-111.709000
 11
-88.000000
 21
-114.500000
  0
LINE
  8
0
  6
CONTINUOUS
 62
7
 10
-88.000000
 20
-108.500000
 11
-88.000000
 21
-109.291000
  0
LINE
  8
0
  6
CONTINUOUS
 62
7
 10
-80.500000
 20
-104.000000
 11
-87.000000
 21
-104.000000
  0
LINE
  8
0
  6
CONTINUOUS
 62
7
 10
-80.500000
 20
-114.000000
 11
-88.000000
 21
-114.000000
  0
LINE
  8
0
  6
CONTINUOUS
 62
7
 10
-87.300003
 20
-104.300003
 11
-100.699997
 21
-104.300003
  0
LINE
  8
0
  6
CONTINUOUS
 62
7
 10
-100.000000
 20
-111.709000
 11
-100.000000
 21
-114.500000
  0
LINE
  8
0
  6
CONTINUOUS
 62
7
 10
-100.000000
 20
-108.500000
 11
-100.000000
 21
-109.291000
  0
LINE
  8
0
  6
CONTINUOUS
 62
7
 10
-107.500000
 20
-104.000000
 11
-101.000000
 21
-104.000000
  0
LINE
  8
0
  6
CONTINUOUS
 62
7
 10
-107.500000
 20
-104.000000
 11
-107.500000
 21
-114.000000
  0
LINE
  8
0
  6
CONTINUOUS
 62
7
 10
-107.500000
 20
-114.000000
 11
-100.000000
 21
-114.000000
  0
LINE
  8
0
  6
CONTINUOUS
 62
7
 10
-80.500000
 20
-104.000000
 11
-80.500000
 21
-114.000000
  0
LINE
  8
0
  6
CONTINUOUS
 62
7
 10
-87.000000
 20
-104.000000
 11
-87.300003
 21
-104.300003
  0
LINE
  8
0
  6
CONTINUOUS
 62
7
 10
-101.000000
 20
-104.000000
 11
-100.699997
 21
-104.300003
  0
LINE
  8
0
  6
CONTINUOUS
 62
7
 10
-108.000000
 20
-114.500000
 11
-100.000000
 21
-114.500000
  0
LINE
  8
0
  6
CONTINUOUS
 62
7
 10
-108.000000
 20
-124.000000
 11
-80.000000
 21
-124.000000
  0
LINE
  8
0
  6
CONTINUOUS
 62
7
 10
-80.000000
 20
-114.500000
 11
-88.000000
 21
-114.500000
  0
LINE
  8
0
  6
CONTINUOUS
 62
7
 10
-80.000000
 20
-114.500000
 11
-80.000000
 21
-124.000000
  0
LINE
  8
0
  6
CONTINUOUS
 62
7
 10
-108.000000
 20
-114.500000
 11
-108.000000
 21
-124.000000
  0
LINE
  8
0
  6
CENTER
 62
2
 10
-85.000000
 20
-116.500000
 11
-85.000000
 21
-123.500000
  0
LINE
  8
0
  6
CENTER
 62
2
 10
-81.500000
 20
-120.000000
 11
-88.500000
 21
-120.000000
  0
LINE
  8
0
  6
CENTER
 62
2
 10
-94.000000
 20
-102.000000
 11
-94.000000
 21
-126.000000
  0
LINE
  8
0
  6
CENTER
 62
2
 10
-86.599998
 20
-117.000000
 11
-101.400002
 21
-117.000000
  0
LINE
  8
0
  6
CENTER
 62
2
 10
-104.000000
 20
-102.000000
 11
-104.000000
 21
-106.000000
  0
LINE
  8
0
  6
CENTER
 62
2
 10
-84.000000
 20
-102.000000
 11
-84.000000
 21
-106.000000
  0
LINE
  8
0
  6
CENTER
 62
2
 10
-83.500000
 20
-122.000000
 11
-83.500000
 21
-126.000000
  0
LINE
  8
0
  6
CENTER
 62
2
 10
-104.500000
 20
-122.000000
 11
-104.500000
 21
-126.000000
  0
LINE
  8
0
  6
CONTINUOUS
 62
7
 10
-70.000000
 20
-123.500000
 11
-80.000000
 21
-123.500000
  0
LINE
  8
0
  6
CONTINUOUS
 62
2
 10
-71.000000
 20
-110.150002
 11
-71.000000
 21
-109.300003
  0
LINE
  8
0
  6
CONTINUOUS
 62
2
 10
-71.000000
 20
-105.849998
 11
-71.000000
 21
-106.699997
  0
LINE
  8
0
  6
CONTINUOUS
 62
7
 10
-70.000000
 20
-104.500000
 11
-70.000000
 21
-123.500000
  0
LINE
  8
0
  6
CONTINUOUS
 62
7
 10
-70.000000
 20
-104.500000
 11
-77.500000
 21
-104.500000
  0
LINE
  8
0
  6
CONTINUOUS
 62
7
 10
-77.500000
 20
-104.500000
 11
-77.500000
 21
-117.000000
  0
LINE
  8
0
  6
CONTINUOUS
 62
7
 10
-78.500000
 20
-105.500000
 11
-78.500000
 21
-116.500000
  0
LINE
  8
0
  6
CONTINUOUS
 62
7
 10
-78.500000
 20
-105.500000
 11
-80.500000
 21
-105.500000
  0
LINE
  8
0
  6
CONTINUOUS
 62
7
 10
-78.500000
 20
-116.500000
 11
-80.000000
 21
-116.500000
  0
LINE
  8
0
  6
CONTINUOUS
 62
7
 10
-77.500000
 20
-117.000000
 11
-80.000000
 21
-117.000000
  0
LINE
  8
0
  6
CONTINUOUS
 62
2
 10
-71.000000
 20
-105.849998
 11
-74.800003
 21
-105.849998
  0
LINE
  8
0
  6
CONTINUOUS
 62
2
 10
-76.300003
 20
-107.349998
 11
-76.300003
 21
-108.650002
  0
LINE
  8
0
  6
CONTINUOUS
 62
2
 10
-71.000000
 20
-110.150002
 11
-74.800003
 21
-110.150002
  0
LINE
  8
0
  6
CONTINUOUS
 62
2
 10
-70.000000
 20
-109.300003
 11
-71.000000
 21
-109.300003
  0
LINE
  8
0
  6
CONTINUOUS
 62
2
 10
-70.000000
 20
-106.699997
 11
-71.000000
 21
-106.699997
  0
LINE
  8
0
  6
CENTER
 62
2
 10
-68.000000
 20
-108.000000
 11
-78.300003
 21
-108.000000
  0
LINE
  8
0
  6
CENTER
 62
2
 10
-68.000000
 20
-114.000000
 11
-78.300003
 21
-114.000000
  0
LINE
  8
0
  6
CENTER
 62
2
 10
-167.000000
 20
58.000000
 11
-167.000000
 21
49.000000
  0
LINE
  8
0
  6
CENTER
 62
2
 10
-171.500000
 20
53.500000
 11
-162.500000
 21
53.500000
  0
LINE
  8
0
  6
CENTER
 62
2
 10
-119.000000
 20
58.000000
 11
-119.000000
 21
49.000000
  0
LINE
  8
0
  6
CENTER
 62
2
 10
-123.500000
 20
53.500000
 11
-114.500000
 21
53.500000
  0
LINE
  8
0
  6
CENTER
 62
2
 10
104.000000
 20
58.000000
 11
104.000000
 21
49.000000
  0
LINE
  8
0
  6
CENTER
 62
2
 10
99.500000
 20
53.500000
 11
108.500000
 21
53.500000
  0
LINE
  8
0
  6
CENTER
 62
2
 10
182.000000
 20
58.000000
 11
182.000000
 21
49.000000
  0
LINE
  8
0
  6
CENTER
 62
2
 10
177.500000
 20
53.500000
 11
186.500000
 21
53.500000
  0
LINE
  8
0
  6
CENTER
 62
2
 10
-167.000000
 20
-114.000000
 11
-167.000000
 21
-123.000000
  0
LINE
  8
0
  6
CENTER
 62
2
 10
-171.500000
 20
-118.500000
 11
-162.500000
 21
-118.500000
  0
LINE
  8
0
  6
CENTER
 62
2
 10
-119.000000
 20
-114.000000
 11
-119.000000
 21
-123.000000
  0
LINE
  8
0
  6
CENTER
 62
2
 10
-123.500000
 20
-118.500000
 11
-114.500000
 21
-118.500000
  0
LINE
  8
0
  6
CENTER
 62
2
 10
104.000000
 20
-114.000000
 11
104.000000
 21
-123.000000
  0
LINE
  8
0
  6
CENTER
 62
2
 10
99.500000
 20
-118.500000
 11
108.500000
 21
-118.500000
  0
LINE
  8
0
  6
CENTER
 62
2
 10
182.000000
 20
-114.000000
 11
182.000000
 21
-123.000000
  0
LINE
  8
0
  6
CENTER
 62
2
 10
177.500000
 20
-118.500000
 11
186.500000
 21
-118.500000
  0
LINE
  8
0
  6
CONTINUOUS
 62
7
 10
0.424988
 20
195.500000
 11
0.424988
 21
-195.000000
  0
LINE
  8
0
  6
CONTINUOUS
 62
7
 10
-281.250000
 20
0.250000
 11
282.100006
 21
0.250000
  0
CIRCLE
  8
0
  6
CONTINUOUS
 62
7
 10
-159.000000
 20
-90.500000
 40
1.650000
  0
CIRCLE
  8
0
  6
CONTINUOUS
 62
2
 10
-159.000000
 20
-90.500000
 40
2.000000
  0
CIRCLE
  8
0
  6
CONTINUOUS
 62
2
 10
-159.000000
 20
-69.500000
 40
2.000000
  0
CIRCLE
  8
0
  6
CONTINUOUS
 62
7
 10
-159.000000
 20
-69.500000
 40
1.650000
  0
CIRCLE
  8
0
  6
CONTINUOUS
 62
7
 10
-145.500000
 20
-70.000000
 40
1.250000
  0
CIRCLE
  8
0
  6
CONTINUOUS
 62
2
 10
-145.500000
 20
-70.000000
 40
1.500000
  0
CIRCLE
  8
0
  6
CONTINUOUS
 62
7
 10
-145.500000
 20
-90.000000
 40
1.250000
  0
CIRCLE
  8
0
  6
CONTINUOUS
 62
2
 10
-145.500000
 20
-90.000000
 40
1.500000
  0
CIRCLE
  8
0
  6
CONTINUOUS
 62
7
 10
-130.500000
 20
-70.000000
 40
1.250000
  0
CIRCLE
  8
0
  6
CONTINUOUS
 62
2
 10
-130.500000
 20
-70.000000
 40
1.500000
  0
CIRCLE
  8
0
  6
CONTINUOUS
 62
7
 10
-130.500000
 20
-90.000000
 40
1.250000
  0
CIRCLE
  8
0
  6
CONTINUOUS
 62
2
 10
-130.500000
 20
-90.000000
 40
1.500000
  0
CIRCLE
  8
0
  6
CONTINUOUS
 62
7
 10
-159.000000
 20
-90.500000
 40
3.000000
  0
CIRCLE
  8
0
  6
CONTINUOUS
 62
7
 10
-159.000000
 20
-69.500000
 40
3.000000
  0
CIRCLE
  8
0
  6
DASHED
 62
2
 10
-127.000000
 20
-69.500000
 40
3.000000
  0
CIRCLE
  8
0
  6
DASHED
 62
2
 10
-127.000000
 20
-90.500000
 40
3.000000
  0
CIRCLE
  8
0
  6
CONTINUOUS
 62
2
 10
-153.000000
 20
-120.000000
 40
1.500000
  0
CIRCLE
  8
0
  6
CONTINUOUS
 62
7
 10
-153.000000
 20
-120.000000
 40
1.250000
  0
CIRCLE
  8
0
  6
CONTINUOUS
 62
7
 10
-133.000000
 20
-120.000000
 40
1.250000
  0
CIRCLE
  8
0
  6
CONTINUOUS
 62
2
 10
-133.000000
 20
-120.000000
 40
1.500000
  0
ARC
  8
0
  6
CONTINUOUS
 62
7
 10
-153.000000
 20
-120.000000
 40
3.000000
 50
0.000000
 51
150.000000
  0
ARC
  8
0
  6
CONTINUOUS
 62
7
 10
-133.000000
 20
-120.000000
 40
3.000010
 50
29.999901
 51
180.000000
  0
CIRCLE
  8
0
  6
CONTINUOUS
 62
2
 10
-142.000000
 20
-108.000000
 40
1.500000
  0
CIRCLE
  8
0
  6
CONTINUOUS
 62
2
 10
-134.000000
 20
-108.000000
 40
1.500000
  0
CIRCLE
  8
0
  6
CONTINUOUS
 62
7
 10
-142.000000
 20
-108.000000
 40
1.250000
  0
CIRCLE
  8
0
  6
CONTINUOUS
 62
7
 10
-134.000000
 20
-108.000000
 40
1.250000
  0
ARC
  8
0
  6
CONTINUOUS
 62
7
 10
-167.000000
 20
-34.500000
 40
4.800000
 50
303.557007
 51
0.000000
  0
ARC
  8
0
  6
CONTINUOUS
 62
7
 10
-119.000000
 20
-34.500000
 40
4.800000
 50
180.000000
 51
236.442993
  0
ARC
  8
0
  6
CONTINUOUS
 62
7
 10
-167.000000
 20
-118.500000
 40
4.800000
 50
0.000000
 51
56.442600
  0
ARC
  8
0
  6
CONTINUOUS
 62
7
 10
-119.000000
 20
-118.500000
 40
4.800000
 50
123.556999
 51
180.000000
  0
CIRCLE
  8
0
  6
DASHED
 62
2
 10
-127.000000
 20
-69.500000
 40
1.650000
  0
CIRCLE
  8
0
  6
DASHED
 62
2
 10
-127.000000
 20
-69.500000
 40
2.000000
  0
CIRCLE
  8
0
  6
DASHED
 62
2
 10
-127.000000
 20
-90.500000
 40
2.000000
  0
CIRCLE
  8
0
  6
DASHED
 62
2
 10
-127.000000
 20
-90.500000
 40
1.650000
  0
CIRCLE
  8
0
  6
CONTINUOUS
 62
2
 10
-159.000000
 20
-136.500000
 40
2.000000
  0
CIRCLE
  8
0
  6
CONTINUOUS
 62
7
 10
-159.000000
 20
-157.500000
 40
1.650000
  0
CIRCLE
  8
0
  6
CONTINUOUS
 62
2
 10
-159.000000
 20
-157.500000
 40
2.000000
  0
CIRCLE
  8
0
  6
CONTINUOUS
 62
7
 10
-159.000000
 20
-136.500000
 40
1.650000
  0
CIRCLE
  8
0
  6
CONTINUOUS
 62
7
 10
-127.000000
 20
-157.500000
 40
1.650000
  0
CIRCLE
  8
0
  6
CONTINUOUS
 62
2
 10
-127.000000
 20
-157.500000
 40
2.000000
  0
CIRCLE
  8
0
  6
CONTINUOUS
 62
7
 10
-127.000000
 20
-136.500000
 40
1.650000
  0
CIRCLE
  8
0
  6
CONTINUOUS
 62
2
 10
-127.000000
 20
-136.500000
 40
2.000000
  0
CIRCLE
  8
0
  6
CONTINUOUS
 62
7
 10
-120.500000
 20
-143.500000
 40
5.900000
  0
CIRCLE
  8
0
  6
CONTINUOUS
 62
7
 10
-165.500000
 20
-143.500000
 40
5.900000
  0
CIRCLE
  8
0
  6
CONTINUOUS
 62
7
 10
79.000000
 20
-117.000000
 40
5.400000
  0
ARC
  8
0
  6
CONTINUOUS
 62
7
 10
85.599998
 20
-110.500000
 40
1.350000
 50
116.387001
 51
243.610992
  0
ARC
  8
0
  6
CONTINUOUS
 62
7
 10
72.400002
 20
-110.500000
 40
1.350000
 50
296.385986
 51
63.610199
  0
CIRCLE
  8
0
  6
CONTINUOUS
 62
2
 10
70.000000
 20
-120.000000
 40
1.500000
  0
CIRCLE
  8
0
  6
CONTINUOUS
 62
7
 10
70.000000
 20
-120.000000
 40
1.250000
  0
ARC
  8
0
  6
CONTINUOUS
 62
2
 10
59.799999
 20
-107.349998
 40
1.500000
 50
0.000000
 51
90.000000
  0
ARC
  8
0
  6
CONTINUOUS
 62
2
 10
59.799999
 20
-108.650002
 40
1.500000
 50
270.000000
 51
0.000000
  0
CIRCLE
  8
0
  6
CONTINUOUS
 62
7
 10
207.000000
 20
-117.000000
 40
5.400000
  0
ARC
  8
0
  6
CONTINUOUS
 62
7
 10
200.399994
 20
-110.500000
 40
1.350000
 50
296.389008
 51
63.612598
  0
ARC
  8
0
  6
CONTINUOUS
 62
7
 10
213.600006
 20
-110.500000
 40
1.350010
 50
116.389999
 51
243.613007
  0
CIRCLE
  8
0
  6
CONTINUOUS
 62
2
 10
216.000000
 20
-120.000000
 40
1.500000
  0
CIRCLE
  8
0
  6
CONTINUOUS
 62
7
 10
216.000000
 20
-120.000000
 40
1.250000
  0
ARC
  8
0
  6
CONTINUOUS
 62
2
 10
226.199997
 20
-107.349998
 40
1.500000
 50
90.000000
 51
180.000000
  0
ARC
  8
0
  6
CONTINUOUS
 62
2
 10
226.199997
 20
-108.650002
 40
1.500000
 50
180.000000
 51
270.000000
  0
CIRCLE
  8
0
  6
CONTINUOUS
 62
7
 10
112.000000
 20
-90.500000
 40
1.650000
  0
CIRCLE
  8
0
  6
CONTINUOUS
 62
2
 10
112.000000
 20
-90.500000
 40
2.000000
  0
CIRCLE
  8
0
  6
CONTINUOUS
 62
2
 10
112.000000
 20
-69.500000
 40
2.000000
  0
CIRCLE
  8
0
  6
CONTINUOUS
 62
7
 10
112.000000
 20
-69.500000
 40
1.650000
  0
CIRCLE
  8
0
  6
CONTINUOUS
 62
7
 10
153.000000
 20
-70.000000
 40
1.250000
  0
CIRCLE
  8
0
  6
CONTINUOUS
 62
2
 10
153.000000
 20
-70.000000
 40
1.500000
  0
CIRCLE
  8
0
  6
CONTINUOUS
 62
7
 10
153.000000
 20
-90.000000
 40
1.250000
  0
CIRCLE
  8
0
  6
CONTINUOUS
 62
2
 10
153.000000
 20
-90.000000
 40
1.500000
  0
CIRCLE
  8
0
  6
DASHED
 62
2
 10
174.000000
 20
-69.500000
 40
1.650000
  0
CIRCLE
  8
0
  6
DASHED
 62
2
 10
174.000000
 20
-69.500000
 40
2.000000
  0
CIRCLE
  8
0
  6
CONTINUOUS
 62
7
 10
168.000000
 20
-70.000000
 40
1.250000
  0
CIRCLE
  8
0
  6
CONTINUOUS
 62
2
 10
168.000000
 20
-70.000000
 40
1.500000
  0
CIRCLE
  8
0
  6
CONTINUOUS
 62
7
 10
168.000000
 20
-90.000000
 40
1.250000
  0
CIRCLE
  8
0
  6
CONTINUOUS
 62
2
 10
168.000000
 20
-90.000000
 40
1.500000
  0
CIRCLE
  8
0
  6
DASHED
 62
2
 10
174.000000
 20
-90.500000
 40
1.650000
  0
CIRCLE
  8
0
  6
DASHED
 62
2
 10
174.000000
 20
-90.500000
 40
2.000000
  0
CIRCLE
  8
0
  6
CONTINUOUS
 62
2
 10
118.000000
 20
-120.000000
 40
1.500000
  0
CIRCLE
  8
0
  6
CONTINUOUS
 62
7
 10
118.000000
 20
-120.000000
 40
1.250000
  0
CIRCLE
  8
0
  6
CONTINUOUS
 62
7
 10
168.000000
 20
-120.000000
 40
1.250000
  0
CIRCLE
  8
0
  6
CONTINUOUS
 62
2
 10
168.000000
 20
-120.000000
 40
1.500000
  0
ARC
  8
0
  6
CONTINUOUS
 62
7
 10
118.000000
 20
-120.000000
 40
3.000000
 50
0.000000
 51
150.000000
  0
ARC
  8
0
  6
CONTINUOUS
 62
7
 10
168.000000
 20
-120.000000
 40
3.000010
 50
29.999901
 51
180.000000
  0
CIRCLE
  8
0
  6
CONTINUOUS
 62
2
 10
149.000000
 20
-108.000000
 40
1.500000
  0
CIRCLE
  8
0
  6
CONTINUOUS
 62
2
 10
157.000000
 20
-108.000000
 40
1.500000
  0
CIRCLE
  8
0
  6
CONTINUOUS
 62
7
 10
149.000000
 20
-108.000000
 40
1.250000
  0
CIRCLE
  8
0
  6
CONTINUOUS
 62
7
 10
157.000000
 20
-108.000000
 40
1.250000
  0
CIRCLE
  8
0
  6
CONTINUOUS
 62
7
 10
138.000000
 20
-70.000000
 40
1.250000
  0
CIRCLE
  8
0
  6
CONTINUOUS
 62
2
 10
138.000000
 20
-70.000000
 40
1.500000
  0
CIRCLE
  8
0
  6
CONTINUOUS
 62
7
 10
138.000000
 20
-90.000000
 40
1.250000
  0
CIRCLE
  8
0
  6
CONTINUOUS
 62
2
 10
138.000000
 20
-90.000000
 40
1.500000
  0
ARC
  8
0
  6
CONTINUOUS
 62
7
 10
104.000000
 20
-34.500000
 40
4.800000
 50
303.557007
 51
0.000000
  0
ARC
  8
0
  6
CONTINUOUS
 62
7
 10
182.000000
 20
-34.500000
 40
4.800000
 50
180.000000
 51
236.442993
  0
ARC
  8
0
  6
CONTINUOUS
 62
7
 10
104.000000
 20
-118.500000
 40
4.800000
 50
0.000000
 51
56.442699
  0
ARC
  8
0
  6
CONTINUOUS
 62
7
 10
182.000000
 20
-118.500000
 40
4.800000
 50
123.556999
 51
180.000000
  0
CIRCLE
  8
0
  6
CONTINUOUS
 62
7
 10
112.000000
 20
-69.500000
 40
3.000000
  0
CIRCLE
  8
0
  6
CONTINUOUS
 62
7
 10
112.000000
 20
-90.500000
 40
3.000000
  0
CIRCLE
  8
0
  6
DASHED
 62
2
 10
174.000000
 20
-90.500000
 40
3.000000
  0
CIRCLE
  8
0
  6
DASHED
 62
2
 10
174.000000
 20
-69.500000
 40
3.000000
  0
CIRCLE
  8
0
  6
CONTINUOUS
 62
2
 10
112.000000
 20
-136.500000
 40
2.000000
  0
CIRCLE
  8
0
  6
CONTINUOUS
 62
7
 10
112.000000
 20
-157.500000
 40
1.650000
  0
CIRCLE
  8
0
  6
CONTINUOUS
 62
2
 10
112.000000
 20
-157.500000
 40
2.000000
  0
CIRCLE
  8
0
  6
CONTINUOUS
 62
7
 10
112.000000
 20
-136.500000
 40
1.650000
  0
CIRCLE
  8
0
  6
CONTINUOUS
 62
7
 10
174.000000
 20
-157.500000
 40
1.650000
  0
CIRCLE
  8
0
  6
CONTINUOUS
 62
2
 10
174.000000
 20
-157.500000
 40
2.000000
  0
CIRCLE
  8
0
  6
CONTINUOUS
 62
7
 10
174.000000
 20
-136.500000
 40
1.650000
  0
CIRCLE
  8
0
  6
CONTINUOUS
 62
2
 10
174.000000
 20
-136.500000
 40
2.000000
  0
CIRCLE
  8
0
  6
CONTINUOUS
 62
7
 10
180.500000
 20
-143.500000
 40
5.900000
  0
CIRCLE
  8
0
  6
CONTINUOUS
 62
7
 10
105.500000
 20
-143.500000
 40
5.900000
  0
ARC
  8
0
  6
CONTINUOUS
 62
2
 10
197.800003
 20
63.349998
 40
1.500000
 50
270.000000
 51
0.000000
  0
CIRCLE
  8
0
  6
CONTINUOUS
 62
7
 10
-159.000000
 20
89.500000
 40
1.650000
  0
CIRCLE
  8
0
  6
CONTINUOUS
 62
2
 10
-159.000000
 20
89.500000
 40
2.000000
  0
CIRCLE
  8
0
  6
CONTINUOUS
 62
2
 10
-159.000000
 20
110.500000
 40
2.000000
  0
CIRCLE
  8
0
  6
CONTINUOUS
 62
7
 10
-159.000000
 20
110.500000
 40
1.650000
  0
CIRCLE
  8
0
  6
CONTINUOUS
 62
7
 10
-145.500000
 20
110.000000
 40
1.250000
  0
CIRCLE
  8
0
  6
CONTINUOUS
 62
2
 10
-145.500000
 20
110.000000
 40
1.500000
  0
CIRCLE
  8
0
  6
CONTINUOUS
 62
7
 10
-145.500000
 20
90.000000
 40
1.250000
  0
CIRCLE
  8
0
  6
CONTINUOUS
 62
2
 10
-145.500000
 20
90.000000
 40
1.500000
  0
CIRCLE
  8
0
  6
CONTINUOUS
 62
7
 10
-130.500000
 20
110.000000
 40
1.250000
  0
CIRCLE
  8
0
  6
CONTINUOUS
 62
2
 10
-130.500000
 20
110.000000
 40
1.500000
  0
CIRCLE
  8
0
  6
CONTINUOUS
 62
7
 10
-130.500000
 20
90.000000
 40
1.250000
  0
CIRCLE
  8
0
  6
CONTINUOUS
 62
2
 10
-130.500000
 20
90.000000
 40
1.500000
  0
CIRCLE
  8
0
  6
CONTINUOUS
 62
7
 10
-159.000000
 20
89.500000
 40
3.000000
  0
CIRCLE
  8
0
  6
CONTINUOUS
 62
7
 10
-159.000000
 20
110.500000
 40
3.000000
  0
CIRCLE
  8
0
  6
DASHED
 62
2
 10
-127.000000
 20
110.500000
 40
3.000000
  0
CIRCLE
  8
0
  6
DASHED
 62
2
 10
-127.000000
 20
89.500000
 40
3.000000
  0
CIRCLE
  8
0
  6
CONTINUOUS
 62
2
 10
-153.000000
 20
142.000000
 40
1.500000
  0
CIRCLE
  8
0
  6
CONTINUOUS
 62
7
 10
-153.000000
 20
142.000000
 40
1.250000
  0
CIRCLE
  8
0
  6
CONTINUOUS
 62
7
 10
-133.000000
 20
142.000000
 40
1.250000
  0
CIRCLE
  8
0
  6
CONTINUOUS
 62
2
 10
-133.000000
 20
142.000000
 40
1.500000
  0
ARC
  8
0
  6
CONTINUOUS
 62
7
 10
-153.000000
 20
142.000000
 40
3.000010
 50
210.000000
 51
0.000000
  0
ARC
  8
0
  6
CONTINUOUS
 62
7
 10
-133.000000
 20
142.000000
 40
3.000000
 50
180.000000
 51
330.000000
  0
CIRCLE
  8
0
  6
CONTINUOUS
 62
2
 10
-142.000000
 20
130.000000
 40
1.500000
  0
CIRCLE
  8
0
  6
CONTINUOUS
 62
2
 10
-134.000000
 20
130.000000
 40
1.500000
  0
CIRCLE
  8
0
  6
CONTINUOUS
 62
7
 10
-142.000000
 20
130.000000
 40
1.250000
  0
CIRCLE
  8
0
  6
CONTINUOUS
 62
7
 10
-134.000000
 20
130.000000
 40
1.250000
  0
ARC
  8
0
  6
CONTINUOUS
 62
7
 10
-167.000000
 20
53.500000
 40
4.800000
 50
0.000000
 51
56.442600
  0
ARC
  8
0
  6
CONTINUOUS
 62
7
 10
-119.000000
 20
53.500000
 40
4.800000
 50
123.556999
 51
180.000000
  0
ARC
  8
0
  6
CONTINUOUS
 62
7
 10
-167.000000
 20
140.500000
 40
4.800000
 50
303.557007
 51
0.000000
  0
ARC
  8
0
  6
CONTINUOUS
 62
7
 10
-119.000000
 20
140.500000
 40
4.800000
 50
180.000000
 51
236.442993
  0
CIRCLE
  8
0
  6
DASHED
 62
2
 10
-127.000000
 20
110.500000
 40
1.650000
  0
CIRCLE
  8
0
  6
DASHED
 62
2
 10
-127.000000
 20
110.500000
 40
2.000000
  0
CIRCLE
  8
0
  6
DASHED
 62
2
 10
-127.000000
 20
89.500000
 40
2.000000
  0
CIRCLE
  8
0
  6
DASHED
 62
2
 10
-127.000000
 20
89.500000
 40
1.650000
  0
CIRCLE
  8
0
  6
CONTINUOUS
 62
2
 10
-159.000000
 20
29.500000
 40
2.000000
  0
CIRCLE
  8
0
  6
CONTINUOUS
 62
7
 10
-159.000000
 20
8.500000
 40
1.650000
  0
CIRCLE
  8
0
  6
CONTINUOUS
 62
2
 10
-159.000000
 20
8.500000
 40
2.000000
  0
CIRCLE
  8
0
  6
CONTINUOUS
 62
7
 10
-159.000000
 20
29.500000
 40
1.650000
  0
CIRCLE
  8
0
  6
CONTINUOUS
 62
7
 10
-127.000000
 20
8.500000
 40
1.650000
  0
CIRCLE
  8
0
  6
CONTINUOUS
 62
2
 10
-127.000000
 20
8.500000
 40
2.000000
  0
CIRCLE
  8
0
  6
CONTINUOUS
 62
7
 10
-127.000000
 20
29.500000
 40
1.650000
  0
CIRCLE
  8
0
  6
CONTINUOUS
 62
2
 10
-127.000000
 20
29.500000
 40
2.000000
  0
CIRCLE
  8
0
  6
CONTINUOUS
 62
7
 10
-120.500000
 20
22.500000
 40
5.900000
  0
CIRCLE
  8
0
  6
CONTINUOUS
 62
7
 10
-165.500000
 20
22.500000
 40
5.900000
  0
CIRCLE
  8
0
  6
CONTINUOUS
 62
7
 10
-202.000000
 20
55.000000
 40
5.400000
  0
ARC
  8
0
  6
CONTINUOUS
 62
7
 10
-195.399994
 20
61.500000
 40
1.350000
 50
116.387001
 51
243.610992
  0
ARC
  8
0
  6
CONTINUOUS
 62
7
 10
-208.600006
 20
61.500000
 40
1.350010
 50
296.386993
 51
63.609901
  0
CIRCLE
  8
0
  6
CONTINUOUS
 62
2
 10
-211.000000
 20
52.000000
 40
1.500000
  0
CIRCLE
  8
0
  6
CONTINUOUS
 62
7
 10
-211.000000
 20
52.000000
 40
1.250000
  0
ARC
  8
0
  6
CONTINUOUS
 62
2
 10
-182.800003
 20
64.650002
 40
1.500000
 50
90.000000
 51
180.000000
  0
ARC
  8
0
  6
CONTINUOUS
 62
2
 10
-182.800003
 20
63.349998
 40
1.500000
 50
180.000000
 51
270.000000
  0
CIRCLE
  8
0
  6
CONTINUOUS
 62
7
 10
-84.000000
 20
55.000000
 40
5.400000
  0
ARC
  8
0
  6
CONTINUOUS
 62
7
 10
-90.599998
 20
61.500000
 40
1.350000
 50
296.389008
 51
63.612598
  0
ARC
  8
0
  6
CONTINUOUS
 62
7
 10
-77.400002
 20
61.500000
 40
1.350000
 50
116.389999
 51
243.613998
  0
CIRCLE
  8
0
  6
CONTINUOUS
 62
2
 10
-75.000000
 20
52.000000
 40
1.500000
  0
CIRCLE
  8
0
  6
CONTINUOUS
 62
7
 10
-75.000000
 20
52.000000
 40
1.250000
  0
ARC
  8
0
  6
CONTINUOUS
 62
2
 10
-103.199997
 20
64.650002
 40
1.500000
 50
0.000000
 51
90.000000
  0
ARC
  8
0
  6
CONTINUOUS
 62
2
 10
-103.199997
 20
63.349998
 40
1.500000
 50
270.000000
 51
0.000000
  0
CIRCLE
  8
0
  6
CONTINUOUS
 62
7
 10
112.000000
 20
89.500000
 40
1.650000
  0
CIRCLE
  8
0
  6
CONTINUOUS
 62
2
 10
112.000000
 20
89.500000
 40
2.000000
  0
CIRCLE
  8
0
  6
CONTINUOUS
 62
2
 10
112.000000
 20
110.500000
 40
2.000000
  0
CIRCLE
  8
0
  6
CONTINUOUS
 62
7
 10
112.000000
 20
110.500000
 40
1.650000
  0
CIRCLE
  8
0
  6
CONTINUOUS
 62
7
 10
153.000000
 20
110.000000
 40
1.250000
  0
CIRCLE
  8
0
  6
CONTINUOUS
 62
2
 10
153.000000
 20
110.000000
 40
1.500000
  0
CIRCLE
  8
0
  6
CONTINUOUS
 62
7
 10
153.000000
 20
90.000000
 40
1.250000
  0
CIRCLE
  8
0
  6
CONTINUOUS
 62
2
 10
153.000000
 20
90.000000
 40
1.500000
  0
CIRCLE
  8
0
  6
DASHED
 62
2
 10
174.000000
 20
110.500000
 40
1.650000
  0
CIRCLE
  8
0
  6
DASHED
 62
2
 10
174.000000
 20
110.500000
 40
2.000000
  0
CIRCLE
  8
0
  6
CONTINUOUS
 62
7
 10
168.000000
 20
110.000000
 40
1.250000
  0
CIRCLE
  8
0
  6
CONTINUOUS
 62
2
 10
168.000000
 20
110.000000
 40
1.500000
  0
CIRCLE
  8
0
  6
CONTINUOUS
 62
7
 10
168.000000
 20
90.000000
 40
1.250000
  0
CIRCLE
  8
0
  6
CONTINUOUS
 62
2
 10
168.000000
 20
90.000000
 40
1.500000
  0
CIRCLE
  8
0
  6
DASHED
 62
2
 10
174.000000
 20
89.500000
 40
1.650000
  0
CIRCLE
  8
0
  6
DASHED
 62
2
 10
174.000000
 20
89.500000
 40
2.000000
  0
CIRCLE
  8
0
  6
CONTINUOUS
 62
2
 10
118.000000
 20
142.000000
 40
1.500000
  0
CIRCLE
  8
0
  6
CONTINUOUS
 62
7
 10
118.000000
 20
142.000000
 40
1.250000
  0
CIRCLE
  8
0
  6
CONTINUOUS
 62
7
 10
168.000000
 20
142.000000
 40
1.250000
  0
CIRCLE
  8
0
  6
CONTINUOUS
 62
2
 10
168.000000
 20
142.000000
 40
1.500000
  0
ARC
  8
0
  6
CONTINUOUS
 62
7
 10
118.000000
 20
142.000000
 40
3.000000
 50
210.000000
 51
0.000000
  0
ARC
  8
0
  6
CONTINUOUS
 62
7
 10
168.000000
 20
142.000000
 40
3.000000
 50
180.000000
 51
330.000000
  0
CIRCLE
  8
0
  6
CONTINUOUS
 62
2
 10
149.000000
 20
130.000000
 40
1.500000
  0
CIRCLE
  8
0
  6
CONTINUOUS
 62
2
 10
157.000000
 20
130.000000
 40
1.500000
  0
CIRCLE
  8
0
  6
CONTINUOUS
 62
7
 10
149.000000
 20
130.000000
 40
1.250000
  0
CIRCLE
  8
0
  6
CONTINUOUS
 62
7
 10
157.000000
 20
130.000000
 40
1.250000
  0
CIRCLE
  8
0
  6
CONTINUOUS
 62
7
 10
138.000000
 20
110.000000
 40
1.250000
  0
CIRCLE
  8
0
  6
CONTINUOUS
 62
2
 10
138.000000
 20
110.000000
 40
1.500000
  0
CIRCLE
  8
0
  6
CONTINUOUS
 62
7
 10
138.000000
 20
90.000000
 40
1.250000
  0
CIRCLE
  8
0
  6
CONTINUOUS
 62
2
 10
138.000000
 20
90.000000
 40
1.500000
  0
ARC
  8
0
  6
CONTINUOUS
 62
7
 10
104.000000
 20
53.500000
 40
4.800000
 50
0.000000
 51
56.442699
  0
ARC
  8
0
  6
CONTINUOUS
 62
7
 10
182.000000
 20
53.500000
 40
4.800000
 50
123.556999
 51
180.000000
  0
ARC
  8
0
  6
CONTINUOUS
 62
7
 10
104.000000
 20
140.500000
 40
4.800000
 50
303.557007
 51
0.000000
  0
ARC
  8
0
  6
CONTINUOUS
 62
7
 10
182.000000
 20
140.500000
 40
4.800000
 50
180.000000
 51
236.442993
  0
CIRCLE
  8
0
  6
CONTINUOUS
 62
7
 10
112.000000
 20
110.500000
 40
3.000000
  0
CIRCLE
  8
0
  6
CONTINUOUS
 62
7
 10
112.000000
 20
89.500000
 40
3.000000
  0
CIRCLE
  8
0
  6
DASHED
 62
2
 10
174.000000
 20
89.500000
 40
3.000000
  0
CIRCLE
  8
0
  6
DASHED
 62
2
 10
174.000000
 20
110.500000
 40
3.000000
  0
CIRCLE
  8
0
  6
CONTINUOUS
 62
7
 10
69.000000
 20
55.000000
 40
5.400000
  0
ARC
  8
0
  6
CONTINUOUS
 62
7
 10
75.599998
 20
61.500000
 40
1.350000
 50
116.387001
 51
243.610992
  0
ARC
  8
0
  6
CONTINUOUS
 62
7
 10
62.400002
 20
61.500000
 40
1.350000
 50
296.385986
 51
63.610001
  0
CIRCLE
  8
0
  6
CONTINUOUS
 62
2
 10
60.000000
 20
52.000000
 40
1.500000
  0
CIRCLE
  8
0
  6
CONTINUOUS
 62
7
 10
60.000000
 20
52.000000
 40
1.250000
  0
CIRCLE
  8
0
  6
CONTINUOUS
 62
7
 10
217.000000
 20
55.000000
 40
5.400000
  0
ARC
  8
0
  6
CONTINUOUS
 62
7
 10
210.399994
 20
61.500000
 40
1.350000
 50
296.389008
 51
63.612598
  0
ARC
  8
0
  6
CONTINUOUS
 62
7
 10
223.600006
 20
61.500000
 40
1.350010
 50
116.389999
 51
243.613007
  0
CIRCLE
  8
0
  6
CONTINUOUS
 62
2
 10
226.000000
 20
52.000000
 40
1.500000
  0
CIRCLE
  8
0
  6
CONTINUOUS
 62
7
 10
226.000000
 20
52.000000
 40
1.250000
  0
CIRCLE
  8
0
  6
CONTINUOUS
 62
2
 10
112.000000
 20
29.500000
 40
2.000000
  0
CIRCLE
  8
0
  6
CONTINUOUS
 62
7
 10
112.000000
 20
8.500000
 40
1.650000
  0
CIRCLE
  8
0
  6
CONTINUOUS
 62
2
 10
112.000000
 20
8.500000
 40
2.000000
  0
CIRCLE
  8
0
  6
CONTINUOUS
 62
7
 10
112.000000
 20
29.500000
 40
1.650000
  0
CIRCLE
  8
0
  6
CONTINUOUS
 62
7
 10
174.000000
 20
8.500000
 40
1.650000
  0
CIRCLE
  8
0
  6
CONTINUOUS
 62
2
 10
174.000000
 20
8.500000
 40
2.000000
  0
CIRCLE
  8
0
  6
CONTINUOUS
 62
7
 10
174.000000
 20
29.500000
 40
1.650000
  0
CIRCLE
  8
0
  6
CONTINUOUS
 62
2
 10
174.000000
 20
29.500000
 40
2.000000
  0
CIRCLE
  8
0
  6
CONTINUOUS
 62
7
 10
180.500000
 20
22.500000
 40
5.900000
  0
CIRCLE
  8
0
  6
CONTINUOUS
 62
7
 10
105.500000
 20
22.500000
 40
5.900000
  0
ARC
  8
0
  6
CONTINUOUS
 62
2
 10
88.199997
 20
64.650002
 40
1.500000
 50
90.000000
 51
180.000000
  0
ARC
  8
0
  6
CONTINUOUS
 62
2
 10
88.199997
 20
63.349998
 40
1.500000
 50
180.000000
 51
270.000000
  0
ARC
  8
0
  6
CONTINUOUS
 62
2
 10
197.800003
 20
64.650002
 40
1.500000
 50
0.000000
 51
90.000000
  0
CIRCLE
  8
0
  6
CONTINUOUS
 62
7
 10
-192.000000
 20
-117.000000
 40
5.400000
  0
ARC
  8
0
  6
CONTINUOUS
 62
7
 10
-185.399994
 20
-110.500000
 40
1.350000
 50
116.387001
 51
243.610992
  0
ARC
  8
0
  6
CONTINUOUS
 62
7
 10
-198.600006
 20
-110.500000
 40
1.350010
 50
296.386993
 51
63.609901
  0
CIRCLE
  8
0
  6
CONTINUOUS
 62
2
 10
-201.000000
 20
-120.000000
 40
1.500000
  0
CIRCLE
  8
0
  6
CONTINUOUS
 62
7
 10
-201.000000
 20
-120.000000
 40
1.250000
  0
ARC
  8
0
  6
CONTINUOUS
 62
2
 10
-211.199997
 20
-107.349998
 40
1.500000
 50
0.000000
 51
90.000000
  0
ARC
  8
0
  6
CONTINUOUS
 62
2
 10
-211.199997
 20
-108.650002
 40
1.500000
 50
270.000000
 51
0.000000
  0
CIRCLE
  8
0
  6
CONTINUOUS
 62
7
 10
-94.000000
 20
-117.000000
 40
5.400000
  0
ARC
  8
0
  6
CONTINUOUS
 62
7
 10
-100.599998
 20
-110.500000
 40
1.350000
 50
296.389008
 51
63.612598
  0
ARC
  8
0
  6
CONTINUOUS
 62
7
 10
-87.400002
 20
-110.500000
 40
1.350000
 50
116.389999
 51
243.613998
  0
CIRCLE
  8
0
  6
CONTINUOUS
 62
2
 10
-85.000000
 20
-120.000000
 40
1.500000
  0
CIRCLE
  8
0
  6
CONTINUOUS
 62
7
 10
-85.000000
 20
-120.000000
 40
1.250000
  0
ARC
  8
0
  6
CONTINUOUS
 62
2
 10
-74.800003
 20
-107.349998
 40
1.500000
 50
90.000000
 51
180.000000
  0
ARC
  8
0
  6
CONTINUOUS
 62
2
 10
-74.800003
 20
-108.650002
 40
1.500000
 50
180.000000
 51
270.000000
  0
CIRCLE
  8
0
  6
CONTINUOUS
 62
7
 10
-167.000000
 20
53.500000
 40
2.100000
  0
CIRCLE
  8
0
  6
CONTINUOUS
 62
2
 10
-167.000000
 20
53.500000
 40
2.500000
  0
CIRCLE
  8
0
  6
CONTINUOUS
 62
7
 10
-119.000000
 20
53.500000
 40
2.100000
  0
CIRCLE
  8
0
  6
CONTINUOUS
 62
2
 10
-119.000000
 20
53.500000
 40
2.500000
  0
CIRCLE
  8
0
  6
CONTINUOUS
 62
7
 10
104.000000
 20
53.500000
 40
2.100000
  0
CIRCLE
  8
0
  6
CONTINUOUS
 62
2
 10
104.000000
 20
53.500000
 40
2.500000
  0
CIRCLE
  8
0
  6
CONTINUOUS
 62
7
 10
182.000000
 20
53.500000
 40
2.100000
  0
CIRCLE
  8
0
  6
CONTINUOUS
 62
2
 10
182.000000
 20
53.500000
 40
2.500000
  0
CIRCLE
  8
0
  6
CONTINUOUS
 62
7
 10
-167.000000
 20
-118.500000
 40
2.100000
  0
CIRCLE
  8
0
  6
CONTINUOUS
 62
2
 10
-167.000000
 20
-118.500000
 40
2.500000
  0
CIRCLE
  8
0
  6
CONTINUOUS
 62
7
 10
-119.000000
 20
-118.500000
 40
2.100000
  0
CIRCLE
  8
0
  6
CONTINUOUS
 62
2
 10
-119.000000
 20
-118.500000
 40
2.500000
  0
CIRCLE
  8
0
  6
CONTINUOUS
 62
7
 10
104.000000
 20
-118.500000
 40
2.100000
  0
CIRCLE
  8
0
  6
CONTINUOUS
 62
2
 10
104.000000
 20
-118.500000
 40
2.500000
  0
CIRCLE
  8
0
  6
CONTINUOUS
 62
7
 10
182.000000
 20
-118.500000
 40
2.100000
  0
CIRCLE
  8
0
  6
CONTINUOUS
 62
2
 10
182.000000
 20
-118.500000
 40
2.500000
  0
TEXT
  8
0
 62
7
 10
202.930283
 20
183.925003
 40
6.300000
  1
Ver.1.0
 50
0.000000
 41
1.010330
 51
0.000000
  7
STANDARD
  0
TEXT
  8
0
 62
7
 10
172.714691
 20
-187.250000
 40
9.000000
  1
KOGANEI CORP.
 50
0.000000
 41
0.771524
 51
0.000000
  7
STANDARD
  0
TEXT
  8
0
 62
7
 10
-243.569717
 20
183.925003
 40
6.300000
  1
AP TABLE
 50
0.000000
 41
0.775607
 51
0.000000
  7
STANDARD
  0
TEXT
  8
0
 62
7
 10
12.274609
 20
-16.325001
 40
6.300000
  1
MODEL:APTS-GT10-20-TP-R***
 50
0.000000
 41
0.772732
 51
0.000000
  7
STANDARD
  0
TEXT
  8
0
 62
7
 10
-269.400391
 20
-16.325001
 40
6.300000
  1
MODEL:APTS-GT10-10-TP-R***
 50
0.000000
 41
0.783771
 51
0.000000
  7
STANDARD
  0
TEXT
  8
0
 62
7
 10
-269.400391
 20
158.925003
 40
6.300000
  1
MODEL:APTS-SD10-10-TP-R***
 50
0.000000
 41
0.783771
 51
0.000000
  7
STANDARD
  0
TEXT
  8
0
 62
7
 10
12.274609
 20
158.925003
 40
6.300000
  1
MODEL:APTS-SD10-20-TP-R***
 50
0.000000
 41
0.772732
 51
0.000000
  7
STANDARD
  0
ENDSEC
  0
EOF
