  0
SECTION
  2
HEADER
  0
ENDSEC
  0
SECTION
  2
TABLES
  0
TABLE
  2
LTYPE
 70
     4
  0
LTYPE
  2
CONTINUOUS
 70
    64
  3
Solid line
 72
    65
 73
     0
 40
0.000000
  0
LTYPE
  2
DASHED
 70
    64
  3
__ __ __ __ __ __ __ __ __ __ __ __ __ __ __
 72
    65
 73
     2
 40
3.500000
 49
2.000000
 49
-1.500000
  0
LTYPE
  2
CENTER
 70
    64
  3
____ _ ____ _ ____ _ ____ _ ____ _ ____ _ ____
 72
    65
 73
     4
 40
17.500000
 49
13.000000
 49
-1.500000
 49
1.500000
 49
-1.500000
  0
LTYPE
  2
PHANTOM
 70
    64
  3
_____ _ _ _____ _ _ _____ _ _ _____ _ _ ____  
 72
    65
 73
     6
 40
15.500000
 49
8.000000
 49
-1.500000
 49
1.500000
 49
-1.500000
 49
1.500000
 49
-1.500000
  0
ENDTAB
  0
TABLE
  2
LAYER
 70
     1
  0
LAYER
  2
0
 70
     0
 62
     7
  6
CONTINUOUS
  0
ENDTAB
  0
TABLE
  2
STYLE
 70
     1
  0
STYLE
  2
STANDARD
 70
     0
 40
0.000000
 41
1.000000
 50
0.000000
 71
     0
 42
0.200000
  3
txt
  4
BIGFONT
  0
ENDTAB
  0
TABLE
  2
VIEW
 70
     0
  0
ENDTAB
  0
ENDSEC
  0
SECTION
  2
BLOCKS
  0
ENDSEC
  0
SECTION
  2
ENTITIES
  0
LINE
  8
0
  6
CONTINUOUS
 62
7
 10
-281.250000
 20
195.500000
 11
282.100006
 21
195.500000
  0
LINE
  8
0
  6
CONTINUOUS
 62
7
 10
-281.250000
 20
195.500000
 11
-281.250000
 21
-195.000000
  0
LINE
  8
0
  6
CONTINUOUS
 62
7
 10
282.100006
 20
195.500000
 11
282.100006
 21
-195.000000
  0
LINE
  8
0
  6
CONTINUOUS
 62
7
 10
-281.250000
 20
-195.000000
 11
282.100006
 21
-195.000000
  0
LINE
  8
0
  6
CONTINUOUS
 62
7
 10
162.100006
 20
-175.000000
 11
162.100006
 21
-195.000000
  0
LINE
  8
0
  6
CONTINUOUS
 62
7
 10
162.100006
 20
-175.000000
 11
282.100006
 21
-175.000000
  0
LINE
  8
0
  6
CONTINUOUS
 62
7
 10
162.100006
 20
175.500000
 11
282.100006
 21
175.500000
  0
LINE
  8
0
  6
CONTINUOUS
 62
7
 10
-281.250000
 20
175.500000
 11
-161.250000
 21
175.500000
  0
LINE
  8
0
  6
CONTINUOUS
 62
7
 10
162.100006
 20
195.500000
 11
162.100006
 21
175.500000
  0
LINE
  8
0
  6
CONTINUOUS
 62
7
 10
-161.250000
 20
195.500000
 11
-161.250000
 21
175.500000
  0
LINE
  8
0
  6
CONTINUOUS
 62
7
 10
174.000000
 20
-84.550003
 11
138.000000
 21
-84.550003
  0
LINE
  8
0
  6
CONTINUOUS
 62
7
 10
138.000000
 20
-84.550003
 11
138.000000
 21
-57.549999
  0
LINE
  8
0
  6
CONTINUOUS
 62
7
 10
174.000000
 20
-57.549999
 11
138.000000
 21
-57.549999
  0
LINE
  8
0
  6
CONTINUOUS
 62
7
 10
174.000000
 20
-84.550003
 11
174.000000
 21
-57.549999
  0
LINE
  8
0
  6
CONTINUOUS
 62
7
 10
101.000000
 20
-77.050003
 11
131.500000
 21
-77.050003
  0
LINE
  8
0
  6
CONTINUOUS
 62
7
 10
180.500000
 20
-77.050003
 11
191.000000
 21
-77.050003
  0
LINE
  8
0
  6
CONTINUOUS
 62
7
 10
101.000000
 20
-65.050003
 11
131.500000
 21
-65.050003
  0
LINE
  8
0
  6
CONTINUOUS
 62
7
 10
180.500000
 20
-65.050003
 11
191.000000
 21
-65.050003
  0
LINE
  8
0
  6
CONTINUOUS
 62
7
 10
174.000000
 20
-64.050003
 11
138.000000
 21
-64.050003
  0
LINE
  8
0
  6
CONTINUOUS
 62
7
 10
174.000000
 20
-78.050003
 11
138.000000
 21
-78.050003
  0
LINE
  8
0
  6
CONTINUOUS
 62
7
 10
180.500000
 20
-84.349998
 11
174.000000
 21
-84.349998
  0
LINE
  8
0
  6
CONTINUOUS
 62
7
 10
180.500000
 20
-57.750000
 11
180.500000
 21
-84.349998
  0
LINE
  8
0
  6
CONTINUOUS
 62
7
 10
180.500000
 20
-57.750000
 11
174.000000
 21
-57.750000
  0
LINE
  8
0
  6
CONTINUOUS
 62
7
 10
191.000000
 20
-85.050003
 11
164.000000
 21
-85.050003
  0
LINE
  8
0
  6
CONTINUOUS
 62
7
 10
191.000000
 20
-57.049999
 11
101.000000
 21
-57.049999
  0
LINE
  8
0
  6
CONTINUOUS
 62
7
 10
101.000000
 20
-85.050003
 11
101.000000
 21
-57.049999
  0
LINE
  8
0
  6
CONTINUOUS
 62
7
 10
191.000000
 20
-85.050003
 11
191.000000
 21
-57.049999
  0
LINE
  8
0
  6
CONTINUOUS
 62
7
 10
131.500000
 20
-99.550003
 11
131.500000
 21
-109.050003
  0
LINE
  8
0
  6
CONTINUOUS
 62
7
 10
138.000000
 20
-99.050003
 11
174.000000
 21
-99.050003
  0
LINE
  8
0
  6
CONTINUOUS
 62
7
 10
138.000000
 20
-99.050003
 11
138.000000
 21
-109.050003
  0
LINE
  8
0
  6
CONTINUOUS
 62
7
 10
180.500000
 20
-99.550003
 11
180.500000
 21
-101.550003
  0
LINE
  8
0
  6
CONTINUOUS
 62
7
 10
174.000000
 20
-99.050003
 11
174.000000
 21
-99.550003
  0
LINE
  8
0
  6
CONTINUOUS
 62
7
 10
101.000000
 20
-103.550003
 11
106.000000
 21
-103.550003
  0
LINE
  8
0
  6
CONTINUOUS
 62
7
 10
186.000000
 20
-103.550003
 11
191.000000
 21
-103.550003
  0
LINE
  8
0
  6
CONTINUOUS
 62
7
 10
101.000000
 20
-119.050003
 11
101.000000
 21
-103.550003
  0
LINE
  8
0
  6
CONTINUOUS
 62
7
 10
191.000000
 20
-119.050003
 11
191.000000
 21
-103.550003
  0
LINE
  8
0
  6
CONTINUOUS
 62
7
 10
101.000000
 20
-119.050003
 11
191.000000
 21
-119.050003
  0
LINE
  8
0
  6
CONTINUOUS
 62
7
 10
180.199997
 20
-113.550003
 11
175.000000
 21
-113.550003
  0
LINE
  8
0
  6
CONTINUOUS
 62
7
 10
101.000000
 20
-109.550003
 11
109.653000
 21
-109.550003
  0
LINE
  8
0
  6
CONTINUOUS
 62
7
 10
117.000000
 20
-113.550003
 11
111.800003
 21
-113.550003
  0
LINE
  8
0
  6
CONTINUOUS
 62
7
 10
131.500000
 20
-57.750000
 11
131.500000
 21
-84.349998
  0
LINE
  8
0
  6
CONTINUOUS
 62
7
 10
131.500000
 20
-57.750000
 11
138.000000
 21
-57.750000
  0
LINE
  8
0
  6
CONTINUOUS
 62
7
 10
131.500000
 20
-84.349998
 11
138.000000
 21
-84.349998
  0
LINE
  8
0
  6
CONTINUOUS
 62
7
 10
182.347000
 20
-109.550003
 11
191.000000
 21
-109.550003
  0
LINE
  8
0
  6
CENTER
 62
2
 10
115.000000
 20
-86.550003
 11
115.000000
 21
-76.550003
  0
LINE
  8
0
  6
CENTER
 62
2
 10
110.000000
 20
-81.550003
 11
120.000000
 21
-81.550003
  0
LINE
  8
0
  6
CENTER
 62
2
 10
115.000000
 20
-65.550003
 11
115.000000
 21
-55.549999
  0
LINE
  8
0
  6
CENTER
 62
2
 10
110.000000
 20
-60.549999
 11
120.000000
 21
-60.549999
  0
LINE
  8
0
  6
CENTER
 62
2
 10
141.000000
 20
-84.550003
 11
141.000000
 21
-77.550003
  0
LINE
  8
0
  6
CENTER
 62
2
 10
137.500000
 20
-81.050003
 11
144.500000
 21
-81.050003
  0
LINE
  8
0
  6
CENTER
 62
2
 10
156.000000
 20
-84.550003
 11
156.000000
 21
-77.550003
  0
LINE
  8
0
  6
CENTER
 62
2
 10
152.500000
 20
-81.050003
 11
159.500000
 21
-81.050003
  0
LINE
  8
0
  6
CENTER
 62
2
 10
171.000000
 20
-84.550003
 11
171.000000
 21
-77.550003
  0
LINE
  8
0
  6
CENTER
 62
2
 10
167.500000
 20
-81.050003
 11
174.500000
 21
-81.050003
  0
LINE
  8
0
  6
CENTER
 62
2
 10
177.000000
 20
-86.550003
 11
177.000000
 21
-76.550003
  0
LINE
  8
0
  6
CENTER
 62
2
 10
172.000000
 20
-81.550003
 11
182.000000
 21
-81.550003
  0
LINE
  8
0
  6
CENTER
 62
2
 10
177.000000
 20
-65.550003
 11
177.000000
 21
-55.549999
  0
LINE
  8
0
  6
CENTER
 62
2
 10
172.000000
 20
-60.549999
 11
182.000000
 21
-60.549999
  0
LINE
  8
0
  6
CENTER
 62
2
 10
171.000000
 20
-64.550003
 11
171.000000
 21
-57.549999
  0
LINE
  8
0
  6
CENTER
 62
2
 10
167.500000
 20
-61.049999
 11
174.500000
 21
-61.049999
  0
LINE
  8
0
  6
CENTER
 62
2
 10
99.000000
 20
-71.050003
 11
193.000000
 21
-71.050003
  0
LINE
  8
0
  6
CENTER
 62
2
 10
156.000000
 20
-64.550003
 11
156.000000
 21
-57.549999
  0
LINE
  8
0
  6
CENTER
 62
2
 10
152.500000
 20
-61.049999
 11
159.500000
 21
-61.049999
  0
LINE
  8
0
  6
CENTER
 62
2
 10
141.000000
 20
-64.550003
 11
141.000000
 21
-57.549999
  0
LINE
  8
0
  6
CENTER
 62
2
 10
137.500000
 20
-61.049999
 11
144.500000
 21
-61.049999
  0
LINE
  8
0
  6
DASHED
 62
2
 10
116.650002
 20
-114.050003
 11
116.650002
 21
-119.050003
  0
LINE
  8
0
  6
DASHED
 62
2
 10
118.000000
 20
-114.050003
 11
112.000000
 21
-114.050003
  0
LINE
  8
0
  6
CENTER
 62
2
 10
115.000000
 20
-111.550003
 11
115.000000
 21
-121.050003
  0
LINE
  8
0
  6
DASHED
 62
2
 10
113.349998
 20
-114.050003
 11
113.349998
 21
-119.050003
  0
LINE
  8
0
  6
DASHED
 62
2
 10
113.000000
 20
-114.050003
 11
113.000000
 21
-119.050003
  0
LINE
  8
0
  6
DASHED
 62
2
 10
112.000000
 20
-113.550003
 11
112.000000
 21
-114.050003
  0
LINE
  8
0
  6
DASHED
 62
2
 10
118.000000
 20
-113.550003
 11
118.000000
 21
-114.050003
  0
LINE
  8
0
  6
DASHED
 62
2
 10
179.000000
 20
-114.050003
 11
179.000000
 21
-119.050003
  0
LINE
  8
0
  6
DASHED
 62
2
 10
178.649994
 20
-114.050003
 11
178.649994
 21
-119.050003
  0
LINE
  8
0
  6
DASHED
 62
2
 10
180.000000
 20
-114.050003
 11
174.000000
 21
-114.050003
  0
LINE
  8
0
  6
CENTER
 62
2
 10
177.000000
 20
-111.550003
 11
177.000000
 21
-121.050003
  0
LINE
  8
0
  6
DASHED
 62
2
 10
175.350006
 20
-114.050003
 11
175.350006
 21
-119.050003
  0
LINE
  8
0
  6
DASHED
 62
2
 10
174.000000
 20
-113.550003
 11
174.000000
 21
-114.050003
  0
LINE
  8
0
  6
DASHED
 62
2
 10
180.000000
 20
-113.550003
 11
180.000000
 21
-114.050003
  0
LINE
  8
0
  6
CENTER
 62
2
 10
141.000000
 20
-97.050003
 11
141.000000
 21
-101.050003
  0
LINE
  8
0
  6
CENTER
 62
2
 10
156.000000
 20
-97.050003
 11
156.000000
 21
-101.050003
  0
LINE
  8
0
  6
CENTER
 62
2
 10
171.000000
 20
-97.050003
 11
171.000000
 21
-101.050003
  0
LINE
  8
0
  6
CENTER
 62
2
 10
-103.702003
 20
-71.050003
 11
-169.587006
 21
-71.050003
  0
LINE
  8
0
  6
CONTINUOUS
 62
7
 10
-120.500000
 20
-84.550003
 11
-141.500000
 21
-84.550003
  0
LINE
  8
0
  6
CONTINUOUS
 62
7
 10
-141.500000
 20
-84.550003
 11
-141.500000
 21
-57.549999
  0
LINE
  8
0
  6
CONTINUOUS
 62
7
 10
-120.500000
 20
-57.549999
 11
-141.500000
 21
-57.549999
  0
LINE
  8
0
  6
CONTINUOUS
 62
7
 10
-120.500000
 20
-84.550003
 11
-120.500000
 21
-57.549999
  0
LINE
  8
0
  6
CONTINUOUS
 62
7
 10
-166.000000
 20
-77.050003
 11
-148.000000
 21
-77.050003
  0
LINE
  8
0
  6
CONTINUOUS
 62
7
 10
-114.000000
 20
-77.050003
 11
-106.000000
 21
-77.050003
  0
LINE
  8
0
  6
CONTINUOUS
 62
7
 10
-166.000000
 20
-65.050003
 11
-148.000000
 21
-65.050003
  0
LINE
  8
0
  6
CONTINUOUS
 62
7
 10
-114.000000
 20
-65.050003
 11
-106.000000
 21
-65.050003
  0
LINE
  8
0
  6
CONTINUOUS
 62
7
 10
-120.500000
 20
-64.050003
 11
-141.500000
 21
-64.050003
  0
LINE
  8
0
  6
CONTINUOUS
 62
7
 10
-120.500000
 20
-78.050003
 11
-141.500000
 21
-78.050003
  0
LINE
  8
0
  6
CONTINUOUS
 62
7
 10
-114.000000
 20
-84.349998
 11
-120.500000
 21
-84.349998
  0
LINE
  8
0
  6
CONTINUOUS
 62
7
 10
-114.000000
 20
-57.750000
 11
-114.000000
 21
-84.349998
  0
LINE
  8
0
  6
CONTINUOUS
 62
7
 10
-114.000000
 20
-57.750000
 11
-120.500000
 21
-57.750000
  0
LINE
  8
0
  6
CONTINUOUS
 62
7
 10
-106.000000
 20
-57.049999
 11
-166.000000
 21
-57.049999
  0
LINE
  8
0
  6
CONTINUOUS
 62
7
 10
-166.000000
 20
-85.050003
 11
-166.000000
 21
-57.049999
  0
LINE
  8
0
  6
CONTINUOUS
 62
7
 10
-106.000000
 20
-85.050003
 11
-106.000000
 21
-57.049999
  0
LINE
  8
0
  6
CENTER
 62
2
 10
-152.000000
 20
-65.585297
 11
-152.000000
 21
-56.049999
  0
LINE
  8
0
  6
CENTER
 62
2
 10
-152.000000
 20
-76.550003
 11
-152.000000
 21
-85.550003
  0
LINE
  8
0
  6
CENTER
 62
2
 10
-138.500000
 20
-77.550003
 11
-138.500000
 21
-84.550003
  0
LINE
  8
0
  6
CENTER
 62
2
 10
-155.500000
 20
-81.550003
 11
-147.582993
 21
-81.550003
  0
LINE
  8
0
  6
CENTER
 62
2
 10
-138.500000
 20
-64.550003
 11
-138.500000
 21
-57.549999
  0
LINE
  8
0
  6
CENTER
 62
2
 10
-155.500000
 20
-60.549999
 11
-147.582993
 21
-60.549999
  0
LINE
  8
0
  6
CENTER
 62
2
 10
-120.000000
 20
-76.550003
 11
-120.000000
 21
-85.550003
  0
LINE
  8
0
  6
CENTER
 62
2
 10
-116.500000
 20
-81.550003
 11
-124.400002
 21
-81.550003
  0
LINE
  8
0
  6
CENTER
 62
2
 10
-123.500000
 20
-77.550003
 11
-123.500000
 21
-84.550003
  0
LINE
  8
0
  6
CENTER
 62
2
 10
-116.500000
 20
-60.549999
 11
-123.822998
 21
-60.549999
  0
LINE
  8
0
  6
CENTER
 62
2
 10
-123.500000
 20
-64.550003
 11
-123.500000
 21
-57.549999
  0
LINE
  8
0
  6
CENTER
 62
2
 10
-120.000000
 20
-65.585297
 11
-120.000000
 21
-56.049999
  0
LINE
  8
0
  6
CENTER
 62
2
 10
-141.500000
 20
-61.049999
 11
-135.000000
 21
-61.049999
  0
LINE
  8
0
  6
CENTER
 62
2
 10
-141.500000
 20
-81.050003
 11
-135.000000
 21
-81.050003
  0
LINE
  8
0
  6
CENTER
 62
2
 10
-120.500000
 20
-81.050003
 11
-127.000000
 21
-81.050003
  0
LINE
  8
0
  6
CENTER
 62
2
 10
-120.500000
 20
-61.049999
 11
-127.000000
 21
-61.049999
  0
LINE
  8
0
  6
CONTINUOUS
 62
7
 10
-148.000000
 20
-57.750000
 11
-148.000000
 21
-84.349998
  0
LINE
  8
0
  6
CONTINUOUS
 62
7
 10
-148.000000
 20
-84.349998
 11
-141.500000
 21
-84.349998
  0
LINE
  8
0
  6
CONTINUOUS
 62
7
 10
-148.000000
 20
-57.750000
 11
-141.500000
 21
-57.750000
  0
LINE
  8
0
  6
DASHED
 62
2
 10
-155.000000
 20
-114.050003
 11
-149.000000
 21
-114.050003
  0
LINE
  8
0
  6
CENTER
 62
2
 10
-152.000000
 20
-111.550003
 11
-152.000000
 21
-121.050003
  0
LINE
  8
0
  6
DASHED
 62
2
 10
-154.000000
 20
-114.050003
 11
-154.000000
 21
-119.050003
  0
LINE
  8
0
  6
DASHED
 62
2
 10
-150.000000
 20
-114.050003
 11
-150.000000
 21
-119.050003
  0
LINE
  8
0
  6
DASHED
 62
2
 10
-150.350006
 20
-114.050003
 11
-150.350006
 21
-119.050003
  0
LINE
  8
0
  6
DASHED
 62
2
 10
-153.649994
 20
-114.050003
 11
-153.649994
 21
-119.050003
  0
LINE
  8
0
  6
DASHED
 62
2
 10
-123.000000
 20
-114.050003
 11
-117.000000
 21
-114.050003
  0
LINE
  8
0
  6
CENTER
 62
2
 10
-120.000000
 20
-111.550003
 11
-120.000000
 21
-121.050003
  0
LINE
  8
0
  6
DASHED
 62
2
 10
-122.000000
 20
-114.050003
 11
-122.000000
 21
-119.050003
  0
LINE
  8
0
  6
DASHED
 62
2
 10
-118.000000
 20
-114.050003
 11
-118.000000
 21
-119.050003
  0
LINE
  8
0
  6
DASHED
 62
2
 10
-118.349998
 20
-114.050003
 11
-118.349998
 21
-119.050003
  0
LINE
  8
0
  6
DASHED
 62
2
 10
-121.650002
 20
-114.050003
 11
-121.650002
 21
-119.050003
  0
LINE
  8
0
  6
DASHED
 62
2
 10
-123.000000
 20
-113.550003
 11
-123.000000
 21
-114.050003
  0
LINE
  8
0
  6
DASHED
 62
2
 10
-149.000000
 20
-113.550003
 11
-149.000000
 21
-114.050003
  0
LINE
  8
0
  6
CONTINUOUS
 62
7
 10
-106.000000
 20
-160.050003
 11
-166.000000
 21
-160.050003
  0
LINE
  8
0
  6
CONTINUOUS
 62
7
 10
-166.000000
 20
-160.050003
 11
-166.000000
 21
-132.050003
  0
LINE
  8
0
  6
CONTINUOUS
 62
7
 10
-106.000000
 20
-132.050003
 11
-166.000000
 21
-132.050003
  0
LINE
  8
0
  6
CONTINUOUS
 62
7
 10
-106.000000
 20
-160.050003
 11
-106.000000
 21
-132.050003
  0
LINE
  8
0
  6
CENTER
 62
2
 10
-103.366997
 20
-146.050003
 11
-170.000000
 21
-146.050003
  0
LINE
  8
0
  6
CENTER
 62
2
 10
-158.500000
 20
-134.649994
 11
-158.500000
 21
-150.449997
  0
LINE
  8
0
  6
CENTER
 62
2
 10
-166.399994
 20
-142.550003
 11
-150.600006
 21
-142.550003
  0
LINE
  8
0
  6
CENTER
 62
2
 10
-152.000000
 20
-131.550003
 11
-152.000000
 21
-139.550003
  0
LINE
  8
0
  6
CENTER
 62
2
 10
-156.000000
 20
-135.550003
 11
-148.000000
 21
-135.550003
  0
LINE
  8
0
  6
CENTER
 62
2
 10
-120.000000
 20
-131.550003
 11
-120.000000
 21
-139.550003
  0
LINE
  8
0
  6
CENTER
 62
2
 10
-124.000000
 20
-135.550003
 11
-116.000000
 21
-135.550003
  0
LINE
  8
0
  6
CENTER
 62
2
 10
-113.500000
 20
-134.649994
 11
-113.500000
 21
-150.449997
  0
LINE
  8
0
  6
CENTER
 62
2
 10
-121.400002
 20
-142.550003
 11
-105.599998
 21
-142.550003
  0
LINE
  8
0
  6
CENTER
 62
2
 10
-120.000000
 20
-152.550003
 11
-120.000000
 21
-160.550003
  0
LINE
  8
0
  6
CENTER
 62
2
 10
-124.000000
 20
-156.550003
 11
-116.000000
 21
-156.550003
  0
LINE
  8
0
  6
CENTER
 62
2
 10
-152.000000
 20
-152.550003
 11
-152.000000
 21
-160.550003
  0
LINE
  8
0
  6
CENTER
 62
2
 10
-156.000000
 20
-156.550003
 11
-148.000000
 21
-156.550003
  0
LINE
  8
0
  6
CONTINUOUS
 62
7
 10
191.000000
 20
-160.050003
 11
101.000000
 21
-160.050003
  0
LINE
  8
0
  6
CONTINUOUS
 62
7
 10
101.000000
 20
-160.050003
 11
101.000000
 21
-132.050003
  0
LINE
  8
0
  6
CONTINUOUS
 62
7
 10
191.000000
 20
-132.050003
 11
101.000000
 21
-132.050003
  0
LINE
  8
0
  6
CONTINUOUS
 62
7
 10
191.000000
 20
-160.050003
 11
191.000000
 21
-132.050003
  0
LINE
  8
0
  6
CENTER
 62
2
 10
115.000000
 20
-131.550003
 11
115.000000
 21
-139.550003
  0
LINE
  8
0
  6
CENTER
 62
2
 10
111.000000
 20
-135.550003
 11
119.000000
 21
-135.550003
  0
LINE
  8
0
  6
CENTER
 62
2
 10
108.500000
 20
-134.649994
 11
108.500000
 21
-150.449997
  0
LINE
  8
0
  6
CENTER
 62
2
 10
100.599998
 20
-142.550003
 11
116.400002
 21
-142.550003
  0
LINE
  8
0
  6
CENTER
 62
2
 10
115.000000
 20
-152.550003
 11
115.000000
 21
-160.550003
  0
LINE
  8
0
  6
CENTER
 62
2
 10
111.000000
 20
-156.550003
 11
119.000000
 21
-156.550003
  0
LINE
  8
0
  6
CENTER
 62
2
 10
177.000000
 20
-152.550003
 11
177.000000
 21
-160.550003
  0
LINE
  8
0
  6
CENTER
 62
2
 10
173.000000
 20
-156.550003
 11
181.000000
 21
-156.550003
  0
LINE
  8
0
  6
CENTER
 62
2
 10
177.000000
 20
-131.550003
 11
177.000000
 21
-139.550003
  0
LINE
  8
0
  6
CENTER
 62
2
 10
173.000000
 20
-135.550003
 11
181.000000
 21
-135.550003
  0
LINE
  8
0
  6
CENTER
 62
2
 10
183.500000
 20
-134.649994
 11
183.500000
 21
-150.449997
  0
LINE
  8
0
  6
CENTER
 62
2
 10
175.600006
 20
-142.550003
 11
191.399994
 21
-142.550003
  0
LINE
  8
0
  6
CENTER
 62
2
 10
99.000000
 20
-146.050003
 11
193.000000
 21
-146.050003
  0
LINE
  8
0
  6
CENTER
 62
2
 10
128.692993
 20
-89.050003
 11
103.912003
 21
-89.050003
  0
LINE
  8
0
  6
CONTINUOUS
 62
7
 10
138.000000
 20
-99.550003
 11
113.000000
 21
-99.550003
  0
LINE
  8
0
  6
CONTINUOUS
 62
7
 10
162.000000
 20
-110.050003
 11
130.000000
 21
-110.050003
  0
LINE
  8
0
  6
CONTINUOUS
 62
7
 10
148.000000
 20
-99.550003
 11
164.000000
 21
-99.550003
  0
LINE
  8
0
  6
CONTINUOUS
 62
7
 10
106.000000
 20
-86.550003
 11
106.000000
 21
-91.550003
  0
LINE
  8
0
  6
CONTINUOUS
 62
7
 10
117.000000
 20
-118.550003
 11
175.000000
 21
-118.550003
  0
LINE
  8
0
  6
CONTINUOUS
 62
7
 10
186.000000
 20
-86.550003
 11
186.000000
 21
-91.550003
  0
LINE
  8
0
  6
CENTER
 62
2
 10
163.397003
 20
-104.050003
 11
186.587997
 21
-104.050003
  0
LINE
  8
0
  6
CONTINUOUS
 62
7
 10
164.000000
 20
-92.550003
 11
148.000000
 21
-92.550003
  0
LINE
  8
0
  6
CONTINUOUS
 62
7
 10
148.000000
 20
-107.550003
 11
164.000000
 21
-107.550003
  0
LINE
  8
0
  6
CONTINUOUS
 62
7
 10
148.000000
 20
-107.550003
 11
148.000000
 21
-99.550003
  0
LINE
  8
0
  6
CONTINUOUS
 62
7
 10
164.000000
 20
-107.550003
 11
164.000000
 21
-99.550003
  0
LINE
  8
0
  6
CONTINUOUS
 62
7
 10
117.000000
 20
-118.550003
 11
117.000000
 21
-99.550003
  0
LINE
  8
0
  6
CONTINUOUS
 62
7
 10
175.000000
 20
-118.550003
 11
175.000000
 21
-99.550003
  0
LINE
  8
0
  6
CONTINUOUS
 62
7
 10
127.000000
 20
-107.050003
 11
127.000000
 21
-99.550003
  0
LINE
  8
0
  6
CONTINUOUS
 62
7
 10
165.000000
 20
-107.050003
 11
165.000000
 21
-99.550003
  0
LINE
  8
0
  6
CENTER
 62
2
 10
163.307007
 20
-89.050003
 11
188.087997
 21
-89.050003
  0
LINE
  8
0
  6
CONTINUOUS
 62
7
 10
175.000000
 20
-93.050003
 11
117.000000
 21
-93.050003
  0
LINE
  8
0
  6
CONTINUOUS
 62
7
 10
148.000000
 20
-84.550003
 11
148.000000
 21
-92.550003
  0
LINE
  8
0
  6
CONTINUOUS
 62
7
 10
164.000000
 20
-84.550003
 11
164.000000
 21
-92.550003
  0
LINE
  8
0
  6
CONTINUOUS
 62
7
 10
165.000000
 20
-85.050003
 11
165.000000
 21
-93.050003
  0
LINE
  8
0
  6
CONTINUOUS
 62
7
 10
127.000000
 20
-85.050003
 11
127.000000
 21
-93.050003
  0
LINE
  8
0
  6
CONTINUOUS
 62
7
 10
180.500000
 20
-99.550003
 11
165.000000
 21
-99.550003
  0
LINE
  8
0
  6
CONTINUOUS
 62
7
 10
117.000000
 20
-85.050003
 11
117.000000
 21
-93.050003
  0
LINE
  8
0
  6
CONTINUOUS
 62
7
 10
175.000000
 20
-85.050003
 11
175.000000
 21
-93.050003
  0
LINE
  8
0
  6
CONTINUOUS
 62
2
 10
113.000000
 20
-91.150002
 11
106.000000
 21
-91.150002
  0
LINE
  8
0
  6
CONTINUOUS
 62
7
 10
113.000000
 20
-91.550003
 11
106.000000
 21
-91.550003
  0
LINE
  8
0
  6
CONTINUOUS
 62
2
 10
113.000000
 20
-86.949997
 11
106.000000
 21
-86.949997
  0
LINE
  8
0
  6
CONTINUOUS
 62
7
 10
113.000000
 20
-86.550003
 11
106.000000
 21
-86.550003
  0
LINE
  8
0
  6
CONTINUOUS
 62
7
 10
179.000000
 20
-86.550003
 11
186.000000
 21
-86.550003
  0
LINE
  8
0
  6
CONTINUOUS
 62
2
 10
179.000000
 20
-86.949997
 11
186.000000
 21
-86.949997
  0
LINE
  8
0
  6
CONTINUOUS
 62
2
 10
179.000000
 20
-91.150002
 11
186.000000
 21
-91.150002
  0
LINE
  8
0
  6
CONTINUOUS
 62
7
 10
179.000000
 20
-91.550003
 11
186.000000
 21
-91.550003
  0
LINE
  8
0
  6
CONTINUOUS
 62
7
 10
113.000000
 20
-107.750000
 11
113.000000
 21
-99.550003
  0
LINE
  8
0
  6
CONTINUOUS
 62
7
 10
113.000000
 20
-107.750000
 11
117.000000
 21
-107.750000
  0
LINE
  8
0
  6
CONTINUOUS
 62
7
 10
113.000000
 20
-100.349998
 11
117.000000
 21
-100.349998
  0
LINE
  8
0
  6
CONTINUOUS
 62
7
 10
113.000000
 20
-106.070999
 11
117.000000
 21
-106.070999
  0
LINE
  8
0
  6
CONTINUOUS
 62
7
 10
117.000000
 20
-105.250000
 11
113.000000
 21
-105.250000
  0
LINE
  8
0
  6
CONTINUOUS
 62
7
 10
113.000000
 20
-102.849998
 11
117.000000
 21
-102.849998
  0
LINE
  8
0
  6
CONTINUOUS
 62
7
 10
117.000000
 20
-102.028999
 11
113.000000
 21
-102.028999
  0
LINE
  8
0
  6
CONTINUOUS
 62
7
 10
179.000000
 20
-107.750000
 11
179.000000
 21
-100.349998
  0
LINE
  8
0
  6
CONTINUOUS
 62
7
 10
179.000000
 20
-107.750000
 11
175.000000
 21
-107.750000
  0
LINE
  8
0
  6
CONTINUOUS
 62
7
 10
179.000000
 20
-106.070999
 11
175.000000
 21
-106.070999
  0
LINE
  8
0
  6
CONTINUOUS
 62
7
 10
175.000000
 20
-105.250000
 11
179.000000
 21
-105.250000
  0
LINE
  8
0
  6
CONTINUOUS
 62
7
 10
179.000000
 20
-102.849998
 11
175.000000
 21
-102.849998
  0
LINE
  8
0
  6
CONTINUOUS
 62
7
 10
175.000000
 20
-102.028999
 11
179.000000
 21
-102.028999
  0
LINE
  8
0
  6
CONTINUOUS
 62
7
 10
117.000000
 20
-85.550003
 11
113.000000
 21
-85.550003
  0
LINE
  8
0
  6
CONTINUOUS
 62
7
 10
117.000000
 20
-92.550003
 11
113.000000
 21
-92.550003
  0
LINE
  8
0
  6
CONTINUOUS
 62
7
 10
113.000000
 20
-85.550003
 11
113.000000
 21
-92.550003
  0
LINE
  8
0
  6
CONTINUOUS
 62
7
 10
113.000000
 20
-89.760803
 11
117.000000
 21
-89.760803
  0
LINE
  8
0
  6
CONTINUOUS
 62
7
 10
113.000000
 20
-88.339203
 11
117.000000
 21
-88.339203
  0
LINE
  8
0
  6
CONTINUOUS
 62
7
 10
113.000000
 20
-91.839203
 11
117.000000
 21
-91.839203
  0
LINE
  8
0
  6
CONTINUOUS
 62
7
 10
113.000000
 20
-86.260803
 11
117.000000
 21
-86.260803
  0
LINE
  8
0
  6
CONTINUOUS
 62
7
 10
179.000000
 20
-100.349998
 11
175.000000
 21
-100.349998
  0
LINE
  8
0
  6
CENTER
 62
2
 10
120.000000
 20
-128.050003
 11
103.912003
 21
-128.050003
  0
LINE
  8
0
  6
CONTINUOUS
 62
7
 10
106.000000
 20
-130.550003
 11
106.000000
 21
-125.550003
  0
LINE
  8
0
  6
CONTINUOUS
 62
2
 10
113.000000
 20
-125.949997
 11
106.000000
 21
-125.949997
  0
LINE
  8
0
  6
CONTINUOUS
 62
2
 10
113.000000
 20
-130.149994
 11
106.000000
 21
-130.149994
  0
LINE
  8
0
  6
CONTINUOUS
 62
7
 10
113.000000
 20
-130.550003
 11
106.000000
 21
-130.550003
  0
LINE
  8
0
  6
CONTINUOUS
 62
7
 10
113.000000
 20
-125.550003
 11
106.000000
 21
-125.550003
  0
LINE
  8
0
  6
CONTINUOUS
 62
2
 10
179.000000
 20
-130.149994
 11
186.000000
 21
-130.149994
  0
LINE
  8
0
  6
CONTINUOUS
 62
7
 10
179.000000
 20
-130.550003
 11
186.000000
 21
-130.550003
  0
LINE
  8
0
  6
CONTINUOUS
 62
7
 10
186.000000
 20
-130.550003
 11
186.000000
 21
-125.550003
  0
LINE
  8
0
  6
CONTINUOUS
 62
2
 10
179.000000
 20
-125.949997
 11
186.000000
 21
-125.949997
  0
LINE
  8
0
  6
CONTINUOUS
 62
7
 10
179.000000
 20
-125.550003
 11
186.000000
 21
-125.550003
  0
LINE
  8
0
  6
CONTINUOUS
 62
7
 10
175.000000
 20
-124.550003
 11
179.000000
 21
-124.550003
  0
LINE
  8
0
  6
CONTINUOUS
 62
7
 10
175.000000
 20
-131.550003
 11
179.000000
 21
-131.550003
  0
LINE
  8
0
  6
CONTINUOUS
 62
7
 10
179.000000
 20
-124.550003
 11
179.000000
 21
-131.550003
  0
LINE
  8
0
  6
CONTINUOUS
 62
7
 10
179.000000
 20
-128.761002
 11
175.000000
 21
-128.761002
  0
LINE
  8
0
  6
CONTINUOUS
 62
7
 10
179.000000
 20
-127.338997
 11
175.000000
 21
-127.338997
  0
LINE
  8
0
  6
CONTINUOUS
 62
7
 10
179.000000
 20
-125.261002
 11
175.000000
 21
-125.261002
  0
LINE
  8
0
  6
CENTER
 62
2
 10
172.000000
 20
-128.050003
 11
186.914001
 21
-128.050003
  0
LINE
  8
0
  6
CONTINUOUS
 62
7
 10
175.000000
 20
-124.050003
 11
117.000000
 21
-124.050003
  0
LINE
  8
0
  6
CONTINUOUS
 62
7
 10
117.000000
 20
-132.050003
 11
117.000000
 21
-124.050003
  0
LINE
  8
0
  6
CONTINUOUS
 62
7
 10
175.000000
 20
-132.050003
 11
175.000000
 21
-124.050003
  0
LINE
  8
0
  6
CONTINUOUS
 62
7
 10
117.000000
 20
-131.550003
 11
113.000000
 21
-131.550003
  0
LINE
  8
0
  6
CONTINUOUS
 62
7
 10
117.000000
 20
-124.550003
 11
113.000000
 21
-124.550003
  0
LINE
  8
0
  6
CONTINUOUS
 62
7
 10
113.000000
 20
-131.550003
 11
113.000000
 21
-124.550003
  0
LINE
  8
0
  6
CONTINUOUS
 62
7
 10
113.000000
 20
-127.338997
 11
117.000000
 21
-127.338997
  0
LINE
  8
0
  6
CONTINUOUS
 62
7
 10
113.000000
 20
-128.761002
 11
117.000000
 21
-128.761002
  0
LINE
  8
0
  6
CONTINUOUS
 62
7
 10
113.000000
 20
-125.261002
 11
117.000000
 21
-125.261002
  0
LINE
  8
0
  6
CONTINUOUS
 62
7
 10
113.000000
 20
-130.839005
 11
117.000000
 21
-130.839005
  0
LINE
  8
0
  6
CONTINUOUS
 62
7
 10
106.000000
 20
-101.550003
 11
106.000000
 21
-106.550003
  0
LINE
  8
0
  6
CONTINUOUS
 62
2
 10
113.000000
 20
-106.150002
 11
106.000000
 21
-106.150002
  0
LINE
  8
0
  6
CONTINUOUS
 62
7
 10
113.000000
 20
-106.550003
 11
106.000000
 21
-106.550003
  0
LINE
  8
0
  6
CONTINUOUS
 62
2
 10
113.000000
 20
-101.949997
 11
106.000000
 21
-101.949997
  0
LINE
  8
0
  6
CONTINUOUS
 62
7
 10
113.000000
 20
-101.550003
 11
106.000000
 21
-101.550003
  0
LINE
  8
0
  6
CONTINUOUS
 62
7
 10
179.000000
 20
-106.550003
 11
186.000000
 21
-106.550003
  0
LINE
  8
0
  6
CONTINUOUS
 62
2
 10
179.000000
 20
-106.150002
 11
186.000000
 21
-106.150002
  0
LINE
  8
0
  6
CONTINUOUS
 62
7
 10
186.000000
 20
-101.550003
 11
186.000000
 21
-106.550003
  0
LINE
  8
0
  6
CONTINUOUS
 62
2
 10
179.000000
 20
-101.949997
 11
186.000000
 21
-101.949997
  0
LINE
  8
0
  6
CONTINUOUS
 62
7
 10
179.000000
 20
-101.550003
 11
186.000000
 21
-101.550003
  0
LINE
  8
0
  6
CONTINUOUS
 62
7
 10
179.000000
 20
-85.550003
 11
179.000000
 21
-92.550003
  0
LINE
  8
0
  6
CONTINUOUS
 62
7
 10
179.000000
 20
-91.839203
 11
175.000000
 21
-91.839203
  0
LINE
  8
0
  6
CONTINUOUS
 62
7
 10
175.000000
 20
-92.550003
 11
179.000000
 21
-92.550003
  0
LINE
  8
0
  6
CONTINUOUS
 62
7
 10
179.000000
 20
-89.760803
 11
175.000000
 21
-89.760803
  0
LINE
  8
0
  6
CONTINUOUS
 62
7
 10
179.000000
 20
-88.339203
 11
175.000000
 21
-88.339203
  0
LINE
  8
0
  6
CONTINUOUS
 62
7
 10
179.000000
 20
-86.260803
 11
175.000000
 21
-86.260803
  0
LINE
  8
0
  6
CONTINUOUS
 62
7
 10
175.000000
 20
-85.550003
 11
179.000000
 21
-85.550003
  0
LINE
  8
0
  6
CONTINUOUS
 62
7
 10
106.000000
 20
-40.549999
 11
106.000000
 21
-38.549999
  0
LINE
  8
0
  6
CONTINUOUS
 62
7
 10
186.000000
 20
-40.549999
 11
186.000000
 21
-38.549999
  0
LINE
  8
0
  6
CONTINUOUS
 62
7
 10
180.500000
 20
-40.549999
 11
186.000000
 21
-40.549999
  0
LINE
  8
0
  6
CONTINUOUS
 62
7
 10
148.000000
 20
-85.050003
 11
101.000000
 21
-85.050003
  0
LINE
  8
0
  6
CONTINUOUS
 62
7
 10
-106.000000
 20
-85.050003
 11
-123.000000
 21
-85.050003
  0
LINE
  8
0
  6
CONTINUOUS
 62
7
 10
131.500000
 20
-109.050003
 11
164.235992
 21
-109.050003
  0
LINE
  8
0
  6
CONTINUOUS
 62
7
 10
128.000000
 20
-103.550003
 11
131.500000
 21
-103.550003
  0
LINE
  8
0
  6
CENTER
 62
2
 10
128.602997
 20
-104.050003
 11
105.412003
 21
-104.050003
  0
LINE
  8
0
  6
CENTER
 62
2
 10
-147.897003
 20
-104.050003
 11
-166.587997
 21
-104.050003
  0
LINE
  8
0
  6
CENTER
 62
2
 10
-123.602997
 20
-104.050003
 11
-106.412003
 21
-104.050003
  0
LINE
  8
0
  6
CONTINUOUS
 62
7
 10
-141.500000
 20
-99.050003
 11
-120.500000
 21
-99.050003
  0
LINE
  8
0
  6
CONTINUOUS
 62
7
 10
-106.000000
 20
-119.050003
 11
-106.000000
 21
-103.550003
  0
LINE
  8
0
  6
CONTINUOUS
 62
7
 10
-166.000000
 20
-119.050003
 11
-106.000000
 21
-119.050003
  0
LINE
  8
0
  6
CONTINUOUS
 62
7
 10
-166.000000
 20
-109.550003
 11
-157.347000
 21
-109.550003
  0
LINE
  8
0
  6
CONTINUOUS
 62
7
 10
-148.000000
 20
-109.050003
 11
-122.267998
 21
-109.050003
  0
LINE
  8
0
  6
CONTINUOUS
 62
7
 10
-166.000000
 20
-119.050003
 11
-166.000000
 21
-103.550003
  0
LINE
  8
0
  6
CONTINUOUS
 62
7
 10
-166.000000
 20
-109.550003
 11
-157.347000
 21
-109.550003
  0
LINE
  8
0
  6
CONTINUOUS
 62
7
 10
-114.653000
 20
-109.550003
 11
-106.000000
 21
-109.550003
  0
LINE
  8
0
  6
CONTINUOUS
 62
7
 10
-166.000000
 20
-103.550003
 11
-165.000000
 21
-103.550003
  0
LINE
  8
0
  6
CONTINUOUS
 62
7
 10
-107.000000
 20
-103.550003
 11
-106.000000
 21
-103.550003
  0
LINE
  8
0
  6
CONTINUOUS
 62
7
 10
-114.000000
 20
-109.050003
 11
-114.000000
 21
-107.750000
  0
LINE
  8
0
  6
CONTINUOUS
 62
7
 10
-148.000000
 20
-109.050003
 11
-148.000000
 21
-99.550003
  0
LINE
  8
0
  6
CONTINUOUS
 62
7
 10
-141.500000
 20
-109.050003
 11
-141.500000
 21
-99.050003
  0
LINE
  8
0
  6
CONTINUOUS
 62
7
 10
-120.500000
 20
-99.550003
 11
-120.500000
 21
-99.050003
  0
LINE
  8
0
  6
CONTINUOUS
 62
7
 10
-122.000000
 20
-99.550003
 11
-114.000000
 21
-99.550003
  0
LINE
  8
0
  6
CONTINUOUS
 62
7
 10
-139.000000
 20
-107.550003
 11
-139.000000
 21
-99.550003
  0
LINE
  8
0
  6
CONTINUOUS
 62
7
 10
-123.000000
 20
-99.550003
 11
-139.000000
 21
-99.550003
  0
LINE
  8
0
  6
CONTINUOUS
 62
7
 10
-123.000000
 20
-107.550003
 11
-123.000000
 21
-99.550003
  0
LINE
  8
0
  6
CONTINUOUS
 62
7
 10
-154.500000
 20
-99.550003
 11
-141.500000
 21
-99.550003
  0
LINE
  8
0
  6
CONTINUOUS
 62
7
 10
-154.500000
 20
-118.550003
 11
-117.500000
 21
-118.550003
  0
LINE
  8
0
  6
CONTINUOUS
 62
7
 10
-122.000000
 20
-108.050003
 11
-122.000000
 21
-99.550003
  0
LINE
  8
0
  6
CONTINUOUS
 62
7
 10
-114.000000
 20
-100.349998
 11
-114.000000
 21
-99.550003
  0
LINE
  8
0
  6
CONTINUOUS
 62
7
 10
-117.500000
 20
-109.050003
 11
-114.000000
 21
-109.050003
  0
LINE
  8
0
  6
CONTINUOUS
 62
7
 10
-107.000000
 20
-106.550003
 11
-107.000000
 21
-101.550003
  0
LINE
  8
0
  6
CONTINUOUS
 62
7
 10
-150.000000
 20
-108.050003
 11
-150.000000
 21
-99.550003
  0
LINE
  8
0
  6
CONTINUOUS
 62
7
 10
-158.500000
 20
-107.750000
 11
-158.500000
 21
-100.349998
  0
LINE
  8
0
  6
CONTINUOUS
 62
7
 10
-154.500000
 20
-100.349998
 11
-158.500000
 21
-100.349998
  0
LINE
  8
0
  6
CONTINUOUS
 62
7
 10
-154.500000
 20
-107.750000
 11
-158.500000
 21
-107.750000
  0
LINE
  8
0
  6
CONTINUOUS
 62
7
 10
-154.500000
 20
-105.250000
 11
-158.500000
 21
-105.250000
  0
LINE
  8
0
  6
CONTINUOUS
 62
7
 10
-154.500000
 20
-106.481003
 11
-158.500000
 21
-106.481003
  0
LINE
  8
0
  6
CONTINUOUS
 62
7
 10
-154.500000
 20
-102.849998
 11
-158.500000
 21
-102.849998
  0
LINE
  8
0
  6
CONTINUOUS
 62
7
 10
-154.500000
 20
-101.619003
 11
-158.500000
 21
-101.619003
  0
LINE
  8
0
  6
CONTINUOUS
 62
7
 10
-165.000000
 20
-106.550003
 11
-158.500000
 21
-106.550003
  0
LINE
  8
0
  6
CONTINUOUS
 62
7
 10
-165.000000
 20
-101.550003
 11
-158.500000
 21
-101.550003
  0
LINE
  8
0
  6
CONTINUOUS
 62
2
 10
-165.000000
 20
-106.150002
 11
-158.500000
 21
-106.150002
  0
LINE
  8
0
  6
CONTINUOUS
 62
2
 10
-165.000000
 20
-101.949997
 11
-158.500000
 21
-101.949997
  0
LINE
  8
0
  6
CONTINUOUS
 62
7
 10
-165.000000
 20
-106.550003
 11
-165.000000
 21
-101.550003
  0
LINE
  8
0
  6
CONTINUOUS
 62
7
 10
-149.000000
 20
-103.550003
 11
-148.000000
 21
-103.550003
  0
LINE
  8
0
  6
CONTINUOUS
 62
7
 10
-117.500000
 20
-118.550003
 11
-117.500000
 21
-99.550003
  0
LINE
  8
0
  6
CONTINUOUS
 62
7
 10
-154.500000
 20
-118.550003
 11
-154.500000
 21
-99.550003
  0
LINE
  8
0
  6
CONTINUOUS
 62
7
 10
-124.000000
 20
-110.050003
 11
-148.000000
 21
-110.050003
  0
LINE
  8
0
  6
CONTINUOUS
 62
7
 10
-123.000000
 20
-107.550003
 11
-139.000000
 21
-107.550003
  0
LINE
  8
0
  6
CONTINUOUS
 62
7
 10
-113.500000
 20
-101.550003
 11
-107.000000
 21
-101.550003
  0
LINE
  8
0
  6
CONTINUOUS
 62
2
 10
-113.500000
 20
-101.949997
 11
-107.000000
 21
-101.949997
  0
LINE
  8
0
  6
CONTINUOUS
 62
2
 10
-113.500000
 20
-106.150002
 11
-107.000000
 21
-106.150002
  0
LINE
  8
0
  6
CONTINUOUS
 62
7
 10
-113.500000
 20
-106.550003
 11
-107.000000
 21
-106.550003
  0
LINE
  8
0
  6
CONTINUOUS
 62
7
 10
-117.500000
 20
-100.349998
 11
-113.500000
 21
-100.349998
  0
LINE
  8
0
  6
CONTINUOUS
 62
7
 10
-113.500000
 20
-100.349998
 11
-113.500000
 21
-107.750000
  0
LINE
  8
0
  6
CONTINUOUS
 62
7
 10
-117.500000
 20
-101.619003
 11
-113.500000
 21
-101.619003
  0
LINE
  8
0
  6
CONTINUOUS
 62
7
 10
-117.500000
 20
-102.849998
 11
-113.500000
 21
-102.849998
  0
LINE
  8
0
  6
CONTINUOUS
 62
7
 10
-117.500000
 20
-105.250000
 11
-113.500000
 21
-105.250000
  0
LINE
  8
0
  6
CONTINUOUS
 62
7
 10
-117.500000
 20
-106.481003
 11
-113.500000
 21
-106.481003
  0
LINE
  8
0
  6
CONTINUOUS
 62
7
 10
-117.500000
 20
-107.750000
 11
-113.500000
 21
-107.750000
  0
LINE
  8
0
  6
DASHED
 62
2
 10
-155.000000
 20
-113.550003
 11
-155.000000
 21
-114.050003
  0
LINE
  8
0
  6
DASHED
 62
2
 10
-117.000000
 20
-113.550003
 11
-117.000000
 21
-114.050003
  0
LINE
  8
0
  6
CONTINUOUS
 62
7
 10
-154.000000
 20
-42.549999
 11
-154.500000
 21
-42.549999
  0
LINE
  8
0
  6
CONTINUOUS
 62
7
 10
-114.000000
 20
-40.481098
 11
-113.500000
 21
-40.481098
  0
LINE
  8
0
  6
CONTINUOUS
 62
7
 10
-154.500000
 20
-38.549999
 11
-154.500000
 21
-42.549999
  0
LINE
  8
0
  6
CONTINUOUS
 62
7
 10
-158.500000
 20
-41.750000
 11
-158.500000
 21
-38.549999
  0
LINE
  8
0
  6
CONTINUOUS
 62
7
 10
-154.500000
 20
-41.750000
 11
-158.500000
 21
-41.750000
  0
LINE
  8
0
  6
CONTINUOUS
 62
7
 10
-154.500000
 20
-39.250000
 11
-158.500000
 21
-39.250000
  0
LINE
  8
0
  6
CONTINUOUS
 62
7
 10
-154.500000
 20
-40.481098
 11
-158.500000
 21
-40.481098
  0
LINE
  8
0
  6
CONTINUOUS
 62
7
 10
-165.000000
 20
-40.549999
 11
-158.500000
 21
-40.549999
  0
LINE
  8
0
  6
CONTINUOUS
 62
2
 10
-165.000000
 20
-40.150002
 11
-158.500000
 21
-40.150002
  0
LINE
  8
0
  6
CONTINUOUS
 62
7
 10
-165.000000
 20
-40.549999
 11
-165.000000
 21
-38.549999
  0
LINE
  8
0
  6
CONTINUOUS
 62
7
 10
-107.000000
 20
-40.549999
 11
-113.500000
 21
-40.549999
  0
LINE
  8
0
  6
CONTINUOUS
 62
7
 10
-107.000000
 20
-38.549999
 11
-107.000000
 21
-40.549999
  0
LINE
  8
0
  6
CONTINUOUS
 62
2
 10
-107.000000
 20
-40.150002
 11
-113.500000
 21
-40.150002
  0
LINE
  8
0
  6
CONTINUOUS
 62
7
 10
-113.500000
 20
-38.549999
 11
-113.500000
 21
-41.750000
  0
LINE
  8
0
  6
CONTINUOUS
 62
7
 10
-114.000000
 20
-41.750000
 11
-113.500000
 21
-41.750000
  0
LINE
  8
0
  6
CONTINUOUS
 62
7
 10
-114.000000
 20
-39.250000
 11
-113.500000
 21
-39.250000
  0
LINE
  8
0
  6
CENTER
 62
2
 10
-152.000000
 20
-128.050003
 11
-167.087997
 21
-128.050003
  0
LINE
  8
0
  6
CENTER
 62
2
 10
-120.000000
 20
-128.050003
 11
-106.085999
 21
-128.050003
  0
LINE
  8
0
  6
CONTINUOUS
 62
7
 10
-117.500000
 20
-124.050003
 11
-154.500000
 21
-124.050003
  0
LINE
  8
0
  6
CONTINUOUS
 62
7
 10
-154.500000
 20
-132.050003
 11
-154.500000
 21
-124.050003
  0
LINE
  8
0
  6
CONTINUOUS
 62
7
 10
-117.500000
 20
-132.050003
 11
-117.500000
 21
-124.050003
  0
LINE
  8
0
  6
CONTINUOUS
 62
7
 10
-165.000000
 20
-130.550003
 11
-158.500000
 21
-130.550003
  0
LINE
  8
0
  6
CONTINUOUS
 62
7
 10
-165.000000
 20
-125.550003
 11
-158.500000
 21
-125.550003
  0
LINE
  8
0
  6
CONTINUOUS
 62
2
 10
-165.000000
 20
-130.149994
 11
-158.500000
 21
-130.149994
  0
LINE
  8
0
  6
CONTINUOUS
 62
2
 10
-165.000000
 20
-125.949997
 11
-158.500000
 21
-125.949997
  0
LINE
  8
0
  6
CONTINUOUS
 62
7
 10
-165.000000
 20
-130.550003
 11
-165.000000
 21
-125.550003
  0
LINE
  8
0
  6
CONTINUOUS
 62
7
 10
-107.000000
 20
-125.550003
 11
-113.500000
 21
-125.550003
  0
LINE
  8
0
  6
CONTINUOUS
 62
7
 10
-107.000000
 20
-130.550003
 11
-113.500000
 21
-130.550003
  0
LINE
  8
0
  6
CONTINUOUS
 62
2
 10
-107.000000
 20
-125.949997
 11
-113.500000
 21
-125.949997
  0
LINE
  8
0
  6
CONTINUOUS
 62
2
 10
-107.000000
 20
-130.149994
 11
-113.500000
 21
-130.149994
  0
LINE
  8
0
  6
CONTINUOUS
 62
7
 10
-107.000000
 20
-125.550003
 11
-107.000000
 21
-130.550003
  0
LINE
  8
0
  6
CONTINUOUS
 62
7
 10
-154.500000
 20
-124.550003
 11
-158.500000
 21
-124.550003
  0
LINE
  8
0
  6
CONTINUOUS
 62
7
 10
-158.500000
 20
-131.550003
 11
-158.500000
 21
-124.550003
  0
LINE
  8
0
  6
CONTINUOUS
 62
7
 10
-154.500000
 20
-131.550003
 11
-158.500000
 21
-131.550003
  0
LINE
  8
0
  6
CONTINUOUS
 62
7
 10
-154.500000
 20
-130.839005
 11
-158.500000
 21
-130.839005
  0
LINE
  8
0
  6
CONTINUOUS
 62
7
 10
-154.500000
 20
-128.761002
 11
-158.500000
 21
-128.761002
  0
LINE
  8
0
  6
CONTINUOUS
 62
7
 10
-154.500000
 20
-127.338997
 11
-158.500000
 21
-127.338997
  0
LINE
  8
0
  6
CONTINUOUS
 62
7
 10
-154.500000
 20
-125.261002
 11
-158.500000
 21
-125.261002
  0
LINE
  8
0
  6
CONTINUOUS
 62
7
 10
-117.500000
 20
-131.550003
 11
-113.500000
 21
-131.550003
  0
LINE
  8
0
  6
CONTINUOUS
 62
7
 10
-113.500000
 20
-124.550003
 11
-113.500000
 21
-131.550003
  0
LINE
  8
0
  6
CONTINUOUS
 62
7
 10
-117.500000
 20
-124.550003
 11
-113.500000
 21
-124.550003
  0
LINE
  8
0
  6
CONTINUOUS
 62
7
 10
-117.500000
 20
-125.261002
 11
-113.500000
 21
-125.261002
  0
LINE
  8
0
  6
CONTINUOUS
 62
7
 10
-117.500000
 20
-127.338997
 11
-113.500000
 21
-127.338997
  0
LINE
  8
0
  6
CONTINUOUS
 62
7
 10
-117.500000
 20
-128.761002
 11
-113.500000
 21
-128.761002
  0
LINE
  8
0
  6
CONTINUOUS
 62
7
 10
-117.500000
 20
-130.839005
 11
-113.500000
 21
-130.839005
  0
LINE
  8
0
  6
CENTER
 62
2
 10
-148.307007
 20
-89.050003
 11
-167.087997
 21
-89.050003
  0
LINE
  8
0
  6
CONTINUOUS
 62
7
 10
-123.000000
 20
-92.550003
 11
-139.000000
 21
-92.550003
  0
LINE
  8
0
  6
CENTER
 62
2
 10
-123.693001
 20
-89.050003
 11
-106.085999
 21
-89.050003
  0
LINE
  8
0
  6
CONTINUOUS
 62
7
 10
-117.500000
 20
-93.050003
 11
-154.500000
 21
-93.050003
  0
LINE
  8
0
  6
CONTINUOUS
 62
7
 10
-139.000000
 20
-84.550003
 11
-139.000000
 21
-92.550003
  0
LINE
  8
0
  6
CONTINUOUS
 62
7
 10
-123.000000
 20
-84.550003
 11
-123.000000
 21
-92.550003
  0
LINE
  8
0
  6
CONTINUOUS
 62
7
 10
-122.000000
 20
-85.050003
 11
-122.000000
 21
-93.050003
  0
LINE
  8
0
  6
CONTINUOUS
 62
7
 10
-150.000000
 20
-85.050003
 11
-150.000000
 21
-93.050003
  0
LINE
  8
0
  6
CONTINUOUS
 62
7
 10
-154.500000
 20
-85.050003
 11
-154.500000
 21
-93.050003
  0
LINE
  8
0
  6
CONTINUOUS
 62
7
 10
-165.000000
 20
-91.550003
 11
-158.500000
 21
-91.550003
  0
LINE
  8
0
  6
CONTINUOUS
 62
7
 10
-165.000000
 20
-86.550003
 11
-158.500000
 21
-86.550003
  0
LINE
  8
0
  6
CONTINUOUS
 62
2
 10
-165.000000
 20
-91.150002
 11
-158.500000
 21
-91.150002
  0
LINE
  8
0
  6
CONTINUOUS
 62
2
 10
-165.000000
 20
-86.949997
 11
-158.500000
 21
-86.949997
  0
LINE
  8
0
  6
CONTINUOUS
 62
7
 10
-165.000000
 20
-91.550003
 11
-165.000000
 21
-86.550003
  0
LINE
  8
0
  6
CONTINUOUS
 62
7
 10
-117.500000
 20
-85.050003
 11
-117.500000
 21
-93.050003
  0
LINE
  8
0
  6
CONTINUOUS
 62
7
 10
-107.000000
 20
-86.550003
 11
-113.500000
 21
-86.550003
  0
LINE
  8
0
  6
CONTINUOUS
 62
7
 10
-107.000000
 20
-91.550003
 11
-113.500000
 21
-91.550003
  0
LINE
  8
0
  6
CONTINUOUS
 62
2
 10
-107.000000
 20
-86.949997
 11
-113.500000
 21
-86.949997
  0
LINE
  8
0
  6
CONTINUOUS
 62
2
 10
-107.000000
 20
-91.150002
 11
-113.500000
 21
-91.150002
  0
LINE
  8
0
  6
CONTINUOUS
 62
7
 10
-107.000000
 20
-86.550003
 11
-107.000000
 21
-91.550003
  0
LINE
  8
0
  6
CONTINUOUS
 62
7
 10
-154.500000
 20
-85.550003
 11
-158.500000
 21
-85.550003
  0
LINE
  8
0
  6
CONTINUOUS
 62
7
 10
-158.500000
 20
-92.550003
 11
-158.500000
 21
-85.550003
  0
LINE
  8
0
  6
CONTINUOUS
 62
7
 10
-154.500000
 20
-92.550003
 11
-158.500000
 21
-92.550003
  0
LINE
  8
0
  6
CONTINUOUS
 62
7
 10
-154.500000
 20
-91.839203
 11
-158.500000
 21
-91.839203
  0
LINE
  8
0
  6
CONTINUOUS
 62
7
 10
-154.500000
 20
-89.760803
 11
-158.500000
 21
-89.760803
  0
LINE
  8
0
  6
CONTINUOUS
 62
7
 10
-154.500000
 20
-88.339203
 11
-158.500000
 21
-88.339203
  0
LINE
  8
0
  6
CONTINUOUS
 62
7
 10
-154.500000
 20
-86.260803
 11
-158.500000
 21
-86.260803
  0
LINE
  8
0
  6
CONTINUOUS
 62
7
 10
-117.500000
 20
-92.550003
 11
-113.500000
 21
-92.550003
  0
LINE
  8
0
  6
CONTINUOUS
 62
7
 10
-113.500000
 20
-85.550003
 11
-113.500000
 21
-92.550003
  0
LINE
  8
0
  6
CONTINUOUS
 62
7
 10
-117.500000
 20
-85.550003
 11
-113.500000
 21
-85.550003
  0
LINE
  8
0
  6
CONTINUOUS
 62
7
 10
-117.500000
 20
-86.260803
 11
-113.500000
 21
-86.260803
  0
LINE
  8
0
  6
CONTINUOUS
 62
7
 10
-117.500000
 20
-88.339203
 11
-113.500000
 21
-88.339203
  0
LINE
  8
0
  6
CONTINUOUS
 62
7
 10
-117.500000
 20
-89.760803
 11
-113.500000
 21
-89.760803
  0
LINE
  8
0
  6
CONTINUOUS
 62
7
 10
-117.500000
 20
-91.839203
 11
-113.500000
 21
-91.839203
  0
LINE
  8
0
  6
CONTINUOUS
 62
7
 10
-139.000000
 20
-85.050003
 11
-166.000000
 21
-85.050003
  0
LINE
  8
0
  6
CONTINUOUS
 62
7
 10
106.000000
 20
-40.549999
 11
113.000000
 21
-40.549999
  0
LINE
  8
0
  6
CONTINUOUS
 62
2
 10
106.000000
 20
-40.150002
 11
113.000000
 21
-40.150002
  0
LINE
  8
0
  6
CONTINUOUS
 62
2
 10
180.500000
 20
-40.150002
 11
186.000000
 21
-40.150002
  0
LINE
  8
0
  6
CONTINUOUS
 62
7
 10
-141.500000
 20
-43.049999
 11
-120.500000
 21
-43.049999
  0
LINE
  8
0
  6
CONTINUOUS
 62
7
 10
-141.500000
 20
-43.049999
 11
-141.500000
 21
-42.549999
  0
LINE
  8
0
  6
CONTINUOUS
 62
7
 10
-114.000000
 20
-42.549999
 11
-114.000000
 21
-33.049999
  0
LINE
  8
0
  6
CONTINUOUS
 62
7
 10
-120.500000
 20
-43.049999
 11
-120.500000
 21
-42.549999
  0
LINE
  8
0
  6
CONTINUOUS
 62
7
 10
-166.000000
 20
-38.549999
 11
-154.000000
 21
-38.549999
  0
LINE
  8
0
  6
CONTINUOUS
 62
7
 10
-114.000000
 20
-38.549999
 11
-106.000000
 21
-38.549999
  0
LINE
  8
0
  6
CONTINUOUS
 62
7
 10
-166.000000
 20
-23.049999
 11
-166.000000
 21
-38.549999
  0
LINE
  8
0
  6
CONTINUOUS
 62
7
 10
-106.000000
 20
-23.049999
 11
-106.000000
 21
-38.549999
  0
LINE
  8
0
  6
CONTINUOUS
 62
7
 10
-166.000000
 20
-23.049999
 11
-106.000000
 21
-23.049999
  0
LINE
  8
0
  6
CONTINUOUS
 62
7
 10
-116.800003
 20
-28.549999
 11
-118.000000
 21
-28.549999
  0
LINE
  8
0
  6
CONTINUOUS
 62
7
 10
-166.000000
 20
-32.549999
 11
-157.347000
 21
-32.549999
  0
LINE
  8
0
  6
CONTINUOUS
 62
7
 10
-154.000000
 20
-28.549999
 11
-155.199997
 21
-28.549999
  0
LINE
  8
0
  6
CONTINUOUS
 62
7
 10
-118.000000
 20
-33.049999
 11
-114.000000
 21
-33.049999
  0
LINE
  8
0
  6
CONTINUOUS
 62
7
 10
-114.653000
 20
-32.549999
 11
-106.000000
 21
-32.549999
  0
LINE
  8
0
  6
DASHED
 62
2
 10
-123.000000
 20
-28.049999
 11
-117.000000
 21
-28.049999
  0
LINE
  8
0
  6
CENTER
 62
2
 10
-120.000000
 20
-30.549999
 11
-120.000000
 21
-21.049999
  0
LINE
  8
0
  6
DASHED
 62
2
 10
-123.000000
 20
-28.549999
 11
-123.000000
 21
-28.049999
  0
LINE
  8
0
  6
DASHED
 62
2
 10
-149.000000
 20
-28.549999
 11
-149.000000
 21
-28.049999
  0
LINE
  8
0
  6
DASHED
 62
2
 10
-122.000000
 20
-28.049999
 11
-122.000000
 21
-23.049999
  0
LINE
  8
0
  6
DASHED
 62
2
 10
-118.000000
 20
-28.049999
 11
-118.000000
 21
-23.049999
  0
LINE
  8
0
  6
DASHED
 62
2
 10
-118.349998
 20
-28.049999
 11
-118.349998
 21
-23.049999
  0
LINE
  8
0
  6
DASHED
 62
2
 10
-121.650002
 20
-28.049999
 11
-121.650002
 21
-23.049999
  0
LINE
  8
0
  6
DASHED
 62
2
 10
-155.000000
 20
-28.049999
 11
-149.000000
 21
-28.049999
  0
LINE
  8
0
  6
CENTER
 62
2
 10
-152.000000
 20
-30.549999
 11
-152.000000
 21
-21.049999
  0
LINE
  8
0
  6
DASHED
 62
2
 10
-155.000000
 20
-28.549999
 11
-155.000000
 21
-28.049999
  0
LINE
  8
0
  6
DASHED
 62
2
 10
-154.000000
 20
-28.049999
 11
-154.000000
 21
-23.049999
  0
LINE
  8
0
  6
DASHED
 62
2
 10
-150.000000
 20
-28.049999
 11
-150.000000
 21
-23.049999
  0
LINE
  8
0
  6
DASHED
 62
2
 10
-150.350006
 20
-28.049999
 11
-150.350006
 21
-23.049999
  0
LINE
  8
0
  6
DASHED
 62
2
 10
-153.649994
 20
-28.049999
 11
-153.649994
 21
-23.049999
  0
LINE
  8
0
  6
DASHED
 62
2
 10
-117.000000
 20
-28.549999
 11
-117.000000
 21
-28.049999
  0
LINE
  8
0
  6
CENTER
 62
2
 10
-138.500000
 20
-101.050003
 11
-138.500000
 21
-97.050003
  0
LINE
  8
0
  6
CENTER
 62
2
 10
-123.500000
 20
-101.050003
 11
-123.500000
 21
-97.050003
  0
LINE
  8
0
  6
CONTINUOUS
 62
2
 10
-118.000000
 20
-34.349998
 11
-154.000000
 21
-34.349998
  0
LINE
  8
0
  6
CONTINUOUS
 62
2
 10
-118.000000
 20
-37.750000
 11
-154.000000
 21
-37.750000
  0
LINE
  8
0
  6
CONTINUOUS
 62
2
 10
-118.000000
 20
-40.349998
 11
-154.000000
 21
-40.349998
  0
LINE
  8
0
  6
CONTINUOUS
 62
2
 10
-118.000000
 20
-31.750000
 11
-154.000000
 21
-31.750000
  0
LINE
  8
0
  6
CONTINUOUS
 62
7
 10
-154.000000
 20
-42.549999
 11
-154.000000
 21
-23.549999
  0
LINE
  8
0
  6
CONTINUOUS
 62
7
 10
-114.000000
 20
-42.549999
 11
-154.000000
 21
-42.549999
  0
LINE
  8
0
  6
CONTINUOUS
 62
7
 10
-118.000000
 20
-42.549999
 11
-118.000000
 21
-23.549999
  0
LINE
  8
0
  6
CONTINUOUS
 62
7
 10
-154.000000
 20
-23.549999
 11
-118.000000
 21
-23.549999
  0
LINE
  8
0
  6
CONTINUOUS
 62
7
 10
-118.000000
 20
-54.549999
 11
-154.000000
 21
-54.549999
  0
LINE
  8
0
  6
CONTINUOUS
 62
7
 10
-134.250000
 20
-57.049999
 11
-134.250000
 21
-55.549999
  0
LINE
  8
0
  6
CONTINUOUS
 62
7
 10
-127.750000
 20
-55.549999
 11
-134.250000
 21
-55.549999
  0
LINE
  8
0
  6
CONTINUOUS
 62
7
 10
-127.750000
 20
-57.049999
 11
-127.750000
 21
-55.549999
  0
LINE
  8
0
  6
CONTINUOUS
 62
7
 10
-154.000000
 20
-57.049999
 11
-154.000000
 21
-47.049999
  0
LINE
  8
0
  6
CONTINUOUS
 62
7
 10
-118.000000
 20
-47.049999
 11
-154.000000
 21
-47.049999
  0
LINE
  8
0
  6
CONTINUOUS
 62
7
 10
-118.000000
 20
-57.049999
 11
-118.000000
 21
-47.049999
  0
LINE
  8
0
  6
CONTINUOUS
 62
7
 10
-154.000000
 20
-160.050003
 11
-154.000000
 21
-170.050003
  0
LINE
  8
0
  6
CONTINUOUS
 62
7
 10
-118.000000
 20
-170.050003
 11
-154.000000
 21
-170.050003
  0
LINE
  8
0
  6
CONTINUOUS
 62
7
 10
-118.000000
 20
-160.050003
 11
-118.000000
 21
-170.050003
  0
LINE
  8
0
  6
CONTINUOUS
 62
7
 10
68.000000
 20
-103.550003
 11
80.000000
 21
-103.550003
  0
LINE
  8
0
  6
CONTINUOUS
 62
7
 10
68.000000
 20
-106.759003
 11
68.000000
 21
-109.550003
  0
LINE
  8
0
  6
CONTINUOUS
 62
7
 10
68.000000
 20
-103.550003
 11
68.000000
 21
-104.341003
  0
LINE
  8
0
  6
CONTINUOUS
 62
7
 10
60.500000
 20
-99.050003
 11
67.000000
 21
-99.050003
  0
LINE
  8
0
  6
CONTINUOUS
 62
7
 10
60.500000
 20
-109.050003
 11
68.000000
 21
-109.050003
  0
LINE
  8
0
  6
CONTINUOUS
 62
7
 10
67.300003
 20
-99.349998
 11
80.699997
 21
-99.349998
  0
LINE
  8
0
  6
CONTINUOUS
 62
7
 10
80.000000
 20
-106.759003
 11
80.000000
 21
-109.550003
  0
LINE
  8
0
  6
CONTINUOUS
 62
7
 10
80.000000
 20
-103.550003
 11
80.000000
 21
-104.341003
  0
LINE
  8
0
  6
CONTINUOUS
 62
7
 10
87.500000
 20
-99.050003
 11
81.000000
 21
-99.050003
  0
LINE
  8
0
  6
CONTINUOUS
 62
7
 10
87.500000
 20
-99.050003
 11
87.500000
 21
-109.050003
  0
LINE
  8
0
  6
CONTINUOUS
 62
7
 10
87.500000
 20
-109.050003
 11
80.000000
 21
-109.050003
  0
LINE
  8
0
  6
CONTINUOUS
 62
7
 10
60.500000
 20
-99.050003
 11
60.500000
 21
-109.050003
  0
LINE
  8
0
  6
CONTINUOUS
 62
7
 10
67.000000
 20
-99.049896
 11
67.300003
 21
-99.349998
  0
LINE
  8
0
  6
CONTINUOUS
 62
7
 10
80.999901
 20
-99.049896
 11
80.699898
 21
-99.349899
  0
LINE
  8
0
  6
CONTINUOUS
 62
7
 10
88.000000
 20
-109.550003
 11
80.000000
 21
-109.550003
  0
LINE
  8
0
  6
CONTINUOUS
 62
7
 10
88.000000
 20
-119.050003
 11
60.000000
 21
-119.050003
  0
LINE
  8
0
  6
CONTINUOUS
 62
7
 10
60.000000
 20
-109.550003
 11
68.000000
 21
-109.550003
  0
LINE
  8
0
  6
CONTINUOUS
 62
7
 10
88.000000
 20
-99.550003
 11
88.000000
 21
-119.050003
  0
LINE
  8
0
  6
CENTER
 62
2
 10
65.000000
 20
-111.550003
 11
65.000000
 21
-118.550003
  0
LINE
  8
0
  6
CENTER
 62
2
 10
61.500000
 20
-115.050003
 11
68.500000
 21
-115.050003
  0
LINE
  8
0
  6
CENTER
 62
2
 10
74.000000
 20
-97.050003
 11
74.000000
 21
-121.050003
  0
LINE
  8
0
  6
CENTER
 62
2
 10
66.599998
 20
-112.050003
 11
81.400002
 21
-112.050003
  0
LINE
  8
0
  6
CENTER
 62
2
 10
64.000000
 20
-97.050003
 11
64.000000
 21
-101.050003
  0
LINE
  8
0
  6
CENTER
 62
2
 10
84.000000
 20
-97.050003
 11
84.000000
 21
-101.050003
  0
LINE
  8
0
  6
CENTER
 62
2
 10
84.500000
 20
-117.050003
 11
84.500000
 21
-121.050003
  0
LINE
  8
0
  6
CENTER
 62
2
 10
63.500000
 20
-117.050003
 11
63.500000
 21
-121.050003
  0
LINE
  8
0
  6
CONTINUOUS
 62
7
 10
96.000000
 20
-99.550003
 11
96.000000
 21
-118.550003
  0
LINE
  8
0
  6
CONTINUOUS
 62
7
 10
88.000000
 20
-118.550003
 11
96.000000
 21
-118.550003
  0
LINE
  8
0
  6
CONTINUOUS
 62
7
 10
87.500000
 20
-99.550003
 11
96.000000
 21
-99.550003
  0
LINE
  8
0
  6
CONTINUOUS
 62
7
 10
92.000000
 20
-102.607002
 11
93.250000
 21
-103.328003
  0
LINE
  8
0
  6
CONTINUOUS
 62
7
 10
93.250000
 20
-103.328003
 11
93.250000
 21
-104.772003
  0
LINE
  8
0
  6
CONTINUOUS
 62
7
 10
92.000000
 20
-105.492996
 11
93.250000
 21
-104.772003
  0
LINE
  8
0
  6
CONTINUOUS
 62
7
 10
90.750000
 20
-104.772003
 11
92.000000
 21
-105.492996
  0
LINE
  8
0
  6
CONTINUOUS
 62
7
 10
90.750000
 20
-103.328003
 11
90.750000
 21
-104.772003
  0
LINE
  8
0
  6
CONTINUOUS
 62
7
 10
92.000000
 20
-102.607002
 11
90.750000
 21
-103.328003
  0
LINE
  8
0
  6
CONTINUOUS
 62
7
 10
91.289200
 20
-100.418999
 11
89.210701
 21
-101.619003
  0
LINE
  8
0
  6
CENTER
 62
2
 10
92.000000
 20
-99.050003
 11
92.000000
 21
-109.050003
  0
LINE
  8
0
  6
CENTER
 62
2
 10
97.000000
 20
-104.050003
 11
87.000000
 21
-104.050003
  0
LINE
  8
0
  6
CONTINUOUS
 62
7
 10
92.710800
 20
-100.418999
 11
94.789299
 21
-101.619003
  0
LINE
  8
0
  6
CONTINUOUS
 62
7
 10
95.500000
 20
-102.849998
 11
95.500000
 21
-105.250000
  0
LINE
  8
0
  6
CONTINUOUS
 62
7
 10
92.710701
 20
-107.681000
 11
94.789200
 21
-106.481003
  0
LINE
  8
0
  6
CONTINUOUS
 62
7
 10
89.210800
 20
-106.481003
 11
91.289299
 21
-107.681000
  0
LINE
  8
0
  6
CONTINUOUS
 62
7
 10
88.500000
 20
-102.849998
 11
88.500000
 21
-105.250000
  0
LINE
  8
0
  6
CONTINUOUS
 62
7
 10
50.000000
 20
-118.550003
 11
60.000000
 21
-118.550003
  0
LINE
  8
0
  6
CONTINUOUS
 62
2
 10
51.000000
 20
-100.900002
 11
51.000000
 21
-101.750000
  0
LINE
  8
0
  6
CONTINUOUS
 62
7
 10
50.000000
 20
-99.550003
 11
50.000000
 21
-118.550003
  0
LINE
  8
0
  6
CONTINUOUS
 62
7
 10
50.000000
 20
-99.550003
 11
57.500000
 21
-99.550003
  0
LINE
  8
0
  6
CONTINUOUS
 62
7
 10
57.500000
 20
-99.550003
 11
57.500000
 21
-112.050003
  0
LINE
  8
0
  6
CONTINUOUS
 62
7
 10
58.500000
 20
-100.550003
 11
58.500000
 21
-111.550003
  0
LINE
  8
0
  6
CONTINUOUS
 62
7
 10
58.500000
 20
-100.550003
 11
60.500000
 21
-100.550003
  0
LINE
  8
0
  6
CONTINUOUS
 62
7
 10
58.500000
 20
-111.550003
 11
60.000000
 21
-111.550003
  0
LINE
  8
0
  6
CONTINUOUS
 62
7
 10
57.500000
 20
-112.050003
 11
60.000000
 21
-112.050003
  0
LINE
  8
0
  6
CONTINUOUS
 62
2
 10
51.000000
 20
-100.900002
 11
54.799999
 21
-100.900002
  0
LINE
  8
0
  6
CONTINUOUS
 62
2
 10
56.299999
 20
-102.400002
 11
56.299999
 21
-103.699997
  0
LINE
  8
0
  6
CONTINUOUS
 62
2
 10
51.000000
 20
-105.199997
 11
54.799999
 21
-105.199997
  0
LINE
  8
0
  6
CONTINUOUS
 62
2
 10
50.000000
 20
-104.349998
 11
51.000000
 21
-104.349998
  0
LINE
  8
0
  6
CONTINUOUS
 62
2
 10
50.000000
 20
-101.750000
 11
51.000000
 21
-101.750000
  0
LINE
  8
0
  6
CONTINUOUS
 62
2
 10
51.000000
 20
-104.349998
 11
51.000000
 21
-105.199997
  0
LINE
  8
0
  6
CENTER
 62
2
 10
48.000000
 20
-103.050003
 11
58.299999
 21
-103.050003
  0
LINE
  8
0
  6
CENTER
 62
2
 10
48.000000
 20
-109.050003
 11
58.299999
 21
-109.050003
  0
LINE
  8
0
  6
CONTINUOUS
 62
7
 10
113.000000
 20
-160.050003
 11
113.000000
 21
-170.050003
  0
LINE
  8
0
  6
CONTINUOUS
 62
7
 10
179.000000
 20
-170.050003
 11
113.000000
 21
-170.050003
  0
LINE
  8
0
  6
CONTINUOUS
 62
7
 10
179.000000
 20
-160.050003
 11
179.000000
 21
-170.050003
  0
LINE
  8
0
  6
CONTINUOUS
 62
7
 10
113.000000
 20
-57.049999
 11
113.000000
 21
-47.049999
  0
LINE
  8
0
  6
CONTINUOUS
 62
7
 10
179.000000
 20
-47.049999
 11
113.000000
 21
-47.049999
  0
LINE
  8
0
  6
CONTINUOUS
 62
7
 10
179.000000
 20
-54.549999
 11
113.000000
 21
-54.549999
  0
LINE
  8
0
  6
CONTINUOUS
 62
7
 10
159.250000
 20
-55.549999
 11
152.750000
 21
-55.549999
  0
LINE
  8
0
  6
CONTINUOUS
 62
7
 10
152.750000
 20
-57.049999
 11
152.750000
 21
-55.549999
  0
LINE
  8
0
  6
CONTINUOUS
 62
7
 10
159.250000
 20
-57.049999
 11
159.250000
 21
-55.549999
  0
LINE
  8
0
  6
CONTINUOUS
 62
7
 10
179.000000
 20
-57.049999
 11
179.000000
 21
-47.049999
  0
LINE
  8
0
  6
CONTINUOUS
 62
7
 10
138.000000
 20
-43.049999
 11
174.000000
 21
-43.049999
  0
LINE
  8
0
  6
CONTINUOUS
 62
7
 10
138.000000
 20
-43.049999
 11
138.000000
 21
-42.549999
  0
LINE
  8
0
  6
CONTINUOUS
 62
7
 10
131.500000
 20
-42.549999
 11
138.000000
 21
-42.549999
  0
LINE
  8
0
  6
CONTINUOUS
 62
7
 10
180.500000
 20
-42.549999
 11
180.500000
 21
-33.049999
  0
LINE
  8
0
  6
CONTINUOUS
 62
7
 10
174.000000
 20
-43.049999
 11
174.000000
 21
-42.549999
  0
LINE
  8
0
  6
CONTINUOUS
 62
7
 10
180.500000
 20
-42.549999
 11
174.000000
 21
-42.549999
  0
LINE
  8
0
  6
CONTINUOUS
 62
7
 10
101.000000
 20
-38.549999
 11
113.000000
 21
-38.549999
  0
LINE
  8
0
  6
CONTINUOUS
 62
7
 10
180.500000
 20
-38.549999
 11
191.000000
 21
-38.549999
  0
LINE
  8
0
  6
CONTINUOUS
 62
7
 10
101.000000
 20
-23.049999
 11
101.000000
 21
-38.549999
  0
LINE
  8
0
  6
CONTINUOUS
 62
7
 10
191.000000
 20
-23.049999
 11
191.000000
 21
-38.549999
  0
LINE
  8
0
  6
CONTINUOUS
 62
7
 10
101.000000
 20
-23.049999
 11
191.000000
 21
-23.049999
  0
LINE
  8
0
  6
CONTINUOUS
 62
7
 10
180.199997
 20
-28.549999
 11
179.000000
 21
-28.549999
  0
LINE
  8
0
  6
CONTINUOUS
 62
7
 10
101.000000
 20
-32.549999
 11
109.653000
 21
-32.549999
  0
LINE
  8
0
  6
CONTINUOUS
 62
7
 10
113.000000
 20
-28.549999
 11
111.800003
 21
-28.549999
  0
LINE
  8
0
  6
CONTINUOUS
 62
7
 10
179.000000
 20
-33.049999
 11
180.500000
 21
-33.049999
  0
LINE
  8
0
  6
CONTINUOUS
 62
7
 10
182.347000
 20
-32.549999
 11
191.000000
 21
-32.549999
  0
LINE
  8
0
  6
DASHED
 62
2
 10
113.000000
 20
-28.049999
 11
113.000000
 21
-23.049999
  0
LINE
  8
0
  6
DASHED
 62
2
 10
113.349998
 20
-28.049999
 11
113.349998
 21
-23.049999
  0
LINE
  8
0
  6
DASHED
 62
2
 10
112.000000
 20
-28.049999
 11
118.000000
 21
-28.049999
  0
LINE
  8
0
  6
CENTER
 62
2
 10
115.000000
 20
-30.549999
 11
115.000000
 21
-21.049999
  0
LINE
  8
0
  6
DASHED
 62
2
 10
116.650002
 20
-28.049999
 11
116.650002
 21
-23.049999
  0
LINE
  8
0
  6
DASHED
 62
2
 10
117.000000
 20
-28.049999
 11
117.000000
 21
-23.049999
  0
LINE
  8
0
  6
DASHED
 62
2
 10
118.000000
 20
-28.549999
 11
118.000000
 21
-28.049999
  0
LINE
  8
0
  6
DASHED
 62
2
 10
112.000000
 20
-28.549999
 11
112.000000
 21
-28.049999
  0
LINE
  8
0
  6
DASHED
 62
2
 10
175.000000
 20
-28.049999
 11
175.000000
 21
-23.049999
  0
LINE
  8
0
  6
DASHED
 62
2
 10
175.350006
 20
-28.049999
 11
175.350006
 21
-23.049999
  0
LINE
  8
0
  6
DASHED
 62
2
 10
174.000000
 20
-28.049999
 11
180.000000
 21
-28.049999
  0
LINE
  8
0
  6
CENTER
 62
2
 10
177.000000
 20
-30.549999
 11
177.000000
 21
-21.049999
  0
LINE
  8
0
  6
DASHED
 62
2
 10
178.649994
 20
-28.049999
 11
178.649994
 21
-23.049999
  0
LINE
  8
0
  6
DASHED
 62
2
 10
179.000000
 20
-28.049999
 11
179.000000
 21
-23.049999
  0
LINE
  8
0
  6
DASHED
 62
2
 10
180.000000
 20
-28.549999
 11
180.000000
 21
-28.049999
  0
LINE
  8
0
  6
DASHED
 62
2
 10
174.000000
 20
-28.549999
 11
174.000000
 21
-28.049999
  0
LINE
  8
0
  6
CENTER
 62
2
 10
141.000000
 20
-45.049999
 11
141.000000
 21
-41.049999
  0
LINE
  8
0
  6
CENTER
 62
2
 10
156.000000
 20
-45.049999
 11
156.000000
 21
-41.049999
  0
LINE
  8
0
  6
CENTER
 62
2
 10
171.000000
 20
-45.049999
 11
171.000000
 21
-41.049999
  0
LINE
  8
0
  6
CONTINUOUS
 62
7
 10
113.000000
 20
-42.549999
 11
113.000000
 21
-23.549999
  0
LINE
  8
0
  6
CONTINUOUS
 62
7
 10
113.000000
 20
-23.549999
 11
179.000000
 21
-23.549999
  0
LINE
  8
0
  6
CONTINUOUS
 62
2
 10
113.000000
 20
-31.750000
 11
179.000000
 21
-31.750000
  0
LINE
  8
0
  6
CONTINUOUS
 62
2
 10
113.000000
 20
-34.349998
 11
179.000000
 21
-34.349998
  0
LINE
  8
0
  6
CONTINUOUS
 62
2
 10
113.000000
 20
-37.750000
 11
179.000000
 21
-37.750000
  0
LINE
  8
0
  6
CONTINUOUS
 62
2
 10
113.000000
 20
-40.349998
 11
179.000000
 21
-40.349998
  0
LINE
  8
0
  6
CONTINUOUS
 62
7
 10
180.500000
 20
-42.549999
 11
113.000000
 21
-42.549999
  0
LINE
  8
0
  6
CONTINUOUS
 62
7
 10
179.000000
 20
-42.549999
 11
179.000000
 21
-23.549999
  0
LINE
  8
0
  6
CONTINUOUS
 62
7
 10
174.000000
 20
117.699997
 11
138.000000
 21
117.699997
  0
LINE
  8
0
  6
CONTINUOUS
 62
7
 10
138.000000
 20
117.699997
 11
138.000000
 21
90.699997
  0
LINE
  8
0
  6
CONTINUOUS
 62
7
 10
174.000000
 20
90.699997
 11
138.000000
 21
90.699997
  0
LINE
  8
0
  6
CONTINUOUS
 62
7
 10
174.000000
 20
117.699997
 11
174.000000
 21
90.699997
  0
LINE
  8
0
  6
CONTINUOUS
 62
7
 10
101.000000
 20
110.199997
 11
131.500000
 21
110.199997
  0
LINE
  8
0
  6
CONTINUOUS
 62
7
 10
180.500000
 20
110.199997
 11
191.000000
 21
110.199997
  0
LINE
  8
0
  6
CONTINUOUS
 62
7
 10
101.000000
 20
98.199997
 11
131.500000
 21
98.199997
  0
LINE
  8
0
  6
CONTINUOUS
 62
7
 10
180.500000
 20
98.199997
 11
191.000000
 21
98.199997
  0
LINE
  8
0
  6
CONTINUOUS
 62
7
 10
174.000000
 20
97.199997
 11
138.000000
 21
97.199997
  0
LINE
  8
0
  6
CONTINUOUS
 62
7
 10
174.000000
 20
111.199997
 11
138.000000
 21
111.199997
  0
LINE
  8
0
  6
CONTINUOUS
 62
7
 10
180.500000
 20
117.500000
 11
174.000000
 21
117.500000
  0
LINE
  8
0
  6
CONTINUOUS
 62
7
 10
180.500000
 20
90.900002
 11
180.500000
 21
117.500000
  0
LINE
  8
0
  6
CONTINUOUS
 62
7
 10
180.500000
 20
90.900002
 11
174.000000
 21
90.900002
  0
LINE
  8
0
  6
CONTINUOUS
 62
7
 10
191.000000
 20
118.199997
 11
164.000000
 21
118.199997
  0
LINE
  8
0
  6
CONTINUOUS
 62
7
 10
191.000000
 20
90.199997
 11
101.000000
 21
90.199997
  0
LINE
  8
0
  6
CONTINUOUS
 62
7
 10
101.000000
 20
118.199997
 11
101.000000
 21
90.199997
  0
LINE
  8
0
  6
CONTINUOUS
 62
7
 10
191.000000
 20
118.199997
 11
191.000000
 21
90.199997
  0
LINE
  8
0
  6
CONTINUOUS
 62
7
 10
131.500000
 20
131.699997
 11
131.500000
 21
141.199997
  0
LINE
  8
0
  6
CONTINUOUS
 62
7
 10
138.000000
 20
131.199997
 11
174.000000
 21
131.199997
  0
LINE
  8
0
  6
CONTINUOUS
 62
7
 10
138.000000
 20
131.199997
 11
138.000000
 21
141.199997
  0
LINE
  8
0
  6
CONTINUOUS
 62
7
 10
180.500000
 20
131.699997
 11
180.500000
 21
133.699997
  0
LINE
  8
0
  6
CONTINUOUS
 62
7
 10
174.000000
 20
131.199997
 11
174.000000
 21
131.699997
  0
LINE
  8
0
  6
CONTINUOUS
 62
7
 10
101.000000
 20
135.699997
 11
106.000000
 21
135.699997
  0
LINE
  8
0
  6
CONTINUOUS
 62
7
 10
186.000000
 20
135.699997
 11
191.000000
 21
135.699997
  0
LINE
  8
0
  6
CONTINUOUS
 62
7
 10
101.000000
 20
151.199997
 11
101.000000
 21
135.699997
  0
LINE
  8
0
  6
CONTINUOUS
 62
7
 10
191.000000
 20
151.199997
 11
191.000000
 21
135.699997
  0
LINE
  8
0
  6
CONTINUOUS
 62
7
 10
101.000000
 20
151.199997
 11
191.000000
 21
151.199997
  0
LINE
  8
0
  6
CONTINUOUS
 62
7
 10
180.199997
 20
145.699997
 11
175.000000
 21
145.699997
  0
LINE
  8
0
  6
CONTINUOUS
 62
7
 10
101.000000
 20
141.699997
 11
109.653000
 21
141.699997
  0
LINE
  8
0
  6
CONTINUOUS
 62
7
 10
117.000000
 20
145.699997
 11
111.800003
 21
145.699997
  0
LINE
  8
0
  6
CONTINUOUS
 62
7
 10
131.500000
 20
90.900002
 11
131.500000
 21
117.500000
  0
LINE
  8
0
  6
CONTINUOUS
 62
7
 10
131.500000
 20
90.900002
 11
138.000000
 21
90.900002
  0
LINE
  8
0
  6
CONTINUOUS
 62
7
 10
131.500000
 20
117.500000
 11
138.000000
 21
117.500000
  0
LINE
  8
0
  6
CONTINUOUS
 62
7
 10
182.347000
 20
141.699997
 11
191.000000
 21
141.699997
  0
LINE
  8
0
  6
CENTER
 62
2
 10
115.000000
 20
119.699997
 11
115.000000
 21
109.699997
  0
LINE
  8
0
  6
CENTER
 62
2
 10
110.000000
 20
114.699997
 11
120.000000
 21
114.699997
  0
LINE
  8
0
  6
CENTER
 62
2
 10
115.000000
 20
98.699997
 11
115.000000
 21
88.699997
  0
LINE
  8
0
  6
CENTER
 62
2
 10
110.000000
 20
93.699997
 11
120.000000
 21
93.699997
  0
LINE
  8
0
  6
CENTER
 62
2
 10
141.000000
 20
117.699997
 11
141.000000
 21
110.699997
  0
LINE
  8
0
  6
CENTER
 62
2
 10
137.500000
 20
114.199997
 11
144.500000
 21
114.199997
  0
LINE
  8
0
  6
CENTER
 62
2
 10
156.000000
 20
117.699997
 11
156.000000
 21
110.699997
  0
LINE
  8
0
  6
CENTER
 62
2
 10
152.500000
 20
114.199997
 11
159.500000
 21
114.199997
  0
LINE
  8
0
  6
CENTER
 62
2
 10
171.000000
 20
117.699997
 11
171.000000
 21
110.699997
  0
LINE
  8
0
  6
CENTER
 62
2
 10
167.500000
 20
114.199997
 11
174.500000
 21
114.199997
  0
LINE
  8
0
  6
CENTER
 62
2
 10
177.000000
 20
119.699997
 11
177.000000
 21
109.699997
  0
LINE
  8
0
  6
CENTER
 62
2
 10
172.000000
 20
114.699997
 11
182.000000
 21
114.699997
  0
LINE
  8
0
  6
CENTER
 62
2
 10
177.000000
 20
98.699997
 11
177.000000
 21
88.699997
  0
LINE
  8
0
  6
CENTER
 62
2
 10
172.000000
 20
93.699997
 11
182.000000
 21
93.699997
  0
LINE
  8
0
  6
CENTER
 62
2
 10
171.000000
 20
97.699997
 11
171.000000
 21
90.699997
  0
LINE
  8
0
  6
CENTER
 62
2
 10
167.500000
 20
94.199997
 11
174.500000
 21
94.199997
  0
LINE
  8
0
  6
CENTER
 62
2
 10
99.000000
 20
104.199997
 11
193.000000
 21
104.199997
  0
LINE
  8
0
  6
CENTER
 62
2
 10
156.000000
 20
97.699997
 11
156.000000
 21
90.699997
  0
LINE
  8
0
  6
CENTER
 62
2
 10
152.500000
 20
94.199997
 11
159.500000
 21
94.199997
  0
LINE
  8
0
  6
CENTER
 62
2
 10
141.000000
 20
97.699997
 11
141.000000
 21
90.699997
  0
LINE
  8
0
  6
CENTER
 62
2
 10
137.500000
 20
94.199997
 11
144.500000
 21
94.199997
  0
LINE
  8
0
  6
DASHED
 62
2
 10
116.650002
 20
146.199997
 11
116.650002
 21
151.199997
  0
LINE
  8
0
  6
DASHED
 62
2
 10
118.000000
 20
146.199997
 11
112.000000
 21
146.199997
  0
LINE
  8
0
  6
CENTER
 62
2
 10
115.000000
 20
143.699997
 11
115.000000
 21
153.199997
  0
LINE
  8
0
  6
DASHED
 62
2
 10
113.349998
 20
146.199997
 11
113.349998
 21
151.199997
  0
LINE
  8
0
  6
DASHED
 62
2
 10
113.000000
 20
146.199997
 11
113.000000
 21
151.199997
  0
LINE
  8
0
  6
DASHED
 62
2
 10
112.000000
 20
145.699997
 11
112.000000
 21
146.199997
  0
LINE
  8
0
  6
DASHED
 62
2
 10
118.000000
 20
145.699997
 11
118.000000
 21
146.199997
  0
LINE
  8
0
  6
DASHED
 62
2
 10
179.000000
 20
146.199997
 11
179.000000
 21
151.199997
  0
LINE
  8
0
  6
DASHED
 62
2
 10
178.649994
 20
146.199997
 11
178.649994
 21
151.199997
  0
LINE
  8
0
  6
DASHED
 62
2
 10
180.000000
 20
146.199997
 11
174.000000
 21
146.199997
  0
LINE
  8
0
  6
CENTER
 62
2
 10
177.000000
 20
143.699997
 11
177.000000
 21
153.199997
  0
LINE
  8
0
  6
DASHED
 62
2
 10
175.350006
 20
146.199997
 11
175.350006
 21
151.199997
  0
LINE
  8
0
  6
DASHED
 62
2
 10
174.000000
 20
145.699997
 11
174.000000
 21
146.199997
  0
LINE
  8
0
  6
DASHED
 62
2
 10
180.000000
 20
145.699997
 11
180.000000
 21
146.199997
  0
LINE
  8
0
  6
CENTER
 62
2
 10
141.000000
 20
129.199997
 11
141.000000
 21
133.199997
  0
LINE
  8
0
  6
CENTER
 62
2
 10
156.000000
 20
129.199997
 11
156.000000
 21
133.199997
  0
LINE
  8
0
  6
CENTER
 62
2
 10
171.000000
 20
129.199997
 11
171.000000
 21
133.199997
  0
LINE
  8
0
  6
CENTER
 62
2
 10
-103.702003
 20
104.199997
 11
-169.587006
 21
104.199997
  0
LINE
  8
0
  6
CONTINUOUS
 62
7
 10
-120.500000
 20
117.699997
 11
-141.500000
 21
117.699997
  0
LINE
  8
0
  6
CONTINUOUS
 62
7
 10
-141.500000
 20
117.699997
 11
-141.500000
 21
90.699997
  0
LINE
  8
0
  6
CONTINUOUS
 62
7
 10
-120.500000
 20
90.699997
 11
-141.500000
 21
90.699997
  0
LINE
  8
0
  6
CONTINUOUS
 62
7
 10
-120.500000
 20
117.699997
 11
-120.500000
 21
90.699997
  0
LINE
  8
0
  6
CONTINUOUS
 62
7
 10
-166.000000
 20
110.199997
 11
-148.000000
 21
110.199997
  0
LINE
  8
0
  6
CONTINUOUS
 62
7
 10
-114.000000
 20
110.199997
 11
-106.000000
 21
110.199997
  0
LINE
  8
0
  6
CONTINUOUS
 62
7
 10
-166.000000
 20
98.199997
 11
-148.000000
 21
98.199997
  0
LINE
  8
0
  6
CONTINUOUS
 62
7
 10
-114.000000
 20
98.199997
 11
-106.000000
 21
98.199997
  0
LINE
  8
0
  6
CONTINUOUS
 62
7
 10
-120.500000
 20
97.199997
 11
-141.500000
 21
97.199997
  0
LINE
  8
0
  6
CONTINUOUS
 62
7
 10
-120.500000
 20
111.199997
 11
-141.500000
 21
111.199997
  0
LINE
  8
0
  6
CONTINUOUS
 62
7
 10
-114.000000
 20
117.500000
 11
-120.500000
 21
117.500000
  0
LINE
  8
0
  6
CONTINUOUS
 62
7
 10
-114.000000
 20
90.900002
 11
-114.000000
 21
117.500000
  0
LINE
  8
0
  6
CONTINUOUS
 62
7
 10
-114.000000
 20
90.900002
 11
-120.500000
 21
90.900002
  0
LINE
  8
0
  6
CONTINUOUS
 62
7
 10
-106.000000
 20
90.199997
 11
-166.000000
 21
90.199997
  0
LINE
  8
0
  6
CONTINUOUS
 62
7
 10
-166.000000
 20
118.199997
 11
-166.000000
 21
90.199997
  0
LINE
  8
0
  6
CONTINUOUS
 62
7
 10
-106.000000
 20
118.199997
 11
-106.000000
 21
90.199997
  0
LINE
  8
0
  6
CENTER
 62
2
 10
-152.000000
 20
98.735298
 11
-152.000000
 21
89.199997
  0
LINE
  8
0
  6
CENTER
 62
2
 10
-152.000000
 20
109.699997
 11
-152.000000
 21
118.699997
  0
LINE
  8
0
  6
CENTER
 62
2
 10
-138.500000
 20
110.699997
 11
-138.500000
 21
117.699997
  0
LINE
  8
0
  6
CENTER
 62
2
 10
-155.500000
 20
114.699997
 11
-147.582993
 21
114.699997
  0
LINE
  8
0
  6
CENTER
 62
2
 10
-138.500000
 20
97.699997
 11
-138.500000
 21
90.699997
  0
LINE
  8
0
  6
CENTER
 62
2
 10
-155.500000
 20
93.699997
 11
-147.582993
 21
93.699997
  0
LINE
  8
0
  6
CENTER
 62
2
 10
-120.000000
 20
109.699997
 11
-120.000000
 21
118.699997
  0
LINE
  8
0
  6
CENTER
 62
2
 10
-116.500000
 20
114.699997
 11
-124.400002
 21
114.699997
  0
LINE
  8
0
  6
CENTER
 62
2
 10
-123.500000
 20
110.699997
 11
-123.500000
 21
117.699997
  0
LINE
  8
0
  6
CENTER
 62
2
 10
-116.500000
 20
93.699997
 11
-123.822998
 21
93.699997
  0
LINE
  8
0
  6
CENTER
 62
2
 10
-123.500000
 20
97.699997
 11
-123.500000
 21
90.699997
  0
LINE
  8
0
  6
CENTER
 62
2
 10
-120.000000
 20
98.735298
 11
-120.000000
 21
89.199997
  0
LINE
  8
0
  6
CENTER
 62
2
 10
-141.500000
 20
94.199997
 11
-135.000000
 21
94.199997
  0
LINE
  8
0
  6
CENTER
 62
2
 10
-141.500000
 20
114.199997
 11
-135.000000
 21
114.199997
  0
LINE
  8
0
  6
CENTER
 62
2
 10
-120.500000
 20
114.199997
 11
-127.000000
 21
114.199997
  0
LINE
  8
0
  6
CENTER
 62
2
 10
-120.500000
 20
94.199997
 11
-127.000000
 21
94.199997
  0
LINE
  8
0
  6
CONTINUOUS
 62
7
 10
-148.000000
 20
90.900002
 11
-148.000000
 21
117.500000
  0
LINE
  8
0
  6
CONTINUOUS
 62
7
 10
-148.000000
 20
117.500000
 11
-141.500000
 21
117.500000
  0
LINE
  8
0
  6
CONTINUOUS
 62
7
 10
-148.000000
 20
90.900002
 11
-141.500000
 21
90.900002
  0
LINE
  8
0
  6
DASHED
 62
2
 10
-155.000000
 20
146.199997
 11
-149.000000
 21
146.199997
  0
LINE
  8
0
  6
CENTER
 62
2
 10
-152.000000
 20
143.699997
 11
-152.000000
 21
153.199997
  0
LINE
  8
0
  6
DASHED
 62
2
 10
-154.000000
 20
146.199997
 11
-154.000000
 21
151.199997
  0
LINE
  8
0
  6
DASHED
 62
2
 10
-150.000000
 20
146.199997
 11
-150.000000
 21
151.199997
  0
LINE
  8
0
  6
DASHED
 62
2
 10
-150.350006
 20
146.199997
 11
-150.350006
 21
151.199997
  0
LINE
  8
0
  6
DASHED
 62
2
 10
-153.649994
 20
146.199997
 11
-153.649994
 21
151.199997
  0
LINE
  8
0
  6
DASHED
 62
2
 10
-123.000000
 20
146.199997
 11
-117.000000
 21
146.199997
  0
LINE
  8
0
  6
CENTER
 62
2
 10
-120.000000
 20
143.699997
 11
-120.000000
 21
153.199997
  0
LINE
  8
0
  6
DASHED
 62
2
 10
-122.000000
 20
146.199997
 11
-122.000000
 21
151.199997
  0
LINE
  8
0
  6
DASHED
 62
2
 10
-118.000000
 20
146.199997
 11
-118.000000
 21
151.199997
  0
LINE
  8
0
  6
DASHED
 62
2
 10
-118.349998
 20
146.199997
 11
-118.349998
 21
151.199997
  0
LINE
  8
0
  6
DASHED
 62
2
 10
-121.650002
 20
146.199997
 11
-121.650002
 21
151.199997
  0
LINE
  8
0
  6
DASHED
 62
2
 10
-123.000000
 20
145.699997
 11
-123.000000
 21
146.199997
  0
LINE
  8
0
  6
DASHED
 62
2
 10
-149.000000
 20
145.699997
 11
-149.000000
 21
146.199997
  0
LINE
  8
0
  6
CONTINUOUS
 62
7
 10
-106.000000
 20
12.200000
 11
-166.000000
 21
12.200000
  0
LINE
  8
0
  6
CONTINUOUS
 62
7
 10
-166.000000
 20
12.200000
 11
-166.000000
 21
40.200001
  0
LINE
  8
0
  6
CONTINUOUS
 62
7
 10
-106.000000
 20
40.200001
 11
-166.000000
 21
40.200001
  0
LINE
  8
0
  6
CONTINUOUS
 62
7
 10
-106.000000
 20
12.200000
 11
-106.000000
 21
40.200001
  0
LINE
  8
0
  6
CENTER
 62
2
 10
-103.366997
 20
26.200001
 11
-170.000000
 21
26.200001
  0
LINE
  8
0
  6
CENTER
 62
2
 10
-158.500000
 20
37.599998
 11
-158.500000
 21
21.799999
  0
LINE
  8
0
  6
CENTER
 62
2
 10
-166.399994
 20
29.700001
 11
-150.600006
 21
29.700001
  0
LINE
  8
0
  6
CENTER
 62
2
 10
-152.000000
 20
40.700001
 11
-152.000000
 21
32.700001
  0
LINE
  8
0
  6
CENTER
 62
2
 10
-156.000000
 20
36.700001
 11
-148.000000
 21
36.700001
  0
LINE
  8
0
  6
CENTER
 62
2
 10
-120.000000
 20
40.700001
 11
-120.000000
 21
32.700001
  0
LINE
  8
0
  6
CENTER
 62
2
 10
-124.000000
 20
36.700001
 11
-116.000000
 21
36.700001
  0
LINE
  8
0
  6
CENTER
 62
2
 10
-113.500000
 20
37.599998
 11
-113.500000
 21
21.799999
  0
LINE
  8
0
  6
CENTER
 62
2
 10
-121.400002
 20
29.700001
 11
-105.599998
 21
29.700001
  0
LINE
  8
0
  6
CENTER
 62
2
 10
-120.000000
 20
19.700001
 11
-120.000000
 21
11.700000
  0
LINE
  8
0
  6
CENTER
 62
2
 10
-124.000000
 20
15.700000
 11
-116.000000
 21
15.700000
  0
LINE
  8
0
  6
CENTER
 62
2
 10
-152.000000
 20
19.700001
 11
-152.000000
 21
11.700000
  0
LINE
  8
0
  6
CENTER
 62
2
 10
-156.000000
 20
15.700000
 11
-148.000000
 21
15.700000
  0
LINE
  8
0
  6
CONTINUOUS
 62
7
 10
191.000000
 20
12.200000
 11
101.000000
 21
12.200000
  0
LINE
  8
0
  6
CONTINUOUS
 62
7
 10
101.000000
 20
12.200000
 11
101.000000
 21
40.200001
  0
LINE
  8
0
  6
CONTINUOUS
 62
7
 10
191.000000
 20
40.200001
 11
101.000000
 21
40.200001
  0
LINE
  8
0
  6
CONTINUOUS
 62
7
 10
191.000000
 20
12.200000
 11
191.000000
 21
40.200001
  0
LINE
  8
0
  6
CENTER
 62
2
 10
115.000000
 20
40.700001
 11
115.000000
 21
32.700001
  0
LINE
  8
0
  6
CENTER
 62
2
 10
111.000000
 20
36.700001
 11
119.000000
 21
36.700001
  0
LINE
  8
0
  6
CENTER
 62
2
 10
108.500000
 20
37.599998
 11
108.500000
 21
21.799999
  0
LINE
  8
0
  6
CENTER
 62
2
 10
100.599998
 20
29.700001
 11
116.400002
 21
29.700001
  0
LINE
  8
0
  6
CENTER
 62
2
 10
115.000000
 20
19.700001
 11
115.000000
 21
11.700000
  0
LINE
  8
0
  6
CENTER
 62
2
 10
111.000000
 20
15.700000
 11
119.000000
 21
15.700000
  0
LINE
  8
0
  6
CENTER
 62
2
 10
177.000000
 20
19.700001
 11
177.000000
 21
11.700000
  0
LINE
  8
0
  6
CENTER
 62
2
 10
173.000000
 20
15.700000
 11
181.000000
 21
15.700000
  0
LINE
  8
0
  6
CENTER
 62
2
 10
177.000000
 20
40.700001
 11
177.000000
 21
32.700001
  0
LINE
  8
0
  6
CENTER
 62
2
 10
173.000000
 20
36.700001
 11
181.000000
 21
36.700001
  0
LINE
  8
0
  6
CENTER
 62
2
 10
183.500000
 20
37.599998
 11
183.500000
 21
21.799999
  0
LINE
  8
0
  6
CENTER
 62
2
 10
175.600006
 20
29.700001
 11
191.399994
 21
29.700001
  0
LINE
  8
0
  6
CENTER
 62
2
 10
99.000000
 20
26.200001
 11
193.000000
 21
26.200001
  0
LINE
  8
0
  6
CENTER
 62
2
 10
128.692993
 20
122.199997
 11
103.912003
 21
122.199997
  0
LINE
  8
0
  6
CONTINUOUS
 62
7
 10
138.000000
 20
131.699997
 11
113.000000
 21
131.699997
  0
LINE
  8
0
  6
CONTINUOUS
 62
7
 10
162.000000
 20
142.199997
 11
130.000000
 21
142.199997
  0
LINE
  8
0
  6
CONTINUOUS
 62
7
 10
148.000000
 20
131.699997
 11
164.000000
 21
131.699997
  0
LINE
  8
0
  6
CONTINUOUS
 62
7
 10
106.000000
 20
119.699997
 11
106.000000
 21
124.699997
  0
LINE
  8
0
  6
CONTINUOUS
 62
7
 10
117.000000
 20
150.699997
 11
175.000000
 21
150.699997
  0
LINE
  8
0
  6
CONTINUOUS
 62
7
 10
186.000000
 20
119.699997
 11
186.000000
 21
124.699997
  0
LINE
  8
0
  6
CENTER
 62
2
 10
163.397003
 20
136.199997
 11
186.587997
 21
136.199997
  0
LINE
  8
0
  6
CONTINUOUS
 62
7
 10
164.000000
 20
125.699997
 11
148.000000
 21
125.699997
  0
LINE
  8
0
  6
CONTINUOUS
 62
7
 10
148.000000
 20
139.699997
 11
164.000000
 21
139.699997
  0
LINE
  8
0
  6
CONTINUOUS
 62
7
 10
148.000000
 20
139.699997
 11
148.000000
 21
131.699997
  0
LINE
  8
0
  6
CONTINUOUS
 62
7
 10
164.000000
 20
139.699997
 11
164.000000
 21
131.699997
  0
LINE
  8
0
  6
CONTINUOUS
 62
7
 10
117.000000
 20
150.699997
 11
117.000000
 21
131.699997
  0
LINE
  8
0
  6
CONTINUOUS
 62
7
 10
175.000000
 20
150.699997
 11
175.000000
 21
131.699997
  0
LINE
  8
0
  6
CONTINUOUS
 62
7
 10
127.000000
 20
139.199997
 11
127.000000
 21
131.699997
  0
LINE
  8
0
  6
CONTINUOUS
 62
7
 10
165.000000
 20
139.199997
 11
165.000000
 21
131.699997
  0
LINE
  8
0
  6
CENTER
 62
2
 10
163.307007
 20
122.199997
 11
188.087997
 21
122.199997
  0
LINE
  8
0
  6
CONTINUOUS
 62
7
 10
175.000000
 20
126.199997
 11
117.000000
 21
126.199997
  0
LINE
  8
0
  6
CONTINUOUS
 62
7
 10
148.000000
 20
117.699997
 11
148.000000
 21
125.699997
  0
LINE
  8
0
  6
CONTINUOUS
 62
7
 10
164.000000
 20
117.699997
 11
164.000000
 21
125.699997
  0
LINE
  8
0
  6
CONTINUOUS
 62
7
 10
165.000000
 20
118.199997
 11
165.000000
 21
126.199997
  0
LINE
  8
0
  6
CONTINUOUS
 62
7
 10
127.000000
 20
118.199997
 11
127.000000
 21
126.199997
  0
LINE
  8
0
  6
CONTINUOUS
 62
7
 10
180.500000
 20
131.699997
 11
165.000000
 21
131.699997
  0
LINE
  8
0
  6
CONTINUOUS
 62
7
 10
117.000000
 20
118.199997
 11
117.000000
 21
126.199997
  0
LINE
  8
0
  6
CONTINUOUS
 62
7
 10
175.000000
 20
118.199997
 11
175.000000
 21
126.199997
  0
LINE
  8
0
  6
CONTINUOUS
 62
2
 10
113.000000
 20
124.300003
 11
106.000000
 21
124.300003
  0
LINE
  8
0
  6
CONTINUOUS
 62
7
 10
113.000000
 20
124.699997
 11
106.000000
 21
124.699997
  0
LINE
  8
0
  6
CONTINUOUS
 62
2
 10
113.000000
 20
120.099998
 11
106.000000
 21
120.099998
  0
LINE
  8
0
  6
CONTINUOUS
 62
7
 10
113.000000
 20
119.699997
 11
106.000000
 21
119.699997
  0
LINE
  8
0
  6
CONTINUOUS
 62
7
 10
179.000000
 20
119.699997
 11
186.000000
 21
119.699997
  0
LINE
  8
0
  6
CONTINUOUS
 62
2
 10
179.000000
 20
120.099998
 11
186.000000
 21
120.099998
  0
LINE
  8
0
  6
CONTINUOUS
 62
2
 10
179.000000
 20
124.300003
 11
186.000000
 21
124.300003
  0
LINE
  8
0
  6
CONTINUOUS
 62
7
 10
179.000000
 20
124.699997
 11
186.000000
 21
124.699997
  0
LINE
  8
0
  6
CONTINUOUS
 62
7
 10
113.000000
 20
139.899994
 11
113.000000
 21
131.699997
  0
LINE
  8
0
  6
CONTINUOUS
 62
7
 10
113.000000
 20
139.899994
 11
117.000000
 21
139.899994
  0
LINE
  8
0
  6
CONTINUOUS
 62
7
 10
113.000000
 20
132.500000
 11
117.000000
 21
132.500000
  0
LINE
  8
0
  6
CONTINUOUS
 62
7
 10
113.000000
 20
138.220993
 11
117.000000
 21
138.220993
  0
LINE
  8
0
  6
CONTINUOUS
 62
7
 10
117.000000
 20
137.399994
 11
113.000000
 21
137.399994
  0
LINE
  8
0
  6
CONTINUOUS
 62
7
 10
113.000000
 20
135.000000
 11
117.000000
 21
135.000000
  0
LINE
  8
0
  6
CONTINUOUS
 62
7
 10
117.000000
 20
134.179001
 11
113.000000
 21
134.179001
  0
LINE
  8
0
  6
CONTINUOUS
 62
7
 10
179.000000
 20
139.899994
 11
179.000000
 21
132.500000
  0
LINE
  8
0
  6
CONTINUOUS
 62
7
 10
179.000000
 20
139.899994
 11
175.000000
 21
139.899994
  0
LINE
  8
0
  6
CONTINUOUS
 62
7
 10
179.000000
 20
138.220993
 11
175.000000
 21
138.220993
  0
LINE
  8
0
  6
CONTINUOUS
 62
7
 10
175.000000
 20
137.399994
 11
179.000000
 21
137.399994
  0
LINE
  8
0
  6
CONTINUOUS
 62
7
 10
179.000000
 20
135.000000
 11
175.000000
 21
135.000000
  0
LINE
  8
0
  6
CONTINUOUS
 62
7
 10
175.000000
 20
134.179001
 11
179.000000
 21
134.179001
  0
LINE
  8
0
  6
CONTINUOUS
 62
7
 10
117.000000
 20
118.699997
 11
113.000000
 21
118.699997
  0
LINE
  8
0
  6
CONTINUOUS
 62
7
 10
117.000000
 20
125.699997
 11
113.000000
 21
125.699997
  0
LINE
  8
0
  6
CONTINUOUS
 62
7
 10
113.000000
 20
118.699997
 11
113.000000
 21
125.699997
  0
LINE
  8
0
  6
CONTINUOUS
 62
7
 10
113.000000
 20
122.911003
 11
117.000000
 21
122.911003
  0
LINE
  8
0
  6
CONTINUOUS
 62
7
 10
113.000000
 20
121.488998
 11
117.000000
 21
121.488998
  0
LINE
  8
0
  6
CONTINUOUS
 62
7
 10
113.000000
 20
124.988998
 11
117.000000
 21
124.988998
  0
LINE
  8
0
  6
CONTINUOUS
 62
7
 10
113.000000
 20
119.411003
 11
117.000000
 21
119.411003
  0
LINE
  8
0
  6
CONTINUOUS
 62
7
 10
179.000000
 20
132.500000
 11
175.000000
 21
132.500000
  0
LINE
  8
0
  6
CENTER
 62
2
 10
120.000000
 20
8.200020
 11
103.912003
 21
8.200020
  0
LINE
  8
0
  6
CONTINUOUS
 62
7
 10
106.000000
 20
10.700000
 11
106.000000
 21
5.700020
  0
LINE
  8
0
  6
CONTINUOUS
 62
2
 10
113.000000
 20
6.100010
 11
106.000000
 21
6.100010
  0
LINE
  8
0
  6
CONTINUOUS
 62
2
 10
113.000000
 20
10.300000
 11
106.000000
 21
10.300000
  0
LINE
  8
0
  6
CONTINUOUS
 62
7
 10
113.000000
 20
10.700000
 11
106.000000
 21
10.700000
  0
LINE
  8
0
  6
CONTINUOUS
 62
7
 10
113.000000
 20
5.700020
 11
106.000000
 21
5.700020
  0
LINE
  8
0
  6
CONTINUOUS
 62
2
 10
179.000000
 20
10.300000
 11
186.000000
 21
10.300000
  0
LINE
  8
0
  6
CONTINUOUS
 62
7
 10
179.000000
 20
10.700000
 11
186.000000
 21
10.700000
  0
LINE
  8
0
  6
CONTINUOUS
 62
7
 10
186.000000
 20
10.700000
 11
186.000000
 21
5.700020
  0
LINE
  8
0
  6
CONTINUOUS
 62
2
 10
179.000000
 20
6.100010
 11
186.000000
 21
6.100010
  0
LINE
  8
0
  6
CONTINUOUS
 62
7
 10
179.000000
 20
5.700020
 11
186.000000
 21
5.700020
  0
LINE
  8
0
  6
CONTINUOUS
 62
7
 10
175.000000
 20
4.700030
 11
179.000000
 21
4.700030
  0
LINE
  8
0
  6
CONTINUOUS
 62
7
 10
175.000000
 20
11.700000
 11
179.000000
 21
11.700000
  0
LINE
  8
0
  6
CONTINUOUS
 62
7
 10
179.000000
 20
4.700030
 11
179.000000
 21
11.700000
  0
LINE
  8
0
  6
CONTINUOUS
 62
7
 10
179.000000
 20
8.910800
 11
175.000000
 21
8.910800
  0
LINE
  8
0
  6
CONTINUOUS
 62
7
 10
179.000000
 20
7.489250
 11
175.000000
 21
7.489250
  0
LINE
  8
0
  6
CONTINUOUS
 62
7
 10
179.000000
 20
5.410810
 11
175.000000
 21
5.410810
  0
LINE
  8
0
  6
CENTER
 62
2
 10
172.000000
 20
8.200020
 11
186.914001
 21
8.200020
  0
LINE
  8
0
  6
CONTINUOUS
 62
7
 10
175.000000
 20
4.200010
 11
117.000000
 21
4.200010
  0
LINE
  8
0
  6
CONTINUOUS
 62
7
 10
117.000000
 20
12.200000
 11
117.000000
 21
4.200010
  0
LINE
  8
0
  6
CONTINUOUS
 62
7
 10
175.000000
 20
12.200000
 11
175.000000
 21
4.200010
  0
LINE
  8
0
  6
CONTINUOUS
 62
7
 10
117.000000
 20
11.700000
 11
113.000000
 21
11.700000
  0
LINE
  8
0
  6
CONTINUOUS
 62
7
 10
117.000000
 20
4.700000
 11
113.000000
 21
4.700000
  0
LINE
  8
0
  6
CONTINUOUS
 62
7
 10
113.000000
 20
11.700000
 11
113.000000
 21
4.700000
  0
LINE
  8
0
  6
CONTINUOUS
 62
7
 10
113.000000
 20
7.489250
 11
117.000000
 21
7.489250
  0
LINE
  8
0
  6
CONTINUOUS
 62
7
 10
113.000000
 20
8.910800
 11
117.000000
 21
8.910800
  0
LINE
  8
0
  6
CONTINUOUS
 62
7
 10
113.000000
 20
5.410780
 11
117.000000
 21
5.410780
  0
LINE
  8
0
  6
CONTINUOUS
 62
7
 10
113.000000
 20
10.989200
 11
117.000000
 21
10.989200
  0
LINE
  8
0
  6
CONTINUOUS
 62
7
 10
106.000000
 20
133.699997
 11
106.000000
 21
138.699997
  0
LINE
  8
0
  6
CONTINUOUS
 62
2
 10
113.000000
 20
138.300003
 11
106.000000
 21
138.300003
  0
LINE
  8
0
  6
CONTINUOUS
 62
7
 10
113.000000
 20
138.699997
 11
106.000000
 21
138.699997
  0
LINE
  8
0
  6
CONTINUOUS
 62
2
 10
113.000000
 20
134.100006
 11
106.000000
 21
134.100006
  0
LINE
  8
0
  6
CONTINUOUS
 62
7
 10
113.000000
 20
133.699997
 11
106.000000
 21
133.699997
  0
LINE
  8
0
  6
CONTINUOUS
 62
7
 10
179.000000
 20
138.699997
 11
186.000000
 21
138.699997
  0
LINE
  8
0
  6
CONTINUOUS
 62
2
 10
179.000000
 20
138.300003
 11
186.000000
 21
138.300003
  0
LINE
  8
0
  6
CONTINUOUS
 62
7
 10
186.000000
 20
133.699997
 11
186.000000
 21
138.699997
  0
LINE
  8
0
  6
CONTINUOUS
 62
2
 10
179.000000
 20
134.100006
 11
186.000000
 21
134.100006
  0
LINE
  8
0
  6
CONTINUOUS
 62
7
 10
179.000000
 20
133.699997
 11
186.000000
 21
133.699997
  0
LINE
  8
0
  6
CONTINUOUS
 62
7
 10
179.000000
 20
118.699997
 11
179.000000
 21
125.699997
  0
LINE
  8
0
  6
CONTINUOUS
 62
7
 10
179.000000
 20
124.988998
 11
175.000000
 21
124.988998
  0
LINE
  8
0
  6
CONTINUOUS
 62
7
 10
175.000000
 20
125.699997
 11
179.000000
 21
125.699997
  0
LINE
  8
0
  6
CONTINUOUS
 62
7
 10
179.000000
 20
122.911003
 11
175.000000
 21
122.911003
  0
LINE
  8
0
  6
CONTINUOUS
 62
7
 10
179.000000
 20
121.488998
 11
175.000000
 21
121.488998
  0
LINE
  8
0
  6
CONTINUOUS
 62
7
 10
179.000000
 20
119.411003
 11
175.000000
 21
119.411003
  0
LINE
  8
0
  6
CONTINUOUS
 62
7
 10
175.000000
 20
118.699997
 11
179.000000
 21
118.699997
  0
LINE
  8
0
  6
CONTINUOUS
 62
7
 10
106.000000
 20
72.699997
 11
106.000000
 21
70.699997
  0
LINE
  8
0
  6
CONTINUOUS
 62
7
 10
186.000000
 20
72.699997
 11
186.000000
 21
70.699997
  0
LINE
  8
0
  6
CONTINUOUS
 62
7
 10
180.500000
 20
72.699997
 11
186.000000
 21
72.699997
  0
LINE
  8
0
  6
CONTINUOUS
 62
7
 10
148.000000
 20
118.199997
 11
101.000000
 21
118.199997
  0
LINE
  8
0
  6
CONTINUOUS
 62
7
 10
-106.000000
 20
118.199997
 11
-123.000000
 21
118.199997
  0
LINE
  8
0
  6
CONTINUOUS
 62
7
 10
131.500000
 20
141.199997
 11
164.235992
 21
141.199997
  0
LINE
  8
0
  6
CONTINUOUS
 62
7
 10
128.000000
 20
135.699997
 11
131.500000
 21
135.699997
  0
LINE
  8
0
  6
CENTER
 62
2
 10
128.602997
 20
136.199997
 11
105.412003
 21
136.199997
  0
LINE
  8
0
  6
CENTER
 62
2
 10
-147.897003
 20
136.199997
 11
-166.587997
 21
136.199997
  0
LINE
  8
0
  6
CENTER
 62
2
 10
-123.602997
 20
136.199997
 11
-106.412003
 21
136.199997
  0
LINE
  8
0
  6
CONTINUOUS
 62
7
 10
-141.500000
 20
131.199997
 11
-120.500000
 21
131.199997
  0
LINE
  8
0
  6
CONTINUOUS
 62
7
 10
-106.000000
 20
151.199997
 11
-106.000000
 21
135.699997
  0
LINE
  8
0
  6
CONTINUOUS
 62
7
 10
-166.000000
 20
151.199997
 11
-106.000000
 21
151.199997
  0
LINE
  8
0
  6
CONTINUOUS
 62
7
 10
-166.000000
 20
141.699997
 11
-157.347000
 21
141.699997
  0
LINE
  8
0
  6
CONTINUOUS
 62
7
 10
-148.000000
 20
141.199997
 11
-122.267998
 21
141.199997
  0
LINE
  8
0
  6
CONTINUOUS
 62
7
 10
-166.000000
 20
151.199997
 11
-166.000000
 21
135.699997
  0
LINE
  8
0
  6
CONTINUOUS
 62
7
 10
-166.000000
 20
141.699997
 11
-157.347000
 21
141.699997
  0
LINE
  8
0
  6
CONTINUOUS
 62
7
 10
-114.653000
 20
141.699997
 11
-106.000000
 21
141.699997
  0
LINE
  8
0
  6
CONTINUOUS
 62
7
 10
-166.000000
 20
135.699997
 11
-165.000000
 21
135.699997
  0
LINE
  8
0
  6
CONTINUOUS
 62
7
 10
-107.000000
 20
135.699997
 11
-106.000000
 21
135.699997
  0
LINE
  8
0
  6
CONTINUOUS
 62
7
 10
-114.000000
 20
141.199997
 11
-114.000000
 21
139.899994
  0
LINE
  8
0
  6
CONTINUOUS
 62
7
 10
-148.000000
 20
141.199997
 11
-148.000000
 21
131.699997
  0
LINE
  8
0
  6
CONTINUOUS
 62
7
 10
-141.500000
 20
141.199997
 11
-141.500000
 21
131.199997
  0
LINE
  8
0
  6
CONTINUOUS
 62
7
 10
-120.500000
 20
131.699997
 11
-120.500000
 21
131.199997
  0
LINE
  8
0
  6
CONTINUOUS
 62
7
 10
-122.000000
 20
131.699997
 11
-114.000000
 21
131.699997
  0
LINE
  8
0
  6
CONTINUOUS
 62
7
 10
-139.000000
 20
139.699997
 11
-139.000000
 21
131.699997
  0
LINE
  8
0
  6
CONTINUOUS
 62
7
 10
-123.000000
 20
131.699997
 11
-139.000000
 21
131.699997
  0
LINE
  8
0
  6
CONTINUOUS
 62
7
 10
-123.000000
 20
139.699997
 11
-123.000000
 21
131.699997
  0
LINE
  8
0
  6
CONTINUOUS
 62
7
 10
-154.500000
 20
131.699997
 11
-141.500000
 21
131.699997
  0
LINE
  8
0
  6
CONTINUOUS
 62
7
 10
-154.500000
 20
150.699997
 11
-117.500000
 21
150.699997
  0
LINE
  8
0
  6
CONTINUOUS
 62
7
 10
-122.000000
 20
140.199997
 11
-122.000000
 21
131.699997
  0
LINE
  8
0
  6
CONTINUOUS
 62
7
 10
-114.000000
 20
132.500000
 11
-114.000000
 21
131.699997
  0
LINE
  8
0
  6
CONTINUOUS
 62
7
 10
-117.500000
 20
141.199997
 11
-114.000000
 21
141.199997
  0
LINE
  8
0
  6
CONTINUOUS
 62
7
 10
-107.000000
 20
138.699997
 11
-107.000000
 21
133.699997
  0
LINE
  8
0
  6
CONTINUOUS
 62
7
 10
-150.000000
 20
140.199997
 11
-150.000000
 21
131.699997
  0
LINE
  8
0
  6
CONTINUOUS
 62
7
 10
-158.500000
 20
139.899994
 11
-158.500000
 21
132.500000
  0
LINE
  8
0
  6
CONTINUOUS
 62
7
 10
-154.500000
 20
132.500000
 11
-158.500000
 21
132.500000
  0
LINE
  8
0
  6
CONTINUOUS
 62
7
 10
-154.500000
 20
139.899994
 11
-158.500000
 21
139.899994
  0
LINE
  8
0
  6
CONTINUOUS
 62
7
 10
-154.500000
 20
137.399994
 11
-158.500000
 21
137.399994
  0
LINE
  8
0
  6
CONTINUOUS
 62
7
 10
-154.500000
 20
138.630997
 11
-158.500000
 21
138.630997
  0
LINE
  8
0
  6
CONTINUOUS
 62
7
 10
-154.500000
 20
135.000000
 11
-158.500000
 21
135.000000
  0
LINE
  8
0
  6
CONTINUOUS
 62
7
 10
-154.500000
 20
133.768997
 11
-158.500000
 21
133.768997
  0
LINE
  8
0
  6
CONTINUOUS
 62
7
 10
-165.000000
 20
138.699997
 11
-158.500000
 21
138.699997
  0
LINE
  8
0
  6
CONTINUOUS
 62
7
 10
-165.000000
 20
133.699997
 11
-158.500000
 21
133.699997
  0
LINE
  8
0
  6
CONTINUOUS
 62
2
 10
-165.000000
 20
138.300003
 11
-158.500000
 21
138.300003
  0
LINE
  8
0
  6
CONTINUOUS
 62
2
 10
-165.000000
 20
134.100006
 11
-158.500000
 21
134.100006
  0
LINE
  8
0
  6
CONTINUOUS
 62
7
 10
-165.000000
 20
138.699997
 11
-165.000000
 21
133.699997
  0
LINE
  8
0
  6
CONTINUOUS
 62
7
 10
-149.000000
 20
135.699997
 11
-148.000000
 21
135.699997
  0
LINE
  8
0
  6
CONTINUOUS
 62
7
 10
-117.500000
 20
150.699997
 11
-117.500000
 21
131.699997
  0
LINE
  8
0
  6
CONTINUOUS
 62
7
 10
-154.500000
 20
150.699997
 11
-154.500000
 21
131.699997
  0
LINE
  8
0
  6
CONTINUOUS
 62
7
 10
-124.000000
 20
142.199997
 11
-148.000000
 21
142.199997
  0
LINE
  8
0
  6
CONTINUOUS
 62
7
 10
-123.000000
 20
139.699997
 11
-139.000000
 21
139.699997
  0
LINE
  8
0
  6
CONTINUOUS
 62
7
 10
-113.500000
 20
133.699997
 11
-107.000000
 21
133.699997
  0
LINE
  8
0
  6
CONTINUOUS
 62
2
 10
-113.500000
 20
134.100006
 11
-107.000000
 21
134.100006
  0
LINE
  8
0
  6
CONTINUOUS
 62
2
 10
-113.500000
 20
138.300003
 11
-107.000000
 21
138.300003
  0
LINE
  8
0
  6
CONTINUOUS
 62
7
 10
-113.500000
 20
138.699997
 11
-107.000000
 21
138.699997
  0
LINE
  8
0
  6
CONTINUOUS
 62
7
 10
-117.500000
 20
132.500000
 11
-113.500000
 21
132.500000
  0
LINE
  8
0
  6
CONTINUOUS
 62
7
 10
-113.500000
 20
132.500000
 11
-113.500000
 21
139.899994
  0
LINE
  8
0
  6
CONTINUOUS
 62
7
 10
-117.500000
 20
133.768997
 11
-113.500000
 21
133.768997
  0
LINE
  8
0
  6
CONTINUOUS
 62
7
 10
-117.500000
 20
135.000000
 11
-113.500000
 21
135.000000
  0
LINE
  8
0
  6
CONTINUOUS
 62
7
 10
-117.500000
 20
137.399994
 11
-113.500000
 21
137.399994
  0
LINE
  8
0
  6
CONTINUOUS
 62
7
 10
-117.500000
 20
138.630997
 11
-113.500000
 21
138.630997
  0
LINE
  8
0
  6
CONTINUOUS
 62
7
 10
-117.500000
 20
139.899994
 11
-113.500000
 21
139.899994
  0
LINE
  8
0
  6
DASHED
 62
2
 10
-155.000000
 20
145.699997
 11
-155.000000
 21
146.199997
  0
LINE
  8
0
  6
DASHED
 62
2
 10
-117.000000
 20
145.699997
 11
-117.000000
 21
146.199997
  0
LINE
  8
0
  6
CONTINUOUS
 62
7
 10
-154.000000
 20
74.699997
 11
-154.500000
 21
74.699997
  0
LINE
  8
0
  6
CONTINUOUS
 62
7
 10
-114.000000
 20
72.631104
 11
-113.500000
 21
72.631104
  0
LINE
  8
0
  6
CONTINUOUS
 62
7
 10
-154.500000
 20
70.699997
 11
-154.500000
 21
74.699997
  0
LINE
  8
0
  6
CONTINUOUS
 62
7
 10
-158.500000
 20
73.900002
 11
-158.500000
 21
70.699997
  0
LINE
  8
0
  6
CONTINUOUS
 62
7
 10
-154.500000
 20
73.900002
 11
-158.500000
 21
73.900002
  0
LINE
  8
0
  6
CONTINUOUS
 62
7
 10
-154.500000
 20
71.400002
 11
-158.500000
 21
71.400002
  0
LINE
  8
0
  6
CONTINUOUS
 62
7
 10
-154.500000
 20
72.631104
 11
-158.500000
 21
72.631104
  0
LINE
  8
0
  6
CONTINUOUS
 62
7
 10
-165.000000
 20
72.699997
 11
-158.500000
 21
72.699997
  0
LINE
  8
0
  6
CONTINUOUS
 62
2
 10
-165.000000
 20
72.300003
 11
-158.500000
 21
72.300003
  0
LINE
  8
0
  6
CONTINUOUS
 62
7
 10
-165.000000
 20
72.699997
 11
-165.000000
 21
70.699997
  0
LINE
  8
0
  6
CONTINUOUS
 62
7
 10
-107.000000
 20
72.699997
 11
-113.500000
 21
72.699997
  0
LINE
  8
0
  6
CONTINUOUS
 62
7
 10
-107.000000
 20
70.699997
 11
-107.000000
 21
72.699997
  0
LINE
  8
0
  6
CONTINUOUS
 62
2
 10
-107.000000
 20
72.300003
 11
-113.500000
 21
72.300003
  0
LINE
  8
0
  6
CONTINUOUS
 62
7
 10
-113.500000
 20
70.699997
 11
-113.500000
 21
73.900002
  0
LINE
  8
0
  6
CONTINUOUS
 62
7
 10
-114.000000
 20
73.900002
 11
-113.500000
 21
73.900002
  0
LINE
  8
0
  6
CONTINUOUS
 62
7
 10
-114.000000
 20
71.400002
 11
-113.500000
 21
71.400002
  0
LINE
  8
0
  6
CENTER
 62
2
 10
-152.000000
 20
8.200020
 11
-167.087997
 21
8.200020
  0
LINE
  8
0
  6
CENTER
 62
2
 10
-120.000000
 20
8.200020
 11
-106.085999
 21
8.200020
  0
LINE
  8
0
  6
CONTINUOUS
 62
7
 10
-117.500000
 20
4.200010
 11
-154.500000
 21
4.200010
  0
LINE
  8
0
  6
CONTINUOUS
 62
7
 10
-154.500000
 20
12.200000
 11
-154.500000
 21
4.200010
  0
LINE
  8
0
  6
CONTINUOUS
 62
7
 10
-117.500000
 20
12.200000
 11
-117.500000
 21
4.200010
  0
LINE
  8
0
  6
CONTINUOUS
 62
7
 10
-165.000000
 20
10.700000
 11
-158.500000
 21
10.700000
  0
LINE
  8
0
  6
CONTINUOUS
 62
7
 10
-165.000000
 20
5.700030
 11
-158.500000
 21
5.700030
  0
LINE
  8
0
  6
CONTINUOUS
 62
2
 10
-165.000000
 20
10.300000
 11
-158.500000
 21
10.300000
  0
LINE
  8
0
  6
CONTINUOUS
 62
2
 10
-165.000000
 20
6.100030
 11
-158.500000
 21
6.100030
  0
LINE
  8
0
  6
CONTINUOUS
 62
7
 10
-165.000000
 20
10.700000
 11
-165.000000
 21
5.700030
  0
LINE
  8
0
  6
CONTINUOUS
 62
7
 10
-107.000000
 20
5.700000
 11
-113.500000
 21
5.700000
  0
LINE
  8
0
  6
CONTINUOUS
 62
7
 10
-107.000000
 20
10.700000
 11
-113.500000
 21
10.700000
  0
LINE
  8
0
  6
CONTINUOUS
 62
2
 10
-107.000000
 20
6.100000
 11
-113.500000
 21
6.100000
  0
LINE
  8
0
  6
CONTINUOUS
 62
2
 10
-107.000000
 20
10.300000
 11
-113.500000
 21
10.300000
  0
LINE
  8
0
  6
CONTINUOUS
 62
7
 10
-107.000000
 20
5.700000
 11
-107.000000
 21
10.700000
  0
LINE
  8
0
  6
CONTINUOUS
 62
7
 10
-154.500000
 20
4.700020
 11
-158.500000
 21
4.700020
  0
LINE
  8
0
  6
CONTINUOUS
 62
7
 10
-158.500000
 20
11.700000
 11
-158.500000
 21
4.700020
  0
LINE
  8
0
  6
CONTINUOUS
 62
7
 10
-154.500000
 20
11.700000
 11
-158.500000
 21
11.700000
  0
LINE
  8
0
  6
CONTINUOUS
 62
7
 10
-154.500000
 20
10.989300
 11
-158.500000
 21
10.989300
  0
LINE
  8
0
  6
CONTINUOUS
 62
7
 10
-154.500000
 20
8.910790
 11
-158.500000
 21
8.910790
  0
LINE
  8
0
  6
CONTINUOUS
 62
7
 10
-154.500000
 20
7.489250
 11
-158.500000
 21
7.489250
  0
LINE
  8
0
  6
CONTINUOUS
 62
7
 10
-154.500000
 20
5.410780
 11
-158.500000
 21
5.410780
  0
LINE
  8
0
  6
CONTINUOUS
 62
7
 10
-117.500000
 20
11.700000
 11
-113.500000
 21
11.700000
  0
LINE
  8
0
  6
CONTINUOUS
 62
7
 10
-113.500000
 20
4.700020
 11
-113.500000
 21
11.700000
  0
LINE
  8
0
  6
CONTINUOUS
 62
7
 10
-117.500000
 20
4.700020
 11
-113.500000
 21
4.700020
  0
LINE
  8
0
  6
CONTINUOUS
 62
7
 10
-117.500000
 20
5.410790
 11
-113.500000
 21
5.410790
  0
LINE
  8
0
  6
CONTINUOUS
 62
7
 10
-117.500000
 20
7.489240
 11
-113.500000
 21
7.489240
  0
LINE
  8
0
  6
CONTINUOUS
 62
7
 10
-117.500000
 20
8.910780
 11
-113.500000
 21
8.910780
  0
LINE
  8
0
  6
CONTINUOUS
 62
7
 10
-117.500000
 20
10.989300
 11
-113.500000
 21
10.989300
  0
LINE
  8
0
  6
CONTINUOUS
 62
7
 10
66.000000
 20
70.699997
 11
78.000000
 21
70.699997
  0
LINE
  8
0
  6
CONTINUOUS
 62
7
 10
66.000000
 20
67.490700
 11
66.000000
 21
64.699997
  0
LINE
  8
0
  6
CONTINUOUS
 62
7
 10
66.000000
 20
70.699997
 11
66.000000
 21
69.909302
  0
LINE
  8
0
  6
CONTINUOUS
 62
7
 10
58.500000
 20
75.199997
 11
65.000000
 21
75.199997
  0
LINE
  8
0
  6
CONTINUOUS
 62
7
 10
58.500000
 20
65.199997
 11
66.000000
 21
65.199997
  0
LINE
  8
0
  6
CONTINUOUS
 62
7
 10
65.300003
 20
74.900002
 11
78.699997
 21
74.900002
  0
LINE
  8
0
  6
CONTINUOUS
 62
7
 10
78.000000
 20
67.490700
 11
78.000000
 21
64.699997
  0
LINE
  8
0
  6
CONTINUOUS
 62
7
 10
78.000000
 20
70.699997
 11
78.000000
 21
69.909302
  0
LINE
  8
0
  6
CONTINUOUS
 62
7
 10
85.500000
 20
75.199997
 11
79.000000
 21
75.199997
  0
LINE
  8
0
  6
CONTINUOUS
 62
7
 10
85.500000
 20
75.199997
 11
85.500000
 21
65.199997
  0
LINE
  8
0
  6
CONTINUOUS
 62
7
 10
85.500000
 20
65.199997
 11
78.000000
 21
65.199997
  0
LINE
  8
0
  6
CONTINUOUS
 62
7
 10
58.500000
 20
75.199997
 11
58.500000
 21
65.199997
  0
LINE
  8
0
  6
CONTINUOUS
 62
7
 10
65.000000
 20
75.199997
 11
65.300003
 21
74.900002
  0
LINE
  8
0
  6
CONTINUOUS
 62
7
 10
79.000000
 20
75.199997
 11
78.699997
 21
74.900002
  0
LINE
  8
0
  6
CONTINUOUS
 62
7
 10
86.000000
 20
64.699997
 11
78.000000
 21
64.699997
  0
LINE
  8
0
  6
CONTINUOUS
 62
7
 10
86.000000
 20
55.200001
 11
58.000000
 21
55.200001
  0
LINE
  8
0
  6
CONTINUOUS
 62
7
 10
58.000000
 20
64.699997
 11
66.000000
 21
64.699997
  0
LINE
  8
0
  6
CONTINUOUS
 62
7
 10
86.000000
 20
64.699997
 11
86.000000
 21
55.200001
  0
LINE
  8
0
  6
CENTER
 62
2
 10
63.000000
 20
62.700001
 11
63.000000
 21
55.700001
  0
LINE
  8
0
  6
CENTER
 62
2
 10
59.500000
 20
59.200001
 11
66.500000
 21
59.200001
  0
LINE
  8
0
  6
CENTER
 62
2
 10
72.000000
 20
77.199997
 11
72.000000
 21
53.200001
  0
LINE
  8
0
  6
CENTER
 62
2
 10
64.599998
 20
62.200001
 11
79.400002
 21
62.200001
  0
LINE
  8
0
  6
CENTER
 62
2
 10
62.000000
 20
77.199997
 11
62.000000
 21
73.199997
  0
LINE
  8
0
  6
CENTER
 62
2
 10
82.000000
 20
77.199997
 11
82.000000
 21
73.199997
  0
LINE
  8
0
  6
CENTER
 62
2
 10
82.500000
 20
57.200001
 11
82.500000
 21
53.200001
  0
LINE
  8
0
  6
CENTER
 62
2
 10
61.500000
 20
57.200001
 11
61.500000
 21
53.200001
  0
LINE
  8
0
  6
CONTINUOUS
 62
7
 10
50.000000
 20
74.699997
 11
50.000000
 21
55.700001
  0
LINE
  8
0
  6
CONTINUOUS
 62
7
 10
58.000000
 20
55.700001
 11
50.000000
 21
55.700001
  0
LINE
  8
0
  6
CONTINUOUS
 62
7
 10
58.500000
 20
74.699997
 11
50.000000
 21
74.699997
  0
LINE
  8
0
  6
CONTINUOUS
 62
7
 10
54.000000
 20
71.643303
 11
52.750000
 21
70.921700
  0
LINE
  8
0
  6
CONTINUOUS
 62
7
 10
52.750000
 20
70.921700
 11
52.750000
 21
69.478302
  0
LINE
  8
0
  6
CONTINUOUS
 62
7
 10
54.000000
 20
68.756599
 11
52.750000
 21
69.478302
  0
LINE
  8
0
  6
CONTINUOUS
 62
7
 10
55.250000
 20
69.478302
 11
54.000000
 21
68.756599
  0
LINE
  8
0
  6
CONTINUOUS
 62
7
 10
55.250000
 20
70.921700
 11
55.250000
 21
69.478302
  0
LINE
  8
0
  6
CONTINUOUS
 62
7
 10
54.000000
 20
71.643303
 11
55.250000
 21
70.921700
  0
LINE
  8
0
  6
CONTINUOUS
 62
7
 10
54.710800
 20
73.831100
 11
56.789200
 21
72.631104
  0
LINE
  8
0
  6
CENTER
 62
2
 10
54.000000
 20
75.199997
 11
54.000000
 21
65.199997
  0
LINE
  8
0
  6
CENTER
 62
2
 10
49.000000
 20
70.199997
 11
59.000000
 21
70.199997
  0
LINE
  8
0
  6
CONTINUOUS
 62
7
 10
53.289299
 20
73.831001
 11
51.210800
 21
72.630997
  0
LINE
  8
0
  6
CONTINUOUS
 62
7
 10
50.500000
 20
71.400002
 11
50.500000
 21
69.000000
  0
LINE
  8
0
  6
CONTINUOUS
 62
7
 10
53.289200
 20
66.568901
 11
51.210701
 21
67.768898
  0
LINE
  8
0
  6
CONTINUOUS
 62
7
 10
56.789299
 20
67.768898
 11
54.710800
 21
66.568901
  0
LINE
  8
0
  6
CONTINUOUS
 62
7
 10
57.500000
 20
71.400002
 11
57.500000
 21
69.000000
  0
LINE
  8
0
  6
CONTINUOUS
 62
7
 10
58.000000
 20
74.699997
 11
58.000000
 21
55.200001
  0
LINE
  8
0
  6
CENTER
 62
2
 10
-148.307007
 20
122.199997
 11
-167.087997
 21
122.199997
  0
LINE
  8
0
  6
CONTINUOUS
 62
7
 10
-123.000000
 20
125.699997
 11
-139.000000
 21
125.699997
  0
LINE
  8
0
  6
CENTER
 62
2
 10
-123.693001
 20
122.199997
 11
-106.085999
 21
122.199997
  0
LINE
  8
0
  6
CONTINUOUS
 62
7
 10
-117.500000
 20
126.199997
 11
-154.500000
 21
126.199997
  0
LINE
  8
0
  6
CONTINUOUS
 62
7
 10
-139.000000
 20
117.699997
 11
-139.000000
 21
125.699997
  0
LINE
  8
0
  6
CONTINUOUS
 62
7
 10
-123.000000
 20
117.699997
 11
-123.000000
 21
125.699997
  0
LINE
  8
0
  6
CONTINUOUS
 62
7
 10
-122.000000
 20
118.199997
 11
-122.000000
 21
126.199997
  0
LINE
  8
0
  6
CONTINUOUS
 62
7
 10
-150.000000
 20
118.199997
 11
-150.000000
 21
126.199997
  0
LINE
  8
0
  6
CONTINUOUS
 62
7
 10
-154.500000
 20
118.199997
 11
-154.500000
 21
126.199997
  0
LINE
  8
0
  6
CONTINUOUS
 62
7
 10
-165.000000
 20
124.699997
 11
-158.500000
 21
124.699997
  0
LINE
  8
0
  6
CONTINUOUS
 62
7
 10
-165.000000
 20
119.699997
 11
-158.500000
 21
119.699997
  0
LINE
  8
0
  6
CONTINUOUS
 62
2
 10
-165.000000
 20
124.300003
 11
-158.500000
 21
124.300003
  0
LINE
  8
0
  6
CONTINUOUS
 62
2
 10
-165.000000
 20
120.099998
 11
-158.500000
 21
120.099998
  0
LINE
  8
0
  6
CONTINUOUS
 62
7
 10
-165.000000
 20
124.699997
 11
-165.000000
 21
119.699997
  0
LINE
  8
0
  6
CONTINUOUS
 62
7
 10
-117.500000
 20
118.199997
 11
-117.500000
 21
126.199997
  0
LINE
  8
0
  6
CONTINUOUS
 62
7
 10
-107.000000
 20
119.699997
 11
-113.500000
 21
119.699997
  0
LINE
  8
0
  6
CONTINUOUS
 62
7
 10
-107.000000
 20
124.699997
 11
-113.500000
 21
124.699997
  0
LINE
  8
0
  6
CONTINUOUS
 62
2
 10
-107.000000
 20
120.099998
 11
-113.500000
 21
120.099998
  0
LINE
  8
0
  6
CONTINUOUS
 62
2
 10
-107.000000
 20
124.300003
 11
-113.500000
 21
124.300003
  0
LINE
  8
0
  6
CONTINUOUS
 62
7
 10
-107.000000
 20
119.699997
 11
-107.000000
 21
124.699997
  0
LINE
  8
0
  6
CONTINUOUS
 62
7
 10
-154.500000
 20
118.699997
 11
-158.500000
 21
118.699997
  0
LINE
  8
0
  6
CONTINUOUS
 62
7
 10
-158.500000
 20
125.699997
 11
-158.500000
 21
118.699997
  0
LINE
  8
0
  6
CONTINUOUS
 62
7
 10
-154.500000
 20
125.699997
 11
-158.500000
 21
125.699997
  0
LINE
  8
0
  6
CONTINUOUS
 62
7
 10
-154.500000
 20
124.988998
 11
-158.500000
 21
124.988998
  0
LINE
  8
0
  6
CONTINUOUS
 62
7
 10
-154.500000
 20
122.911003
 11
-158.500000
 21
122.911003
  0
LINE
  8
0
  6
CONTINUOUS
 62
7
 10
-154.500000
 20
121.488998
 11
-158.500000
 21
121.488998
  0
LINE
  8
0
  6
CONTINUOUS
 62
7
 10
-154.500000
 20
119.411003
 11
-158.500000
 21
119.411003
  0
LINE
  8
0
  6
CONTINUOUS
 62
7
 10
-117.500000
 20
125.699997
 11
-113.500000
 21
125.699997
  0
LINE
  8
0
  6
CONTINUOUS
 62
7
 10
-113.500000
 20
118.699997
 11
-113.500000
 21
125.699997
  0
LINE
  8
0
  6
CONTINUOUS
 62
7
 10
-117.500000
 20
118.699997
 11
-113.500000
 21
118.699997
  0
LINE
  8
0
  6
CONTINUOUS
 62
7
 10
-117.500000
 20
119.411003
 11
-113.500000
 21
119.411003
  0
LINE
  8
0
  6
CONTINUOUS
 62
7
 10
-117.500000
 20
121.488998
 11
-113.500000
 21
121.488998
  0
LINE
  8
0
  6
CONTINUOUS
 62
7
 10
-117.500000
 20
122.911003
 11
-113.500000
 21
122.911003
  0
LINE
  8
0
  6
CONTINUOUS
 62
7
 10
-117.500000
 20
124.988998
 11
-113.500000
 21
124.988998
  0
LINE
  8
0
  6
CONTINUOUS
 62
7
 10
-139.000000
 20
118.199997
 11
-166.000000
 21
118.199997
  0
LINE
  8
0
  6
CONTINUOUS
 62
7
 10
106.000000
 20
72.699997
 11
113.000000
 21
72.699997
  0
LINE
  8
0
  6
CONTINUOUS
 62
2
 10
106.000000
 20
72.300003
 11
113.000000
 21
72.300003
  0
LINE
  8
0
  6
CONTINUOUS
 62
2
 10
180.500000
 20
72.300003
 11
186.000000
 21
72.300003
  0
LINE
  8
0
  6
CONTINUOUS
 62
7
 10
96.000000
 20
55.700001
 11
86.000000
 21
55.700001
  0
LINE
  8
0
  6
CONTINUOUS
 62
2
 10
95.000000
 20
73.349998
 11
95.000000
 21
72.500000
  0
LINE
  8
0
  6
CONTINUOUS
 62
7
 10
96.000000
 20
74.699997
 11
96.000000
 21
55.700001
  0
LINE
  8
0
  6
CONTINUOUS
 62
7
 10
96.000000
 20
74.699997
 11
88.500000
 21
74.699997
  0
LINE
  8
0
  6
CONTINUOUS
 62
7
 10
88.500000
 20
74.699997
 11
88.500000
 21
62.200001
  0
LINE
  8
0
  6
CONTINUOUS
 62
7
 10
87.500000
 20
73.699997
 11
87.500000
 21
62.700001
  0
LINE
  8
0
  6
CONTINUOUS
 62
7
 10
87.500000
 20
73.699997
 11
85.500000
 21
73.699997
  0
LINE
  8
0
  6
CONTINUOUS
 62
7
 10
87.500000
 20
62.700001
 11
86.000000
 21
62.700001
  0
LINE
  8
0
  6
CONTINUOUS
 62
7
 10
88.500000
 20
62.200001
 11
86.000000
 21
62.200001
  0
LINE
  8
0
  6
CONTINUOUS
 62
2
 10
95.000000
 20
73.349998
 11
91.199997
 21
73.349998
  0
LINE
  8
0
  6
CONTINUOUS
 62
2
 10
89.699997
 20
71.849998
 11
89.699997
 21
70.550003
  0
LINE
  8
0
  6
CONTINUOUS
 62
2
 10
95.000000
 20
69.050003
 11
91.199997
 21
69.050003
  0
LINE
  8
0
  6
CONTINUOUS
 62
2
 10
96.000000
 20
69.900002
 11
95.000000
 21
69.900002
  0
LINE
  8
0
  6
CONTINUOUS
 62
2
 10
96.000000
 20
72.500000
 11
95.000000
 21
72.500000
  0
LINE
  8
0
  6
CONTINUOUS
 62
2
 10
95.000000
 20
69.900002
 11
95.000000
 21
69.050003
  0
LINE
  8
0
  6
CENTER
 62
2
 10
98.000000
 20
71.199997
 11
87.699997
 21
71.199997
  0
LINE
  8
0
  6
CENTER
 62
2
 10
98.000000
 20
65.199997
 11
87.699997
 21
65.199997
  0
LINE
  8
0
  6
CONTINUOUS
 62
7
 10
-141.500000
 20
75.199997
 11
-120.500000
 21
75.199997
  0
LINE
  8
0
  6
CONTINUOUS
 62
7
 10
-141.500000
 20
75.199997
 11
-141.500000
 21
74.699997
  0
LINE
  8
0
  6
CONTINUOUS
 62
7
 10
-114.000000
 20
74.699997
 11
-114.000000
 21
65.199997
  0
LINE
  8
0
  6
CONTINUOUS
 62
7
 10
-120.500000
 20
75.199997
 11
-120.500000
 21
74.699997
  0
LINE
  8
0
  6
CONTINUOUS
 62
7
 10
-166.000000
 20
70.699997
 11
-154.000000
 21
70.699997
  0
LINE
  8
0
  6
CONTINUOUS
 62
7
 10
-114.000000
 20
70.699997
 11
-106.000000
 21
70.699997
  0
LINE
  8
0
  6
CONTINUOUS
 62
7
 10
-166.000000
 20
55.200001
 11
-166.000000
 21
70.699997
  0
LINE
  8
0
  6
CONTINUOUS
 62
7
 10
-106.000000
 20
55.200001
 11
-106.000000
 21
70.699997
  0
LINE
  8
0
  6
CONTINUOUS
 62
7
 10
-166.000000
 20
55.200001
 11
-106.000000
 21
55.200001
  0
LINE
  8
0
  6
CONTINUOUS
 62
7
 10
-116.800003
 20
60.700001
 11
-118.000000
 21
60.700001
  0
LINE
  8
0
  6
CONTINUOUS
 62
7
 10
-166.000000
 20
64.699997
 11
-157.347000
 21
64.699997
  0
LINE
  8
0
  6
CONTINUOUS
 62
7
 10
-154.000000
 20
60.700001
 11
-155.199997
 21
60.700001
  0
LINE
  8
0
  6
CONTINUOUS
 62
7
 10
-118.000000
 20
65.199997
 11
-114.000000
 21
65.199997
  0
LINE
  8
0
  6
CONTINUOUS
 62
7
 10
-114.653000
 20
64.699997
 11
-106.000000
 21
64.699997
  0
LINE
  8
0
  6
DASHED
 62
2
 10
-123.000000
 20
60.200001
 11
-117.000000
 21
60.200001
  0
LINE
  8
0
  6
CENTER
 62
2
 10
-120.000000
 20
62.700001
 11
-120.000000
 21
53.200001
  0
LINE
  8
0
  6
DASHED
 62
2
 10
-123.000000
 20
60.700001
 11
-123.000000
 21
60.200001
  0
LINE
  8
0
  6
DASHED
 62
2
 10
-149.000000
 20
60.700001
 11
-149.000000
 21
60.200001
  0
LINE
  8
0
  6
DASHED
 62
2
 10
-122.000000
 20
60.200001
 11
-122.000000
 21
55.200001
  0
LINE
  8
0
  6
DASHED
 62
2
 10
-118.000000
 20
60.200001
 11
-118.000000
 21
55.200001
  0
LINE
  8
0
  6
DASHED
 62
2
 10
-118.349998
 20
60.200001
 11
-118.349998
 21
55.200001
  0
LINE
  8
0
  6
DASHED
 62
2
 10
-121.650002
 20
60.200001
 11
-121.650002
 21
55.200001
  0
LINE
  8
0
  6
DASHED
 62
2
 10
-155.000000
 20
60.200001
 11
-149.000000
 21
60.200001
  0
LINE
  8
0
  6
CENTER
 62
2
 10
-152.000000
 20
62.700001
 11
-152.000000
 21
53.200001
  0
LINE
  8
0
  6
DASHED
 62
2
 10
-155.000000
 20
60.700001
 11
-155.000000
 21
60.200001
  0
LINE
  8
0
  6
DASHED
 62
2
 10
-154.000000
 20
60.200001
 11
-154.000000
 21
55.200001
  0
LINE
  8
0
  6
DASHED
 62
2
 10
-150.000000
 20
60.200001
 11
-150.000000
 21
55.200001
  0
LINE
  8
0
  6
DASHED
 62
2
 10
-150.350006
 20
60.200001
 11
-150.350006
 21
55.200001
  0
LINE
  8
0
  6
DASHED
 62
2
 10
-153.649994
 20
60.200001
 11
-153.649994
 21
55.200001
  0
LINE
  8
0
  6
DASHED
 62
2
 10
-117.000000
 20
60.700001
 11
-117.000000
 21
60.200001
  0
LINE
  8
0
  6
CENTER
 62
2
 10
-138.500000
 20
133.199997
 11
-138.500000
 21
129.199997
  0
LINE
  8
0
  6
CENTER
 62
2
 10
-123.500000
 20
133.199997
 11
-123.500000
 21
129.199997
  0
LINE
  8
0
  6
CONTINUOUS
 62
2
 10
-118.000000
 20
66.500000
 11
-154.000000
 21
66.500000
  0
LINE
  8
0
  6
CONTINUOUS
 62
2
 10
-118.000000
 20
69.900002
 11
-154.000000
 21
69.900002
  0
LINE
  8
0
  6
CONTINUOUS
 62
2
 10
-118.000000
 20
72.500000
 11
-154.000000
 21
72.500000
  0
LINE
  8
0
  6
CONTINUOUS
 62
2
 10
-118.000000
 20
63.900002
 11
-154.000000
 21
63.900002
  0
LINE
  8
0
  6
CONTINUOUS
 62
7
 10
-154.000000
 20
74.699997
 11
-154.000000
 21
55.700001
  0
LINE
  8
0
  6
CONTINUOUS
 62
7
 10
-114.000000
 20
74.699997
 11
-154.000000
 21
74.699997
  0
LINE
  8
0
  6
CONTINUOUS
 62
7
 10
-118.000000
 20
74.699997
 11
-118.000000
 21
55.700001
  0
LINE
  8
0
  6
CONTINUOUS
 62
7
 10
-154.000000
 20
55.700001
 11
-118.000000
 21
55.700001
  0
LINE
  8
0
  6
CONTINUOUS
 62
7
 10
226.000000
 20
70.699997
 11
214.000000
 21
70.699997
  0
LINE
  8
0
  6
CONTINUOUS
 62
7
 10
226.000000
 20
67.490700
 11
226.000000
 21
64.699997
  0
LINE
  8
0
  6
CONTINUOUS
 62
7
 10
226.000000
 20
70.699997
 11
226.000000
 21
69.909302
  0
LINE
  8
0
  6
CONTINUOUS
 62
7
 10
233.500000
 20
75.199997
 11
227.000000
 21
75.199997
  0
LINE
  8
0
  6
CONTINUOUS
 62
7
 10
233.500000
 20
65.199997
 11
226.000000
 21
65.199997
  0
LINE
  8
0
  6
CONTINUOUS
 62
7
 10
226.699997
 20
74.900002
 11
213.300003
 21
74.900002
  0
LINE
  8
0
  6
CONTINUOUS
 62
7
 10
214.000000
 20
67.490700
 11
214.000000
 21
64.699997
  0
LINE
  8
0
  6
CONTINUOUS
 62
7
 10
214.000000
 20
70.699997
 11
214.000000
 21
69.909302
  0
LINE
  8
0
  6
CONTINUOUS
 62
7
 10
206.500000
 20
75.199997
 11
213.000000
 21
75.199997
  0
LINE
  8
0
  6
CONTINUOUS
 62
7
 10
206.500000
 20
75.199997
 11
206.500000
 21
65.199997
  0
LINE
  8
0
  6
CONTINUOUS
 62
7
 10
206.500000
 20
65.199997
 11
214.000000
 21
65.199997
  0
LINE
  8
0
  6
CONTINUOUS
 62
7
 10
233.500000
 20
75.199997
 11
233.500000
 21
65.199997
  0
LINE
  8
0
  6
CONTINUOUS
 62
7
 10
227.000000
 20
75.199997
 11
226.699997
 21
74.900002
  0
LINE
  8
0
  6
CONTINUOUS
 62
7
 10
213.000000
 20
75.199997
 11
213.300003
 21
74.900002
  0
LINE
  8
0
  6
CONTINUOUS
 62
7
 10
206.000000
 20
64.699997
 11
214.000000
 21
64.699997
  0
LINE
  8
0
  6
CONTINUOUS
 62
7
 10
206.000000
 20
55.200001
 11
234.000000
 21
55.200001
  0
LINE
  8
0
  6
CONTINUOUS
 62
7
 10
234.000000
 20
64.699997
 11
226.000000
 21
64.699997
  0
LINE
  8
0
  6
CONTINUOUS
 62
7
 10
206.000000
 20
64.699997
 11
206.000000
 21
55.200001
  0
LINE
  8
0
  6
CENTER
 62
2
 10
229.000000
 20
62.700001
 11
229.000000
 21
55.700001
  0
LINE
  8
0
  6
CENTER
 62
2
 10
232.500000
 20
59.200001
 11
225.500000
 21
59.200001
  0
LINE
  8
0
  6
CENTER
 62
2
 10
220.000000
 20
77.199997
 11
220.000000
 21
53.200001
  0
LINE
  8
0
  6
CENTER
 62
2
 10
227.399994
 20
62.200001
 11
212.600006
 21
62.200001
  0
LINE
  8
0
  6
CENTER
 62
2
 10
230.000000
 20
77.199997
 11
230.000000
 21
73.199997
  0
LINE
  8
0
  6
CENTER
 62
2
 10
210.000000
 20
77.199997
 11
210.000000
 21
73.199997
  0
LINE
  8
0
  6
CENTER
 62
2
 10
209.500000
 20
57.200001
 11
209.500000
 21
53.200001
  0
LINE
  8
0
  6
CENTER
 62
2
 10
230.500000
 20
57.200001
 11
230.500000
 21
53.200001
  0
LINE
  8
0
  6
CONTINUOUS
 62
7
 10
242.000000
 20
74.699997
 11
242.000000
 21
55.700001
  0
LINE
  8
0
  6
CONTINUOUS
 62
7
 10
234.000000
 20
55.700001
 11
242.000000
 21
55.700001
  0
LINE
  8
0
  6
CONTINUOUS
 62
7
 10
233.500000
 20
74.699997
 11
242.000000
 21
74.699997
  0
LINE
  8
0
  6
CONTINUOUS
 62
7
 10
238.000000
 20
71.643303
 11
239.250000
 21
70.921600
  0
LINE
  8
0
  6
CONTINUOUS
 62
7
 10
239.250000
 20
70.921700
 11
239.250000
 21
69.478302
  0
LINE
  8
0
  6
CONTINUOUS
 62
7
 10
238.000000
 20
68.756699
 11
239.250000
 21
69.478302
  0
LINE
  8
0
  6
CONTINUOUS
 62
7
 10
236.750000
 20
69.478302
 11
238.000000
 21
68.756599
  0
LINE
  8
0
  6
CONTINUOUS
 62
7
 10
236.750000
 20
70.921700
 11
236.750000
 21
69.478302
  0
LINE
  8
0
  6
CONTINUOUS
 62
7
 10
238.000000
 20
71.643402
 11
236.750000
 21
70.921700
  0
LINE
  8
0
  6
CONTINUOUS
 62
7
 10
237.289001
 20
73.831100
 11
235.210999
 21
72.631104
  0
LINE
  8
0
  6
CENTER
 62
2
 10
238.000000
 20
75.199997
 11
238.000000
 21
65.199997
  0
LINE
  8
0
  6
CENTER
 62
2
 10
243.000000
 20
70.199997
 11
233.000000
 21
70.199997
  0
LINE
  8
0
  6
CONTINUOUS
 62
7
 10
238.710999
 20
73.831001
 11
240.789001
 21
72.630997
  0
LINE
  8
0
  6
CONTINUOUS
 62
7
 10
241.500000
 20
71.400002
 11
241.500000
 21
69.000000
  0
LINE
  8
0
  6
CONTINUOUS
 62
7
 10
238.710999
 20
66.568901
 11
240.789001
 21
67.768997
  0
LINE
  8
0
  6
CONTINUOUS
 62
7
 10
235.210999
 20
67.768799
 11
237.289001
 21
66.568802
  0
LINE
  8
0
  6
CONTINUOUS
 62
7
 10
234.500000
 20
71.400002
 11
234.500000
 21
69.000000
  0
LINE
  8
0
  6
CONTINUOUS
 62
7
 10
234.000000
 20
74.699997
 11
234.000000
 21
55.200001
  0
LINE
  8
0
  6
CONTINUOUS
 62
7
 10
196.000000
 20
55.700001
 11
206.000000
 21
55.700001
  0
LINE
  8
0
  6
CONTINUOUS
 62
2
 10
197.000000
 20
73.349998
 11
197.000000
 21
72.500000
  0
LINE
  8
0
  6
CONTINUOUS
 62
7
 10
196.000000
 20
74.699997
 11
196.000000
 21
55.700001
  0
LINE
  8
0
  6
CONTINUOUS
 62
7
 10
196.000000
 20
74.699997
 11
203.500000
 21
74.699997
  0
LINE
  8
0
  6
CONTINUOUS
 62
7
 10
203.500000
 20
74.699997
 11
203.500000
 21
62.200001
  0
LINE
  8
0
  6
CONTINUOUS
 62
7
 10
204.500000
 20
73.699997
 11
204.500000
 21
62.700001
  0
LINE
  8
0
  6
CONTINUOUS
 62
7
 10
204.500000
 20
73.699997
 11
206.500000
 21
73.699997
  0
LINE
  8
0
  6
CONTINUOUS
 62
7
 10
204.500000
 20
62.700001
 11
206.000000
 21
62.700001
  0
LINE
  8
0
  6
CONTINUOUS
 62
7
 10
203.500000
 20
62.200001
 11
206.000000
 21
62.200001
  0
LINE
  8
0
  6
CONTINUOUS
 62
2
 10
197.000000
 20
73.349998
 11
200.800003
 21
73.349998
  0
LINE
  8
0
  6
CONTINUOUS
 62
2
 10
202.300003
 20
71.849998
 11
202.300003
 21
70.550003
  0
LINE
  8
0
  6
CONTINUOUS
 62
2
 10
197.000000
 20
69.050003
 11
200.800003
 21
69.050003
  0
LINE
  8
0
  6
CONTINUOUS
 62
2
 10
196.000000
 20
69.900002
 11
197.000000
 21
69.900002
  0
LINE
  8
0
  6
CONTINUOUS
 62
2
 10
196.000000
 20
72.500000
 11
197.000000
 21
72.500000
  0
LINE
  8
0
  6
CONTINUOUS
 62
2
 10
197.000000
 20
69.900002
 11
197.000000
 21
69.050003
  0
LINE
  8
0
  6
CENTER
 62
2
 10
194.000000
 20
71.199997
 11
204.300003
 21
71.199997
  0
LINE
  8
0
  6
CENTER
 62
2
 10
194.000000
 20
65.199997
 11
204.300003
 21
65.199997
  0
LINE
  8
0
  6
CONTINUOUS
 62
7
 10
-118.000000
 20
87.699997
 11
-154.000000
 21
87.699997
  0
LINE
  8
0
  6
CONTINUOUS
 62
7
 10
-134.250000
 20
90.199997
 11
-134.250000
 21
88.699997
  0
LINE
  8
0
  6
CONTINUOUS
 62
7
 10
-127.750000
 20
88.699997
 11
-134.250000
 21
88.699997
  0
LINE
  8
0
  6
CONTINUOUS
 62
7
 10
-127.750000
 20
90.199997
 11
-127.750000
 21
88.699997
  0
LINE
  8
0
  6
CONTINUOUS
 62
7
 10
-154.000000
 20
90.199997
 11
-154.000000
 21
80.199997
  0
LINE
  8
0
  6
CONTINUOUS
 62
7
 10
-118.000000
 20
80.199997
 11
-154.000000
 21
80.199997
  0
LINE
  8
0
  6
CONTINUOUS
 62
7
 10
-118.000000
 20
90.199997
 11
-118.000000
 21
80.199997
  0
LINE
  8
0
  6
CONTINUOUS
 62
7
 10
-154.000000
 20
40.200001
 11
-154.000000
 21
50.200001
  0
LINE
  8
0
  6
CONTINUOUS
 62
7
 10
-118.000000
 20
50.200001
 11
-154.000000
 21
50.200001
  0
LINE
  8
0
  6
CONTINUOUS
 62
7
 10
-118.000000
 20
40.200001
 11
-118.000000
 21
50.200001
  0
LINE
  8
0
  6
CONTINUOUS
 62
7
 10
-201.000000
 20
70.699997
 11
-189.000000
 21
70.699997
  0
LINE
  8
0
  6
CONTINUOUS
 62
7
 10
-201.000000
 20
67.490700
 11
-201.000000
 21
64.699997
  0
LINE
  8
0
  6
CONTINUOUS
 62
7
 10
-201.000000
 20
70.699997
 11
-201.000000
 21
69.909302
  0
LINE
  8
0
  6
CONTINUOUS
 62
7
 10
-208.500000
 20
75.199997
 11
-202.000000
 21
75.199997
  0
LINE
  8
0
  6
CONTINUOUS
 62
7
 10
-208.500000
 20
65.199997
 11
-201.000000
 21
65.199997
  0
LINE
  8
0
  6
CONTINUOUS
 62
7
 10
-201.699997
 20
74.900002
 11
-188.300003
 21
74.900002
  0
LINE
  8
0
  6
CONTINUOUS
 62
7
 10
-189.000000
 20
67.490700
 11
-189.000000
 21
64.699997
  0
LINE
  8
0
  6
CONTINUOUS
 62
7
 10
-189.000000
 20
70.699997
 11
-189.000000
 21
69.909302
  0
LINE
  8
0
  6
CONTINUOUS
 62
7
 10
-181.500000
 20
75.199997
 11
-188.000000
 21
75.199997
  0
LINE
  8
0
  6
CONTINUOUS
 62
7
 10
-181.500000
 20
75.199997
 11
-181.500000
 21
65.199997
  0
LINE
  8
0
  6
CONTINUOUS
 62
7
 10
-181.500000
 20
65.199997
 11
-189.000000
 21
65.199997
  0
LINE
  8
0
  6
CONTINUOUS
 62
7
 10
-208.500000
 20
75.199997
 11
-208.500000
 21
65.199997
  0
LINE
  8
0
  6
CONTINUOUS
 62
7
 10
-202.000000
 20
75.199997
 11
-201.699997
 21
74.900002
  0
LINE
  8
0
  6
CONTINUOUS
 62
7
 10
-188.000000
 20
75.199997
 11
-188.300003
 21
74.900002
  0
LINE
  8
0
  6
CONTINUOUS
 62
7
 10
-181.000000
 20
64.699997
 11
-189.000000
 21
64.699997
  0
LINE
  8
0
  6
CONTINUOUS
 62
7
 10
-181.000000
 20
55.200001
 11
-209.000000
 21
55.200001
  0
LINE
  8
0
  6
CONTINUOUS
 62
7
 10
-209.000000
 20
64.699997
 11
-201.000000
 21
64.699997
  0
LINE
  8
0
  6
CONTINUOUS
 62
7
 10
-181.000000
 20
64.699997
 11
-181.000000
 21
55.200001
  0
LINE
  8
0
  6
CENTER
 62
2
 10
-204.000000
 20
62.700001
 11
-204.000000
 21
55.700001
  0
LINE
  8
0
  6
CENTER
 62
2
 10
-207.500000
 20
59.200001
 11
-200.500000
 21
59.200001
  0
LINE
  8
0
  6
CENTER
 62
2
 10
-195.000000
 20
77.199997
 11
-195.000000
 21
53.200001
  0
LINE
  8
0
  6
CENTER
 62
2
 10
-202.399994
 20
62.200001
 11
-187.600006
 21
62.200001
  0
LINE
  8
0
  6
CENTER
 62
2
 10
-205.000000
 20
77.199997
 11
-205.000000
 21
73.199997
  0
LINE
  8
0
  6
CENTER
 62
2
 10
-185.000000
 20
77.199997
 11
-185.000000
 21
73.199997
  0
LINE
  8
0
  6
CENTER
 62
2
 10
-184.500000
 20
57.200001
 11
-184.500000
 21
53.200001
  0
LINE
  8
0
  6
CENTER
 62
2
 10
-205.500000
 20
57.200001
 11
-205.500000
 21
53.200001
  0
LINE
  8
0
  6
CONTINUOUS
 62
7
 10
-217.000000
 20
74.699997
 11
-217.000000
 21
55.700001
  0
LINE
  8
0
  6
CONTINUOUS
 62
7
 10
-209.000000
 20
55.700001
 11
-217.000000
 21
55.700001
  0
LINE
  8
0
  6
CONTINUOUS
 62
7
 10
-208.500000
 20
74.699997
 11
-217.000000
 21
74.699997
  0
LINE
  8
0
  6
CONTINUOUS
 62
7
 10
-213.000000
 20
71.643402
 11
-214.250000
 21
70.921700
  0
LINE
  8
0
  6
CONTINUOUS
 62
7
 10
-214.250000
 20
70.921700
 11
-214.250000
 21
69.478302
  0
LINE
  8
0
  6
CONTINUOUS
 62
7
 10
-213.000000
 20
68.756699
 11
-214.250000
 21
69.478302
  0
LINE
  8
0
  6
CONTINUOUS
 62
7
 10
-211.750000
 20
69.478302
 11
-213.000000
 21
68.756599
  0
LINE
  8
0
  6
CONTINUOUS
 62
7
 10
-211.750000
 20
70.921700
 11
-211.750000
 21
69.478302
  0
LINE
  8
0
  6
CONTINUOUS
 62
7
 10
-213.000000
 20
71.643402
 11
-211.750000
 21
70.921700
  0
LINE
  8
0
  6
CONTINUOUS
 62
7
 10
-212.289001
 20
73.831100
 11
-210.210999
 21
72.631104
  0
LINE
  8
0
  6
CENTER
 62
2
 10
-213.000000
 20
75.199997
 11
-213.000000
 21
65.199997
  0
LINE
  8
0
  6
CENTER
 62
2
 10
-218.000000
 20
70.199997
 11
-208.000000
 21
70.199997
  0
LINE
  8
0
  6
CONTINUOUS
 62
7
 10
-213.710999
 20
73.831001
 11
-215.789001
 21
72.630997
  0
LINE
  8
0
  6
CONTINUOUS
 62
7
 10
-216.500000
 20
71.400002
 11
-216.500000
 21
69.000000
  0
LINE
  8
0
  6
CONTINUOUS
 62
7
 10
-213.710999
 20
66.568901
 11
-215.789001
 21
67.768898
  0
LINE
  8
0
  6
CONTINUOUS
 62
7
 10
-210.210999
 20
67.768898
 11
-212.289001
 21
66.568901
  0
LINE
  8
0
  6
CONTINUOUS
 62
7
 10
-209.500000
 20
71.400002
 11
-209.500000
 21
69.000000
  0
LINE
  8
0
  6
CONTINUOUS
 62
7
 10
-209.000000
 20
74.699997
 11
-209.000000
 21
55.200001
  0
LINE
  8
0
  6
CONTINUOUS
 62
7
 10
-171.000000
 20
55.700001
 11
-181.000000
 21
55.700001
  0
LINE
  8
0
  6
CONTINUOUS
 62
2
 10
-172.000000
 20
73.349998
 11
-172.000000
 21
72.500000
  0
LINE
  8
0
  6
CONTINUOUS
 62
7
 10
-171.000000
 20
74.699997
 11
-171.000000
 21
55.700001
  0
LINE
  8
0
  6
CONTINUOUS
 62
7
 10
-171.000000
 20
74.699997
 11
-178.500000
 21
74.699997
  0
LINE
  8
0
  6
CONTINUOUS
 62
7
 10
-178.500000
 20
74.699997
 11
-178.500000
 21
62.200001
  0
LINE
  8
0
  6
CONTINUOUS
 62
7
 10
-179.500000
 20
73.699997
 11
-179.500000
 21
62.700001
  0
LINE
  8
0
  6
CONTINUOUS
 62
7
 10
-179.500000
 20
73.699997
 11
-181.500000
 21
73.699997
  0
LINE
  8
0
  6
CONTINUOUS
 62
7
 10
-179.500000
 20
62.700001
 11
-181.000000
 21
62.700001
  0
LINE
  8
0
  6
CONTINUOUS
 62
7
 10
-178.500000
 20
62.200001
 11
-181.000000
 21
62.200001
  0
LINE
  8
0
  6
CONTINUOUS
 62
2
 10
-172.000000
 20
73.349998
 11
-175.800003
 21
73.349998
  0
LINE
  8
0
  6
CONTINUOUS
 62
2
 10
-177.300003
 20
71.849998
 11
-177.300003
 21
70.550003
  0
LINE
  8
0
  6
CONTINUOUS
 62
2
 10
-172.000000
 20
69.050003
 11
-175.800003
 21
69.050003
  0
LINE
  8
0
  6
CONTINUOUS
 62
2
 10
-171.000000
 20
69.900002
 11
-172.000000
 21
69.900002
  0
LINE
  8
0
  6
CONTINUOUS
 62
2
 10
-171.000000
 20
72.500000
 11
-172.000000
 21
72.500000
  0
LINE
  8
0
  6
CONTINUOUS
 62
2
 10
-172.000000
 20
69.900002
 11
-172.000000
 21
69.050003
  0
LINE
  8
0
  6
CENTER
 62
2
 10
-169.000000
 20
71.199997
 11
-179.300003
 21
71.199997
  0
LINE
  8
0
  6
CENTER
 62
2
 10
-169.000000
 20
65.199997
 11
-179.300003
 21
65.199997
  0
LINE
  8
0
  6
CONTINUOUS
 62
7
 10
-71.000000
 20
70.699997
 11
-83.000000
 21
70.699997
  0
LINE
  8
0
  6
CONTINUOUS
 62
7
 10
-71.000000
 20
67.490700
 11
-71.000000
 21
64.699997
  0
LINE
  8
0
  6
CONTINUOUS
 62
7
 10
-71.000000
 20
70.699997
 11
-71.000000
 21
69.909302
  0
LINE
  8
0
  6
CONTINUOUS
 62
7
 10
-63.500000
 20
75.199997
 11
-70.000000
 21
75.199997
  0
LINE
  8
0
  6
CONTINUOUS
 62
7
 10
-63.500000
 20
65.199997
 11
-71.000000
 21
65.199997
  0
LINE
  8
0
  6
CONTINUOUS
 62
7
 10
-70.300003
 20
74.900002
 11
-83.699997
 21
74.900002
  0
LINE
  8
0
  6
CONTINUOUS
 62
7
 10
-83.000000
 20
67.490700
 11
-83.000000
 21
64.699997
  0
LINE
  8
0
  6
CONTINUOUS
 62
7
 10
-83.000000
 20
70.699997
 11
-83.000000
 21
69.909302
  0
LINE
  8
0
  6
CONTINUOUS
 62
7
 10
-90.500000
 20
75.199997
 11
-84.000000
 21
75.199997
  0
LINE
  8
0
  6
CONTINUOUS
 62
7
 10
-90.500000
 20
75.199997
 11
-90.500000
 21
65.199997
  0
LINE
  8
0
  6
CONTINUOUS
 62
7
 10
-90.500000
 20
65.199997
 11
-83.000000
 21
65.199997
  0
LINE
  8
0
  6
CONTINUOUS
 62
7
 10
-63.500000
 20
75.199997
 11
-63.500000
 21
65.199997
  0
LINE
  8
0
  6
CONTINUOUS
 62
7
 10
-70.000000
 20
75.199997
 11
-70.300003
 21
74.900002
  0
LINE
  8
0
  6
CONTINUOUS
 62
7
 10
-84.000000
 20
75.199997
 11
-83.699997
 21
74.900002
  0
LINE
  8
0
  6
CONTINUOUS
 62
7
 10
-91.000000
 20
64.699997
 11
-83.000000
 21
64.699997
  0
LINE
  8
0
  6
CONTINUOUS
 62
7
 10
-91.000000
 20
55.200001
 11
-63.000000
 21
55.200001
  0
LINE
  8
0
  6
CONTINUOUS
 62
7
 10
-63.000000
 20
64.699997
 11
-71.000000
 21
64.699997
  0
LINE
  8
0
  6
CONTINUOUS
 62
7
 10
-91.000000
 20
64.699997
 11
-91.000000
 21
55.200001
  0
LINE
  8
0
  6
CENTER
 62
2
 10
-68.000000
 20
62.700001
 11
-68.000000
 21
55.700001
  0
LINE
  8
0
  6
CENTER
 62
2
 10
-64.500000
 20
59.200001
 11
-71.500000
 21
59.200001
  0
LINE
  8
0
  6
CENTER
 62
2
 10
-77.000000
 20
77.199997
 11
-77.000000
 21
53.200001
  0
LINE
  8
0
  6
CENTER
 62
2
 10
-69.599998
 20
62.200001
 11
-84.400002
 21
62.200001
  0
LINE
  8
0
  6
CENTER
 62
2
 10
-67.000000
 20
77.199997
 11
-67.000000
 21
73.199997
  0
LINE
  8
0
  6
CENTER
 62
2
 10
-87.000000
 20
77.199997
 11
-87.000000
 21
73.199997
  0
LINE
  8
0
  6
CENTER
 62
2
 10
-87.500000
 20
57.200001
 11
-87.500000
 21
53.200001
  0
LINE
  8
0
  6
CENTER
 62
2
 10
-66.500000
 20
57.200001
 11
-66.500000
 21
53.200001
  0
LINE
  8
0
  6
CONTINUOUS
 62
7
 10
-55.000000
 20
74.699997
 11
-55.000000
 21
55.700001
  0
LINE
  8
0
  6
CONTINUOUS
 62
7
 10
-63.000000
 20
55.700001
 11
-55.000000
 21
55.700001
  0
LINE
  8
0
  6
CONTINUOUS
 62
7
 10
-63.500000
 20
74.699997
 11
-55.000000
 21
74.699997
  0
LINE
  8
0
  6
CONTINUOUS
 62
7
 10
-59.000000
 20
71.643402
 11
-57.750000
 21
70.921700
  0
LINE
  8
0
  6
CONTINUOUS
 62
7
 10
-57.750000
 20
70.921700
 11
-57.750000
 21
69.478302
  0
LINE
  8
0
  6
CONTINUOUS
 62
7
 10
-59.000000
 20
68.756599
 11
-57.750000
 21
69.478302
  0
LINE
  8
0
  6
CONTINUOUS
 62
7
 10
-60.250000
 20
69.478302
 11
-59.000000
 21
68.756599
  0
LINE
  8
0
  6
CONTINUOUS
 62
7
 10
-60.250000
 20
70.921700
 11
-60.250000
 21
69.478302
  0
LINE
  8
0
  6
CONTINUOUS
 62
7
 10
-59.000000
 20
71.643402
 11
-60.250000
 21
70.921700
  0
LINE
  8
0
  6
CONTINUOUS
 62
7
 10
-59.710800
 20
73.831100
 11
-61.789200
 21
72.631104
  0
LINE
  8
0
  6
CENTER
 62
2
 10
-59.000000
 20
75.199997
 11
-59.000000
 21
65.199997
  0
LINE
  8
0
  6
CENTER
 62
2
 10
-54.000000
 20
70.199997
 11
-64.000000
 21
70.199997
  0
LINE
  8
0
  6
CONTINUOUS
 62
7
 10
-58.289299
 20
73.831100
 11
-56.210800
 21
72.631104
  0
LINE
  8
0
  6
CONTINUOUS
 62
7
 10
-55.500000
 20
71.400002
 11
-55.500000
 21
69.000000
  0
LINE
  8
0
  6
CONTINUOUS
 62
7
 10
-58.289200
 20
66.568901
 11
-56.210701
 21
67.768898
  0
LINE
  8
0
  6
CONTINUOUS
 62
7
 10
-61.789200
 20
67.768898
 11
-59.710800
 21
66.568901
  0
LINE
  8
0
  6
CONTINUOUS
 62
7
 10
-62.500000
 20
71.400002
 11
-62.500000
 21
69.000000
  0
LINE
  8
0
  6
CONTINUOUS
 62
7
 10
-63.000000
 20
74.699997
 11
-63.000000
 21
55.200001
  0
LINE
  8
0
  6
CONTINUOUS
 62
7
 10
-101.000000
 20
55.700001
 11
-91.000000
 21
55.700001
  0
LINE
  8
0
  6
CONTINUOUS
 62
2
 10
-100.000000
 20
73.349998
 11
-100.000000
 21
72.500000
  0
LINE
  8
0
  6
CONTINUOUS
 62
7
 10
-101.000000
 20
74.699997
 11
-101.000000
 21
55.700001
  0
LINE
  8
0
  6
CONTINUOUS
 62
7
 10
-101.000000
 20
74.699997
 11
-93.500000
 21
74.699997
  0
LINE
  8
0
  6
CONTINUOUS
 62
7
 10
-93.500000
 20
74.699997
 11
-93.500000
 21
62.200001
  0
LINE
  8
0
  6
CONTINUOUS
 62
7
 10
-92.500000
 20
73.699997
 11
-92.500000
 21
62.700001
  0
LINE
  8
0
  6
CONTINUOUS
 62
7
 10
-92.500000
 20
73.699997
 11
-90.500000
 21
73.699997
  0
LINE
  8
0
  6
CONTINUOUS
 62
7
 10
-92.500000
 20
62.700001
 11
-91.000000
 21
62.700001
  0
LINE
  8
0
  6
CONTINUOUS
 62
7
 10
-93.500000
 20
62.200001
 11
-91.000000
 21
62.200001
  0
LINE
  8
0
  6
CONTINUOUS
 62
2
 10
-100.000000
 20
73.349998
 11
-96.199997
 21
73.349998
  0
LINE
  8
0
  6
CONTINUOUS
 62
2
 10
-94.699997
 20
71.849998
 11
-94.699997
 21
70.550003
  0
LINE
  8
0
  6
CONTINUOUS
 62
2
 10
-100.000000
 20
69.050003
 11
-96.199997
 21
69.050003
  0
LINE
  8
0
  6
CONTINUOUS
 62
2
 10
-101.000000
 20
69.900002
 11
-100.000000
 21
69.900002
  0
LINE
  8
0
  6
CONTINUOUS
 62
2
 10
-101.000000
 20
72.500000
 11
-100.000000
 21
72.500000
  0
LINE
  8
0
  6
CONTINUOUS
 62
2
 10
-100.000000
 20
69.900002
 11
-100.000000
 21
69.050003
  0
LINE
  8
0
  6
CENTER
 62
2
 10
-103.000000
 20
71.199997
 11
-92.699997
 21
71.199997
  0
LINE
  8
0
  6
CENTER
 62
2
 10
-103.000000
 20
65.199997
 11
-92.699997
 21
65.199997
  0
LINE
  8
0
  6
CONTINUOUS
 62
7
 10
113.000000
 20
40.200001
 11
113.000000
 21
50.200001
  0
LINE
  8
0
  6
CONTINUOUS
 62
7
 10
179.000000
 20
50.200001
 11
113.000000
 21
50.200001
  0
LINE
  8
0
  6
CONTINUOUS
 62
7
 10
179.000000
 20
40.200001
 11
179.000000
 21
50.200001
  0
LINE
  8
0
  6
CONTINUOUS
 62
7
 10
113.000000
 20
90.199997
 11
113.000000
 21
80.199997
  0
LINE
  8
0
  6
CONTINUOUS
 62
7
 10
179.000000
 20
80.199997
 11
113.000000
 21
80.199997
  0
LINE
  8
0
  6
CONTINUOUS
 62
7
 10
179.000000
 20
87.699997
 11
113.000000
 21
87.699997
  0
LINE
  8
0
  6
CONTINUOUS
 62
7
 10
159.250000
 20
88.699997
 11
152.750000
 21
88.699997
  0
LINE
  8
0
  6
CONTINUOUS
 62
7
 10
152.750000
 20
90.199997
 11
152.750000
 21
88.699997
  0
LINE
  8
0
  6
CONTINUOUS
 62
7
 10
159.250000
 20
90.199997
 11
159.250000
 21
88.699997
  0
LINE
  8
0
  6
CONTINUOUS
 62
7
 10
179.000000
 20
90.199997
 11
179.000000
 21
80.199997
  0
LINE
  8
0
  6
CONTINUOUS
 62
7
 10
138.000000
 20
75.199997
 11
174.000000
 21
75.199997
  0
LINE
  8
0
  6
CONTINUOUS
 62
7
 10
138.000000
 20
75.199997
 11
138.000000
 21
74.699997
  0
LINE
  8
0
  6
CONTINUOUS
 62
7
 10
131.500000
 20
74.699997
 11
138.000000
 21
74.699997
  0
LINE
  8
0
  6
CONTINUOUS
 62
7
 10
180.500000
 20
74.699997
 11
180.500000
 21
65.199997
  0
LINE
  8
0
  6
CONTINUOUS
 62
7
 10
174.000000
 20
75.199997
 11
174.000000
 21
74.699997
  0
LINE
  8
0
  6
CONTINUOUS
 62
7
 10
180.500000
 20
74.699997
 11
174.000000
 21
74.699997
  0
LINE
  8
0
  6
CONTINUOUS
 62
7
 10
101.000000
 20
70.699997
 11
113.000000
 21
70.699997
  0
LINE
  8
0
  6
CONTINUOUS
 62
7
 10
180.500000
 20
70.699997
 11
191.000000
 21
70.699997
  0
LINE
  8
0
  6
CONTINUOUS
 62
7
 10
101.000000
 20
55.200001
 11
101.000000
 21
70.699997
  0
LINE
  8
0
  6
CONTINUOUS
 62
7
 10
191.000000
 20
55.200001
 11
191.000000
 21
70.699997
  0
LINE
  8
0
  6
CONTINUOUS
 62
7
 10
101.000000
 20
55.200001
 11
191.000000
 21
55.200001
  0
LINE
  8
0
  6
CONTINUOUS
 62
7
 10
180.199997
 20
60.700001
 11
179.000000
 21
60.700001
  0
LINE
  8
0
  6
CONTINUOUS
 62
7
 10
101.000000
 20
64.699997
 11
109.653000
 21
64.699997
  0
LINE
  8
0
  6
CONTINUOUS
 62
7
 10
113.000000
 20
60.700001
 11
111.800003
 21
60.700001
  0
LINE
  8
0
  6
CONTINUOUS
 62
7
 10
179.000000
 20
65.199997
 11
180.500000
 21
65.199997
  0
LINE
  8
0
  6
CONTINUOUS
 62
7
 10
182.347000
 20
64.699997
 11
191.000000
 21
64.699997
  0
LINE
  8
0
  6
DASHED
 62
2
 10
113.000000
 20
60.200001
 11
113.000000
 21
55.200001
  0
LINE
  8
0
  6
DASHED
 62
2
 10
113.349998
 20
60.200001
 11
113.349998
 21
55.200001
  0
LINE
  8
0
  6
DASHED
 62
2
 10
112.000000
 20
60.200001
 11
118.000000
 21
60.200001
  0
LINE
  8
0
  6
CENTER
 62
2
 10
115.000000
 20
62.700001
 11
115.000000
 21
53.200001
  0
LINE
  8
0
  6
DASHED
 62
2
 10
116.650002
 20
60.200001
 11
116.650002
 21
55.200001
  0
LINE
  8
0
  6
DASHED
 62
2
 10
117.000000
 20
60.200001
 11
117.000000
 21
55.200001
  0
LINE
  8
0
  6
DASHED
 62
2
 10
118.000000
 20
60.700001
 11
118.000000
 21
60.200001
  0
LINE
  8
0
  6
DASHED
 62
2
 10
112.000000
 20
60.700001
 11
112.000000
 21
60.200001
  0
LINE
  8
0
  6
DASHED
 62
2
 10
175.000000
 20
60.200001
 11
175.000000
 21
55.200001
  0
LINE
  8
0
  6
DASHED
 62
2
 10
175.350006
 20
60.200001
 11
175.350006
 21
55.200001
  0
LINE
  8
0
  6
DASHED
 62
2
 10
174.000000
 20
60.200001
 11
180.000000
 21
60.200001
  0
LINE
  8
0
  6
CENTER
 62
2
 10
177.000000
 20
62.700001
 11
177.000000
 21
53.200001
  0
LINE
  8
0
  6
DASHED
 62
2
 10
178.649994
 20
60.200001
 11
178.649994
 21
55.200001
  0
LINE
  8
0
  6
DASHED
 62
2
 10
179.000000
 20
60.200001
 11
179.000000
 21
55.200001
  0
LINE
  8
0
  6
DASHED
 62
2
 10
180.000000
 20
60.700001
 11
180.000000
 21
60.200001
  0
LINE
  8
0
  6
DASHED
 62
2
 10
174.000000
 20
60.700001
 11
174.000000
 21
60.200001
  0
LINE
  8
0
  6
CENTER
 62
2
 10
141.000000
 20
77.199997
 11
141.000000
 21
73.199997
  0
LINE
  8
0
  6
CENTER
 62
2
 10
156.000000
 20
77.199997
 11
156.000000
 21
73.199997
  0
LINE
  8
0
  6
CENTER
 62
2
 10
171.000000
 20
77.199997
 11
171.000000
 21
73.199997
  0
LINE
  8
0
  6
CONTINUOUS
 62
7
 10
113.000000
 20
74.699997
 11
113.000000
 21
55.700001
  0
LINE
  8
0
  6
CONTINUOUS
 62
7
 10
113.000000
 20
55.700001
 11
179.000000
 21
55.700001
  0
LINE
  8
0
  6
CONTINUOUS
 62
2
 10
113.000000
 20
63.900002
 11
179.000000
 21
63.900002
  0
LINE
  8
0
  6
CONTINUOUS
 62
2
 10
113.000000
 20
66.500000
 11
179.000000
 21
66.500000
  0
LINE
  8
0
  6
CONTINUOUS
 62
2
 10
113.000000
 20
69.900002
 11
179.000000
 21
69.900002
  0
LINE
  8
0
  6
CONTINUOUS
 62
2
 10
113.000000
 20
72.500000
 11
179.000000
 21
72.500000
  0
LINE
  8
0
  6
CONTINUOUS
 62
7
 10
180.500000
 20
74.699997
 11
113.000000
 21
74.699997
  0
LINE
  8
0
  6
CONTINUOUS
 62
7
 10
179.000000
 20
74.699997
 11
179.000000
 21
55.700001
  0
LINE
  8
0
  6
CONTINUOUS
 62
7
 10
60.000000
 20
-109.550003
 11
60.000000
 21
-119.050003
  0
LINE
  8
0
  6
CONTINUOUS
 62
7
 10
224.000000
 20
-103.550003
 11
212.000000
 21
-103.550003
  0
LINE
  8
0
  6
CONTINUOUS
 62
7
 10
224.000000
 20
-106.759003
 11
224.000000
 21
-109.550003
  0
LINE
  8
0
  6
CONTINUOUS
 62
7
 10
224.000000
 20
-103.550003
 11
224.000000
 21
-104.341003
  0
LINE
  8
0
  6
CONTINUOUS
 62
7
 10
231.500000
 20
-99.050003
 11
225.000000
 21
-99.050003
  0
LINE
  8
0
  6
CONTINUOUS
 62
7
 10
231.500000
 20
-109.050003
 11
224.000000
 21
-109.050003
  0
LINE
  8
0
  6
CONTINUOUS
 62
7
 10
224.699997
 20
-99.349998
 11
211.300003
 21
-99.349998
  0
LINE
  8
0
  6
CONTINUOUS
 62
7
 10
212.000000
 20
-106.759003
 11
212.000000
 21
-109.550003
  0
LINE
  8
0
  6
CONTINUOUS
 62
7
 10
212.000000
 20
-103.550003
 11
212.000000
 21
-104.341003
  0
LINE
  8
0
  6
CONTINUOUS
 62
7
 10
204.500000
 20
-99.050003
 11
211.000000
 21
-99.050003
  0
LINE
  8
0
  6
CONTINUOUS
 62
7
 10
204.500000
 20
-99.050003
 11
204.500000
 21
-109.050003
  0
LINE
  8
0
  6
CONTINUOUS
 62
7
 10
204.500000
 20
-109.050003
 11
212.000000
 21
-109.050003
  0
LINE
  8
0
  6
CONTINUOUS
 62
7
 10
231.500000
 20
-99.050003
 11
231.500000
 21
-109.050003
  0
LINE
  8
0
  6
CONTINUOUS
 62
7
 10
225.000000
 20
-99.049896
 11
224.699997
 21
-99.349899
  0
LINE
  8
0
  6
CONTINUOUS
 62
7
 10
211.000000
 20
-99.050003
 11
211.300003
 21
-99.349998
  0
LINE
  8
0
  6
CONTINUOUS
 62
7
 10
204.000000
 20
-109.550003
 11
212.000000
 21
-109.550003
  0
LINE
  8
0
  6
CONTINUOUS
 62
7
 10
204.000000
 20
-119.050003
 11
232.000000
 21
-119.050003
  0
LINE
  8
0
  6
CONTINUOUS
 62
7
 10
232.000000
 20
-109.550003
 11
224.000000
 21
-109.550003
  0
LINE
  8
0
  6
CONTINUOUS
 62
7
 10
204.000000
 20
-99.550003
 11
204.000000
 21
-119.050003
  0
LINE
  8
0
  6
CENTER
 62
2
 10
227.000000
 20
-111.550003
 11
227.000000
 21
-118.550003
  0
LINE
  8
0
  6
CENTER
 62
2
 10
230.500000
 20
-115.050003
 11
223.500000
 21
-115.050003
  0
LINE
  8
0
  6
CENTER
 62
2
 10
218.000000
 20
-97.050003
 11
218.000000
 21
-121.050003
  0
LINE
  8
0
  6
CENTER
 62
2
 10
225.399994
 20
-112.050003
 11
210.600006
 21
-112.050003
  0
LINE
  8
0
  6
CENTER
 62
2
 10
228.000000
 20
-97.050003
 11
228.000000
 21
-101.050003
  0
LINE
  8
0
  6
CENTER
 62
2
 10
208.000000
 20
-97.050003
 11
208.000000
 21
-101.050003
  0
LINE
  8
0
  6
CENTER
 62
2
 10
207.500000
 20
-117.050003
 11
207.500000
 21
-121.050003
  0
LINE
  8
0
  6
CENTER
 62
2
 10
228.500000
 20
-117.050003
 11
228.500000
 21
-121.050003
  0
LINE
  8
0
  6
CONTINUOUS
 62
7
 10
196.000000
 20
-99.550003
 11
196.000000
 21
-118.550003
  0
LINE
  8
0
  6
CONTINUOUS
 62
7
 10
204.000000
 20
-118.550003
 11
196.000000
 21
-118.550003
  0
LINE
  8
0
  6
CONTINUOUS
 62
7
 10
204.500000
 20
-99.550003
 11
196.000000
 21
-99.550003
  0
LINE
  8
0
  6
CONTINUOUS
 62
7
 10
200.000000
 20
-102.607002
 11
198.750000
 21
-103.328003
  0
LINE
  8
0
  6
CONTINUOUS
 62
7
 10
198.750000
 20
-103.328003
 11
198.750000
 21
-104.772003
  0
LINE
  8
0
  6
CONTINUOUS
 62
7
 10
200.000000
 20
-105.492996
 11
198.750000
 21
-104.772003
  0
LINE
  8
0
  6
CONTINUOUS
 62
7
 10
201.250000
 20
-104.772003
 11
200.000000
 21
-105.492996
  0
LINE
  8
0
  6
CONTINUOUS
 62
7
 10
201.250000
 20
-103.328003
 11
201.250000
 21
-104.772003
  0
LINE
  8
0
  6
CONTINUOUS
 62
7
 10
200.000000
 20
-102.607002
 11
201.250000
 21
-103.328003
  0
LINE
  8
0
  6
CONTINUOUS
 62
7
 10
200.710999
 20
-100.418999
 11
202.789001
 21
-101.619003
  0
LINE
  8
0
  6
CENTER
 62
2
 10
200.000000
 20
-99.050003
 11
200.000000
 21
-109.050003
  0
LINE
  8
0
  6
CENTER
 62
2
 10
195.000000
 20
-104.050003
 11
205.000000
 21
-104.050003
  0
LINE
  8
0
  6
CONTINUOUS
 62
7
 10
199.289001
 20
-100.418999
 11
197.210999
 21
-101.619003
  0
LINE
  8
0
  6
CONTINUOUS
 62
7
 10
196.500000
 20
-102.849998
 11
196.500000
 21
-105.250000
  0
LINE
  8
0
  6
CONTINUOUS
 62
7
 10
199.289001
 20
-107.681000
 11
197.210999
 21
-106.481003
  0
LINE
  8
0
  6
CONTINUOUS
 62
7
 10
202.789001
 20
-106.481003
 11
200.710999
 21
-107.681000
  0
LINE
  8
0
  6
CONTINUOUS
 62
7
 10
203.500000
 20
-102.849998
 11
203.500000
 21
-105.250000
  0
LINE
  8
0
  6
CONTINUOUS
 62
7
 10
242.000000
 20
-118.550003
 11
232.000000
 21
-118.550003
  0
LINE
  8
0
  6
CONTINUOUS
 62
2
 10
241.000000
 20
-100.900002
 11
241.000000
 21
-101.750000
  0
LINE
  8
0
  6
CONTINUOUS
 62
7
 10
242.000000
 20
-99.550003
 11
242.000000
 21
-118.550003
  0
LINE
  8
0
  6
CONTINUOUS
 62
7
 10
242.000000
 20
-99.550003
 11
234.500000
 21
-99.550003
  0
LINE
  8
0
  6
CONTINUOUS
 62
7
 10
234.500000
 20
-99.550003
 11
234.500000
 21
-112.050003
  0
LINE
  8
0
  6
CONTINUOUS
 62
7
 10
233.500000
 20
-100.550003
 11
233.500000
 21
-111.550003
  0
LINE
  8
0
  6
CONTINUOUS
 62
7
 10
233.500000
 20
-100.550003
 11
231.500000
 21
-100.550003
  0
LINE
  8
0
  6
CONTINUOUS
 62
7
 10
233.500000
 20
-111.550003
 11
232.000000
 21
-111.550003
  0
LINE
  8
0
  6
CONTINUOUS
 62
7
 10
234.500000
 20
-112.050003
 11
232.000000
 21
-112.050003
  0
LINE
  8
0
  6
CONTINUOUS
 62
2
 10
241.000000
 20
-100.900002
 11
237.199997
 21
-100.900002
  0
LINE
  8
0
  6
CONTINUOUS
 62
2
 10
235.699997
 20
-102.400002
 11
235.699997
 21
-103.699997
  0
LINE
  8
0
  6
CONTINUOUS
 62
2
 10
241.000000
 20
-105.199997
 11
237.199997
 21
-105.199997
  0
LINE
  8
0
  6
CONTINUOUS
 62
2
 10
242.000000
 20
-104.349998
 11
241.000000
 21
-104.349998
  0
LINE
  8
0
  6
CONTINUOUS
 62
2
 10
242.000000
 20
-101.750000
 11
241.000000
 21
-101.750000
  0
LINE
  8
0
  6
CONTINUOUS
 62
2
 10
241.000000
 20
-104.349998
 11
241.000000
 21
-105.199997
  0
LINE
  8
0
  6
CENTER
 62
2
 10
244.000000
 20
-103.050003
 11
233.699997
 21
-103.050003
  0
LINE
  8
0
  6
CENTER
 62
2
 10
244.000000
 20
-109.050003
 11
233.699997
 21
-109.050003
  0
LINE
  8
0
  6
CONTINUOUS
 62
7
 10
232.000000
 20
-109.550003
 11
232.000000
 21
-119.050003
  0
LINE
  8
0
  6
CONTINUOUS
 62
7
 10
-199.000000
 20
-103.550003
 11
-187.000000
 21
-103.550003
  0
LINE
  8
0
  6
CONTINUOUS
 62
7
 10
-199.000000
 20
-106.759003
 11
-199.000000
 21
-109.550003
  0
LINE
  8
0
  6
CONTINUOUS
 62
7
 10
-199.000000
 20
-103.550003
 11
-199.000000
 21
-104.341003
  0
LINE
  8
0
  6
CONTINUOUS
 62
7
 10
-206.500000
 20
-99.050003
 11
-200.000000
 21
-99.050003
  0
LINE
  8
0
  6
CONTINUOUS
 62
7
 10
-206.500000
 20
-109.050003
 11
-199.000000
 21
-109.050003
  0
LINE
  8
0
  6
CONTINUOUS
 62
7
 10
-199.699997
 20
-99.349998
 11
-186.300003
 21
-99.349998
  0
LINE
  8
0
  6
CONTINUOUS
 62
7
 10
-187.000000
 20
-106.759003
 11
-187.000000
 21
-109.550003
  0
LINE
  8
0
  6
CONTINUOUS
 62
7
 10
-187.000000
 20
-103.550003
 11
-187.000000
 21
-104.341003
  0
LINE
  8
0
  6
CONTINUOUS
 62
7
 10
-179.500000
 20
-99.050003
 11
-186.000000
 21
-99.050003
  0
LINE
  8
0
  6
CONTINUOUS
 62
7
 10
-179.500000
 20
-99.050003
 11
-179.500000
 21
-109.050003
  0
LINE
  8
0
  6
CONTINUOUS
 62
7
 10
-179.500000
 20
-109.050003
 11
-187.000000
 21
-109.050003
  0
LINE
  8
0
  6
CONTINUOUS
 62
7
 10
-206.500000
 20
-99.050003
 11
-206.500000
 21
-109.050003
  0
LINE
  8
0
  6
CONTINUOUS
 62
7
 10
-200.000000
 20
-99.049896
 11
-199.699997
 21
-99.349899
  0
LINE
  8
0
  6
CONTINUOUS
 62
7
 10
-186.000000
 20
-99.050003
 11
-186.300003
 21
-99.349998
  0
LINE
  8
0
  6
CONTINUOUS
 62
7
 10
-179.000000
 20
-109.550003
 11
-187.000000
 21
-109.550003
  0
LINE
  8
0
  6
CONTINUOUS
 62
7
 10
-179.000000
 20
-119.050003
 11
-207.000000
 21
-119.050003
  0
LINE
  8
0
  6
CONTINUOUS
 62
7
 10
-207.000000
 20
-109.550003
 11
-199.000000
 21
-109.550003
  0
LINE
  8
0
  6
CONTINUOUS
 62
7
 10
-179.000000
 20
-99.550003
 11
-179.000000
 21
-119.050003
  0
LINE
  8
0
  6
CENTER
 62
2
 10
-202.000000
 20
-111.550003
 11
-202.000000
 21
-118.550003
  0
LINE
  8
0
  6
CENTER
 62
2
 10
-205.500000
 20
-115.050003
 11
-198.500000
 21
-115.050003
  0
LINE
  8
0
  6
CENTER
 62
2
 10
-193.000000
 20
-97.050003
 11
-193.000000
 21
-121.050003
  0
LINE
  8
0
  6
CENTER
 62
2
 10
-200.399994
 20
-112.050003
 11
-185.600006
 21
-112.050003
  0
LINE
  8
0
  6
CENTER
 62
2
 10
-203.000000
 20
-97.050003
 11
-203.000000
 21
-101.050003
  0
LINE
  8
0
  6
CENTER
 62
2
 10
-183.000000
 20
-97.050003
 11
-183.000000
 21
-101.050003
  0
LINE
  8
0
  6
CENTER
 62
2
 10
-182.500000
 20
-117.050003
 11
-182.500000
 21
-121.050003
  0
LINE
  8
0
  6
CENTER
 62
2
 10
-203.500000
 20
-117.050003
 11
-203.500000
 21
-121.050003
  0
LINE
  8
0
  6
CONTINUOUS
 62
7
 10
-171.000000
 20
-99.550003
 11
-171.000000
 21
-118.550003
  0
LINE
  8
0
  6
CONTINUOUS
 62
7
 10
-179.000000
 20
-118.550003
 11
-171.000000
 21
-118.550003
  0
LINE
  8
0
  6
CONTINUOUS
 62
7
 10
-179.500000
 20
-99.550003
 11
-171.000000
 21
-99.550003
  0
LINE
  8
0
  6
CONTINUOUS
 62
7
 10
-175.000000
 20
-102.607002
 11
-173.750000
 21
-103.328003
  0
LINE
  8
0
  6
CONTINUOUS
 62
7
 10
-173.750000
 20
-103.328003
 11
-173.750000
 21
-104.772003
  0
LINE
  8
0
  6
CONTINUOUS
 62
7
 10
-175.000000
 20
-105.492996
 11
-173.750000
 21
-104.772003
  0
LINE
  8
0
  6
CONTINUOUS
 62
7
 10
-176.250000
 20
-104.772003
 11
-175.000000
 21
-105.492996
  0
LINE
  8
0
  6
CONTINUOUS
 62
7
 10
-176.250000
 20
-103.328003
 11
-176.250000
 21
-104.772003
  0
LINE
  8
0
  6
CONTINUOUS
 62
7
 10
-175.000000
 20
-102.607002
 11
-176.250000
 21
-103.328003
  0
LINE
  8
0
  6
CONTINUOUS
 62
7
 10
-175.710999
 20
-100.418999
 11
-177.789001
 21
-101.619003
  0
LINE
  8
0
  6
CENTER
 62
2
 10
-175.000000
 20
-99.050003
 11
-175.000000
 21
-109.050003
  0
LINE
  8
0
  6
CENTER
 62
2
 10
-170.000000
 20
-104.050003
 11
-180.000000
 21
-104.050003
  0
LINE
  8
0
  6
CONTINUOUS
 62
7
 10
-174.289001
 20
-100.418999
 11
-172.210999
 21
-101.619003
  0
LINE
  8
0
  6
CONTINUOUS
 62
7
 10
-171.500000
 20
-102.849998
 11
-171.500000
 21
-105.250000
  0
LINE
  8
0
  6
CONTINUOUS
 62
7
 10
-174.289001
 20
-107.681000
 11
-172.210999
 21
-106.481003
  0
LINE
  8
0
  6
CONTINUOUS
 62
7
 10
-177.789001
 20
-106.481003
 11
-175.710999
 21
-107.681000
  0
LINE
  8
0
  6
CONTINUOUS
 62
7
 10
-178.500000
 20
-102.849998
 11
-178.500000
 21
-105.250000
  0
LINE
  8
0
  6
CONTINUOUS
 62
7
 10
-217.000000
 20
-118.550003
 11
-207.000000
 21
-118.550003
  0
LINE
  8
0
  6
CONTINUOUS
 62
2
 10
-216.000000
 20
-100.900002
 11
-216.000000
 21
-101.750000
  0
LINE
  8
0
  6
CONTINUOUS
 62
7
 10
-217.000000
 20
-99.550003
 11
-217.000000
 21
-118.550003
  0
LINE
  8
0
  6
CONTINUOUS
 62
7
 10
-217.000000
 20
-99.550003
 11
-209.500000
 21
-99.550003
  0
LINE
  8
0
  6
CONTINUOUS
 62
7
 10
-209.500000
 20
-99.550003
 11
-209.500000
 21
-112.050003
  0
LINE
  8
0
  6
CONTINUOUS
 62
7
 10
-208.500000
 20
-100.550003
 11
-208.500000
 21
-111.550003
  0
LINE
  8
0
  6
CONTINUOUS
 62
7
 10
-208.500000
 20
-100.550003
 11
-206.500000
 21
-100.550003
  0
LINE
  8
0
  6
CONTINUOUS
 62
7
 10
-208.500000
 20
-111.550003
 11
-207.000000
 21
-111.550003
  0
LINE
  8
0
  6
CONTINUOUS
 62
7
 10
-209.500000
 20
-112.050003
 11
-207.000000
 21
-112.050003
  0
LINE
  8
0
  6
CONTINUOUS
 62
2
 10
-216.000000
 20
-100.900002
 11
-212.199997
 21
-100.900002
  0
LINE
  8
0
  6
CONTINUOUS
 62
2
 10
-210.699997
 20
-102.400002
 11
-210.699997
 21
-103.699997
  0
LINE
  8
0
  6
CONTINUOUS
 62
2
 10
-216.000000
 20
-105.199997
 11
-212.199997
 21
-105.199997
  0
LINE
  8
0
  6
CONTINUOUS
 62
2
 10
-217.000000
 20
-104.349998
 11
-216.000000
 21
-104.349998
  0
LINE
  8
0
  6
CONTINUOUS
 62
2
 10
-217.000000
 20
-101.750000
 11
-216.000000
 21
-101.750000
  0
LINE
  8
0
  6
CONTINUOUS
 62
2
 10
-216.000000
 20
-104.349998
 11
-216.000000
 21
-105.199997
  0
LINE
  8
0
  6
CENTER
 62
2
 10
-219.000000
 20
-103.050003
 11
-208.699997
 21
-103.050003
  0
LINE
  8
0
  6
CENTER
 62
2
 10
-219.000000
 20
-109.050003
 11
-208.699997
 21
-109.050003
  0
LINE
  8
0
  6
CONTINUOUS
 62
7
 10
-207.000000
 20
-109.550003
 11
-207.000000
 21
-119.050003
  0
LINE
  8
0
  6
CONTINUOUS
 62
7
 10
-73.000000
 20
-103.550003
 11
-85.000000
 21
-103.550003
  0
LINE
  8
0
  6
CONTINUOUS
 62
7
 10
-73.000000
 20
-106.759003
 11
-73.000000
 21
-109.550003
  0
LINE
  8
0
  6
CONTINUOUS
 62
7
 10
-73.000000
 20
-103.550003
 11
-73.000000
 21
-104.341003
  0
LINE
  8
0
  6
CONTINUOUS
 62
7
 10
-65.500000
 20
-99.050003
 11
-72.000000
 21
-99.050003
  0
LINE
  8
0
  6
CONTINUOUS
 62
7
 10
-65.500000
 20
-109.050003
 11
-73.000000
 21
-109.050003
  0
LINE
  8
0
  6
CONTINUOUS
 62
7
 10
-72.300003
 20
-99.349998
 11
-85.699997
 21
-99.349998
  0
LINE
  8
0
  6
CONTINUOUS
 62
7
 10
-85.000000
 20
-106.759003
 11
-85.000000
 21
-109.550003
  0
LINE
  8
0
  6
CONTINUOUS
 62
7
 10
-85.000000
 20
-103.550003
 11
-85.000000
 21
-104.341003
  0
LINE
  8
0
  6
CONTINUOUS
 62
7
 10
-92.500000
 20
-99.050003
 11
-86.000000
 21
-99.050003
  0
LINE
  8
0
  6
CONTINUOUS
 62
7
 10
-92.500000
 20
-99.050003
 11
-92.500000
 21
-109.050003
  0
LINE
  8
0
  6
CONTINUOUS
 62
7
 10
-92.500000
 20
-109.050003
 11
-85.000000
 21
-109.050003
  0
LINE
  8
0
  6
CONTINUOUS
 62
7
 10
-65.500000
 20
-99.050003
 11
-65.500000
 21
-109.050003
  0
LINE
  8
0
  6
CONTINUOUS
 62
7
 10
-72.000000
 20
-99.050003
 11
-72.300003
 21
-99.349998
  0
LINE
  8
0
  6
CONTINUOUS
 62
7
 10
-85.999901
 20
-99.049896
 11
-85.699898
 21
-99.349899
  0
LINE
  8
0
  6
CONTINUOUS
 62
7
 10
-93.000000
 20
-109.550003
 11
-85.000000
 21
-109.550003
  0
LINE
  8
0
  6
CONTINUOUS
 62
7
 10
-93.000000
 20
-119.050003
 11
-65.000000
 21
-119.050003
  0
LINE
  8
0
  6
CONTINUOUS
 62
7
 10
-65.000000
 20
-109.550003
 11
-73.000000
 21
-109.550003
  0
LINE
  8
0
  6
CONTINUOUS
 62
7
 10
-93.000000
 20
-99.550003
 11
-93.000000
 21
-119.050003
  0
LINE
  8
0
  6
CENTER
 62
2
 10
-70.000000
 20
-111.550003
 11
-70.000000
 21
-118.550003
  0
LINE
  8
0
  6
CENTER
 62
2
 10
-66.500000
 20
-115.050003
 11
-73.500000
 21
-115.050003
  0
LINE
  8
0
  6
CENTER
 62
2
 10
-79.000000
 20
-97.050003
 11
-79.000000
 21
-121.050003
  0
LINE
  8
0
  6
CENTER
 62
2
 10
-71.599998
 20
-112.050003
 11
-86.400002
 21
-112.050003
  0
LINE
  8
0
  6
CENTER
 62
2
 10
-69.000000
 20
-97.050003
 11
-69.000000
 21
-101.050003
  0
LINE
  8
0
  6
CENTER
 62
2
 10
-89.000000
 20
-97.050003
 11
-89.000000
 21
-101.050003
  0
LINE
  8
0
  6
CENTER
 62
2
 10
-89.500000
 20
-117.050003
 11
-89.500000
 21
-121.050003
  0
LINE
  8
0
  6
CENTER
 62
2
 10
-68.500000
 20
-117.050003
 11
-68.500000
 21
-121.050003
  0
LINE
  8
0
  6
CONTINUOUS
 62
7
 10
-101.000000
 20
-99.550003
 11
-101.000000
 21
-118.550003
  0
LINE
  8
0
  6
CONTINUOUS
 62
7
 10
-93.000000
 20
-118.550003
 11
-101.000000
 21
-118.550003
  0
LINE
  8
0
  6
CONTINUOUS
 62
7
 10
-92.500000
 20
-99.550003
 11
-101.000000
 21
-99.550003
  0
LINE
  8
0
  6
CONTINUOUS
 62
7
 10
-97.000000
 20
-102.607002
 11
-98.250000
 21
-103.328003
  0
LINE
  8
0
  6
CONTINUOUS
 62
7
 10
-98.250000
 20
-103.328003
 11
-98.250000
 21
-104.772003
  0
LINE
  8
0
  6
CONTINUOUS
 62
7
 10
-97.000000
 20
-105.492996
 11
-98.249901
 21
-104.772003
  0
LINE
  8
0
  6
CONTINUOUS
 62
7
 10
-95.750000
 20
-104.772003
 11
-97.000000
 21
-105.492996
  0
LINE
  8
0
  6
CONTINUOUS
 62
7
 10
-95.750000
 20
-103.328003
 11
-95.750000
 21
-104.772003
  0
LINE
  8
0
  6
CONTINUOUS
 62
7
 10
-97.000000
 20
-102.607002
 11
-95.750000
 21
-103.328003
  0
LINE
  8
0
  6
CONTINUOUS
 62
7
 10
-96.289200
 20
-100.418999
 11
-94.210701
 21
-101.619003
  0
LINE
  8
0
  6
CENTER
 62
2
 10
-97.000000
 20
-99.050003
 11
-97.000000
 21
-109.050003
  0
LINE
  8
0
  6
CENTER
 62
2
 10
-102.000000
 20
-104.050003
 11
-92.000000
 21
-104.050003
  0
LINE
  8
0
  6
CONTINUOUS
 62
7
 10
-97.710800
 20
-100.418999
 11
-99.789200
 21
-101.619003
  0
LINE
  8
0
  6
CONTINUOUS
 62
7
 10
-100.500000
 20
-102.849998
 11
-100.500000
 21
-105.250000
  0
LINE
  8
0
  6
CONTINUOUS
 62
7
 10
-97.710701
 20
-107.681000
 11
-99.789200
 21
-106.481003
  0
LINE
  8
0
  6
CONTINUOUS
 62
7
 10
-94.210800
 20
-106.481003
 11
-96.289200
 21
-107.681000
  0
LINE
  8
0
  6
CONTINUOUS
 62
7
 10
-93.500000
 20
-102.849998
 11
-93.500000
 21
-105.250000
  0
LINE
  8
0
  6
CONTINUOUS
 62
7
 10
-55.000000
 20
-118.550003
 11
-65.000000
 21
-118.550003
  0
LINE
  8
0
  6
CONTINUOUS
 62
2
 10
-56.000000
 20
-100.900002
 11
-56.000000
 21
-101.750000
  0
LINE
  8
0
  6
CONTINUOUS
 62
7
 10
-55.000000
 20
-99.550003
 11
-55.000000
 21
-118.550003
  0
LINE
  8
0
  6
CONTINUOUS
 62
7
 10
-55.000000
 20
-99.550003
 11
-62.500000
 21
-99.550003
  0
LINE
  8
0
  6
CONTINUOUS
 62
7
 10
-62.500000
 20
-99.550003
 11
-62.500000
 21
-112.050003
  0
LINE
  8
0
  6
CONTINUOUS
 62
7
 10
-63.500000
 20
-100.550003
 11
-63.500000
 21
-111.550003
  0
LINE
  8
0
  6
CONTINUOUS
 62
7
 10
-63.500000
 20
-100.550003
 11
-65.500000
 21
-100.550003
  0
LINE
  8
0
  6
CONTINUOUS
 62
7
 10
-63.500000
 20
-111.550003
 11
-65.000000
 21
-111.550003
  0
LINE
  8
0
  6
CONTINUOUS
 62
7
 10
-62.500000
 20
-112.050003
 11
-65.000000
 21
-112.050003
  0
LINE
  8
0
  6
CONTINUOUS
 62
2
 10
-56.000000
 20
-100.900002
 11
-59.799999
 21
-100.900002
  0
LINE
  8
0
  6
CONTINUOUS
 62
2
 10
-61.299999
 20
-102.400002
 11
-61.299999
 21
-103.699997
  0
LINE
  8
0
  6
CONTINUOUS
 62
2
 10
-56.000000
 20
-105.199997
 11
-59.799999
 21
-105.199997
  0
LINE
  8
0
  6
CONTINUOUS
 62
2
 10
-55.000000
 20
-104.349998
 11
-56.000000
 21
-104.349998
  0
LINE
  8
0
  6
CONTINUOUS
 62
2
 10
-55.000000
 20
-101.750000
 11
-56.000000
 21
-101.750000
  0
LINE
  8
0
  6
CONTINUOUS
 62
2
 10
-56.000000
 20
-104.349998
 11
-56.000000
 21
-105.199997
  0
LINE
  8
0
  6
CENTER
 62
2
 10
-53.000000
 20
-103.050003
 11
-63.299999
 21
-103.050003
  0
LINE
  8
0
  6
CENTER
 62
2
 10
-53.000000
 20
-109.050003
 11
-63.299999
 21
-109.050003
  0
LINE
  8
0
  6
CONTINUOUS
 62
7
 10
-65.000000
 20
-109.550003
 11
-65.000000
 21
-119.050003
  0
LINE
  8
0
  6
CENTER
 62
2
 10
-160.000000
 20
65.199997
 11
-160.000000
 21
56.200001
  0
LINE
  8
0
  6
CENTER
 62
2
 10
-164.500000
 20
60.700001
 11
-155.500000
 21
60.700001
  0
LINE
  8
0
  6
CENTER
 62
2
 10
-112.000000
 20
65.199997
 11
-112.000000
 21
56.200001
  0
LINE
  8
0
  6
CENTER
 62
2
 10
-116.500000
 20
60.700001
 11
-107.500000
 21
60.700001
  0
LINE
  8
0
  6
CENTER
 62
2
 10
107.000000
 20
65.199997
 11
107.000000
 21
56.200001
  0
LINE
  8
0
  6
CENTER
 62
2
 10
102.500000
 20
60.700001
 11
111.500000
 21
60.700001
  0
LINE
  8
0
  6
CENTER
 62
2
 10
185.000000
 20
65.199997
 11
185.000000
 21
56.200001
  0
LINE
  8
0
  6
CENTER
 62
2
 10
180.500000
 20
60.700001
 11
189.500000
 21
60.700001
  0
LINE
  8
0
  6
CENTER
 62
2
 10
-160.000000
 20
-109.050003
 11
-160.000000
 21
-118.050003
  0
LINE
  8
0
  6
CENTER
 62
2
 10
-164.500000
 20
-113.550003
 11
-155.500000
 21
-113.550003
  0
LINE
  8
0
  6
CENTER
 62
2
 10
-112.000000
 20
-109.050003
 11
-112.000000
 21
-118.050003
  0
LINE
  8
0
  6
CENTER
 62
2
 10
-116.500000
 20
-113.550003
 11
-107.500000
 21
-113.550003
  0
LINE
  8
0
  6
CENTER
 62
2
 10
107.000000
 20
-109.050003
 11
107.000000
 21
-118.050003
  0
LINE
  8
0
  6
CENTER
 62
2
 10
102.500000
 20
-113.550003
 11
111.500000
 21
-113.550003
  0
LINE
  8
0
  6
CENTER
 62
2
 10
185.000000
 20
-109.050003
 11
185.000000
 21
-118.050003
  0
LINE
  8
0
  6
CENTER
 62
2
 10
180.500000
 20
-113.550003
 11
189.500000
 21
-113.550003
  0
LINE
  8
0
  6
CONTINUOUS
 62
7
 10
-123.000000
 20
120.750000
 11
-122.000000
 21
120.750000
  0
LINE
  8
0
  6
CONTINUOUS
 62
7
 10
-123.000000
 20
123.650002
 11
-122.000000
 21
123.650002
  0
LINE
  8
0
  6
CONTINUOUS
 62
7
 10
-123.000000
 20
137.649994
 11
-122.000000
 21
137.649994
  0
LINE
  8
0
  6
CONTINUOUS
 62
7
 10
-123.000000
 20
134.750000
 11
-122.000000
 21
134.750000
  0
LINE
  8
0
  6
CONTINUOUS
 62
7
 10
-149.000000
 20
123.650002
 11
-150.000000
 21
123.650002
  0
LINE
  8
0
  6
CONTINUOUS
 62
7
 10
-149.000000
 20
123.650002
 11
-149.000000
 21
120.750000
  0
LINE
  8
0
  6
CONTINUOUS
 62
7
 10
-149.000000
 20
120.750000
 11
-150.000000
 21
120.750000
  0
LINE
  8
0
  6
CONTINUOUS
 62
7
 10
-149.000000
 20
137.649994
 11
-150.000000
 21
137.649994
  0
LINE
  8
0
  6
CONTINUOUS
 62
7
 10
-149.000000
 20
137.649994
 11
-149.000000
 21
134.750000
  0
LINE
  8
0
  6
CONTINUOUS
 62
7
 10
-149.000000
 20
134.750000
 11
-150.000000
 21
134.750000
  0
LINE
  8
0
  6
CONTINUOUS
 62
7
 10
164.000000
 20
137.649994
 11
165.000000
 21
137.649994
  0
LINE
  8
0
  6
CONTINUOUS
 62
7
 10
164.000000
 20
134.750000
 11
165.000000
 21
134.750000
  0
LINE
  8
0
  6
CONTINUOUS
 62
7
 10
164.000000
 20
123.650002
 11
165.000000
 21
123.650002
  0
LINE
  8
0
  6
CONTINUOUS
 62
7
 10
164.000000
 20
120.750000
 11
165.000000
 21
120.750000
  0
LINE
  8
0
  6
CONTINUOUS
 62
7
 10
128.000000
 20
123.650002
 11
127.000000
 21
123.650002
  0
LINE
  8
0
  6
CONTINUOUS
 62
7
 10
128.000000
 20
123.650002
 11
128.000000
 21
120.750000
  0
LINE
  8
0
  6
CONTINUOUS
 62
7
 10
128.000000
 20
120.750000
 11
127.000000
 21
120.750000
  0
LINE
  8
0
  6
CONTINUOUS
 62
7
 10
128.000000
 20
137.649994
 11
127.000000
 21
137.649994
  0
LINE
  8
0
  6
CONTINUOUS
 62
7
 10
128.000000
 20
137.649994
 11
128.000000
 21
134.750000
  0
LINE
  8
0
  6
CONTINUOUS
 62
7
 10
128.000000
 20
134.750000
 11
127.000000
 21
134.750000
  0
LINE
  8
0
  6
CONTINUOUS
 62
7
 10
-123.000000
 20
-105.500000
 11
-122.000000
 21
-105.500000
  0
LINE
  8
0
  6
CONTINUOUS
 62
7
 10
-123.000000
 20
-102.599998
 11
-122.000000
 21
-102.599998
  0
LINE
  8
0
  6
CONTINUOUS
 62
7
 10
-123.000000
 20
-90.500000
 11
-122.000000
 21
-90.500000
  0
LINE
  8
0
  6
CONTINUOUS
 62
7
 10
-123.000000
 20
-87.599998
 11
-122.000000
 21
-87.599998
  0
LINE
  8
0
  6
CONTINUOUS
 62
7
 10
-149.000000
 20
-102.599998
 11
-150.000000
 21
-102.599998
  0
LINE
  8
0
  6
CONTINUOUS
 62
7
 10
-149.000000
 20
-102.599998
 11
-149.000000
 21
-105.500000
  0
LINE
  8
0
  6
CONTINUOUS
 62
7
 10
-149.000000
 20
-105.500000
 11
-150.000000
 21
-105.500000
  0
LINE
  8
0
  6
CONTINUOUS
 62
7
 10
-149.000000
 20
-87.599998
 11
-150.000000
 21
-87.599998
  0
LINE
  8
0
  6
CONTINUOUS
 62
7
 10
-149.000000
 20
-87.599998
 11
-149.000000
 21
-90.500000
  0
LINE
  8
0
  6
CONTINUOUS
 62
7
 10
-149.000000
 20
-90.500000
 11
-150.000000
 21
-90.500000
  0
LINE
  8
0
  6
CONTINUOUS
 62
7
 10
164.000000
 20
-102.599998
 11
165.000000
 21
-102.599998
  0
LINE
  8
0
  6
CONTINUOUS
 62
7
 10
164.000000
 20
-105.500000
 11
165.000000
 21
-105.500000
  0
LINE
  8
0
  6
CONTINUOUS
 62
7
 10
164.000000
 20
-90.500000
 11
165.000000
 21
-90.500000
  0
LINE
  8
0
  6
CONTINUOUS
 62
7
 10
164.000000
 20
-87.599998
 11
165.000000
 21
-87.599998
  0
LINE
  8
0
  6
CONTINUOUS
 62
7
 10
128.000000
 20
-102.599998
 11
127.000000
 21
-102.599998
  0
LINE
  8
0
  6
CONTINUOUS
 62
7
 10
128.000000
 20
-102.599998
 11
128.000000
 21
-105.500000
  0
LINE
  8
0
  6
CONTINUOUS
 62
7
 10
128.000000
 20
-105.500000
 11
127.000000
 21
-105.500000
  0
LINE
  8
0
  6
CONTINUOUS
 62
7
 10
128.000000
 20
-87.599998
 11
127.000000
 21
-87.599998
  0
LINE
  8
0
  6
CONTINUOUS
 62
7
 10
128.000000
 20
-87.599998
 11
128.000000
 21
-90.500000
  0
LINE
  8
0
  6
CONTINUOUS
 62
7
 10
128.000000
 20
-90.500000
 11
127.000000
 21
-90.500000
  0
LINE
  8
0
  6
CENTER
 62
2
 10
-138.500000
 20
77.199997
 11
-138.500000
 21
73.199997
  0
LINE
  8
0
  6
CENTER
 62
2
 10
-123.500000
 20
77.199997
 11
-123.500000
 21
73.199997
  0
LINE
  8
0
  6
CENTER
 62
2
 10
-138.500000
 20
-45.049999
 11
-138.500000
 21
-41.049999
  0
LINE
  8
0
  6
CENTER
 62
2
 10
-123.500000
 20
-45.049999
 11
-123.500000
 21
-41.049999
  0
LINE
  8
0
  6
CONTINUOUS
 62
7
 10
0.424988
 20
195.500000
 11
0.424988
 21
-195.000000
  0
LINE
  8
0
  6
CONTINUOUS
 62
7
 10
-281.250000
 20
0.250000
 11
282.100006
 21
0.250000
  0
CIRCLE
  8
0
  6
CONTINUOUS
 62
7
 10
115.000000
 20
-60.549999
 40
1.650000
  0
CIRCLE
  8
0
  6
CONTINUOUS
 62
2
 10
115.000000
 20
-60.549999
 40
2.000000
  0
CIRCLE
  8
0
  6
CONTINUOUS
 62
2
 10
115.000000
 20
-81.550003
 40
2.000000
  0
CIRCLE
  8
0
  6
CONTINUOUS
 62
7
 10
115.000000
 20
-81.550003
 40
1.650000
  0
CIRCLE
  8
0
  6
CONTINUOUS
 62
7
 10
156.000000
 20
-81.050003
 40
1.250000
  0
CIRCLE
  8
0
  6
CONTINUOUS
 62
2
 10
156.000000
 20
-81.050003
 40
1.500000
  0
CIRCLE
  8
0
  6
CONTINUOUS
 62
7
 10
156.000000
 20
-61.049999
 40
1.250000
  0
CIRCLE
  8
0
  6
CONTINUOUS
 62
2
 10
156.000000
 20
-61.049999
 40
1.500000
  0
CIRCLE
  8
0
  6
DASHED
 62
2
 10
177.000000
 20
-81.550003
 40
1.650000
  0
CIRCLE
  8
0
  6
DASHED
 62
2
 10
177.000000
 20
-81.550003
 40
2.000000
  0
CIRCLE
  8
0
  6
CONTINUOUS
 62
7
 10
171.000000
 20
-81.050003
 40
1.250000
  0
CIRCLE
  8
0
  6
CONTINUOUS
 62
2
 10
171.000000
 20
-81.050003
 40
1.500000
  0
CIRCLE
  8
0
  6
CONTINUOUS
 62
7
 10
171.000000
 20
-61.049999
 40
1.250000
  0
CIRCLE
  8
0
  6
CONTINUOUS
 62
2
 10
171.000000
 20
-61.049999
 40
1.500000
  0
CIRCLE
  8
0
  6
DASHED
 62
2
 10
177.000000
 20
-60.549999
 40
1.650000
  0
CIRCLE
  8
0
  6
DASHED
 62
2
 10
177.000000
 20
-60.549999
 40
2.000000
  0
CIRCLE
  8
0
  6
CONTINUOUS
 62
7
 10
141.000000
 20
-81.050003
 40
1.250000
  0
CIRCLE
  8
0
  6
CONTINUOUS
 62
2
 10
141.000000
 20
-81.050003
 40
1.500000
  0
CIRCLE
  8
0
  6
CONTINUOUS
 62
7
 10
141.000000
 20
-61.049999
 40
1.250000
  0
CIRCLE
  8
0
  6
CONTINUOUS
 62
2
 10
141.000000
 20
-61.049999
 40
1.500000
  0
ARC
  8
0
  6
CONTINUOUS
 62
7
 10
107.000000
 20
-113.550003
 40
4.800000
 50
0.000000
 51
56.442699
  0
ARC
  8
0
  6
CONTINUOUS
 62
7
 10
185.000000
 20
-113.550003
 40
4.800000
 50
123.556999
 51
180.000000
  0
CIRCLE
  8
0
  6
CONTINUOUS
 62
7
 10
115.000000
 20
-81.550003
 40
3.000000
  0
CIRCLE
  8
0
  6
CONTINUOUS
 62
7
 10
115.000000
 20
-60.549999
 40
3.000000
  0
CIRCLE
  8
0
  6
DASHED
 62
2
 10
177.000000
 20
-60.549999
 40
3.000000
  0
CIRCLE
  8
0
  6
DASHED
 62
2
 10
177.000000
 20
-81.550003
 40
3.000000
  0
CIRCLE
  8
0
  6
CONTINUOUS
 62
7
 10
-152.000000
 20
-60.549999
 40
1.650000
  0
CIRCLE
  8
0
  6
CONTINUOUS
 62
2
 10
-152.000000
 20
-60.549999
 40
2.000000
  0
CIRCLE
  8
0
  6
CONTINUOUS
 62
2
 10
-152.000000
 20
-81.550003
 40
2.000000
  0
CIRCLE
  8
0
  6
CONTINUOUS
 62
7
 10
-152.000000
 20
-81.550003
 40
1.650000
  0
CIRCLE
  8
0
  6
CONTINUOUS
 62
7
 10
-138.500000
 20
-81.050003
 40
1.250000
  0
CIRCLE
  8
0
  6
CONTINUOUS
 62
2
 10
-138.500000
 20
-81.050003
 40
1.500000
  0
CIRCLE
  8
0
  6
CONTINUOUS
 62
7
 10
-138.500000
 20
-61.049999
 40
1.250000
  0
CIRCLE
  8
0
  6
CONTINUOUS
 62
2
 10
-138.500000
 20
-61.049999
 40
1.500000
  0
CIRCLE
  8
0
  6
CONTINUOUS
 62
7
 10
-123.500000
 20
-81.050003
 40
1.250000
  0
CIRCLE
  8
0
  6
CONTINUOUS
 62
2
 10
-123.500000
 20
-81.050003
 40
1.500000
  0
CIRCLE
  8
0
  6
CONTINUOUS
 62
7
 10
-123.500000
 20
-61.049999
 40
1.250000
  0
CIRCLE
  8
0
  6
CONTINUOUS
 62
2
 10
-123.500000
 20
-61.049999
 40
1.500000
  0
CIRCLE
  8
0
  6
CONTINUOUS
 62
7
 10
-152.000000
 20
-60.549999
 40
3.000000
  0
CIRCLE
  8
0
  6
CONTINUOUS
 62
7
 10
-152.000000
 20
-81.550003
 40
3.000000
  0
CIRCLE
  8
0
  6
DASHED
 62
2
 10
-120.000000
 20
-81.550003
 40
3.000000
  0
CIRCLE
  8
0
  6
DASHED
 62
2
 10
-120.000000
 20
-60.549999
 40
3.000000
  0
CIRCLE
  8
0
  6
DASHED
 62
2
 10
-120.000000
 20
-81.550003
 40
1.650000
  0
CIRCLE
  8
0
  6
DASHED
 62
2
 10
-120.000000
 20
-81.550003
 40
2.000000
  0
CIRCLE
  8
0
  6
DASHED
 62
2
 10
-120.000000
 20
-60.549999
 40
2.000000
  0
CIRCLE
  8
0
  6
DASHED
 62
2
 10
-120.000000
 20
-60.549999
 40
1.650000
  0
CIRCLE
  8
0
  6
CONTINUOUS
 62
2
 10
-152.000000
 20
-135.550003
 40
2.000000
  0
CIRCLE
  8
0
  6
CONTINUOUS
 62
7
 10
-152.000000
 20
-156.550003
 40
1.650000
  0
CIRCLE
  8
0
  6
CONTINUOUS
 62
2
 10
-152.000000
 20
-156.550003
 40
2.000000
  0
CIRCLE
  8
0
  6
CONTINUOUS
 62
7
 10
-152.000000
 20
-135.550003
 40
1.650000
  0
CIRCLE
  8
0
  6
CONTINUOUS
 62
7
 10
-120.000000
 20
-156.550003
 40
1.650000
  0
CIRCLE
  8
0
  6
CONTINUOUS
 62
2
 10
-120.000000
 20
-156.550003
 40
2.000000
  0
CIRCLE
  8
0
  6
CONTINUOUS
 62
7
 10
-120.000000
 20
-135.550003
 40
1.650000
  0
CIRCLE
  8
0
  6
CONTINUOUS
 62
2
 10
-120.000000
 20
-135.550003
 40
2.000000
  0
CIRCLE
  8
0
  6
CONTINUOUS
 62
7
 10
-113.500000
 20
-142.550003
 40
5.900000
  0
CIRCLE
  8
0
  6
CONTINUOUS
 62
7
 10
-158.500000
 20
-142.550003
 40
5.900000
  0
CIRCLE
  8
0
  6
CONTINUOUS
 62
2
 10
115.000000
 20
-135.550003
 40
2.000000
  0
CIRCLE
  8
0
  6
CONTINUOUS
 62
7
 10
115.000000
 20
-156.550003
 40
1.650000
  0
CIRCLE
  8
0
  6
CONTINUOUS
 62
2
 10
115.000000
 20
-156.550003
 40
2.000000
  0
CIRCLE
  8
0
  6
CONTINUOUS
 62
7
 10
115.000000
 20
-135.550003
 40
1.650000
  0
CIRCLE
  8
0
  6
CONTINUOUS
 62
7
 10
177.000000
 20
-156.550003
 40
1.650000
  0
CIRCLE
  8
0
  6
CONTINUOUS
 62
2
 10
177.000000
 20
-156.550003
 40
2.000000
  0
CIRCLE
  8
0
  6
CONTINUOUS
 62
7
 10
177.000000
 20
-135.550003
 40
1.650000
  0
CIRCLE
  8
0
  6
CONTINUOUS
 62
2
 10
177.000000
 20
-135.550003
 40
2.000000
  0
CIRCLE
  8
0
  6
CONTINUOUS
 62
7
 10
183.500000
 20
-142.550003
 40
5.900000
  0
CIRCLE
  8
0
  6
CONTINUOUS
 62
7
 10
108.500000
 20
-142.550003
 40
5.900000
  0
ARC
  8
0
  6
CONTINUOUS
 62
7
 10
130.000000
 20
-107.050003
 40
3.000000
 50
180.000000
 51
270.000000
  0
ARC
  8
0
  6
CONTINUOUS
 62
7
 10
162.000000
 20
-107.050003
 40
3.000000
 50
270.000000
 51
0.000000
  0
ARC
  8
0
  6
CONTINUOUS
 62
7
 10
-112.000000
 20
-113.550003
 40
4.800000
 50
123.556999
 51
170.072006
  0
ARC
  8
0
  6
CONTINUOUS
 62
7
 10
-160.000000
 20
-113.550003
 40
4.800000
 50
9.928160
 51
56.442600
  0
ARC
  8
0
  6
CONTINUOUS
 62
7
 10
-117.712997
 20
-112.550003
 40
0.999999
 50
282.307007
 51
350.071991
  0
ARC
  8
0
  6
CONTINUOUS
 62
7
 10
-154.287003
 20
-112.550003
 40
1.000010
 50
189.927994
 51
257.692993
  0
ARC
  8
0
  6
CONTINUOUS
 62
7
 10
-124.000000
 20
-108.050003
 40
2.000000
 50
270.000000
 51
0.000000
  0
ARC
  8
0
  6
CONTINUOUS
 62
7
 10
-148.000000
 20
-108.050003
 40
2.000000
 50
180.000000
 51
270.000000
  0
ARC
  8
0
  6
CONTINUOUS
 62
7
 10
-160.000000
 20
-28.549999
 40
4.800000
 50
303.557007
 51
0.000000
  0
ARC
  8
0
  6
CONTINUOUS
 62
7
 10
-112.000000
 20
-28.549999
 40
4.800000
 50
180.000000
 51
236.442993
  0
ARC
  8
0
  6
CONTINUOUS
 62
2
 10
54.799999
 20
-103.699997
 40
1.500000
 50
270.000000
 51
0.000000
  0
CIRCLE
  8
0
  6
CONTINUOUS
 62
7
 10
74.000000
 20
-112.050003
 40
5.400000
  0
ARC
  8
0
  6
CONTINUOUS
 62
7
 10
80.599998
 20
-105.550003
 40
1.350000
 50
116.387001
 51
243.610992
  0
ARC
  8
0
  6
CONTINUOUS
 62
7
 10
67.400002
 20
-105.550003
 40
1.350000
 50
296.385986
 51
63.610199
  0
CIRCLE
  8
0
  6
CONTINUOUS
 62
2
 10
65.000000
 20
-115.050003
 40
1.500000
  0
CIRCLE
  8
0
  6
CONTINUOUS
 62
7
 10
65.000000
 20
-115.050003
 40
1.250000
  0
CIRCLE
  8
0
  6
CONTINUOUS
 62
7
 10
92.000000
 20
-104.050003
 40
2.500000
  0
ARC
  8
0
  6
CONTINUOUS
 62
7
 10
92.000000
 20
-104.050003
 40
3.700000
 50
78.924797
 51
101.075996
  0
ARC
  8
0
  6
CONTINUOUS
 62
7
 10
92.000000
 20
-104.050003
 40
3.700000
 50
18.924801
 51
41.075600
  0
ARC
  8
0
  6
CONTINUOUS
 62
7
 10
92.000000
 20
-104.050003
 40
3.700000
 50
198.925003
 51
221.076004
  0
ARC
  8
0
  6
CONTINUOUS
 62
7
 10
92.000000
 20
-104.050003
 40
3.700000
 50
318.924988
 51
341.075989
  0
ARC
  8
0
  6
CONTINUOUS
 62
7
 10
92.000000
 20
-104.050003
 40
3.700000
 50
258.924988
 51
281.075989
  0
ARC
  8
0
  6
CONTINUOUS
 62
7
 10
92.000000
 20
-104.050003
 40
3.700000
 50
138.925003
 51
161.076004
  0
ARC
  8
0
  6
CONTINUOUS
 62
2
 10
54.799999
 20
-102.400002
 40
1.500000
 50
0.000000
 51
90.000000
  0
ARC
  8
0
  6
CONTINUOUS
 62
7
 10
107.000000
 20
-28.549999
 40
4.800000
 50
303.557007
 51
0.000000
  0
ARC
  8
0
  6
CONTINUOUS
 62
7
 10
185.000000
 20
-28.549999
 40
4.800000
 50
180.000000
 51
236.442993
  0
ARC
  8
0
  6
CONTINUOUS
 62
7
 10
185.000000
 20
60.700001
 40
4.800000
 50
123.556999
 51
180.000000
  0
CIRCLE
  8
0
  6
CONTINUOUS
 62
7
 10
115.000000
 20
93.699997
 40
1.650000
  0
CIRCLE
  8
0
  6
CONTINUOUS
 62
2
 10
115.000000
 20
93.699997
 40
2.000000
  0
CIRCLE
  8
0
  6
CONTINUOUS
 62
2
 10
115.000000
 20
114.699997
 40
2.000000
  0
CIRCLE
  8
0
  6
CONTINUOUS
 62
7
 10
115.000000
 20
114.699997
 40
1.650000
  0
CIRCLE
  8
0
  6
CONTINUOUS
 62
7
 10
156.000000
 20
114.199997
 40
1.250000
  0
CIRCLE
  8
0
  6
CONTINUOUS
 62
2
 10
156.000000
 20
114.199997
 40
1.500000
  0
CIRCLE
  8
0
  6
CONTINUOUS
 62
7
 10
156.000000
 20
94.199997
 40
1.250000
  0
CIRCLE
  8
0
  6
CONTINUOUS
 62
2
 10
156.000000
 20
94.199997
 40
1.500000
  0
CIRCLE
  8
0
  6
DASHED
 62
2
 10
177.000000
 20
114.699997
 40
1.650000
  0
CIRCLE
  8
0
  6
DASHED
 62
2
 10
177.000000
 20
114.699997
 40
2.000000
  0
CIRCLE
  8
0
  6
CONTINUOUS
 62
7
 10
171.000000
 20
114.199997
 40
1.250000
  0
CIRCLE
  8
0
  6
CONTINUOUS
 62
2
 10
171.000000
 20
114.199997
 40
1.500000
  0
CIRCLE
  8
0
  6
CONTINUOUS
 62
7
 10
171.000000
 20
94.199997
 40
1.250000
  0
CIRCLE
  8
0
  6
CONTINUOUS
 62
2
 10
171.000000
 20
94.199997
 40
1.500000
  0
CIRCLE
  8
0
  6
DASHED
 62
2
 10
177.000000
 20
93.699997
 40
1.650000
  0
CIRCLE
  8
0
  6
DASHED
 62
2
 10
177.000000
 20
93.699997
 40
2.000000
  0
CIRCLE
  8
0
  6
CONTINUOUS
 62
7
 10
141.000000
 20
114.199997
 40
1.250000
  0
CIRCLE
  8
0
  6
CONTINUOUS
 62
2
 10
141.000000
 20
114.199997
 40
1.500000
  0
CIRCLE
  8
0
  6
CONTINUOUS
 62
7
 10
141.000000
 20
94.199997
 40
1.250000
  0
CIRCLE
  8
0
  6
CONTINUOUS
 62
2
 10
141.000000
 20
94.199997
 40
1.500000
  0
ARC
  8
0
  6
CONTINUOUS
 62
7
 10
107.000000
 20
145.699997
 40
4.800000
 50
303.557007
 51
0.000000
  0
ARC
  8
0
  6
CONTINUOUS
 62
7
 10
185.000000
 20
145.699997
 40
4.800000
 50
180.000000
 51
236.442993
  0
CIRCLE
  8
0
  6
CONTINUOUS
 62
7
 10
115.000000
 20
114.699997
 40
3.000000
  0
CIRCLE
  8
0
  6
CONTINUOUS
 62
7
 10
115.000000
 20
93.699997
 40
3.000000
  0
CIRCLE
  8
0
  6
DASHED
 62
2
 10
177.000000
 20
93.699997
 40
3.000000
  0
CIRCLE
  8
0
  6
DASHED
 62
2
 10
177.000000
 20
114.699997
 40
3.000000
  0
CIRCLE
  8
0
  6
CONTINUOUS
 62
7
 10
-152.000000
 20
93.699997
 40
1.650000
  0
CIRCLE
  8
0
  6
CONTINUOUS
 62
2
 10
-152.000000
 20
93.699997
 40
2.000000
  0
CIRCLE
  8
0
  6
CONTINUOUS
 62
2
 10
-152.000000
 20
114.699997
 40
2.000000
  0
CIRCLE
  8
0
  6
CONTINUOUS
 62
7
 10
-152.000000
 20
114.699997
 40
1.650000
  0
CIRCLE
  8
0
  6
CONTINUOUS
 62
7
 10
-138.500000
 20
114.199997
 40
1.250000
  0
CIRCLE
  8
0
  6
CONTINUOUS
 62
2
 10
-138.500000
 20
114.199997
 40
1.500000
  0
CIRCLE
  8
0
  6
CONTINUOUS
 62
7
 10
-138.500000
 20
94.199997
 40
1.250000
  0
CIRCLE
  8
0
  6
CONTINUOUS
 62
2
 10
-138.500000
 20
94.199997
 40
1.500000
  0
CIRCLE
  8
0
  6
CONTINUOUS
 62
7
 10
-123.500000
 20
114.199997
 40
1.250000
  0
CIRCLE
  8
0
  6
CONTINUOUS
 62
2
 10
-123.500000
 20
114.199997
 40
1.500000
  0
CIRCLE
  8
0
  6
CONTINUOUS
 62
7
 10
-123.500000
 20
94.199997
 40
1.250000
  0
CIRCLE
  8
0
  6
CONTINUOUS
 62
2
 10
-123.500000
 20
94.199997
 40
1.500000
  0
CIRCLE
  8
0
  6
CONTINUOUS
 62
7
 10
-152.000000
 20
93.699997
 40
3.000000
  0
CIRCLE
  8
0
  6
CONTINUOUS
 62
7
 10
-152.000000
 20
114.699997
 40
3.000000
  0
CIRCLE
  8
0
  6
DASHED
 62
2
 10
-120.000000
 20
114.699997
 40
3.000000
  0
CIRCLE
  8
0
  6
DASHED
 62
2
 10
-120.000000
 20
93.699997
 40
3.000000
  0
CIRCLE
  8
0
  6
DASHED
 62
2
 10
-120.000000
 20
114.699997
 40
1.650000
  0
CIRCLE
  8
0
  6
DASHED
 62
2
 10
-120.000000
 20
114.699997
 40
2.000000
  0
CIRCLE
  8
0
  6
DASHED
 62
2
 10
-120.000000
 20
93.699997
 40
2.000000
  0
CIRCLE
  8
0
  6
DASHED
 62
2
 10
-120.000000
 20
93.699997
 40
1.650000
  0
CIRCLE
  8
0
  6
CONTINUOUS
 62
2
 10
-152.000000
 20
36.700001
 40
2.000000
  0
CIRCLE
  8
0
  6
CONTINUOUS
 62
7
 10
-152.000000
 20
15.700000
 40
1.650000
  0
CIRCLE
  8
0
  6
CONTINUOUS
 62
2
 10
-152.000000
 20
15.700000
 40
2.000000
  0
CIRCLE
  8
0
  6
CONTINUOUS
 62
7
 10
-152.000000
 20
36.700001
 40
1.650000
  0
CIRCLE
  8
0
  6
CONTINUOUS
 62
7
 10
-120.000000
 20
15.700000
 40
1.650000
  0
CIRCLE
  8
0
  6
CONTINUOUS
 62
2
 10
-120.000000
 20
15.700000
 40
2.000000
  0
CIRCLE
  8
0
  6
CONTINUOUS
 62
7
 10
-120.000000
 20
36.700001
 40
1.650000
  0
CIRCLE
  8
0
  6
CONTINUOUS
 62
2
 10
-120.000000
 20
36.700001
 40
2.000000
  0
CIRCLE
  8
0
  6
CONTINUOUS
 62
7
 10
-113.500000
 20
29.700001
 40
5.900000
  0
CIRCLE
  8
0
  6
CONTINUOUS
 62
7
 10
-158.500000
 20
29.700001
 40
5.900000
  0
CIRCLE
  8
0
  6
CONTINUOUS
 62
2
 10
115.000000
 20
36.700001
 40
2.000000
  0
CIRCLE
  8
0
  6
CONTINUOUS
 62
7
 10
115.000000
 20
15.700000
 40
1.650000
  0
CIRCLE
  8
0
  6
CONTINUOUS
 62
2
 10
115.000000
 20
15.700000
 40
2.000000
  0
CIRCLE
  8
0
  6
CONTINUOUS
 62
7
 10
115.000000
 20
36.700001
 40
1.650000
  0
CIRCLE
  8
0
  6
CONTINUOUS
 62
7
 10
177.000000
 20
15.700000
 40
1.650000
  0
CIRCLE
  8
0
  6
CONTINUOUS
 62
2
 10
177.000000
 20
15.700000
 40
2.000000
  0
CIRCLE
  8
0
  6
CONTINUOUS
 62
7
 10
177.000000
 20
36.700001
 40
1.650000
  0
CIRCLE
  8
0
  6
CONTINUOUS
 62
2
 10
177.000000
 20
36.700001
 40
2.000000
  0
CIRCLE
  8
0
  6
CONTINUOUS
 62
7
 10
183.500000
 20
29.700001
 40
5.900000
  0
CIRCLE
  8
0
  6
CONTINUOUS
 62
7
 10
108.500000
 20
29.700001
 40
5.900000
  0
ARC
  8
0
  6
CONTINUOUS
 62
7
 10
130.000000
 20
139.199997
 40
3.000000
 50
90.000000
 51
180.000000
  0
ARC
  8
0
  6
CONTINUOUS
 62
7
 10
162.000000
 20
139.199997
 40
3.000000
 50
0.000000
 51
90.000000
  0
ARC
  8
0
  6
CONTINUOUS
 62
7
 10
-112.000000
 20
145.699997
 40
4.800000
 50
189.927994
 51
236.442993
  0
ARC
  8
0
  6
CONTINUOUS
 62
7
 10
-160.000000
 20
145.699997
 40
4.800000
 50
303.557007
 51
350.071991
  0
ARC
  8
0
  6
CONTINUOUS
 62
7
 10
-117.712997
 20
144.699997
 40
0.999998
 50
9.927940
 51
77.693398
  0
ARC
  8
0
  6
CONTINUOUS
 62
7
 10
-154.287003
 20
144.699997
 40
1.000000
 50
102.306999
 51
170.072006
  0
ARC
  8
0
  6
CONTINUOUS
 62
7
 10
-124.000000
 20
140.199997
 40
2.000000
 50
0.000000
 51
90.000000
  0
ARC
  8
0
  6
CONTINUOUS
 62
7
 10
-148.000000
 20
140.199997
 40
2.000000
 50
90.000000
 51
180.000000
  0
CIRCLE
  8
0
  6
CONTINUOUS
 62
7
 10
72.000000
 20
62.200001
 40
5.400000
  0
ARC
  8
0
  6
CONTINUOUS
 62
7
 10
78.599998
 20
68.699997
 40
1.350000
 50
116.387001
 51
243.610992
  0
ARC
  8
0
  6
CONTINUOUS
 62
7
 10
65.400002
 20
68.699997
 40
1.350000
 50
296.385986
 51
63.610199
  0
CIRCLE
  8
0
  6
CONTINUOUS
 62
2
 10
63.000000
 20
59.200001
 40
1.500000
  0
CIRCLE
  8
0
  6
CONTINUOUS
 62
7
 10
63.000000
 20
59.200001
 40
1.250000
  0
CIRCLE
  8
0
  6
CONTINUOUS
 62
7
 10
54.000000
 20
70.199997
 40
2.500000
  0
ARC
  8
0
  6
CONTINUOUS
 62
7
 10
54.000000
 20
70.199997
 40
3.700000
 50
78.924400
 51
101.074997
  0
ARC
  8
0
  6
CONTINUOUS
 62
7
 10
54.000000
 20
70.199997
 40
3.700000
 50
138.923996
 51
161.074997
  0
ARC
  8
0
  6
CONTINUOUS
 62
7
 10
54.000000
 20
70.199997
 40
3.700000
 50
318.924011
 51
341.075012
  0
ARC
  8
0
  6
CONTINUOUS
 62
7
 10
54.000000
 20
70.199997
 40
3.700000
 50
198.923996
 51
221.074997
  0
ARC
  8
0
  6
CONTINUOUS
 62
7
 10
54.000000
 20
70.199997
 40
3.700000
 50
258.924011
 51
281.075012
  0
ARC
  8
0
  6
CONTINUOUS
 62
7
 10
54.000000
 20
70.199997
 40
3.700000
 50
18.924400
 51
41.075199
  0
ARC
  8
0
  6
CONTINUOUS
 62
2
 10
91.199997
 20
71.849998
 40
1.500000
 50
90.000000
 51
180.000000
  0
ARC
  8
0
  6
CONTINUOUS
 62
2
 10
91.199997
 20
70.550003
 40
1.500000
 50
180.000000
 51
270.000000
  0
ARC
  8
0
  6
CONTINUOUS
 62
7
 10
-160.000000
 20
60.700001
 40
4.800000
 50
0.000000
 51
56.442600
  0
ARC
  8
0
  6
CONTINUOUS
 62
7
 10
-112.000000
 20
60.700001
 40
4.800000
 50
123.556999
 51
180.000000
  0
ARC
  8
0
  6
CONTINUOUS
 62
2
 10
200.800003
 20
70.550003
 40
1.500000
 50
270.000000
 51
0.000000
  0
ARC
  8
0
  6
CONTINUOUS
 62
2
 10
200.800003
 20
71.849998
 40
1.500000
 50
0.000000
 51
90.000000
  0
ARC
  8
0
  6
CONTINUOUS
 62
7
 10
238.000000
 20
70.199997
 40
3.700000
 50
138.925003
 51
161.076004
  0
CIRCLE
  8
0
  6
CONTINUOUS
 62
7
 10
220.000000
 20
62.200001
 40
5.400000
  0
ARC
  8
0
  6
CONTINUOUS
 62
7
 10
213.399994
 20
68.699997
 40
1.350000
 50
296.389008
 51
63.612598
  0
ARC
  8
0
  6
CONTINUOUS
 62
7
 10
226.600006
 20
68.699997
 40
1.350010
 50
116.389999
 51
243.613007
  0
CIRCLE
  8
0
  6
CONTINUOUS
 62
2
 10
229.000000
 20
59.200001
 40
1.500000
  0
CIRCLE
  8
0
  6
CONTINUOUS
 62
7
 10
229.000000
 20
59.200001
 40
1.250000
  0
CIRCLE
  8
0
  6
CONTINUOUS
 62
7
 10
238.000000
 20
70.199997
 40
2.500000
  0
ARC
  8
0
  6
CONTINUOUS
 62
7
 10
238.000000
 20
70.199997
 40
3.700000
 50
78.924896
 51
101.075996
  0
ARC
  8
0
  6
CONTINUOUS
 62
7
 10
238.000000
 20
70.199997
 40
3.700000
 50
18.924801
 51
41.075600
  0
ARC
  8
0
  6
CONTINUOUS
 62
7
 10
238.000000
 20
70.199997
 40
3.700000
 50
198.925003
 51
221.076004
  0
ARC
  8
0
  6
CONTINUOUS
 62
7
 10
238.000000
 20
70.199997
 40
3.700000
 50
318.924988
 51
341.075989
  0
ARC
  8
0
  6
CONTINUOUS
 62
7
 10
238.000000
 20
70.199997
 40
3.700000
 50
258.924988
 51
281.075989
  0
ARC
  8
0
  6
CONTINUOUS
 62
2
 10
-175.800003
 20
70.550003
 40
1.500000
 50
180.000000
 51
270.000000
  0
CIRCLE
  8
0
  6
CONTINUOUS
 62
7
 10
-195.000000
 20
62.200001
 40
5.400000
  0
ARC
  8
0
  6
CONTINUOUS
 62
7
 10
-188.399994
 20
68.699997
 40
1.350000
 50
116.387001
 51
243.610992
  0
ARC
  8
0
  6
CONTINUOUS
 62
7
 10
-201.600006
 20
68.699997
 40
1.350010
 50
296.386993
 51
63.609901
  0
CIRCLE
  8
0
  6
CONTINUOUS
 62
2
 10
-204.000000
 20
59.200001
 40
1.500000
  0
CIRCLE
  8
0
  6
CONTINUOUS
 62
7
 10
-204.000000
 20
59.200001
 40
1.250000
  0
CIRCLE
  8
0
  6
CONTINUOUS
 62
7
 10
-213.000000
 20
70.199997
 40
2.500000
  0
ARC
  8
0
  6
CONTINUOUS
 62
7
 10
-213.000000
 20
70.199997
 40
3.700000
 50
78.924400
 51
101.074997
  0
ARC
  8
0
  6
CONTINUOUS
 62
7
 10
-213.000000
 20
70.199997
 40
3.699990
 50
138.923996
 51
161.074997
  0
ARC
  8
0
  6
CONTINUOUS
 62
7
 10
-213.000000
 20
70.199997
 40
3.699990
 50
318.924011
 51
341.075012
  0
ARC
  8
0
  6
CONTINUOUS
 62
7
 10
-213.000000
 20
70.199997
 40
3.699990
 50
198.923996
 51
221.074997
  0
ARC
  8
0
  6
CONTINUOUS
 62
7
 10
-213.000000
 20
70.199997
 40
3.700000
 50
258.924011
 51
281.075012
  0
ARC
  8
0
  6
CONTINUOUS
 62
7
 10
-213.000000
 20
70.199997
 40
3.699990
 50
18.924400
 51
41.075298
  0
ARC
  8
0
  6
CONTINUOUS
 62
2
 10
-175.800003
 20
71.849998
 40
1.500000
 50
90.000000
 51
180.000000
  0
ARC
  8
0
  6
CONTINUOUS
 62
2
 10
-96.199997
 20
70.550003
 40
1.500000
 50
270.000000
 51
0.000000
  0
ARC
  8
0
  6
CONTINUOUS
 62
2
 10
-96.199997
 20
71.849998
 40
1.500000
 50
0.000000
 51
90.000000
  0
ARC
  8
0
  6
CONTINUOUS
 62
7
 10
-59.000000
 20
70.199997
 40
3.700000
 50
138.925003
 51
161.076004
  0
CIRCLE
  8
0
  6
CONTINUOUS
 62
7
 10
-77.000000
 20
62.200001
 40
5.400000
  0
ARC
  8
0
  6
CONTINUOUS
 62
7
 10
-83.599998
 20
68.699997
 40
1.350000
 50
296.389008
 51
63.612598
  0
ARC
  8
0
  6
CONTINUOUS
 62
7
 10
-70.400002
 20
68.699997
 40
1.350000
 50
116.389999
 51
243.613998
  0
CIRCLE
  8
0
  6
CONTINUOUS
 62
2
 10
-68.000000
 20
59.200001
 40
1.500000
  0
CIRCLE
  8
0
  6
CONTINUOUS
 62
7
 10
-68.000000
 20
59.200001
 40
1.250000
  0
CIRCLE
  8
0
  6
CONTINUOUS
 62
7
 10
-59.000000
 20
70.199997
 40
2.500000
  0
ARC
  8
0
  6
CONTINUOUS
 62
7
 10
-59.000000
 20
70.199997
 40
3.700000
 50
78.924797
 51
101.075996
  0
ARC
  8
0
  6
CONTINUOUS
 62
7
 10
-59.000000
 20
70.199997
 40
3.700000
 50
18.924801
 51
41.075600
  0
ARC
  8
0
  6
CONTINUOUS
 62
7
 10
-59.000000
 20
70.199997
 40
3.700000
 50
198.925003
 51
221.076004
  0
ARC
  8
0
  6
CONTINUOUS
 62
7
 10
-59.000000
 20
70.199997
 40
3.700000
 50
318.924988
 51
341.075989
  0
ARC
  8
0
  6
CONTINUOUS
 62
7
 10
-59.000000
 20
70.199997
 40
3.700000
 50
258.924988
 51
281.075989
  0
ARC
  8
0
  6
CONTINUOUS
 62
7
 10
107.000000
 20
60.700001
 40
4.800000
 50
0.000000
 51
56.442699
  0
ARC
  8
0
  6
CONTINUOUS
 62
2
 10
237.199997
 20
-103.699997
 40
1.500000
 50
180.000000
 51
270.000000
  0
CIRCLE
  8
0
  6
CONTINUOUS
 62
7
 10
218.000000
 20
-112.050003
 40
5.400000
  0
ARC
  8
0
  6
CONTINUOUS
 62
7
 10
211.399994
 20
-105.550003
 40
1.350000
 50
296.389008
 51
63.612598
  0
ARC
  8
0
  6
CONTINUOUS
 62
7
 10
224.600006
 20
-105.550003
 40
1.350010
 50
116.389999
 51
243.613007
  0
CIRCLE
  8
0
  6
CONTINUOUS
 62
2
 10
227.000000
 20
-115.050003
 40
1.500000
  0
CIRCLE
  8
0
  6
CONTINUOUS
 62
7
 10
227.000000
 20
-115.050003
 40
1.250000
  0
CIRCLE
  8
0
  6
CONTINUOUS
 62
7
 10
200.000000
 20
-104.050003
 40
2.500000
  0
ARC
  8
0
  6
CONTINUOUS
 62
7
 10
200.000000
 20
-104.050003
 40
3.700000
 50
78.924400
 51
101.074997
  0
ARC
  8
0
  6
CONTINUOUS
 62
7
 10
200.000000
 20
-104.050003
 40
3.699990
 50
138.923996
 51
161.074997
  0
ARC
  8
0
  6
CONTINUOUS
 62
7
 10
200.000000
 20
-104.050003
 40
3.699990
 50
318.924011
 51
341.075012
  0
ARC
  8
0
  6
CONTINUOUS
 62
7
 10
200.000000
 20
-104.050003
 40
3.699990
 50
198.923996
 51
221.074997
  0
ARC
  8
0
  6
CONTINUOUS
 62
7
 10
200.000000
 20
-104.050003
 40
3.700000
 50
258.924011
 51
281.075012
  0
ARC
  8
0
  6
CONTINUOUS
 62
7
 10
200.000000
 20
-104.050003
 40
3.699990
 50
18.924400
 51
41.075298
  0
ARC
  8
0
  6
CONTINUOUS
 62
2
 10
237.199997
 20
-102.400002
 40
1.500000
 50
90.000000
 51
180.000000
  0
ARC
  8
0
  6
CONTINUOUS
 62
2
 10
-212.199997
 20
-103.699997
 40
1.500000
 50
270.000000
 51
0.000000
  0
CIRCLE
  8
0
  6
CONTINUOUS
 62
7
 10
-193.000000
 20
-112.050003
 40
5.400000
  0
ARC
  8
0
  6
CONTINUOUS
 62
7
 10
-186.399994
 20
-105.550003
 40
1.350000
 50
116.387001
 51
243.610992
  0
ARC
  8
0
  6
CONTINUOUS
 62
7
 10
-199.600006
 20
-105.550003
 40
1.350010
 50
296.386993
 51
63.609901
  0
CIRCLE
  8
0
  6
CONTINUOUS
 62
2
 10
-202.000000
 20
-115.050003
 40
1.500000
  0
CIRCLE
  8
0
  6
CONTINUOUS
 62
7
 10
-202.000000
 20
-115.050003
 40
1.250000
  0
CIRCLE
  8
0
  6
CONTINUOUS
 62
7
 10
-175.000000
 20
-104.050003
 40
2.500000
  0
ARC
  8
0
  6
CONTINUOUS
 62
7
 10
-175.000000
 20
-104.050003
 40
3.700000
 50
78.924896
 51
101.075996
  0
ARC
  8
0
  6
CONTINUOUS
 62
7
 10
-175.000000
 20
-104.050003
 40
3.700000
 50
18.924801
 51
41.075600
  0
ARC
  8
0
  6
CONTINUOUS
 62
7
 10
-175.000000
 20
-104.050003
 40
3.700000
 50
198.925003
 51
221.076004
  0
ARC
  8
0
  6
CONTINUOUS
 62
7
 10
-175.000000
 20
-104.050003
 40
3.700000
 50
318.924988
 51
341.075989
  0
ARC
  8
0
  6
CONTINUOUS
 62
7
 10
-175.000000
 20
-104.050003
 40
3.700000
 50
258.924988
 51
281.075989
  0
ARC
  8
0
  6
CONTINUOUS
 62
7
 10
-175.000000
 20
-104.050003
 40
3.700000
 50
138.925003
 51
161.076004
  0
ARC
  8
0
  6
CONTINUOUS
 62
2
 10
-212.199997
 20
-102.400002
 40
1.500000
 50
0.000000
 51
90.000000
  0
ARC
  8
0
  6
CONTINUOUS
 62
2
 10
-59.799999
 20
-103.699997
 40
1.500000
 50
180.000000
 51
270.000000
  0
CIRCLE
  8
0
  6
CONTINUOUS
 62
7
 10
-79.000000
 20
-112.050003
 40
5.400000
  0
ARC
  8
0
  6
CONTINUOUS
 62
7
 10
-85.599998
 20
-105.550003
 40
1.350000
 50
296.389008
 51
63.612598
  0
ARC
  8
0
  6
CONTINUOUS
 62
7
 10
-72.400002
 20
-105.550003
 40
1.350000
 50
116.389999
 51
243.613998
  0
CIRCLE
  8
0
  6
CONTINUOUS
 62
2
 10
-70.000000
 20
-115.050003
 40
1.500000
  0
CIRCLE
  8
0
  6
CONTINUOUS
 62
7
 10
-70.000000
 20
-115.050003
 40
1.250000
  0
CIRCLE
  8
0
  6
CONTINUOUS
 62
7
 10
-97.000000
 20
-104.050003
 40
2.500000
  0
ARC
  8
0
  6
CONTINUOUS
 62
7
 10
-97.000000
 20
-104.050003
 40
3.700000
 50
78.924400
 51
101.074997
  0
ARC
  8
0
  6
CONTINUOUS
 62
7
 10
-97.000000
 20
-104.050003
 40
3.699990
 50
138.923996
 51
161.074997
  0
ARC
  8
0
  6
CONTINUOUS
 62
7
 10
-97.000000
 20
-104.050003
 40
3.700000
 50
318.924011
 51
341.075012
  0
ARC
  8
0
  6
CONTINUOUS
 62
7
 10
-97.000000
 20
-104.050003
 40
3.700000
 50
198.923996
 51
221.074997
  0
ARC
  8
0
  6
CONTINUOUS
 62
7
 10
-97.000000
 20
-104.050003
 40
3.700000
 50
258.924011
 51
281.075012
  0
ARC
  8
0
  6
CONTINUOUS
 62
7
 10
-97.000000
 20
-104.050003
 40
3.700000
 50
18.924299
 51
41.075199
  0
ARC
  8
0
  6
CONTINUOUS
 62
2
 10
-59.799999
 20
-102.400002
 40
1.500000
 50
90.000000
 51
180.000000
  0
CIRCLE
  8
0
  6
CONTINUOUS
 62
7
 10
-160.000000
 20
60.700001
 40
2.100000
  0
CIRCLE
  8
0
  6
CONTINUOUS
 62
2
 10
-160.000000
 20
60.700001
 40
2.500000
  0
CIRCLE
  8
0
  6
CONTINUOUS
 62
7
 10
-112.000000
 20
60.700001
 40
2.100000
  0
CIRCLE
  8
0
  6
CONTINUOUS
 62
2
 10
-112.000000
 20
60.700001
 40
2.500000
  0
CIRCLE
  8
0
  6
CONTINUOUS
 62
7
 10
107.000000
 20
60.700001
 40
2.100000
  0
CIRCLE
  8
0
  6
CONTINUOUS
 62
2
 10
107.000000
 20
60.700001
 40
2.500000
  0
CIRCLE
  8
0
  6
CONTINUOUS
 62
7
 10
185.000000
 20
60.700001
 40
2.100000
  0
CIRCLE
  8
0
  6
CONTINUOUS
 62
2
 10
185.000000
 20
60.700001
 40
2.500000
  0
CIRCLE
  8
0
  6
CONTINUOUS
 62
7
 10
-160.000000
 20
-113.550003
 40
2.100000
  0
CIRCLE
  8
0
  6
CONTINUOUS
 62
2
 10
-160.000000
 20
-113.550003
 40
2.500000
  0
CIRCLE
  8
0
  6
CONTINUOUS
 62
7
 10
-112.000000
 20
-113.550003
 40
2.100000
  0
CIRCLE
  8
0
  6
CONTINUOUS
 62
2
 10
-112.000000
 20
-113.550003
 40
2.500000
  0
CIRCLE
  8
0
  6
CONTINUOUS
 62
7
 10
107.000000
 20
-113.550003
 40
2.100000
  0
CIRCLE
  8
0
  6
CONTINUOUS
 62
2
 10
107.000000
 20
-113.550003
 40
2.500000
  0
CIRCLE
  8
0
  6
CONTINUOUS
 62
7
 10
185.000000
 20
-113.550003
 40
2.100000
  0
CIRCLE
  8
0
  6
CONTINUOUS
 62
2
 10
185.000000
 20
-113.550003
 40
2.500000
  0
TEXT
  8
0
 62
7
 10
202.930283
 20
183.925003
 40
6.300000
  1
Ver.1.0
 50
0.000000
 41
1.010330
 51
0.000000
  7
STANDARD
  0
TEXT
  8
0
 62
7
 10
172.714691
 20
-187.250000
 40
9.000000
  1
KOGANEI CORP.
 50
0.000000
 41
0.771524
 51
0.000000
  7
STANDARD
  0
TEXT
  8
0
 62
7
 10
-243.569717
 20
183.925003
 40
6.300000
  1
AP TABLE
 50
0.000000
 41
0.775607
 51
0.000000
  7
STANDARD
  0
TEXT
  8
0
 62
7
 10
12.274609
 20
-16.325001
 40
6.300000
  1
MODEL:APTS-GT10-20-TPQT-R***
 50
0.000000
 41
0.768185
 51
0.000000
  7
STANDARD
  0
TEXT
  8
0
 62
7
 10
12.274609
 20
158.925003
 40
6.300000
  1
MODEL:APTS-SD10-20-TPQT-R***
 50
0.000000
 41
0.768185
 51
0.000000
  7
STANDARD
  0
TEXT
  8
0
 62
7
 10
-269.400391
 20
158.925003
 40
6.300000
  1
MODEL:APTS-SD10-10-TPQT-R***
 50
0.000000
 41
0.778292
 51
0.000000
  7
STANDARD
  0
TEXT
  8
0
 62
7
 10
-269.400391
 20
-16.325001
 40
6.300000
  1
MODEL:APTS-GT10-10-TPQT-R***
 50
0.000000
 41
0.778292
 51
0.000000
  7
STANDARD
  0
ENDSEC
  0
EOF
