  0
SECTION
  2
HEADER
  0
ENDSEC
  0
SECTION
  2
TABLES
  0
TABLE
  2
LTYPE
 70
     4
  0
LTYPE
  2
CONTINUOUS
 70
    64
  3
Solid line
 72
    65
 73
     0
 40
0.000000
  0
LTYPE
  2
DASHED
 70
    64
  3
__ __ __ __ __ __ __ __ __ __ __ __ __ __ __
 72
    65
 73
     2
 40
3.500000
 49
2.000000
 49
-1.500000
  0
LTYPE
  2
CENTER
 70
    64
  3
____ _ ____ _ ____ _ ____ _ ____ _ ____ _ ____
 72
    65
 73
     4
 40
17.500000
 49
13.000000
 49
-1.500000
 49
1.500000
 49
-1.500000
  0
LTYPE
  2
PHANTOM
 70
    64
  3
_____ _ _ _____ _ _ _____ _ _ _____ _ _ ____  
 72
    65
 73
     6
 40
15.500000
 49
8.000000
 49
-1.500000
 49
1.500000
 49
-1.500000
 49
1.500000
 49
-1.500000
  0
ENDTAB
  0
TABLE
  2
LAYER
 70
     1
  0
LAYER
  2
0
 70
     0
 62
     7
  6
CONTINUOUS
  0
ENDTAB
  0
TABLE
  2
STYLE
 70
     1
  0
STYLE
  2
STANDARD
 70
     0
 40
0.000000
 41
1.000000
 50
0.000000
 71
     0
 42
0.200000
  3
txt
  4
BIGFONT
  0
ENDTAB
  0
TABLE
  2
VIEW
 70
     0
  0
ENDTAB
  0
ENDSEC
  0
SECTION
  2
BLOCKS
  0
ENDSEC
  0
SECTION
  2
ENTITIES
  0
LINE
  8
0
  6
CONTINUOUS
 62
7
 10
399.799988
 20
276.250000
 11
399.799988
 21
-276.750000
  0
LINE
  8
0
  6
CONTINUOUS
 62
7
 10
-399.250000
 20
276.250000
 11
-399.250000
 21
-276.750000
  0
LINE
  8
0
  6
CONTINUOUS
 62
7
 10
-399.250000
 20
276.250000
 11
399.799988
 21
276.250000
  0
LINE
  8
0
  6
CONTINUOUS
 62
7
 10
-399.250000
 20
-276.750000
 11
399.799988
 21
-276.750000
  0
LINE
  8
0
  6
CONTINUOUS
 62
7
 10
239.800003
 20
-251.750000
 11
399.799988
 21
-251.750000
  0
LINE
  8
0
  6
CONTINUOUS
 62
7
 10
239.800003
 20
251.250000
 11
399.799988
 21
251.250000
  0
LINE
  8
0
  6
CONTINUOUS
 62
7
 10
-399.250000
 20
251.250000
 11
-239.250000
 21
251.250000
  0
LINE
  8
0
  6
CONTINUOUS
 62
7
 10
239.800003
 20
-251.750000
 11
239.800003
 21
-276.750000
  0
LINE
  8
0
  6
CONTINUOUS
 62
7
 10
239.800003
 20
251.250000
 11
239.800003
 21
276.250000
  0
LINE
  8
0
  6
CONTINUOUS
 62
7
 10
-239.250000
 20
276.250000
 11
-239.250000
 21
251.250000
  0
LINE
  8
0
  6
CONTINUOUS
 62
7
 10
121.000000
 20
-157.175003
 11
136.000000
 21
-157.175003
  0
LINE
  8
0
  6
CONTINUOUS
 62
7
 10
121.000000
 20
-161.175003
 11
121.000000
 21
-164.675003
  0
LINE
  8
0
  6
CONTINUOUS
 62
7
 10
121.000000
 20
-157.175003
 11
121.000000
 21
-158.175003
  0
LINE
  8
0
  6
CONTINUOUS
 62
7
 10
112.500000
 20
-152.175003
 11
119.500000
 21
-152.175003
  0
LINE
  8
0
  6
CONTINUOUS
 62
7
 10
112.500000
 20
-164.175003
 11
121.000000
 21
-164.175003
  0
LINE
  8
0
  6
CONTINUOUS
 62
7
 10
119.800003
 20
-152.475006
 11
137.199997
 21
-152.475006
  0
LINE
  8
0
  6
CONTINUOUS
 62
7
 10
119.500000
 20
-152.175003
 11
119.800003
 21
-152.475006
  0
LINE
  8
0
  6
CONTINUOUS
 62
7
 10
136.000000
 20
-161.175003
 11
136.000000
 21
-164.675003
  0
LINE
  8
0
  6
CONTINUOUS
 62
7
 10
136.000000
 20
-157.175003
 11
136.000000
 21
-158.175003
  0
LINE
  8
0
  6
CONTINUOUS
 62
7
 10
144.500000
 20
-152.175003
 11
144.500000
 21
-164.175003
  0
LINE
  8
0
  6
CONTINUOUS
 62
7
 10
144.500000
 20
-152.175003
 11
137.500000
 21
-152.175003
  0
LINE
  8
0
  6
CONTINUOUS
 62
7
 10
144.500000
 20
-164.175003
 11
136.000000
 21
-164.175003
  0
LINE
  8
0
  6
CONTINUOUS
 62
7
 10
137.500000
 20
-152.175003
 11
137.199997
 21
-152.475006
  0
LINE
  8
0
  6
CONTINUOUS
 62
7
 10
112.500000
 20
-152.175003
 11
112.500000
 21
-164.175003
  0
LINE
  8
0
  6
CONTINUOUS
 62
7
 10
145.000000
 20
-164.675003
 11
136.000000
 21
-164.675003
  0
LINE
  8
0
  6
CONTINUOUS
 62
7
 10
145.000000
 20
-174.175003
 11
112.000000
 21
-174.175003
  0
LINE
  8
0
  6
CONTINUOUS
 62
7
 10
112.000000
 20
-164.675003
 11
121.000000
 21
-164.675003
  0
LINE
  8
0
  6
CONTINUOUS
 62
7
 10
145.000000
 20
-164.675003
 11
145.000000
 21
-174.175003
  0
LINE
  8
0
  6
CONTINUOUS
 62
7
 10
112.000000
 20
-164.675003
 11
112.000000
 21
-174.175003
  0
LINE
  8
0
  6
CENTER
 62
2
 10
128.500000
 20
-150.175003
 11
128.500000
 21
-176.175003
  0
LINE
  8
0
  6
CENTER
 62
2
 10
120.099998
 20
-166.175003
 11
136.899994
 21
-166.175003
  0
LINE
  8
0
  6
CENTER
 62
2
 10
118.500000
 20
-165.175003
 11
118.500000
 21
-172.175003
  0
LINE
  8
0
  6
CENTER
 62
2
 10
115.000000
 20
-168.675003
 11
122.000000
 21
-168.675003
  0
LINE
  8
0
  6
CONTINUOUS
 62
7
 10
102.000000
 20
-172.175003
 11
112.000000
 21
-172.175003
  0
LINE
  8
0
  6
CONTINUOUS
 62
2
 10
102.000000
 20
-157.975006
 11
103.000000
 21
-157.975006
  0
LINE
  8
0
  6
CONTINUOUS
 62
2
 10
103.000000
 20
-154.524994
 11
103.000000
 21
-155.375000
  0
LINE
  8
0
  6
CONTINUOUS
 62
2
 10
103.000000
 20
-158.824997
 11
106.800003
 21
-158.824997
  0
LINE
  8
0
  6
CONTINUOUS
 62
2
 10
108.300003
 20
-156.024994
 11
108.300003
 21
-157.324997
  0
LINE
  8
0
  6
CONTINUOUS
 62
2
 10
103.000000
 20
-154.524994
 11
106.800003
 21
-154.524994
  0
LINE
  8
0
  6
CONTINUOUS
 62
2
 10
102.000000
 20
-155.375000
 11
103.000000
 21
-155.375000
  0
LINE
  8
0
  6
CONTINUOUS
 62
7
 10
102.000000
 20
-153.175003
 11
102.000000
 21
-172.175003
  0
LINE
  8
0
  6
CONTINUOUS
 62
7
 10
102.000000
 20
-153.175003
 11
109.500000
 21
-153.175003
  0
LINE
  8
0
  6
CONTINUOUS
 62
7
 10
109.500000
 20
-153.175003
 11
109.500000
 21
-165.675003
  0
LINE
  8
0
  6
CONTINUOUS
 62
7
 10
109.500000
 20
-165.675003
 11
112.000000
 21
-165.675003
  0
LINE
  8
0
  6
CONTINUOUS
 62
7
 10
110.500000
 20
-165.175003
 11
112.000000
 21
-165.175003
  0
LINE
  8
0
  6
CONTINUOUS
 62
7
 10
110.500000
 20
-154.175003
 11
110.500000
 21
-165.175003
  0
LINE
  8
0
  6
CONTINUOUS
 62
7
 10
110.500000
 20
-154.175003
 11
112.500000
 21
-154.175003
  0
LINE
  8
0
  6
CENTER
 62
2
 10
116.000000
 20
-150.175003
 11
116.000000
 21
-154.175003
  0
LINE
  8
0
  6
CENTER
 62
2
 10
141.000000
 20
-150.175003
 11
141.000000
 21
-154.175003
  0
LINE
  8
0
  6
CENTER
 62
2
 10
140.500000
 20
-172.175003
 11
140.500000
 21
-176.175003
  0
LINE
  8
0
  6
CENTER
 62
2
 10
116.500000
 20
-172.175003
 11
116.500000
 21
-176.175003
  0
LINE
  8
0
  6
CONTINUOUS
 62
2
 10
103.000000
 20
-157.975006
 11
103.000000
 21
-158.824997
  0
LINE
  8
0
  6
CENTER
 62
2
 10
100.000000
 20
-156.675003
 11
110.300003
 21
-156.675003
  0
LINE
  8
0
  6
CENTER
 62
2
 10
100.000000
 20
-162.675003
 11
110.300003
 21
-162.675003
  0
LINE
  8
0
  6
CENTER
 62
2
 10
-166.000000
 20
-105.675003
 11
-246.000000
 21
-105.675003
  0
LINE
  8
0
  6
CONTINUOUS
 62
7
 10
-211.899994
 20
-121.574997
 11
-211.899994
 21
-89.775002
  0
LINE
  8
0
  6
CONTINUOUS
 62
7
 10
-185.100006
 20
-121.675003
 11
-211.800003
 21
-121.675003
  0
LINE
  8
0
  6
CONTINUOUS
 62
7
 10
-185.100006
 20
-89.675003
 11
-211.800003
 21
-89.675003
  0
LINE
  8
0
  6
CONTINUOUS
 62
7
 10
-211.800003
 20
-89.675003
 11
-211.899994
 21
-89.775002
  0
LINE
  8
0
  6
CONTINUOUS
 62
7
 10
-185.100006
 20
-121.574997
 11
-185.100006
 21
-89.775002
  0
LINE
  8
0
  6
CONTINUOUS
 62
7
 10
-185.100006
 20
-121.474998
 11
-177.500000
 21
-121.474998
  0
LINE
  8
0
  6
CONTINUOUS
 62
7
 10
-185.199997
 20
-121.675003
 11
-185.100006
 21
-121.574997
  0
LINE
  8
0
  6
CONTINUOUS
 62
7
 10
-177.500000
 20
-121.474998
 11
-177.500000
 21
-89.875000
  0
LINE
  8
0
  6
CONTINUOUS
 62
7
 10
-185.100006
 20
-89.875000
 11
-177.500000
 21
-89.875000
  0
LINE
  8
0
  6
CONTINUOUS
 62
7
 10
-185.199997
 20
-89.675003
 11
-185.100006
 21
-89.775002
  0
LINE
  8
0
  6
CONTINUOUS
 62
7
 10
-244.000000
 20
-113.175003
 11
-219.500000
 21
-113.175003
  0
LINE
  8
0
  6
CONTINUOUS
 62
7
 10
-177.500000
 20
-113.175003
 11
-168.000000
 21
-113.175003
  0
LINE
  8
0
  6
CONTINUOUS
 62
7
 10
-244.000000
 20
-98.175003
 11
-219.500000
 21
-98.175003
  0
LINE
  8
0
  6
CONTINUOUS
 62
7
 10
-177.500000
 20
-98.175003
 11
-168.000000
 21
-98.175003
  0
LINE
  8
0
  6
CONTINUOUS
 62
7
 10
-185.100006
 20
-96.675003
 11
-211.899994
 21
-96.675003
  0
LINE
  8
0
  6
CONTINUOUS
 62
7
 10
-185.100006
 20
-114.675003
 11
-211.899994
 21
-114.675003
  0
LINE
  8
0
  6
CONTINUOUS
 62
7
 10
-244.000000
 20
-122.175003
 11
-168.000000
 21
-122.175003
  0
LINE
  8
0
  6
CONTINUOUS
 62
7
 10
-244.000000
 20
-89.175003
 11
-168.000000
 21
-89.175003
  0
LINE
  8
0
  6
CONTINUOUS
 62
7
 10
-244.000000
 20
-89.175003
 11
-244.000000
 21
-122.175003
  0
LINE
  8
0
  6
CONTINUOUS
 62
7
 10
-168.000000
 20
-89.175003
 11
-168.000000
 21
-122.175003
  0
LINE
  8
0
  6
CENTER
 62
2
 10
-204.500000
 20
-154.175003
 11
-204.500000
 21
-159.175003
  0
LINE
  8
0
  6
CENTER
 62
2
 10
-207.000000
 20
-156.675003
 11
-202.000000
 21
-156.675003
  0
LINE
  8
0
  6
CENTER
 62
2
 10
-192.500000
 20
-154.175003
 11
-192.500000
 21
-159.175003
  0
LINE
  8
0
  6
CENTER
 62
2
 10
-190.000000
 20
-156.675003
 11
-195.000000
 21
-156.675003
  0
LINE
  8
0
  6
CONTINUOUS
 62
7
 10
-210.671997
 20
-89.175003
 11
-210.671997
 21
-89.675003
  0
LINE
  8
0
  6
CONTINUOUS
 62
7
 10
-219.500000
 20
-152.675003
 11
-219.500000
 21
-164.175003
  0
LINE
  8
0
  6
CONTINUOUS
 62
7
 10
-211.899994
 20
-152.175003
 11
-211.899994
 21
-164.175003
  0
LINE
  8
0
  6
CONTINUOUS
 62
7
 10
-211.899994
 20
-152.175003
 11
-185.100006
 21
-152.175003
  0
LINE
  8
0
  6
CONTINUOUS
 62
7
 10
-219.500000
 20
-164.175003
 11
-177.500000
 21
-164.175003
  0
LINE
  8
0
  6
CONTINUOUS
 62
7
 10
-219.500000
 20
-152.675003
 11
-211.899994
 21
-152.675003
  0
LINE
  8
0
  6
CONTINUOUS
 62
7
 10
-244.000000
 20
-157.175003
 11
-219.500000
 21
-157.175003
  0
LINE
  8
0
  6
CONTINUOUS
 62
7
 10
-177.500000
 20
-157.175003
 11
-168.000000
 21
-157.175003
  0
LINE
  8
0
  6
CONTINUOUS
 62
7
 10
-177.500000
 20
-152.675003
 11
-177.500000
 21
-164.175003
  0
LINE
  8
0
  6
CONTINUOUS
 62
7
 10
-185.100006
 20
-152.175003
 11
-185.100006
 21
-164.175003
  0
LINE
  8
0
  6
CONTINUOUS
 62
7
 10
-177.500000
 20
-152.675003
 11
-185.100006
 21
-152.675003
  0
LINE
  8
0
  6
CONTINUOUS
 62
7
 10
-244.000000
 20
-164.675003
 11
-235.347000
 21
-164.675003
  0
LINE
  8
0
  6
CONTINUOUS
 62
7
 10
-244.000000
 20
-174.175003
 11
-168.000000
 21
-174.175003
  0
LINE
  8
0
  6
CONTINUOUS
 62
7
 10
-244.000000
 20
-157.175003
 11
-244.000000
 21
-174.175003
  0
LINE
  8
0
  6
CONTINUOUS
 62
7
 10
-168.000000
 20
-157.175003
 11
-168.000000
 21
-174.175003
  0
LINE
  8
0
  6
CENTER
 62
2
 10
-221.000000
 20
-163.240997
 11
-221.000000
 21
-173.175003
  0
LINE
  8
0
  6
CENTER
 62
2
 10
-191.000000
 20
-162.740997
 11
-191.000000
 21
-172.675003
  0
LINE
  8
0
  6
CENTER
 62
2
 10
-225.565994
 20
-168.675003
 11
-216.723007
 21
-168.675003
  0
LINE
  8
0
  6
CENTER
 62
2
 10
-186.479996
 20
-168.675003
 11
-194.957993
 21
-168.675003
  0
LINE
  8
0
  6
CONTINUOUS
 62
7
 10
-233.199997
 20
-168.675003
 11
-224.000000
 21
-168.675003
  0
LINE
  8
0
  6
CONTINUOUS
 62
7
 10
-194.000000
 20
-168.675003
 11
-218.000000
 21
-168.675003
  0
LINE
  8
0
  6
CONTINUOUS
 62
7
 10
-178.800003
 20
-168.675003
 11
-188.000000
 21
-168.675003
  0
LINE
  8
0
  6
CONTINUOUS
 62
7
 10
-219.500000
 20
-121.474998
 11
-219.500000
 21
-89.887497
  0
LINE
  8
0
  6
CONTINUOUS
 62
7
 10
-211.899994
 20
-121.474998
 11
-219.500000
 21
-121.474998
  0
LINE
  8
0
  6
CONTINUOUS
 62
7
 10
-211.899994
 20
-89.875000
 11
-219.500000
 21
-89.875000
  0
LINE
  8
0
  6
CONTINUOUS
 62
7
 10
-176.653000
 20
-164.675003
 11
-168.000000
 21
-164.675003
  0
LINE
  8
0
  6
CENTER
 62
2
 10
-183.000000
 20
-99.675003
 11
-183.000000
 21
-87.675003
  0
LINE
  8
0
  6
CENTER
 62
2
 10
-189.000000
 20
-93.675003
 11
-177.000000
 21
-93.675003
  0
LINE
  8
0
  6
CENTER
 62
2
 10
-183.000000
 20
-123.675003
 11
-183.000000
 21
-111.675003
  0
LINE
  8
0
  6
CENTER
 62
2
 10
-189.000000
 20
-117.675003
 11
-177.000000
 21
-117.675003
  0
LINE
  8
0
  6
CENTER
 62
2
 10
-188.500000
 20
-121.675003
 11
-188.500000
 21
-114.675003
  0
LINE
  8
0
  6
CENTER
 62
2
 10
-192.000000
 20
-118.175003
 11
-185.000000
 21
-118.175003
  0
LINE
  8
0
  6
CENTER
 62
2
 10
-208.500000
 20
-121.675003
 11
-208.500000
 21
-114.675003
  0
LINE
  8
0
  6
CENTER
 62
2
 10
-212.000000
 20
-118.175003
 11
-205.000000
 21
-118.175003
  0
LINE
  8
0
  6
CENTER
 62
2
 10
-188.500000
 20
-96.675003
 11
-188.500000
 21
-89.675003
  0
LINE
  8
0
  6
CENTER
 62
2
 10
-192.000000
 20
-93.175003
 11
-185.000000
 21
-93.175003
  0
LINE
  8
0
  6
CENTER
 62
2
 10
-208.500000
 20
-96.675003
 11
-208.500000
 21
-89.675003
  0
LINE
  8
0
  6
CENTER
 62
2
 10
-212.000000
 20
-93.175003
 11
-205.000000
 21
-93.175003
  0
LINE
  8
0
  6
CENTER
 62
2
 10
-229.000000
 20
-99.675003
 11
-229.000000
 21
-87.675003
  0
LINE
  8
0
  6
CENTER
 62
2
 10
-235.000000
 20
-93.675003
 11
-223.000000
 21
-93.675003
  0
LINE
  8
0
  6
CENTER
 62
2
 10
-229.000000
 20
-123.675003
 11
-229.000000
 21
-111.675003
  0
LINE
  8
0
  6
CENTER
 62
2
 10
-235.000000
 20
-117.675003
 11
-223.000000
 21
-117.675003
  0
LINE
  8
0
  6
CONTINUOUS
 62
7
 10
-229.000000
 20
-79.175003
 11
-229.000000
 21
-89.175003
  0
LINE
  8
0
  6
CONTINUOUS
 62
7
 10
-229.000000
 20
-86.675003
 11
-183.000000
 21
-86.675003
  0
LINE
  8
0
  6
CONTINUOUS
 62
7
 10
-229.000000
 20
-79.175003
 11
-183.000000
 21
-79.175003
  0
LINE
  8
0
  6
CONTINUOUS
 62
7
 10
-201.750000
 20
-89.175003
 11
-201.750000
 21
-87.675003
  0
LINE
  8
0
  6
CONTINUOUS
 62
7
 10
-201.750000
 20
-87.675003
 11
-195.250000
 21
-87.675003
  0
LINE
  8
0
  6
CONTINUOUS
 62
7
 10
-195.250000
 20
-89.175003
 11
-195.250000
 21
-87.675003
  0
LINE
  8
0
  6
CONTINUOUS
 62
7
 10
-183.000000
 20
-79.175003
 11
-183.000000
 21
-89.175003
  0
LINE
  8
0
  6
CONTINUOUS
 62
7
 10
-229.000000
 20
-153.175003
 11
-229.000000
 21
-157.175003
  0
LINE
  8
0
  6
CONTINUOUS
 62
7
 10
-229.000000
 20
-153.175003
 11
-219.500000
 21
-153.175003
  0
LINE
  8
0
  6
DASHED
 62
2
 10
-225.000000
 20
-168.675003
 11
-225.000000
 21
-169.675003
  0
LINE
  8
0
  6
DASHED
 62
2
 10
-225.000000
 20
-169.675003
 11
-233.000000
 21
-169.675003
  0
LINE
  8
0
  6
DASHED
 62
2
 10
-226.500000
 20
-169.675003
 11
-226.500000
 21
-174.175003
  0
LINE
  8
0
  6
DASHED
 62
2
 10
-226.899994
 20
-169.675003
 11
-226.899994
 21
-174.175003
  0
LINE
  8
0
  6
CENTER
 62
2
 10
-229.000000
 20
-166.675003
 11
-229.000000
 21
-176.175003
  0
LINE
  8
0
  6
DASHED
 62
2
 10
-231.100006
 20
-169.675003
 11
-231.100006
 21
-174.175003
  0
LINE
  8
0
  6
DASHED
 62
2
 10
-231.500000
 20
-169.675003
 11
-231.500000
 21
-174.175003
  0
LINE
  8
0
  6
DASHED
 62
2
 10
-233.000000
 20
-168.675003
 11
-233.000000
 21
-169.675003
  0
LINE
  8
0
  6
DASHED
 62
2
 10
-179.000000
 20
-168.675003
 11
-179.000000
 21
-169.675003
  0
LINE
  8
0
  6
DASHED
 62
2
 10
-179.000000
 20
-169.675003
 11
-187.000000
 21
-169.675003
  0
LINE
  8
0
  6
DASHED
 62
2
 10
-180.500000
 20
-169.675003
 11
-180.500000
 21
-174.175003
  0
LINE
  8
0
  6
DASHED
 62
2
 10
-180.899994
 20
-169.675003
 11
-180.899994
 21
-174.175003
  0
LINE
  8
0
  6
CENTER
 62
2
 10
-183.000000
 20
-166.675003
 11
-183.000000
 21
-176.175003
  0
LINE
  8
0
  6
DASHED
 62
2
 10
-185.100006
 20
-169.675003
 11
-185.100006
 21
-174.175003
  0
LINE
  8
0
  6
DASHED
 62
2
 10
-185.500000
 20
-169.675003
 11
-185.500000
 21
-174.175003
  0
LINE
  8
0
  6
DASHED
 62
2
 10
-187.000000
 20
-168.675003
 11
-187.000000
 21
-169.675003
  0
LINE
  8
0
  6
CENTER
 62
2
 10
-188.500000
 20
-154.175003
 11
-188.500000
 21
-150.175003
  0
LINE
  8
0
  6
CENTER
 62
2
 10
-208.500000
 20
-154.175003
 11
-208.500000
 21
-150.175003
  0
LINE
  8
0
  6
CENTER
 62
2
 10
-166.000000
 20
-220.675003
 11
-246.000000
 21
-220.675003
  0
LINE
  8
0
  6
CONTINUOUS
 62
7
 10
-244.000000
 20
-237.175003
 11
-168.000000
 21
-237.175003
  0
LINE
  8
0
  6
CONTINUOUS
 62
7
 10
-244.000000
 20
-204.175003
 11
-168.000000
 21
-204.175003
  0
LINE
  8
0
  6
CONTINUOUS
 62
7
 10
-244.000000
 20
-204.175003
 11
-244.000000
 21
-237.175003
  0
LINE
  8
0
  6
CONTINUOUS
 62
7
 10
-168.000000
 20
-204.175003
 11
-168.000000
 21
-237.175003
  0
LINE
  8
0
  6
CENTER
 62
2
 10
-229.000000
 20
-204.175003
 11
-229.000000
 21
-213.175003
  0
LINE
  8
0
  6
CENTER
 62
2
 10
-233.500000
 20
-208.675003
 11
-224.500000
 21
-208.675003
  0
LINE
  8
0
  6
CENTER
 62
2
 10
-236.000000
 20
-208.274994
 11
-236.000000
 21
-224.074997
  0
LINE
  8
0
  6
CENTER
 62
2
 10
-243.899994
 20
-216.175003
 11
-228.100006
 21
-216.175003
  0
LINE
  8
0
  6
CENTER
 62
2
 10
-183.000000
 20
-204.175003
 11
-183.000000
 21
-213.175003
  0
LINE
  8
0
  6
CENTER
 62
2
 10
-187.500000
 20
-208.675003
 11
-178.500000
 21
-208.675003
  0
LINE
  8
0
  6
CENTER
 62
2
 10
-176.000000
 20
-208.274994
 11
-176.000000
 21
-224.074997
  0
LINE
  8
0
  6
CENTER
 62
2
 10
-183.899994
 20
-216.175003
 11
-168.100006
 21
-216.175003
  0
LINE
  8
0
  6
CENTER
 62
2
 10
-183.000000
 20
-228.175003
 11
-183.000000
 21
-237.175003
  0
LINE
  8
0
  6
CENTER
 62
2
 10
-187.500000
 20
-232.675003
 11
-178.500000
 21
-232.675003
  0
LINE
  8
0
  6
CENTER
 62
2
 10
-229.000000
 20
-228.175003
 11
-229.000000
 21
-237.175003
  0
LINE
  8
0
  6
CENTER
 62
2
 10
-233.500000
 20
-232.675003
 11
-224.500000
 21
-232.675003
  0
LINE
  8
0
  6
CONTINUOUS
 62
7
 10
-229.000000
 20
-247.175003
 11
-183.000000
 21
-247.175003
  0
LINE
  8
0
  6
CONTINUOUS
 62
7
 10
-229.000000
 20
-247.175003
 11
-229.000000
 21
-237.175003
  0
LINE
  8
0
  6
CONTINUOUS
 62
7
 10
-183.000000
 20
-247.175003
 11
-183.000000
 21
-237.175003
  0
LINE
  8
0
  6
CONTINUOUS
 62
7
 10
-244.000000
 20
-54.174999
 11
-229.000000
 21
-54.174999
  0
LINE
  8
0
  6
CONTINUOUS
 62
7
 10
-244.000000
 20
-46.674999
 11
-235.347000
 21
-46.674999
  0
LINE
  8
0
  6
CONTINUOUS
 62
7
 10
-244.000000
 20
-37.174999
 11
-168.000000
 21
-37.174999
  0
LINE
  8
0
  6
CONTINUOUS
 62
7
 10
-244.000000
 20
-54.174999
 11
-244.000000
 21
-37.174999
  0
LINE
  8
0
  6
CONTINUOUS
 62
7
 10
-233.199997
 20
-42.674999
 11
-229.000000
 21
-42.674999
  0
LINE
  8
0
  6
CONTINUOUS
 62
7
 10
-229.000000
 20
-39.174999
 11
-183.000000
 21
-39.174999
  0
LINE
  8
0
  6
CONTINUOUS
 62
2
 10
-229.000000
 20
-47.375000
 11
-183.000000
 21
-47.375000
  0
LINE
  8
0
  6
CONTINUOUS
 62
2
 10
-229.000000
 20
-49.974998
 11
-183.000000
 21
-49.974998
  0
LINE
  8
0
  6
CONTINUOUS
 62
2
 10
-229.000000
 20
-53.375000
 11
-183.000000
 21
-53.375000
  0
LINE
  8
0
  6
CONTINUOUS
 62
2
 10
-229.000000
 20
-55.974998
 11
-183.000000
 21
-55.974998
  0
LINE
  8
0
  6
CONTINUOUS
 62
7
 10
-229.000000
 20
-58.174999
 11
-183.000000
 21
-58.174999
  0
LINE
  8
0
  6
CONTINUOUS
 62
7
 10
-229.000000
 20
-58.174999
 11
-229.000000
 21
-39.174999
  0
LINE
  8
0
  6
DASHED
 62
2
 10
-233.000000
 20
-42.674999
 11
-233.000000
 21
-41.674999
  0
LINE
  8
0
  6
DASHED
 62
2
 10
-233.000000
 20
-41.674999
 11
-225.000000
 21
-41.674999
  0
LINE
  8
0
  6
DASHED
 62
2
 10
-231.500000
 20
-41.674999
 11
-231.500000
 21
-37.174999
  0
LINE
  8
0
  6
DASHED
 62
2
 10
-231.100006
 20
-41.674999
 11
-231.100006
 21
-37.174999
  0
LINE
  8
0
  6
CENTER
 62
2
 10
-229.000000
 20
-44.674999
 11
-229.000000
 21
-35.174999
  0
LINE
  8
0
  6
DASHED
 62
2
 10
-226.899994
 20
-41.674999
 11
-226.899994
 21
-37.174999
  0
LINE
  8
0
  6
DASHED
 62
2
 10
-226.500000
 20
-41.674999
 11
-226.500000
 21
-37.174999
  0
LINE
  8
0
  6
DASHED
 62
2
 10
-225.000000
 20
-42.674999
 11
-225.000000
 21
-41.674999
  0
LINE
  8
0
  6
CONTINUOUS
 62
7
 10
-219.500000
 20
-58.674999
 11
-219.500000
 21
-58.174999
  0
LINE
  8
0
  6
CONTINUOUS
 62
7
 10
-211.899994
 20
-59.174999
 11
-211.899994
 21
-58.174999
  0
LINE
  8
0
  6
CONTINUOUS
 62
7
 10
-211.899994
 20
-59.174999
 11
-185.100006
 21
-59.174999
  0
LINE
  8
0
  6
CONTINUOUS
 62
7
 10
-219.500000
 20
-58.674999
 11
-211.899994
 21
-58.674999
  0
LINE
  8
0
  6
CONTINUOUS
 62
7
 10
-177.500000
 20
-54.174999
 11
-168.000000
 21
-54.174999
  0
LINE
  8
0
  6
CONTINUOUS
 62
7
 10
-177.500000
 20
-58.674999
 11
-177.500000
 21
-47.174999
  0
LINE
  8
0
  6
CONTINUOUS
 62
7
 10
-185.100006
 20
-59.174999
 11
-185.100006
 21
-58.174999
  0
LINE
  8
0
  6
CONTINUOUS
 62
7
 10
-177.500000
 20
-58.674999
 11
-185.100006
 21
-58.674999
  0
LINE
  8
0
  6
CONTINUOUS
 62
7
 10
-168.000000
 20
-54.174999
 11
-168.000000
 21
-37.174999
  0
LINE
  8
0
  6
CONTINUOUS
 62
7
 10
-183.000000
 20
-58.174999
 11
-183.000000
 21
-39.174999
  0
LINE
  8
0
  6
CENTER
 62
2
 10
-208.500000
 20
-61.174999
 11
-208.500000
 21
-57.174999
  0
LINE
  8
0
  6
CENTER
 62
2
 10
-188.500000
 20
-61.174999
 11
-188.500000
 21
-57.174999
  0
LINE
  8
0
  6
CONTINUOUS
 62
7
 10
-183.000000
 20
-47.174999
 11
-177.500000
 21
-47.174999
  0
LINE
  8
0
  6
CONTINUOUS
 62
7
 10
-178.800003
 20
-42.674999
 11
-183.000000
 21
-42.674999
  0
LINE
  8
0
  6
CONTINUOUS
 62
7
 10
-176.653000
 20
-46.674999
 11
-168.000000
 21
-46.674999
  0
LINE
  8
0
  6
DASHED
 62
2
 10
-187.000000
 20
-42.674999
 11
-187.000000
 21
-41.674999
  0
LINE
  8
0
  6
DASHED
 62
2
 10
-187.000000
 20
-41.674999
 11
-179.000000
 21
-41.674999
  0
LINE
  8
0
  6
DASHED
 62
2
 10
-185.500000
 20
-41.674999
 11
-185.500000
 21
-37.174999
  0
LINE
  8
0
  6
DASHED
 62
2
 10
-185.100006
 20
-41.674999
 11
-185.100006
 21
-37.174999
  0
LINE
  8
0
  6
CENTER
 62
2
 10
-183.000000
 20
-44.674999
 11
-183.000000
 21
-35.174999
  0
LINE
  8
0
  6
DASHED
 62
2
 10
-180.899994
 20
-41.674999
 11
-180.899994
 21
-37.174999
  0
LINE
  8
0
  6
DASHED
 62
2
 10
-180.500000
 20
-41.674999
 11
-180.500000
 21
-37.174999
  0
LINE
  8
0
  6
DASHED
 62
2
 10
-179.000000
 20
-42.674999
 11
-179.000000
 21
-41.674999
  0
LINE
  8
0
  6
CONTINUOUS
 62
7
 10
246.850006
 20
-54.174999
 11
256.000000
 21
-54.174999
  0
LINE
  8
0
  6
CONTINUOUS
 62
7
 10
150.000000
 20
-54.174999
 11
150.000000
 21
-37.174999
  0
LINE
  8
0
  6
CENTER
 62
2
 10
258.000000
 20
-105.675003
 11
148.000000
 21
-105.675003
  0
LINE
  8
0
  6
CONTINUOUS
 62
7
 10
191.750000
 20
-121.675003
 11
191.750000
 21
-89.675003
  0
LINE
  8
0
  6
CONTINUOUS
 62
7
 10
239.250000
 20
-121.675003
 11
191.750000
 21
-121.675003
  0
LINE
  8
0
  6
CONTINUOUS
 62
7
 10
239.250000
 20
-89.675003
 11
191.750000
 21
-89.675003
  0
LINE
  8
0
  6
CONTINUOUS
 62
7
 10
239.250000
 20
-121.675003
 11
239.250000
 21
-89.675003
  0
LINE
  8
0
  6
CONTINUOUS
 62
7
 10
239.250000
 20
-121.474998
 11
246.850006
 21
-121.474998
  0
LINE
  8
0
  6
CONTINUOUS
 62
7
 10
246.850006
 20
-121.474998
 11
246.850006
 21
-89.875000
  0
LINE
  8
0
  6
CONTINUOUS
 62
7
 10
239.250000
 20
-89.875000
 11
246.850006
 21
-89.875000
  0
LINE
  8
0
  6
CONTINUOUS
 62
7
 10
150.000000
 20
-113.175003
 11
184.149994
 21
-113.175003
  0
LINE
  8
0
  6
CONTINUOUS
 62
7
 10
246.850006
 20
-113.175003
 11
256.000000
 21
-113.175003
  0
LINE
  8
0
  6
CONTINUOUS
 62
7
 10
150.000000
 20
-98.175003
 11
184.149994
 21
-98.175003
  0
LINE
  8
0
  6
CONTINUOUS
 62
7
 10
246.850006
 20
-98.175003
 11
256.000000
 21
-98.175003
  0
LINE
  8
0
  6
CONTINUOUS
 62
7
 10
239.250000
 20
-96.675003
 11
191.750000
 21
-96.675003
  0
LINE
  8
0
  6
CONTINUOUS
 62
7
 10
239.250000
 20
-114.675003
 11
191.750000
 21
-114.675003
  0
LINE
  8
0
  6
CONTINUOUS
 62
7
 10
150.000000
 20
-122.175003
 11
256.000000
 21
-122.175003
  0
LINE
  8
0
  6
CONTINUOUS
 62
7
 10
150.000000
 20
-89.175003
 11
256.000000
 21
-89.175003
  0
LINE
  8
0
  6
CONTINUOUS
 62
7
 10
150.000000
 20
-89.175003
 11
150.000000
 21
-122.175003
  0
LINE
  8
0
  6
CONTINUOUS
 62
7
 10
256.000000
 20
-89.175003
 11
256.000000
 21
-122.175003
  0
LINE
  8
0
  6
CONTINUOUS
 62
7
 10
184.149994
 20
-152.675003
 11
184.149994
 21
-164.175003
  0
LINE
  8
0
  6
CONTINUOUS
 62
7
 10
191.750000
 20
-152.175003
 11
191.750000
 21
-164.175003
  0
LINE
  8
0
  6
CONTINUOUS
 62
7
 10
191.750000
 20
-152.175003
 11
239.250000
 21
-152.175003
  0
LINE
  8
0
  6
CONTINUOUS
 62
7
 10
184.149994
 20
-164.175003
 11
246.850006
 21
-164.175003
  0
LINE
  8
0
  6
CONTINUOUS
 62
7
 10
184.149994
 20
-152.675003
 11
191.750000
 21
-152.675003
  0
LINE
  8
0
  6
CONTINUOUS
 62
7
 10
150.000000
 20
-157.175003
 11
184.149994
 21
-157.175003
  0
LINE
  8
0
  6
CONTINUOUS
 62
7
 10
246.850006
 20
-157.175003
 11
256.000000
 21
-157.175003
  0
LINE
  8
0
  6
CONTINUOUS
 62
7
 10
246.850006
 20
-152.675003
 11
246.850006
 21
-164.175003
  0
LINE
  8
0
  6
CONTINUOUS
 62
7
 10
239.250000
 20
-152.175003
 11
239.250000
 21
-164.175003
  0
LINE
  8
0
  6
CONTINUOUS
 62
7
 10
246.850006
 20
-152.675003
 11
239.250000
 21
-152.675003
  0
LINE
  8
0
  6
CONTINUOUS
 62
7
 10
150.000000
 20
-164.675003
 11
158.653000
 21
-164.675003
  0
LINE
  8
0
  6
CONTINUOUS
 62
7
 10
150.000000
 20
-174.175003
 11
256.000000
 21
-174.175003
  0
LINE
  8
0
  6
CONTINUOUS
 62
7
 10
150.000000
 20
-157.175003
 11
150.000000
 21
-174.175003
  0
LINE
  8
0
  6
CONTINUOUS
 62
7
 10
256.000000
 20
-157.175003
 11
256.000000
 21
-174.175003
  0
LINE
  8
0
  6
CONTINUOUS
 62
7
 10
160.800003
 20
-168.675003
 11
170.000000
 21
-168.675003
  0
LINE
  8
0
  6
CONTINUOUS
 62
7
 10
230.000000
 20
-168.675003
 11
176.000000
 21
-168.675003
  0
LINE
  8
0
  6
CONTINUOUS
 62
7
 10
245.199997
 20
-168.675003
 11
236.000000
 21
-168.675003
  0
LINE
  8
0
  6
CONTINUOUS
 62
7
 10
184.149994
 20
-121.474998
 11
184.149994
 21
-89.887497
  0
LINE
  8
0
  6
CONTINUOUS
 62
7
 10
191.750000
 20
-89.875000
 11
184.149994
 21
-89.875000
  0
LINE
  8
0
  6
CONTINUOUS
 62
7
 10
191.750000
 20
-121.474998
 11
184.149994
 21
-121.474998
  0
LINE
  8
0
  6
CONTINUOUS
 62
7
 10
247.347000
 20
-164.675003
 11
256.000000
 21
-164.675003
  0
LINE
  8
0
  6
CENTER
 62
2
 10
173.000000
 20
-172.175003
 11
173.000000
 21
-165.175003
  0
LINE
  8
0
  6
CENTER
 62
2
 10
169.500000
 20
-168.675003
 11
176.500000
 21
-168.675003
  0
LINE
  8
0
  6
CENTER
 62
2
 10
209.500000
 20
-160.175003
 11
209.500000
 21
-153.175003
  0
LINE
  8
0
  6
CENTER
 62
2
 10
206.000000
 20
-156.675003
 11
213.000000
 21
-156.675003
  0
LINE
  8
0
  6
CENTER
 62
2
 10
233.000000
 20
-172.175003
 11
233.000000
 21
-165.175003
  0
LINE
  8
0
  6
CENTER
 62
2
 10
229.500000
 20
-168.675003
 11
236.500000
 21
-168.675003
  0
LINE
  8
0
  6
CENTER
 62
2
 10
221.500000
 20
-160.175003
 11
221.500000
 21
-153.175003
  0
LINE
  8
0
  6
CENTER
 62
2
 10
218.000000
 20
-156.675003
 11
225.000000
 21
-156.675003
  0
LINE
  8
0
  6
CENTER
 62
2
 10
165.000000
 20
-123.675003
 11
165.000000
 21
-111.675003
  0
LINE
  8
0
  6
CENTER
 62
2
 10
159.000000
 20
-117.675003
 11
171.000000
 21
-117.675003
  0
LINE
  8
0
  6
CENTER
 62
2
 10
165.000000
 20
-99.675003
 11
165.000000
 21
-87.675003
  0
LINE
  8
0
  6
CENTER
 62
2
 10
159.000000
 20
-93.675003
 11
171.000000
 21
-93.675003
  0
LINE
  8
0
  6
CENTER
 62
2
 10
195.500000
 20
-121.675003
 11
195.500000
 21
-114.675003
  0
LINE
  8
0
  6
CENTER
 62
2
 10
192.000000
 20
-118.175003
 11
199.000000
 21
-118.175003
  0
LINE
  8
0
  6
CENTER
 62
2
 10
215.500000
 20
-121.675003
 11
215.500000
 21
-114.675003
  0
LINE
  8
0
  6
CENTER
 62
2
 10
212.000000
 20
-118.175003
 11
219.000000
 21
-118.175003
  0
LINE
  8
0
  6
CENTER
 62
2
 10
235.500000
 20
-121.675003
 11
235.500000
 21
-114.675003
  0
LINE
  8
0
  6
CENTER
 62
2
 10
232.000000
 20
-118.175003
 11
239.000000
 21
-118.175003
  0
LINE
  8
0
  6
CENTER
 62
2
 10
241.000000
 20
-123.675003
 11
241.000000
 21
-111.675003
  0
LINE
  8
0
  6
CENTER
 62
2
 10
235.000000
 20
-117.675003
 11
247.000000
 21
-117.675003
  0
LINE
  8
0
  6
CENTER
 62
2
 10
241.000000
 20
-99.675003
 11
241.000000
 21
-87.675003
  0
LINE
  8
0
  6
CENTER
 62
2
 10
235.000000
 20
-93.675003
 11
247.000000
 21
-93.675003
  0
LINE
  8
0
  6
CENTER
 62
2
 10
235.500000
 20
-96.675003
 11
235.500000
 21
-89.675003
  0
LINE
  8
0
  6
CENTER
 62
2
 10
232.000000
 20
-93.175003
 11
239.000000
 21
-93.175003
  0
LINE
  8
0
  6
CENTER
 62
2
 10
195.500000
 20
-96.675003
 11
195.500000
 21
-89.675003
  0
LINE
  8
0
  6
CENTER
 62
2
 10
192.000000
 20
-93.175003
 11
199.000000
 21
-93.175003
  0
LINE
  8
0
  6
CENTER
 62
2
 10
215.500000
 20
-96.675003
 11
215.500000
 21
-89.675003
  0
LINE
  8
0
  6
CENTER
 62
2
 10
212.000000
 20
-93.175003
 11
219.000000
 21
-93.175003
  0
LINE
  8
0
  6
DASHED
 62
2
 10
169.000000
 20
-168.675003
 11
169.000000
 21
-169.675003
  0
LINE
  8
0
  6
DASHED
 62
2
 10
169.000000
 20
-169.675003
 11
161.000000
 21
-169.675003
  0
LINE
  8
0
  6
DASHED
 62
2
 10
167.500000
 20
-169.675003
 11
167.500000
 21
-174.175003
  0
LINE
  8
0
  6
DASHED
 62
2
 10
167.100006
 20
-169.675003
 11
167.100006
 21
-174.175003
  0
LINE
  8
0
  6
CENTER
 62
2
 10
165.000000
 20
-166.675003
 11
165.000000
 21
-176.175003
  0
LINE
  8
0
  6
DASHED
 62
2
 10
162.899994
 20
-169.675003
 11
162.899994
 21
-174.175003
  0
LINE
  8
0
  6
DASHED
 62
2
 10
162.500000
 20
-169.675003
 11
162.500000
 21
-174.175003
  0
LINE
  8
0
  6
DASHED
 62
2
 10
161.000000
 20
-168.675003
 11
161.000000
 21
-169.675003
  0
LINE
  8
0
  6
DASHED
 62
2
 10
245.000000
 20
-168.675003
 11
245.000000
 21
-169.675003
  0
LINE
  8
0
  6
DASHED
 62
2
 10
245.000000
 20
-169.675003
 11
237.000000
 21
-169.675003
  0
LINE
  8
0
  6
DASHED
 62
2
 10
243.500000
 20
-169.675003
 11
243.500000
 21
-174.175003
  0
LINE
  8
0
  6
DASHED
 62
2
 10
243.100006
 20
-169.675003
 11
243.100006
 21
-174.175003
  0
LINE
  8
0
  6
CENTER
 62
2
 10
241.000000
 20
-166.675003
 11
241.000000
 21
-176.175003
  0
LINE
  8
0
  6
DASHED
 62
2
 10
238.899994
 20
-169.675003
 11
238.899994
 21
-174.175003
  0
LINE
  8
0
  6
DASHED
 62
2
 10
238.500000
 20
-169.675003
 11
238.500000
 21
-174.175003
  0
LINE
  8
0
  6
DASHED
 62
2
 10
237.000000
 20
-168.675003
 11
237.000000
 21
-169.675003
  0
LINE
  8
0
  6
CENTER
 62
2
 10
195.500000
 20
-154.175003
 11
195.500000
 21
-150.175003
  0
LINE
  8
0
  6
CENTER
 62
2
 10
215.500000
 20
-154.175003
 11
215.500000
 21
-150.175003
  0
LINE
  8
0
  6
CENTER
 62
2
 10
235.500000
 20
-154.175003
 11
235.500000
 21
-150.175003
  0
LINE
  8
0
  6
CONTINUOUS
 62
7
 10
165.000000
 20
-79.175003
 11
165.000000
 21
-89.175003
  0
LINE
  8
0
  6
CONTINUOUS
 62
7
 10
165.000000
 20
-86.675003
 11
241.000000
 21
-86.675003
  0
LINE
  8
0
  6
CONTINUOUS
 62
7
 10
165.000000
 20
-79.175003
 11
241.000000
 21
-79.175003
  0
LINE
  8
0
  6
CONTINUOUS
 62
7
 10
212.250000
 20
-87.675003
 11
218.750000
 21
-87.675003
  0
LINE
  8
0
  6
CONTINUOUS
 62
7
 10
212.250000
 20
-87.675003
 11
212.250000
 21
-89.175003
  0
LINE
  8
0
  6
CONTINUOUS
 62
7
 10
218.750000
 20
-87.675003
 11
218.750000
 21
-89.175003
  0
LINE
  8
0
  6
CONTINUOUS
 62
7
 10
241.000000
 20
-79.175003
 11
241.000000
 21
-89.175003
  0
LINE
  8
0
  6
CONTINUOUS
 62
7
 10
165.000000
 20
-153.175003
 11
184.149994
 21
-153.175003
  0
LINE
  8
0
  6
CONTINUOUS
 62
7
 10
165.000000
 20
-153.175003
 11
165.000000
 21
-157.175003
  0
LINE
  8
0
  6
CONTINUOUS
 62
7
 10
247.347000
 20
-46.674999
 11
256.000000
 21
-46.674999
  0
LINE
  8
0
  6
CENTER
 62
2
 10
258.000000
 20
-220.675003
 11
148.000000
 21
-220.675003
  0
LINE
  8
0
  6
CONTINUOUS
 62
7
 10
150.000000
 20
-237.175003
 11
256.000000
 21
-237.175003
  0
LINE
  8
0
  6
CONTINUOUS
 62
7
 10
150.000000
 20
-204.175003
 11
256.000000
 21
-204.175003
  0
LINE
  8
0
  6
CONTINUOUS
 62
7
 10
150.000000
 20
-204.175003
 11
150.000000
 21
-237.175003
  0
LINE
  8
0
  6
CONTINUOUS
 62
7
 10
256.000000
 20
-204.175003
 11
256.000000
 21
-237.175003
  0
LINE
  8
0
  6
CENTER
 62
2
 10
165.000000
 20
-204.175003
 11
165.000000
 21
-213.175003
  0
LINE
  8
0
  6
CENTER
 62
2
 10
160.500000
 20
-208.675003
 11
169.500000
 21
-208.675003
  0
LINE
  8
0
  6
CENTER
 62
2
 10
158.000000
 20
-208.274994
 11
158.000000
 21
-224.074997
  0
LINE
  8
0
  6
CENTER
 62
2
 10
150.100006
 20
-216.175003
 11
165.899994
 21
-216.175003
  0
LINE
  8
0
  6
CENTER
 62
2
 10
165.000000
 20
-228.175003
 11
165.000000
 21
-237.175003
  0
LINE
  8
0
  6
CENTER
 62
2
 10
160.500000
 20
-232.675003
 11
169.500000
 21
-232.675003
  0
LINE
  8
0
  6
CENTER
 62
2
 10
241.000000
 20
-204.175003
 11
241.000000
 21
-213.175003
  0
LINE
  8
0
  6
CENTER
 62
2
 10
236.500000
 20
-208.675003
 11
245.500000
 21
-208.675003
  0
LINE
  8
0
  6
CENTER
 62
2
 10
241.000000
 20
-228.175003
 11
241.000000
 21
-237.175003
  0
LINE
  8
0
  6
CENTER
 62
2
 10
236.500000
 20
-232.675003
 11
245.500000
 21
-232.675003
  0
LINE
  8
0
  6
CENTER
 62
2
 10
248.000000
 20
-208.274994
 11
248.000000
 21
-224.074997
  0
LINE
  8
0
  6
CENTER
 62
2
 10
240.100006
 20
-216.175003
 11
255.899994
 21
-216.175003
  0
LINE
  8
0
  6
CONTINUOUS
 62
7
 10
165.000000
 20
-247.175003
 11
165.000000
 21
-237.175003
  0
LINE
  8
0
  6
CONTINUOUS
 62
7
 10
165.000000
 20
-247.175003
 11
241.000000
 21
-247.175003
  0
LINE
  8
0
  6
CONTINUOUS
 62
7
 10
241.000000
 20
-247.175003
 11
241.000000
 21
-237.175003
  0
LINE
  8
0
  6
CONTINUOUS
 62
7
 10
184.149994
 20
-58.674999
 11
184.149994
 21
-58.174999
  0
LINE
  8
0
  6
CONTINUOUS
 62
7
 10
191.750000
 20
-59.174999
 11
191.750000
 21
-58.174999
  0
LINE
  8
0
  6
CONTINUOUS
 62
7
 10
191.750000
 20
-59.174999
 11
239.250000
 21
-59.174999
  0
LINE
  8
0
  6
CONTINUOUS
 62
7
 10
241.000000
 20
-47.174999
 11
246.850006
 21
-47.174999
  0
LINE
  8
0
  6
CONTINUOUS
 62
7
 10
184.149994
 20
-58.674999
 11
191.750000
 21
-58.674999
  0
LINE
  8
0
  6
CONTINUOUS
 62
7
 10
150.000000
 20
-54.174999
 11
165.000000
 21
-54.174999
  0
LINE
  8
0
  6
CONTINUOUS
 62
7
 10
239.250000
 20
-59.174999
 11
239.250000
 21
-58.174999
  0
LINE
  8
0
  6
CONTINUOUS
 62
7
 10
246.850006
 20
-58.674999
 11
239.250000
 21
-58.674999
  0
LINE
  8
0
  6
CONTINUOUS
 62
7
 10
150.000000
 20
-37.174999
 11
256.000000
 21
-37.174999
  0
LINE
  8
0
  6
CONTINUOUS
 62
7
 10
160.800003
 20
-42.674999
 11
165.000000
 21
-42.674999
  0
LINE
  8
0
  6
CONTINUOUS
 62
7
 10
245.199997
 20
-42.674999
 11
241.000000
 21
-42.674999
  0
LINE
  8
0
  6
CONTINUOUS
 62
7
 10
246.850006
 20
-58.674999
 11
246.850006
 21
-47.174999
  0
LINE
  8
0
  6
CENTER
 62
2
 10
195.500000
 20
-57.174999
 11
195.500000
 21
-61.174999
  0
LINE
  8
0
  6
CENTER
 62
2
 10
215.500000
 20
-57.174999
 11
215.500000
 21
-61.174999
  0
LINE
  8
0
  6
CENTER
 62
2
 10
235.500000
 20
-57.174999
 11
235.500000
 21
-61.174999
  0
LINE
  8
0
  6
CONTINUOUS
 62
7
 10
165.000000
 20
-58.174999
 11
165.000000
 21
-39.174999
  0
LINE
  8
0
  6
CONTINUOUS
 62
2
 10
165.000000
 20
-47.375000
 11
241.000000
 21
-47.375000
  0
LINE
  8
0
  6
CONTINUOUS
 62
2
 10
165.000000
 20
-49.974998
 11
241.000000
 21
-49.974998
  0
LINE
  8
0
  6
CONTINUOUS
 62
2
 10
165.000000
 20
-53.375000
 11
241.000000
 21
-53.375000
  0
LINE
  8
0
  6
CONTINUOUS
 62
2
 10
165.000000
 20
-55.974998
 11
241.000000
 21
-55.974998
  0
LINE
  8
0
  6
CONTINUOUS
 62
7
 10
165.000000
 20
-58.174999
 11
241.000000
 21
-58.174999
  0
LINE
  8
0
  6
CONTINUOUS
 62
7
 10
241.000000
 20
-58.174999
 11
241.000000
 21
-39.174999
  0
LINE
  8
0
  6
CONTINUOUS
 62
7
 10
165.000000
 20
-39.174999
 11
241.000000
 21
-39.174999
  0
LINE
  8
0
  6
DASHED
 62
2
 10
161.000000
 20
-42.674999
 11
161.000000
 21
-41.674999
  0
LINE
  8
0
  6
DASHED
 62
2
 10
161.000000
 20
-41.674999
 11
169.000000
 21
-41.674999
  0
LINE
  8
0
  6
DASHED
 62
2
 10
162.500000
 20
-41.674999
 11
162.500000
 21
-37.174999
  0
LINE
  8
0
  6
DASHED
 62
2
 10
162.899994
 20
-41.674999
 11
162.899994
 21
-37.174999
  0
LINE
  8
0
  6
CENTER
 62
2
 10
165.000000
 20
-44.674999
 11
165.000000
 21
-35.174999
  0
LINE
  8
0
  6
DASHED
 62
2
 10
167.100006
 20
-41.674999
 11
167.100006
 21
-37.174999
  0
LINE
  8
0
  6
DASHED
 62
2
 10
167.500000
 20
-41.674999
 11
167.500000
 21
-37.174999
  0
LINE
  8
0
  6
DASHED
 62
2
 10
169.000000
 20
-42.674999
 11
169.000000
 21
-41.674999
  0
LINE
  8
0
  6
DASHED
 62
2
 10
237.000000
 20
-42.674999
 11
237.000000
 21
-41.674999
  0
LINE
  8
0
  6
DASHED
 62
2
 10
237.000000
 20
-41.674999
 11
245.000000
 21
-41.674999
  0
LINE
  8
0
  6
DASHED
 62
2
 10
238.500000
 20
-41.674999
 11
238.500000
 21
-37.174999
  0
LINE
  8
0
  6
DASHED
 62
2
 10
238.899994
 20
-41.674999
 11
238.899994
 21
-37.174999
  0
LINE
  8
0
  6
CENTER
 62
2
 10
241.000000
 20
-44.674999
 11
241.000000
 21
-35.174999
  0
LINE
  8
0
  6
DASHED
 62
2
 10
243.100006
 20
-41.674999
 11
243.100006
 21
-37.174999
  0
LINE
  8
0
  6
DASHED
 62
2
 10
243.500000
 20
-41.674999
 11
243.500000
 21
-37.174999
  0
LINE
  8
0
  6
DASHED
 62
2
 10
245.000000
 20
-42.674999
 11
245.000000
 21
-41.674999
  0
LINE
  8
0
  6
CONTINUOUS
 62
7
 10
256.000000
 20
-54.174999
 11
256.000000
 21
-37.174999
  0
LINE
  8
0
  6
CONTINUOUS
 62
7
 10
150.000000
 20
-46.674999
 11
158.653000
 21
-46.674999
  0
LINE
  8
0
  6
CONTINUOUS
 62
7
 10
-283.000000
 20
92.074997
 11
-268.000000
 21
92.074997
  0
LINE
  8
0
  6
CONTINUOUS
 62
7
 10
-283.000000
 20
88.074997
 11
-283.000000
 21
84.574997
  0
LINE
  8
0
  6
CONTINUOUS
 62
7
 10
-283.000000
 20
92.074997
 11
-283.000000
 21
91.074997
  0
LINE
  8
0
  6
CONTINUOUS
 62
7
 10
-291.500000
 20
97.074997
 11
-284.500000
 21
97.074997
  0
LINE
  8
0
  6
CONTINUOUS
 62
7
 10
-291.500000
 20
85.074997
 11
-283.000000
 21
85.074997
  0
LINE
  8
0
  6
CONTINUOUS
 62
7
 10
-284.200012
 20
96.775002
 11
-266.799988
 21
96.775002
  0
LINE
  8
0
  6
CONTINUOUS
 62
7
 10
-284.500000
 20
97.074997
 11
-284.200012
 21
96.775002
  0
LINE
  8
0
  6
CONTINUOUS
 62
7
 10
-268.000000
 20
88.074997
 11
-268.000000
 21
84.574997
  0
LINE
  8
0
  6
CONTINUOUS
 62
7
 10
-268.000000
 20
92.074997
 11
-268.000000
 21
91.074997
  0
LINE
  8
0
  6
CONTINUOUS
 62
7
 10
-259.500000
 20
97.074997
 11
-259.500000
 21
85.074997
  0
LINE
  8
0
  6
CONTINUOUS
 62
7
 10
-259.500000
 20
97.074997
 11
-266.500000
 21
97.074997
  0
LINE
  8
0
  6
CONTINUOUS
 62
7
 10
-259.500000
 20
85.074997
 11
-268.000000
 21
85.074997
  0
LINE
  8
0
  6
CONTINUOUS
 62
7
 10
-266.500000
 20
97.074997
 11
-266.799988
 21
96.775002
  0
LINE
  8
0
  6
CONTINUOUS
 62
7
 10
-291.500000
 20
97.074997
 11
-291.500000
 21
85.074997
  0
LINE
  8
0
  6
CONTINUOUS
 62
7
 10
-259.000000
 20
84.574997
 11
-268.000000
 21
84.574997
  0
LINE
  8
0
  6
CONTINUOUS
 62
7
 10
-259.000000
 20
75.074997
 11
-292.000000
 21
75.074997
  0
LINE
  8
0
  6
CONTINUOUS
 62
7
 10
-292.000000
 20
84.574997
 11
-283.000000
 21
84.574997
  0
LINE
  8
0
  6
CONTINUOUS
 62
7
 10
-259.000000
 20
84.574997
 11
-259.000000
 21
75.074997
  0
LINE
  8
0
  6
CONTINUOUS
 62
7
 10
-292.000000
 20
84.574997
 11
-292.000000
 21
75.074997
  0
LINE
  8
0
  6
CENTER
 62
2
 10
-275.500000
 20
99.074997
 11
-275.500000
 21
73.074997
  0
LINE
  8
0
  6
CENTER
 62
2
 10
-283.899994
 20
83.074997
 11
-267.100006
 21
83.074997
  0
LINE
  8
0
  6
CENTER
 62
2
 10
-285.500000
 20
84.074997
 11
-285.500000
 21
77.074997
  0
LINE
  8
0
  6
CENTER
 62
2
 10
-289.000000
 20
80.574997
 11
-282.000000
 21
80.574997
  0
LINE
  8
0
  6
CONTINUOUS
 62
7
 10
-249.000000
 20
77.074997
 11
-259.000000
 21
77.074997
  0
LINE
  8
0
  6
CONTINUOUS
 62
2
 10
-249.000000
 20
91.275002
 11
-250.000000
 21
91.275002
  0
LINE
  8
0
  6
CONTINUOUS
 62
2
 10
-250.000000
 20
94.724998
 11
-250.000000
 21
93.875000
  0
LINE
  8
0
  6
CONTINUOUS
 62
2
 10
-250.000000
 20
90.425003
 11
-253.800003
 21
90.425003
  0
LINE
  8
0
  6
CONTINUOUS
 62
2
 10
-255.300003
 20
93.224998
 11
-255.300003
 21
91.925003
  0
LINE
  8
0
  6
CONTINUOUS
 62
2
 10
-250.000000
 20
94.724998
 11
-253.800003
 21
94.724998
  0
LINE
  8
0
  6
CONTINUOUS
 62
2
 10
-249.000000
 20
93.875000
 11
-250.000000
 21
93.875000
  0
LINE
  8
0
  6
CONTINUOUS
 62
7
 10
-249.000000
 20
96.074997
 11
-249.000000
 21
77.074997
  0
LINE
  8
0
  6
CONTINUOUS
 62
7
 10
-249.000000
 20
96.074997
 11
-256.500000
 21
96.074997
  0
LINE
  8
0
  6
CONTINUOUS
 62
7
 10
-256.500000
 20
96.074997
 11
-256.500000
 21
83.574997
  0
LINE
  8
0
  6
CONTINUOUS
 62
7
 10
-256.500000
 20
83.574997
 11
-259.000000
 21
83.574997
  0
LINE
  8
0
  6
CONTINUOUS
 62
7
 10
-257.500000
 20
84.074997
 11
-259.000000
 21
84.074997
  0
LINE
  8
0
  6
CONTINUOUS
 62
7
 10
-257.500000
 20
95.074997
 11
-257.500000
 21
84.074997
  0
LINE
  8
0
  6
CONTINUOUS
 62
7
 10
-257.500000
 20
95.074997
 11
-259.500000
 21
95.074997
  0
LINE
  8
0
  6
CENTER
 62
2
 10
-288.000000
 20
99.074997
 11
-288.000000
 21
95.074997
  0
LINE
  8
0
  6
CENTER
 62
2
 10
-263.000000
 20
99.074997
 11
-263.000000
 21
95.074997
  0
LINE
  8
0
  6
CENTER
 62
2
 10
-263.500000
 20
77.074997
 11
-263.500000
 21
73.074997
  0
LINE
  8
0
  6
CENTER
 62
2
 10
-287.500000
 20
77.074997
 11
-287.500000
 21
73.074997
  0
LINE
  8
0
  6
CONTINUOUS
 62
2
 10
-250.000000
 20
91.275002
 11
-250.000000
 21
90.425003
  0
LINE
  8
0
  6
CENTER
 62
2
 10
-247.000000
 20
92.574997
 11
-257.299988
 21
92.574997
  0
LINE
  8
0
  6
CENTER
 62
2
 10
-247.000000
 20
86.574997
 11
-257.299988
 21
86.574997
  0
LINE
  8
0
  6
CENTER
 62
2
 10
-166.000000
 20
143.574997
 11
-246.000000
 21
143.574997
  0
LINE
  8
0
  6
CONTINUOUS
 62
7
 10
-211.899994
 20
159.475006
 11
-211.899994
 21
127.675003
  0
LINE
  8
0
  6
CONTINUOUS
 62
7
 10
-185.100006
 20
159.574997
 11
-211.800003
 21
159.574997
  0
LINE
  8
0
  6
CONTINUOUS
 62
7
 10
-185.100006
 20
127.574997
 11
-211.800003
 21
127.574997
  0
LINE
  8
0
  6
CONTINUOUS
 62
7
 10
-211.800003
 20
127.574997
 11
-211.899994
 21
127.675003
  0
LINE
  8
0
  6
CONTINUOUS
 62
7
 10
-185.100006
 20
159.475006
 11
-185.100006
 21
127.675003
  0
LINE
  8
0
  6
CONTINUOUS
 62
7
 10
-185.100006
 20
159.375000
 11
-177.500000
 21
159.375000
  0
LINE
  8
0
  6
CONTINUOUS
 62
7
 10
-185.199997
 20
159.574997
 11
-185.100006
 21
159.475006
  0
LINE
  8
0
  6
CONTINUOUS
 62
7
 10
-177.500000
 20
159.375000
 11
-177.500000
 21
127.775002
  0
LINE
  8
0
  6
CONTINUOUS
 62
7
 10
-185.100006
 20
127.775002
 11
-177.500000
 21
127.775002
  0
LINE
  8
0
  6
CONTINUOUS
 62
7
 10
-185.199997
 20
127.574997
 11
-185.100006
 21
127.675003
  0
LINE
  8
0
  6
CONTINUOUS
 62
7
 10
-244.000000
 20
151.074997
 11
-219.500000
 21
151.074997
  0
LINE
  8
0
  6
CONTINUOUS
 62
7
 10
-177.500000
 20
151.074997
 11
-168.000000
 21
151.074997
  0
LINE
  8
0
  6
CONTINUOUS
 62
7
 10
-244.000000
 20
136.074997
 11
-219.500000
 21
136.074997
  0
LINE
  8
0
  6
CONTINUOUS
 62
7
 10
-177.500000
 20
136.074997
 11
-168.000000
 21
136.074997
  0
LINE
  8
0
  6
CONTINUOUS
 62
7
 10
-185.100006
 20
134.574997
 11
-211.899994
 21
134.574997
  0
LINE
  8
0
  6
CONTINUOUS
 62
7
 10
-185.100006
 20
152.574997
 11
-211.899994
 21
152.574997
  0
LINE
  8
0
  6
CONTINUOUS
 62
7
 10
-244.000000
 20
160.074997
 11
-168.000000
 21
160.074997
  0
LINE
  8
0
  6
CONTINUOUS
 62
7
 10
-244.000000
 20
127.074997
 11
-168.000000
 21
127.074997
  0
LINE
  8
0
  6
CONTINUOUS
 62
7
 10
-244.000000
 20
127.074997
 11
-244.000000
 21
160.074997
  0
LINE
  8
0
  6
CONTINUOUS
 62
7
 10
-168.000000
 20
127.074997
 11
-168.000000
 21
160.074997
  0
LINE
  8
0
  6
CENTER
 62
2
 10
-204.500000
 20
192.074997
 11
-204.500000
 21
197.074997
  0
LINE
  8
0
  6
CENTER
 62
2
 10
-207.000000
 20
194.574997
 11
-202.000000
 21
194.574997
  0
LINE
  8
0
  6
CENTER
 62
2
 10
-192.500000
 20
192.074997
 11
-192.500000
 21
197.074997
  0
LINE
  8
0
  6
CENTER
 62
2
 10
-190.000000
 20
194.574997
 11
-195.000000
 21
194.574997
  0
LINE
  8
0
  6
CONTINUOUS
 62
7
 10
-210.671997
 20
127.074997
 11
-210.671997
 21
127.574997
  0
LINE
  8
0
  6
CONTINUOUS
 62
7
 10
-219.500000
 20
190.574997
 11
-219.500000
 21
202.074997
  0
LINE
  8
0
  6
CONTINUOUS
 62
7
 10
-211.899994
 20
190.074997
 11
-211.899994
 21
202.074997
  0
LINE
  8
0
  6
CONTINUOUS
 62
7
 10
-211.899994
 20
190.074997
 11
-185.100006
 21
190.074997
  0
LINE
  8
0
  6
CONTINUOUS
 62
7
 10
-219.500000
 20
202.074997
 11
-177.500000
 21
202.074997
  0
LINE
  8
0
  6
CONTINUOUS
 62
7
 10
-219.500000
 20
190.574997
 11
-211.899994
 21
190.574997
  0
LINE
  8
0
  6
CONTINUOUS
 62
7
 10
-244.000000
 20
195.074997
 11
-219.500000
 21
195.074997
  0
LINE
  8
0
  6
CONTINUOUS
 62
7
 10
-177.500000
 20
195.074997
 11
-168.000000
 21
195.074997
  0
LINE
  8
0
  6
CONTINUOUS
 62
7
 10
-177.500000
 20
190.574997
 11
-177.500000
 21
202.074997
  0
LINE
  8
0
  6
CONTINUOUS
 62
7
 10
-185.100006
 20
190.074997
 11
-185.100006
 21
202.074997
  0
LINE
  8
0
  6
CONTINUOUS
 62
7
 10
-177.500000
 20
190.574997
 11
-185.100006
 21
190.574997
  0
LINE
  8
0
  6
CONTINUOUS
 62
7
 10
-244.000000
 20
202.574997
 11
-235.347000
 21
202.574997
  0
LINE
  8
0
  6
CONTINUOUS
 62
7
 10
-244.000000
 20
212.074997
 11
-168.000000
 21
212.074997
  0
LINE
  8
0
  6
CONTINUOUS
 62
7
 10
-244.000000
 20
195.074997
 11
-244.000000
 21
212.074997
  0
LINE
  8
0
  6
CONTINUOUS
 62
7
 10
-168.000000
 20
195.074997
 11
-168.000000
 21
212.074997
  0
LINE
  8
0
  6
CENTER
 62
2
 10
-221.000000
 20
201.141006
 11
-221.000000
 21
211.074997
  0
LINE
  8
0
  6
CENTER
 62
2
 10
-191.000000
 20
200.641006
 11
-191.000000
 21
210.574997
  0
LINE
  8
0
  6
CENTER
 62
2
 10
-225.565994
 20
206.574997
 11
-216.723007
 21
206.574997
  0
LINE
  8
0
  6
CENTER
 62
2
 10
-186.479996
 20
206.574997
 11
-194.957993
 21
206.574997
  0
LINE
  8
0
  6
CONTINUOUS
 62
7
 10
-233.199997
 20
206.574997
 11
-224.000000
 21
206.574997
  0
LINE
  8
0
  6
CONTINUOUS
 62
7
 10
-194.000000
 20
206.574997
 11
-218.000000
 21
206.574997
  0
LINE
  8
0
  6
CONTINUOUS
 62
7
 10
-178.800003
 20
206.574997
 11
-188.000000
 21
206.574997
  0
LINE
  8
0
  6
CONTINUOUS
 62
7
 10
-219.500000
 20
159.375000
 11
-219.500000
 21
127.788002
  0
LINE
  8
0
  6
CONTINUOUS
 62
7
 10
-211.899994
 20
159.375000
 11
-219.500000
 21
159.375000
  0
LINE
  8
0
  6
CONTINUOUS
 62
7
 10
-211.899994
 20
127.775002
 11
-219.500000
 21
127.775002
  0
LINE
  8
0
  6
CONTINUOUS
 62
7
 10
-176.653000
 20
202.574997
 11
-168.000000
 21
202.574997
  0
LINE
  8
0
  6
CENTER
 62
2
 10
-183.000000
 20
137.574997
 11
-183.000000
 21
125.574997
  0
LINE
  8
0
  6
CENTER
 62
2
 10
-189.000000
 20
131.574997
 11
-177.000000
 21
131.574997
  0
LINE
  8
0
  6
CENTER
 62
2
 10
-183.000000
 20
161.574997
 11
-183.000000
 21
149.574997
  0
LINE
  8
0
  6
CENTER
 62
2
 10
-189.000000
 20
155.574997
 11
-177.000000
 21
155.574997
  0
LINE
  8
0
  6
CENTER
 62
2
 10
-188.500000
 20
159.574997
 11
-188.500000
 21
152.574997
  0
LINE
  8
0
  6
CENTER
 62
2
 10
-192.000000
 20
156.074997
 11
-185.000000
 21
156.074997
  0
LINE
  8
0
  6
CENTER
 62
2
 10
-208.500000
 20
159.574997
 11
-208.500000
 21
152.574997
  0
LINE
  8
0
  6
CENTER
 62
2
 10
-212.000000
 20
156.074997
 11
-205.000000
 21
156.074997
  0
LINE
  8
0
  6
CENTER
 62
2
 10
-188.500000
 20
134.574997
 11
-188.500000
 21
127.574997
  0
LINE
  8
0
  6
CENTER
 62
2
 10
-192.000000
 20
131.074997
 11
-185.000000
 21
131.074997
  0
LINE
  8
0
  6
CENTER
 62
2
 10
-208.500000
 20
134.574997
 11
-208.500000
 21
127.574997
  0
LINE
  8
0
  6
CENTER
 62
2
 10
-212.000000
 20
131.074997
 11
-205.000000
 21
131.074997
  0
LINE
  8
0
  6
CENTER
 62
2
 10
-229.000000
 20
137.574997
 11
-229.000000
 21
125.574997
  0
LINE
  8
0
  6
CENTER
 62
2
 10
-235.000000
 20
131.574997
 11
-223.000000
 21
131.574997
  0
LINE
  8
0
  6
CENTER
 62
2
 10
-229.000000
 20
161.574997
 11
-229.000000
 21
149.574997
  0
LINE
  8
0
  6
CENTER
 62
2
 10
-235.000000
 20
155.574997
 11
-223.000000
 21
155.574997
  0
LINE
  8
0
  6
CONTINUOUS
 62
7
 10
-229.000000
 20
117.074997
 11
-229.000000
 21
127.074997
  0
LINE
  8
0
  6
CONTINUOUS
 62
7
 10
-229.000000
 20
124.574997
 11
-183.000000
 21
124.574997
  0
LINE
  8
0
  6
CONTINUOUS
 62
7
 10
-229.000000
 20
117.074997
 11
-183.000000
 21
117.074997
  0
LINE
  8
0
  6
CONTINUOUS
 62
7
 10
-201.750000
 20
127.074997
 11
-201.750000
 21
125.574997
  0
LINE
  8
0
  6
CONTINUOUS
 62
7
 10
-201.750000
 20
125.574997
 11
-195.250000
 21
125.574997
  0
LINE
  8
0
  6
CONTINUOUS
 62
7
 10
-195.250000
 20
127.074997
 11
-195.250000
 21
125.574997
  0
LINE
  8
0
  6
CONTINUOUS
 62
7
 10
-183.000000
 20
117.074997
 11
-183.000000
 21
127.074997
  0
LINE
  8
0
  6
CONTINUOUS
 62
7
 10
-229.000000
 20
191.074997
 11
-229.000000
 21
195.074997
  0
LINE
  8
0
  6
CONTINUOUS
 62
7
 10
-229.000000
 20
191.074997
 11
-219.500000
 21
191.074997
  0
LINE
  8
0
  6
DASHED
 62
2
 10
-225.000000
 20
206.574997
 11
-225.000000
 21
207.574997
  0
LINE
  8
0
  6
DASHED
 62
2
 10
-225.000000
 20
207.574997
 11
-233.000000
 21
207.574997
  0
LINE
  8
0
  6
DASHED
 62
2
 10
-226.500000
 20
207.574997
 11
-226.500000
 21
212.074997
  0
LINE
  8
0
  6
DASHED
 62
2
 10
-226.899994
 20
207.574997
 11
-226.899994
 21
212.074997
  0
LINE
  8
0
  6
CENTER
 62
2
 10
-229.000000
 20
204.574997
 11
-229.000000
 21
214.074997
  0
LINE
  8
0
  6
DASHED
 62
2
 10
-231.100006
 20
207.574997
 11
-231.100006
 21
212.074997
  0
LINE
  8
0
  6
DASHED
 62
2
 10
-231.500000
 20
207.574997
 11
-231.500000
 21
212.074997
  0
LINE
  8
0
  6
DASHED
 62
2
 10
-233.000000
 20
206.574997
 11
-233.000000
 21
207.574997
  0
LINE
  8
0
  6
DASHED
 62
2
 10
-179.000000
 20
206.574997
 11
-179.000000
 21
207.574997
  0
LINE
  8
0
  6
DASHED
 62
2
 10
-179.000000
 20
207.574997
 11
-187.000000
 21
207.574997
  0
LINE
  8
0
  6
DASHED
 62
2
 10
-180.500000
 20
207.574997
 11
-180.500000
 21
212.074997
  0
LINE
  8
0
  6
DASHED
 62
2
 10
-180.899994
 20
207.574997
 11
-180.899994
 21
212.074997
  0
LINE
  8
0
  6
CENTER
 62
2
 10
-183.000000
 20
204.574997
 11
-183.000000
 21
214.074997
  0
LINE
  8
0
  6
DASHED
 62
2
 10
-185.100006
 20
207.574997
 11
-185.100006
 21
212.074997
  0
LINE
  8
0
  6
DASHED
 62
2
 10
-185.500000
 20
207.574997
 11
-185.500000
 21
212.074997
  0
LINE
  8
0
  6
DASHED
 62
2
 10
-187.000000
 20
206.574997
 11
-187.000000
 21
207.574997
  0
LINE
  8
0
  6
CENTER
 62
2
 10
-188.500000
 20
192.074997
 11
-188.500000
 21
188.074997
  0
LINE
  8
0
  6
CENTER
 62
2
 10
-208.500000
 20
192.074997
 11
-208.500000
 21
188.074997
  0
LINE
  8
0
  6
CONTINUOUS
 62
7
 10
-129.000000
 20
92.074997
 11
-144.000000
 21
92.074997
  0
LINE
  8
0
  6
CONTINUOUS
 62
7
 10
-129.000000
 20
88.074997
 11
-129.000000
 21
84.574997
  0
LINE
  8
0
  6
CONTINUOUS
 62
7
 10
-129.000000
 20
92.074997
 11
-129.000000
 21
91.074997
  0
LINE
  8
0
  6
CONTINUOUS
 62
7
 10
-120.500000
 20
97.074997
 11
-127.500000
 21
97.074997
  0
LINE
  8
0
  6
CONTINUOUS
 62
7
 10
-120.500000
 20
85.074997
 11
-129.000000
 21
85.074997
  0
LINE
  8
0
  6
CONTINUOUS
 62
7
 10
-127.800003
 20
96.775002
 11
-145.199997
 21
96.775002
  0
LINE
  8
0
  6
CONTINUOUS
 62
7
 10
-127.500000
 20
97.074997
 11
-127.800003
 21
96.775002
  0
LINE
  8
0
  6
CONTINUOUS
 62
7
 10
-144.000000
 20
88.074997
 11
-144.000000
 21
84.574997
  0
LINE
  8
0
  6
CONTINUOUS
 62
7
 10
-144.000000
 20
92.074997
 11
-144.000000
 21
91.074997
  0
LINE
  8
0
  6
CONTINUOUS
 62
7
 10
-152.500000
 20
97.074997
 11
-152.500000
 21
85.074997
  0
LINE
  8
0
  6
CONTINUOUS
 62
7
 10
-152.500000
 20
97.074997
 11
-145.500000
 21
97.074997
  0
LINE
  8
0
  6
CONTINUOUS
 62
7
 10
-152.500000
 20
85.074997
 11
-144.000000
 21
85.074997
  0
LINE
  8
0
  6
CONTINUOUS
 62
7
 10
-145.500000
 20
97.074997
 11
-145.199997
 21
96.775002
  0
LINE
  8
0
  6
CONTINUOUS
 62
7
 10
-120.500000
 20
97.074997
 11
-120.500000
 21
85.074997
  0
LINE
  8
0
  6
CONTINUOUS
 62
7
 10
-153.000000
 20
84.574997
 11
-144.000000
 21
84.574997
  0
LINE
  8
0
  6
CONTINUOUS
 62
7
 10
-153.000000
 20
75.074997
 11
-120.000000
 21
75.074997
  0
LINE
  8
0
  6
CONTINUOUS
 62
7
 10
-120.000000
 20
84.574997
 11
-129.000000
 21
84.574997
  0
LINE
  8
0
  6
CONTINUOUS
 62
7
 10
-153.000000
 20
84.574997
 11
-153.000000
 21
75.074997
  0
LINE
  8
0
  6
CONTINUOUS
 62
7
 10
-120.000000
 20
84.574997
 11
-120.000000
 21
75.074997
  0
LINE
  8
0
  6
CENTER
 62
2
 10
-136.500000
 20
99.074997
 11
-136.500000
 21
73.074997
  0
LINE
  8
0
  6
CENTER
 62
2
 10
-128.100006
 20
83.074997
 11
-144.899994
 21
83.074997
  0
LINE
  8
0
  6
CENTER
 62
2
 10
-126.500000
 20
84.074997
 11
-126.500000
 21
77.074997
  0
LINE
  8
0
  6
CENTER
 62
2
 10
-123.000000
 20
80.574997
 11
-130.000000
 21
80.574997
  0
LINE
  8
0
  6
CONTINUOUS
 62
7
 10
-163.000000
 20
77.074997
 11
-153.000000
 21
77.074997
  0
LINE
  8
0
  6
CONTINUOUS
 62
2
 10
-163.000000
 20
91.275002
 11
-162.000000
 21
91.275002
  0
LINE
  8
0
  6
CONTINUOUS
 62
2
 10
-162.000000
 20
94.724998
 11
-162.000000
 21
93.875000
  0
LINE
  8
0
  6
CONTINUOUS
 62
2
 10
-162.000000
 20
90.425003
 11
-158.199997
 21
90.425003
  0
LINE
  8
0
  6
CONTINUOUS
 62
2
 10
-156.699997
 20
93.224998
 11
-156.699997
 21
91.925003
  0
LINE
  8
0
  6
CONTINUOUS
 62
2
 10
-162.000000
 20
94.724998
 11
-158.199997
 21
94.724998
  0
LINE
  8
0
  6
CONTINUOUS
 62
2
 10
-163.000000
 20
93.875000
 11
-162.000000
 21
93.875000
  0
LINE
  8
0
  6
CONTINUOUS
 62
7
 10
-163.000000
 20
96.074997
 11
-163.000000
 21
77.074997
  0
LINE
  8
0
  6
CONTINUOUS
 62
7
 10
-163.000000
 20
96.074997
 11
-155.500000
 21
96.074997
  0
LINE
  8
0
  6
CONTINUOUS
 62
7
 10
-155.500000
 20
96.074997
 11
-155.500000
 21
83.574997
  0
LINE
  8
0
  6
CONTINUOUS
 62
7
 10
-155.500000
 20
83.574997
 11
-153.000000
 21
83.574997
  0
LINE
  8
0
  6
CONTINUOUS
 62
7
 10
-154.500000
 20
84.074997
 11
-153.000000
 21
84.074997
  0
LINE
  8
0
  6
CONTINUOUS
 62
7
 10
-154.500000
 20
95.074997
 11
-154.500000
 21
84.074997
  0
LINE
  8
0
  6
CONTINUOUS
 62
7
 10
-154.500000
 20
95.074997
 11
-152.500000
 21
95.074997
  0
LINE
  8
0
  6
CENTER
 62
2
 10
-149.000000
 20
99.074997
 11
-149.000000
 21
95.074997
  0
LINE
  8
0
  6
CENTER
 62
2
 10
-124.000000
 20
99.074997
 11
-124.000000
 21
95.074997
  0
LINE
  8
0
  6
CENTER
 62
2
 10
-124.500000
 20
77.074997
 11
-124.500000
 21
73.074997
  0
LINE
  8
0
  6
CENTER
 62
2
 10
-148.500000
 20
77.074997
 11
-148.500000
 21
73.074997
  0
LINE
  8
0
  6
CONTINUOUS
 62
2
 10
-162.000000
 20
91.275002
 11
-162.000000
 21
90.425003
  0
LINE
  8
0
  6
CENTER
 62
2
 10
-165.000000
 20
92.574997
 11
-154.699997
 21
92.574997
  0
LINE
  8
0
  6
CENTER
 62
2
 10
-165.000000
 20
86.574997
 11
-154.699997
 21
86.574997
  0
LINE
  8
0
  6
CENTER
 62
2
 10
-166.000000
 20
28.575001
 11
-246.000000
 21
28.575001
  0
LINE
  8
0
  6
CONTINUOUS
 62
7
 10
-244.000000
 20
12.075000
 11
-168.000000
 21
12.075000
  0
LINE
  8
0
  6
CONTINUOUS
 62
7
 10
-244.000000
 20
45.075001
 11
-168.000000
 21
45.075001
  0
LINE
  8
0
  6
CONTINUOUS
 62
7
 10
-244.000000
 20
45.075001
 11
-244.000000
 21
12.075000
  0
LINE
  8
0
  6
CONTINUOUS
 62
7
 10
-168.000000
 20
45.075001
 11
-168.000000
 21
12.075000
  0
LINE
  8
0
  6
CENTER
 62
2
 10
-229.000000
 20
45.075001
 11
-229.000000
 21
36.075001
  0
LINE
  8
0
  6
CENTER
 62
2
 10
-233.500000
 20
40.575001
 11
-224.500000
 21
40.575001
  0
LINE
  8
0
  6
CENTER
 62
2
 10
-236.000000
 20
40.974998
 11
-236.000000
 21
25.174999
  0
LINE
  8
0
  6
CENTER
 62
2
 10
-243.899994
 20
33.075001
 11
-228.100006
 21
33.075001
  0
LINE
  8
0
  6
CENTER
 62
2
 10
-183.000000
 20
45.075001
 11
-183.000000
 21
36.075001
  0
LINE
  8
0
  6
CENTER
 62
2
 10
-187.500000
 20
40.575001
 11
-178.500000
 21
40.575001
  0
LINE
  8
0
  6
CENTER
 62
2
 10
-176.000000
 20
40.974998
 11
-176.000000
 21
25.174999
  0
LINE
  8
0
  6
CENTER
 62
2
 10
-183.899994
 20
33.075001
 11
-168.100006
 21
33.075001
  0
LINE
  8
0
  6
CENTER
 62
2
 10
-183.000000
 20
21.075001
 11
-183.000000
 21
12.075000
  0
LINE
  8
0
  6
CENTER
 62
2
 10
-187.500000
 20
16.575001
 11
-178.500000
 21
16.575001
  0
LINE
  8
0
  6
CENTER
 62
2
 10
-229.000000
 20
21.075001
 11
-229.000000
 21
12.075000
  0
LINE
  8
0
  6
CENTER
 62
2
 10
-233.500000
 20
16.575001
 11
-224.500000
 21
16.575001
  0
LINE
  8
0
  6
CONTINUOUS
 62
7
 10
-229.000000
 20
55.075001
 11
-183.000000
 21
55.075001
  0
LINE
  8
0
  6
CONTINUOUS
 62
7
 10
-229.000000
 20
55.075001
 11
-229.000000
 21
45.075001
  0
LINE
  8
0
  6
CONTINUOUS
 62
7
 10
-183.000000
 20
55.075001
 11
-183.000000
 21
45.075001
  0
LINE
  8
0
  6
CONTINUOUS
 62
7
 10
-244.000000
 20
92.074997
 11
-229.000000
 21
92.074997
  0
LINE
  8
0
  6
CONTINUOUS
 62
7
 10
-244.000000
 20
84.574997
 11
-235.347000
 21
84.574997
  0
LINE
  8
0
  6
CONTINUOUS
 62
7
 10
-244.000000
 20
75.074997
 11
-168.000000
 21
75.074997
  0
LINE
  8
0
  6
CONTINUOUS
 62
7
 10
-244.000000
 20
92.074997
 11
-244.000000
 21
75.074997
  0
LINE
  8
0
  6
CONTINUOUS
 62
7
 10
-233.199997
 20
80.574997
 11
-229.000000
 21
80.574997
  0
LINE
  8
0
  6
CONTINUOUS
 62
7
 10
-229.000000
 20
77.074997
 11
-183.000000
 21
77.074997
  0
LINE
  8
0
  6
CONTINUOUS
 62
2
 10
-229.000000
 20
85.275002
 11
-183.000000
 21
85.275002
  0
LINE
  8
0
  6
CONTINUOUS
 62
2
 10
-229.000000
 20
87.875000
 11
-183.000000
 21
87.875000
  0
LINE
  8
0
  6
CONTINUOUS
 62
2
 10
-229.000000
 20
91.275002
 11
-183.000000
 21
91.275002
  0
LINE
  8
0
  6
CONTINUOUS
 62
2
 10
-229.000000
 20
93.875000
 11
-183.000000
 21
93.875000
  0
LINE
  8
0
  6
CONTINUOUS
 62
7
 10
-229.000000
 20
96.074997
 11
-183.000000
 21
96.074997
  0
LINE
  8
0
  6
CONTINUOUS
 62
7
 10
-229.000000
 20
96.074997
 11
-229.000000
 21
77.074997
  0
LINE
  8
0
  6
DASHED
 62
2
 10
-233.000000
 20
80.574997
 11
-233.000000
 21
79.574997
  0
LINE
  8
0
  6
DASHED
 62
2
 10
-233.000000
 20
79.574997
 11
-225.000000
 21
79.574997
  0
LINE
  8
0
  6
DASHED
 62
2
 10
-231.500000
 20
79.574997
 11
-231.500000
 21
75.074997
  0
LINE
  8
0
  6
DASHED
 62
2
 10
-231.100006
 20
79.574997
 11
-231.100006
 21
75.074997
  0
LINE
  8
0
  6
CENTER
 62
2
 10
-229.000000
 20
82.574997
 11
-229.000000
 21
73.074997
  0
LINE
  8
0
  6
DASHED
 62
2
 10
-226.899994
 20
79.574997
 11
-226.899994
 21
75.074997
  0
LINE
  8
0
  6
DASHED
 62
2
 10
-226.500000
 20
79.574997
 11
-226.500000
 21
75.074997
  0
LINE
  8
0
  6
DASHED
 62
2
 10
-225.000000
 20
80.574997
 11
-225.000000
 21
79.574997
  0
LINE
  8
0
  6
CONTINUOUS
 62
7
 10
-219.500000
 20
96.574997
 11
-219.500000
 21
96.074997
  0
LINE
  8
0
  6
CONTINUOUS
 62
7
 10
-211.899994
 20
97.074997
 11
-211.899994
 21
96.074997
  0
LINE
  8
0
  6
CONTINUOUS
 62
7
 10
-211.899994
 20
97.074997
 11
-185.100006
 21
97.074997
  0
LINE
  8
0
  6
CONTINUOUS
 62
7
 10
-219.500000
 20
96.574997
 11
-211.899994
 21
96.574997
  0
LINE
  8
0
  6
CONTINUOUS
 62
7
 10
-177.500000
 20
92.074997
 11
-168.000000
 21
92.074997
  0
LINE
  8
0
  6
CONTINUOUS
 62
7
 10
-177.500000
 20
96.574997
 11
-177.500000
 21
85.074997
  0
LINE
  8
0
  6
CONTINUOUS
 62
7
 10
-185.100006
 20
97.074997
 11
-185.100006
 21
96.074997
  0
LINE
  8
0
  6
CONTINUOUS
 62
7
 10
-177.500000
 20
96.574997
 11
-185.100006
 21
96.574997
  0
LINE
  8
0
  6
CONTINUOUS
 62
7
 10
-168.000000
 20
92.074997
 11
-168.000000
 21
75.074997
  0
LINE
  8
0
  6
CONTINUOUS
 62
7
 10
-183.000000
 20
96.074997
 11
-183.000000
 21
77.074997
  0
LINE
  8
0
  6
CENTER
 62
2
 10
-208.500000
 20
99.074997
 11
-208.500000
 21
95.074997
  0
LINE
  8
0
  6
CENTER
 62
2
 10
-188.500000
 20
99.074997
 11
-188.500000
 21
95.074997
  0
LINE
  8
0
  6
CONTINUOUS
 62
7
 10
-183.000000
 20
85.074997
 11
-177.500000
 21
85.074997
  0
LINE
  8
0
  6
CONTINUOUS
 62
7
 10
-178.800003
 20
80.574997
 11
-183.000000
 21
80.574997
  0
LINE
  8
0
  6
CONTINUOUS
 62
7
 10
-176.653000
 20
84.574997
 11
-168.000000
 21
84.574997
  0
LINE
  8
0
  6
DASHED
 62
2
 10
-187.000000
 20
80.574997
 11
-187.000000
 21
79.574997
  0
LINE
  8
0
  6
DASHED
 62
2
 10
-187.000000
 20
79.574997
 11
-179.000000
 21
79.574997
  0
LINE
  8
0
  6
DASHED
 62
2
 10
-185.500000
 20
79.574997
 11
-185.500000
 21
75.074997
  0
LINE
  8
0
  6
DASHED
 62
2
 10
-185.100006
 20
79.574997
 11
-185.100006
 21
75.074997
  0
LINE
  8
0
  6
CENTER
 62
2
 10
-183.000000
 20
82.574997
 11
-183.000000
 21
73.074997
  0
LINE
  8
0
  6
DASHED
 62
2
 10
-180.899994
 20
79.574997
 11
-180.899994
 21
75.074997
  0
LINE
  8
0
  6
DASHED
 62
2
 10
-180.500000
 20
79.574997
 11
-180.500000
 21
75.074997
  0
LINE
  8
0
  6
DASHED
 62
2
 10
-179.000000
 20
80.574997
 11
-179.000000
 21
79.574997
  0
LINE
  8
0
  6
CONTINUOUS
 62
7
 10
111.000000
 20
92.074997
 11
126.000000
 21
92.074997
  0
LINE
  8
0
  6
CONTINUOUS
 62
7
 10
111.000000
 20
88.074997
 11
111.000000
 21
84.574997
  0
LINE
  8
0
  6
CONTINUOUS
 62
7
 10
111.000000
 20
92.074997
 11
111.000000
 21
91.074997
  0
LINE
  8
0
  6
CONTINUOUS
 62
7
 10
102.500000
 20
97.074997
 11
109.500000
 21
97.074997
  0
LINE
  8
0
  6
CONTINUOUS
 62
7
 10
102.500000
 20
85.074997
 11
111.000000
 21
85.074997
  0
LINE
  8
0
  6
CONTINUOUS
 62
7
 10
109.800003
 20
96.775002
 11
127.199997
 21
96.775002
  0
LINE
  8
0
  6
CONTINUOUS
 62
7
 10
109.500000
 20
97.074997
 11
109.800003
 21
96.775002
  0
LINE
  8
0
  6
CONTINUOUS
 62
7
 10
126.000000
 20
88.074997
 11
126.000000
 21
84.574997
  0
LINE
  8
0
  6
CONTINUOUS
 62
7
 10
126.000000
 20
92.074997
 11
126.000000
 21
91.074997
  0
LINE
  8
0
  6
CONTINUOUS
 62
7
 10
134.500000
 20
97.074997
 11
134.500000
 21
85.074997
  0
LINE
  8
0
  6
CONTINUOUS
 62
7
 10
134.500000
 20
97.074997
 11
127.500000
 21
97.074997
  0
LINE
  8
0
  6
CONTINUOUS
 62
7
 10
134.500000
 20
85.074997
 11
126.000000
 21
85.074997
  0
LINE
  8
0
  6
CONTINUOUS
 62
7
 10
127.500000
 20
97.074997
 11
127.199997
 21
96.775002
  0
LINE
  8
0
  6
CONTINUOUS
 62
7
 10
102.500000
 20
97.074997
 11
102.500000
 21
85.074997
  0
LINE
  8
0
  6
CONTINUOUS
 62
7
 10
135.000000
 20
84.574997
 11
126.000000
 21
84.574997
  0
LINE
  8
0
  6
CONTINUOUS
 62
7
 10
135.000000
 20
75.074997
 11
102.000000
 21
75.074997
  0
LINE
  8
0
  6
CONTINUOUS
 62
7
 10
102.000000
 20
84.574997
 11
111.000000
 21
84.574997
  0
LINE
  8
0
  6
CONTINUOUS
 62
7
 10
135.000000
 20
84.574997
 11
135.000000
 21
75.074997
  0
LINE
  8
0
  6
CONTINUOUS
 62
7
 10
102.000000
 20
84.574997
 11
102.000000
 21
75.074997
  0
LINE
  8
0
  6
CENTER
 62
2
 10
118.500000
 20
99.074997
 11
118.500000
 21
73.074997
  0
LINE
  8
0
  6
CENTER
 62
2
 10
110.099998
 20
83.074997
 11
126.900002
 21
83.074997
  0
LINE
  8
0
  6
CENTER
 62
2
 10
108.500000
 20
84.074997
 11
108.500000
 21
77.074997
  0
LINE
  8
0
  6
CENTER
 62
2
 10
105.000000
 20
80.574997
 11
112.000000
 21
80.574997
  0
LINE
  8
0
  6
CONTINUOUS
 62
7
 10
246.850006
 20
92.074997
 11
256.000000
 21
92.074997
  0
LINE
  8
0
  6
CONTINUOUS
 62
7
 10
145.000000
 20
77.074997
 11
135.000000
 21
77.074997
  0
LINE
  8
0
  6
CONTINUOUS
 62
2
 10
145.000000
 20
91.275002
 11
144.000000
 21
91.275002
  0
LINE
  8
0
  6
CONTINUOUS
 62
2
 10
144.000000
 20
94.724998
 11
144.000000
 21
93.875000
  0
LINE
  8
0
  6
CONTINUOUS
 62
2
 10
144.000000
 20
90.425003
 11
140.199997
 21
90.425003
  0
LINE
  8
0
  6
CONTINUOUS
 62
2
 10
138.699997
 20
93.224998
 11
138.699997
 21
91.925003
  0
LINE
  8
0
  6
CONTINUOUS
 62
2
 10
144.000000
 20
94.724998
 11
140.199997
 21
94.724998
  0
LINE
  8
0
  6
CONTINUOUS
 62
2
 10
145.000000
 20
93.875000
 11
144.000000
 21
93.875000
  0
LINE
  8
0
  6
CONTINUOUS
 62
7
 10
145.000000
 20
96.074997
 11
145.000000
 21
77.074997
  0
LINE
  8
0
  6
CONTINUOUS
 62
7
 10
145.000000
 20
96.074997
 11
137.500000
 21
96.074997
  0
LINE
  8
0
  6
CONTINUOUS
 62
7
 10
137.500000
 20
96.074997
 11
137.500000
 21
83.574997
  0
LINE
  8
0
  6
CONTINUOUS
 62
7
 10
137.500000
 20
83.574997
 11
135.000000
 21
83.574997
  0
LINE
  8
0
  6
CONTINUOUS
 62
7
 10
136.500000
 20
84.074997
 11
135.000000
 21
84.074997
  0
LINE
  8
0
  6
CONTINUOUS
 62
7
 10
136.500000
 20
95.074997
 11
136.500000
 21
84.074997
  0
LINE
  8
0
  6
CONTINUOUS
 62
7
 10
136.500000
 20
95.074997
 11
134.500000
 21
95.074997
  0
LINE
  8
0
  6
CENTER
 62
2
 10
106.000000
 20
99.074997
 11
106.000000
 21
95.074997
  0
LINE
  8
0
  6
CENTER
 62
2
 10
131.000000
 20
99.074997
 11
131.000000
 21
95.074997
  0
LINE
  8
0
  6
CENTER
 62
2
 10
130.500000
 20
77.074997
 11
130.500000
 21
73.074997
  0
LINE
  8
0
  6
CENTER
 62
2
 10
106.500000
 20
77.074997
 11
106.500000
 21
73.074997
  0
LINE
  8
0
  6
CONTINUOUS
 62
2
 10
144.000000
 20
91.275002
 11
144.000000
 21
90.425003
  0
LINE
  8
0
  6
CENTER
 62
2
 10
147.000000
 20
92.574997
 11
136.699997
 21
92.574997
  0
LINE
  8
0
  6
CENTER
 62
2
 10
147.000000
 20
86.574997
 11
136.699997
 21
86.574997
  0
LINE
  8
0
  6
CONTINUOUS
 62
7
 10
150.000000
 20
92.074997
 11
150.000000
 21
75.074997
  0
LINE
  8
0
  6
CENTER
 62
2
 10
258.000000
 20
143.574997
 11
148.000000
 21
143.574997
  0
LINE
  8
0
  6
CONTINUOUS
 62
7
 10
191.750000
 20
159.574997
 11
191.750000
 21
127.574997
  0
LINE
  8
0
  6
CONTINUOUS
 62
7
 10
239.250000
 20
159.574997
 11
191.750000
 21
159.574997
  0
LINE
  8
0
  6
CONTINUOUS
 62
7
 10
239.250000
 20
127.574997
 11
191.750000
 21
127.574997
  0
LINE
  8
0
  6
CONTINUOUS
 62
7
 10
239.250000
 20
159.574997
 11
239.250000
 21
127.574997
  0
LINE
  8
0
  6
CONTINUOUS
 62
7
 10
239.250000
 20
159.375000
 11
246.850006
 21
159.375000
  0
LINE
  8
0
  6
CONTINUOUS
 62
7
 10
246.850006
 20
159.375000
 11
246.850006
 21
127.775002
  0
LINE
  8
0
  6
CONTINUOUS
 62
7
 10
239.250000
 20
127.775002
 11
246.850006
 21
127.775002
  0
LINE
  8
0
  6
CONTINUOUS
 62
7
 10
150.000000
 20
151.074997
 11
184.149994
 21
151.074997
  0
LINE
  8
0
  6
CONTINUOUS
 62
7
 10
246.850006
 20
151.074997
 11
256.000000
 21
151.074997
  0
LINE
  8
0
  6
CONTINUOUS
 62
7
 10
150.000000
 20
136.074997
 11
184.149994
 21
136.074997
  0
LINE
  8
0
  6
CONTINUOUS
 62
7
 10
246.850006
 20
136.074997
 11
256.000000
 21
136.074997
  0
LINE
  8
0
  6
CONTINUOUS
 62
7
 10
239.250000
 20
134.574997
 11
191.750000
 21
134.574997
  0
LINE
  8
0
  6
CONTINUOUS
 62
7
 10
239.250000
 20
152.574997
 11
191.750000
 21
152.574997
  0
LINE
  8
0
  6
CONTINUOUS
 62
7
 10
150.000000
 20
160.074997
 11
256.000000
 21
160.074997
  0
LINE
  8
0
  6
CONTINUOUS
 62
7
 10
150.000000
 20
127.074997
 11
256.000000
 21
127.074997
  0
LINE
  8
0
  6
CONTINUOUS
 62
7
 10
150.000000
 20
127.074997
 11
150.000000
 21
160.074997
  0
LINE
  8
0
  6
CONTINUOUS
 62
7
 10
256.000000
 20
127.074997
 11
256.000000
 21
160.074997
  0
LINE
  8
0
  6
CONTINUOUS
 62
7
 10
184.149994
 20
190.574997
 11
184.149994
 21
202.074997
  0
LINE
  8
0
  6
CONTINUOUS
 62
7
 10
191.750000
 20
190.074997
 11
191.750000
 21
202.074997
  0
LINE
  8
0
  6
CONTINUOUS
 62
7
 10
191.750000
 20
190.074997
 11
239.250000
 21
190.074997
  0
LINE
  8
0
  6
CONTINUOUS
 62
7
 10
184.149994
 20
202.074997
 11
246.850006
 21
202.074997
  0
LINE
  8
0
  6
CONTINUOUS
 62
7
 10
184.149994
 20
190.574997
 11
191.750000
 21
190.574997
  0
LINE
  8
0
  6
CONTINUOUS
 62
7
 10
150.000000
 20
195.074997
 11
184.149994
 21
195.074997
  0
LINE
  8
0
  6
CONTINUOUS
 62
7
 10
246.850006
 20
195.074997
 11
256.000000
 21
195.074997
  0
LINE
  8
0
  6
CONTINUOUS
 62
7
 10
246.850006
 20
190.574997
 11
246.850006
 21
202.074997
  0
LINE
  8
0
  6
CONTINUOUS
 62
7
 10
239.250000
 20
190.074997
 11
239.250000
 21
202.074997
  0
LINE
  8
0
  6
CONTINUOUS
 62
7
 10
246.850006
 20
190.574997
 11
239.250000
 21
190.574997
  0
LINE
  8
0
  6
CONTINUOUS
 62
7
 10
150.000000
 20
202.574997
 11
158.653000
 21
202.574997
  0
LINE
  8
0
  6
CONTINUOUS
 62
7
 10
150.000000
 20
212.074997
 11
256.000000
 21
212.074997
  0
LINE
  8
0
  6
CONTINUOUS
 62
7
 10
150.000000
 20
195.074997
 11
150.000000
 21
212.074997
  0
LINE
  8
0
  6
CONTINUOUS
 62
7
 10
256.000000
 20
195.074997
 11
256.000000
 21
212.074997
  0
LINE
  8
0
  6
CONTINUOUS
 62
7
 10
160.800003
 20
206.574997
 11
170.000000
 21
206.574997
  0
LINE
  8
0
  6
CONTINUOUS
 62
7
 10
230.000000
 20
206.574997
 11
176.000000
 21
206.574997
  0
LINE
  8
0
  6
CONTINUOUS
 62
7
 10
245.199997
 20
206.574997
 11
236.000000
 21
206.574997
  0
LINE
  8
0
  6
CONTINUOUS
 62
7
 10
184.149994
 20
159.375000
 11
184.149994
 21
127.788002
  0
LINE
  8
0
  6
CONTINUOUS
 62
7
 10
191.750000
 20
127.775002
 11
184.149994
 21
127.775002
  0
LINE
  8
0
  6
CONTINUOUS
 62
7
 10
191.750000
 20
159.375000
 11
184.149994
 21
159.375000
  0
LINE
  8
0
  6
CONTINUOUS
 62
7
 10
247.347000
 20
202.574997
 11
256.000000
 21
202.574997
  0
LINE
  8
0
  6
CENTER
 62
2
 10
173.000000
 20
210.074997
 11
173.000000
 21
203.074997
  0
LINE
  8
0
  6
CENTER
 62
2
 10
169.500000
 20
206.574997
 11
176.500000
 21
206.574997
  0
LINE
  8
0
  6
CENTER
 62
2
 10
209.500000
 20
198.074997
 11
209.500000
 21
191.074997
  0
LINE
  8
0
  6
CENTER
 62
2
 10
206.000000
 20
194.574997
 11
213.000000
 21
194.574997
  0
LINE
  8
0
  6
CENTER
 62
2
 10
233.000000
 20
210.074997
 11
233.000000
 21
203.074997
  0
LINE
  8
0
  6
CENTER
 62
2
 10
229.500000
 20
206.574997
 11
236.500000
 21
206.574997
  0
LINE
  8
0
  6
CENTER
 62
2
 10
221.500000
 20
198.074997
 11
221.500000
 21
191.074997
  0
LINE
  8
0
  6
CENTER
 62
2
 10
218.000000
 20
194.574997
 11
225.000000
 21
194.574997
  0
LINE
  8
0
  6
CENTER
 62
2
 10
165.000000
 20
161.574997
 11
165.000000
 21
149.574997
  0
LINE
  8
0
  6
CENTER
 62
2
 10
159.000000
 20
155.574997
 11
171.000000
 21
155.574997
  0
LINE
  8
0
  6
CENTER
 62
2
 10
165.000000
 20
137.574997
 11
165.000000
 21
125.574997
  0
LINE
  8
0
  6
CENTER
 62
2
 10
159.000000
 20
131.574997
 11
171.000000
 21
131.574997
  0
LINE
  8
0
  6
CENTER
 62
2
 10
195.500000
 20
159.574997
 11
195.500000
 21
152.574997
  0
LINE
  8
0
  6
CENTER
 62
2
 10
192.000000
 20
156.074997
 11
199.000000
 21
156.074997
  0
LINE
  8
0
  6
CENTER
 62
2
 10
215.500000
 20
159.574997
 11
215.500000
 21
152.574997
  0
LINE
  8
0
  6
CENTER
 62
2
 10
212.000000
 20
156.074997
 11
219.000000
 21
156.074997
  0
LINE
  8
0
  6
CENTER
 62
2
 10
235.500000
 20
159.574997
 11
235.500000
 21
152.574997
  0
LINE
  8
0
  6
CENTER
 62
2
 10
232.000000
 20
156.074997
 11
239.000000
 21
156.074997
  0
LINE
  8
0
  6
CENTER
 62
2
 10
241.000000
 20
161.574997
 11
241.000000
 21
149.574997
  0
LINE
  8
0
  6
CENTER
 62
2
 10
235.000000
 20
155.574997
 11
247.000000
 21
155.574997
  0
LINE
  8
0
  6
CENTER
 62
2
 10
241.000000
 20
137.574997
 11
241.000000
 21
125.574997
  0
LINE
  8
0
  6
CENTER
 62
2
 10
235.000000
 20
131.574997
 11
247.000000
 21
131.574997
  0
LINE
  8
0
  6
CENTER
 62
2
 10
235.500000
 20
134.574997
 11
235.500000
 21
127.574997
  0
LINE
  8
0
  6
CENTER
 62
2
 10
232.000000
 20
131.074997
 11
239.000000
 21
131.074997
  0
LINE
  8
0
  6
CENTER
 62
2
 10
195.500000
 20
134.574997
 11
195.500000
 21
127.574997
  0
LINE
  8
0
  6
CENTER
 62
2
 10
192.000000
 20
131.074997
 11
199.000000
 21
131.074997
  0
LINE
  8
0
  6
CENTER
 62
2
 10
215.500000
 20
134.574997
 11
215.500000
 21
127.574997
  0
LINE
  8
0
  6
CENTER
 62
2
 10
212.000000
 20
131.074997
 11
219.000000
 21
131.074997
  0
LINE
  8
0
  6
DASHED
 62
2
 10
169.000000
 20
206.574997
 11
169.000000
 21
207.574997
  0
LINE
  8
0
  6
DASHED
 62
2
 10
169.000000
 20
207.574997
 11
161.000000
 21
207.574997
  0
LINE
  8
0
  6
DASHED
 62
2
 10
167.500000
 20
207.574997
 11
167.500000
 21
212.074997
  0
LINE
  8
0
  6
DASHED
 62
2
 10
167.100006
 20
207.574997
 11
167.100006
 21
212.074997
  0
LINE
  8
0
  6
CENTER
 62
2
 10
165.000000
 20
204.574997
 11
165.000000
 21
214.074997
  0
LINE
  8
0
  6
DASHED
 62
2
 10
162.899994
 20
207.574997
 11
162.899994
 21
212.074997
  0
LINE
  8
0
  6
DASHED
 62
2
 10
162.500000
 20
207.574997
 11
162.500000
 21
212.074997
  0
LINE
  8
0
  6
DASHED
 62
2
 10
161.000000
 20
206.574997
 11
161.000000
 21
207.574997
  0
LINE
  8
0
  6
DASHED
 62
2
 10
245.000000
 20
206.574997
 11
245.000000
 21
207.574997
  0
LINE
  8
0
  6
DASHED
 62
2
 10
245.000000
 20
207.574997
 11
237.000000
 21
207.574997
  0
LINE
  8
0
  6
DASHED
 62
2
 10
243.500000
 20
207.574997
 11
243.500000
 21
212.074997
  0
LINE
  8
0
  6
DASHED
 62
2
 10
243.100006
 20
207.574997
 11
243.100006
 21
212.074997
  0
LINE
  8
0
  6
CENTER
 62
2
 10
241.000000
 20
204.574997
 11
241.000000
 21
214.074997
  0
LINE
  8
0
  6
DASHED
 62
2
 10
238.899994
 20
207.574997
 11
238.899994
 21
212.074997
  0
LINE
  8
0
  6
DASHED
 62
2
 10
238.500000
 20
207.574997
 11
238.500000
 21
212.074997
  0
LINE
  8
0
  6
DASHED
 62
2
 10
237.000000
 20
206.574997
 11
237.000000
 21
207.574997
  0
LINE
  8
0
  6
CENTER
 62
2
 10
195.500000
 20
192.074997
 11
195.500000
 21
188.074997
  0
LINE
  8
0
  6
CENTER
 62
2
 10
215.500000
 20
192.074997
 11
215.500000
 21
188.074997
  0
LINE
  8
0
  6
CENTER
 62
2
 10
235.500000
 20
192.074997
 11
235.500000
 21
188.074997
  0
LINE
  8
0
  6
CONTINUOUS
 62
7
 10
165.000000
 20
117.074997
 11
165.000000
 21
127.074997
  0
LINE
  8
0
  6
CONTINUOUS
 62
7
 10
165.000000
 20
124.574997
 11
241.000000
 21
124.574997
  0
LINE
  8
0
  6
CONTINUOUS
 62
7
 10
165.000000
 20
117.074997
 11
241.000000
 21
117.074997
  0
LINE
  8
0
  6
CONTINUOUS
 62
7
 10
212.250000
 20
125.574997
 11
218.750000
 21
125.574997
  0
LINE
  8
0
  6
CONTINUOUS
 62
7
 10
212.250000
 20
125.574997
 11
212.250000
 21
127.074997
  0
LINE
  8
0
  6
CONTINUOUS
 62
7
 10
218.750000
 20
125.574997
 11
218.750000
 21
127.074997
  0
LINE
  8
0
  6
CONTINUOUS
 62
7
 10
241.000000
 20
117.074997
 11
241.000000
 21
127.074997
  0
LINE
  8
0
  6
CONTINUOUS
 62
7
 10
165.000000
 20
191.074997
 11
184.149994
 21
191.074997
  0
LINE
  8
0
  6
CONTINUOUS
 62
7
 10
165.000000
 20
191.074997
 11
165.000000
 21
195.074997
  0
LINE
  8
0
  6
CONTINUOUS
 62
7
 10
295.000000
 20
92.074997
 11
280.000000
 21
92.074997
  0
LINE
  8
0
  6
CONTINUOUS
 62
7
 10
295.000000
 20
88.074997
 11
295.000000
 21
84.574997
  0
LINE
  8
0
  6
CONTINUOUS
 62
7
 10
295.000000
 20
92.074997
 11
295.000000
 21
91.074997
  0
LINE
  8
0
  6
CONTINUOUS
 62
7
 10
303.500000
 20
97.074997
 11
296.500000
 21
97.074997
  0
LINE
  8
0
  6
CONTINUOUS
 62
7
 10
303.500000
 20
85.074997
 11
295.000000
 21
85.074997
  0
LINE
  8
0
  6
CONTINUOUS
 62
7
 10
296.200012
 20
96.775002
 11
278.799988
 21
96.775002
  0
LINE
  8
0
  6
CONTINUOUS
 62
7
 10
296.500000
 20
97.075104
 11
296.200012
 21
96.775101
  0
LINE
  8
0
  6
CONTINUOUS
 62
7
 10
280.000000
 20
88.074997
 11
280.000000
 21
84.574997
  0
LINE
  8
0
  6
CONTINUOUS
 62
7
 10
280.000000
 20
92.074997
 11
280.000000
 21
91.074997
  0
LINE
  8
0
  6
CONTINUOUS
 62
7
 10
271.500000
 20
97.074997
 11
271.500000
 21
85.074997
  0
LINE
  8
0
  6
CONTINUOUS
 62
7
 10
271.500000
 20
97.074997
 11
278.500000
 21
97.074997
  0
LINE
  8
0
  6
CONTINUOUS
 62
7
 10
271.500000
 20
85.074997
 11
280.000000
 21
85.074997
  0
LINE
  8
0
  6
CONTINUOUS
 62
7
 10
278.500000
 20
97.074898
 11
278.799988
 21
96.774902
  0
LINE
  8
0
  6
CONTINUOUS
 62
7
 10
303.500000
 20
97.074997
 11
303.500000
 21
85.074997
  0
LINE
  8
0
  6
CONTINUOUS
 62
7
 10
271.000000
 20
84.574997
 11
280.000000
 21
84.574997
  0
LINE
  8
0
  6
CONTINUOUS
 62
7
 10
271.000000
 20
75.074997
 11
304.000000
 21
75.074997
  0
LINE
  8
0
  6
CONTINUOUS
 62
7
 10
304.000000
 20
84.574997
 11
295.000000
 21
84.574997
  0
LINE
  8
0
  6
CONTINUOUS
 62
7
 10
271.000000
 20
84.574997
 11
271.000000
 21
75.074997
  0
LINE
  8
0
  6
CONTINUOUS
 62
7
 10
304.000000
 20
84.574997
 11
304.000000
 21
75.074997
  0
LINE
  8
0
  6
CENTER
 62
2
 10
287.500000
 20
99.074997
 11
287.500000
 21
73.074997
  0
LINE
  8
0
  6
CENTER
 62
2
 10
295.899994
 20
83.074997
 11
279.100006
 21
83.074997
  0
LINE
  8
0
  6
CENTER
 62
2
 10
297.500000
 20
84.074997
 11
297.500000
 21
77.074997
  0
LINE
  8
0
  6
CENTER
 62
2
 10
301.000000
 20
80.574997
 11
294.000000
 21
80.574997
  0
LINE
  8
0
  6
CONTINUOUS
 62
7
 10
261.000000
 20
77.074997
 11
271.000000
 21
77.074997
  0
LINE
  8
0
  6
CONTINUOUS
 62
2
 10
261.000000
 20
91.275002
 11
262.000000
 21
91.275002
  0
LINE
  8
0
  6
CONTINUOUS
 62
2
 10
262.000000
 20
94.724998
 11
262.000000
 21
93.875000
  0
LINE
  8
0
  6
CONTINUOUS
 62
2
 10
262.000000
 20
90.425003
 11
265.799988
 21
90.425003
  0
LINE
  8
0
  6
CONTINUOUS
 62
2
 10
267.299988
 20
93.224998
 11
267.299988
 21
91.925003
  0
LINE
  8
0
  6
CONTINUOUS
 62
2
 10
262.000000
 20
94.724998
 11
265.799988
 21
94.724998
  0
LINE
  8
0
  6
CONTINUOUS
 62
2
 10
261.000000
 20
93.875000
 11
262.000000
 21
93.875000
  0
LINE
  8
0
  6
CONTINUOUS
 62
7
 10
261.000000
 20
96.074997
 11
261.000000
 21
77.074997
  0
LINE
  8
0
  6
CONTINUOUS
 62
7
 10
261.000000
 20
96.074997
 11
268.500000
 21
96.074997
  0
LINE
  8
0
  6
CONTINUOUS
 62
7
 10
268.500000
 20
96.074997
 11
268.500000
 21
83.574997
  0
LINE
  8
0
  6
CONTINUOUS
 62
7
 10
268.500000
 20
83.574997
 11
271.000000
 21
83.574997
  0
LINE
  8
0
  6
CONTINUOUS
 62
7
 10
269.500000
 20
84.074997
 11
271.000000
 21
84.074997
  0
LINE
  8
0
  6
CONTINUOUS
 62
7
 10
269.500000
 20
95.074997
 11
269.500000
 21
84.074997
  0
LINE
  8
0
  6
CONTINUOUS
 62
7
 10
269.500000
 20
95.074997
 11
271.500000
 21
95.074997
  0
LINE
  8
0
  6
CENTER
 62
2
 10
275.000000
 20
99.074997
 11
275.000000
 21
95.074997
  0
LINE
  8
0
  6
CENTER
 62
2
 10
300.000000
 20
99.074997
 11
300.000000
 21
95.074997
  0
LINE
  8
0
  6
CENTER
 62
2
 10
299.500000
 20
77.074997
 11
299.500000
 21
73.074997
  0
LINE
  8
0
  6
CENTER
 62
2
 10
275.500000
 20
77.074997
 11
275.500000
 21
73.074997
  0
LINE
  8
0
  6
CONTINUOUS
 62
2
 10
262.000000
 20
91.275002
 11
262.000000
 21
90.425003
  0
LINE
  8
0
  6
CENTER
 62
2
 10
259.000000
 20
92.574997
 11
269.299988
 21
92.574997
  0
LINE
  8
0
  6
CENTER
 62
2
 10
259.000000
 20
86.574997
 11
269.299988
 21
86.574997
  0
LINE
  8
0
  6
CONTINUOUS
 62
7
 10
247.347000
 20
84.574997
 11
256.000000
 21
84.574997
  0
LINE
  8
0
  6
CENTER
 62
2
 10
258.000000
 20
28.575001
 11
148.000000
 21
28.575001
  0
LINE
  8
0
  6
CONTINUOUS
 62
7
 10
150.000000
 20
12.075000
 11
256.000000
 21
12.075000
  0
LINE
  8
0
  6
CONTINUOUS
 62
7
 10
150.000000
 20
45.075001
 11
256.000000
 21
45.075001
  0
LINE
  8
0
  6
CONTINUOUS
 62
7
 10
150.000000
 20
45.075001
 11
150.000000
 21
12.075000
  0
LINE
  8
0
  6
CONTINUOUS
 62
7
 10
256.000000
 20
45.075001
 11
256.000000
 21
12.075000
  0
LINE
  8
0
  6
CENTER
 62
2
 10
165.000000
 20
45.075001
 11
165.000000
 21
36.075001
  0
LINE
  8
0
  6
CENTER
 62
2
 10
160.500000
 20
40.575001
 11
169.500000
 21
40.575001
  0
LINE
  8
0
  6
CENTER
 62
2
 10
158.000000
 20
40.974998
 11
158.000000
 21
25.174999
  0
LINE
  8
0
  6
CENTER
 62
2
 10
150.100006
 20
33.075001
 11
165.899994
 21
33.075001
  0
LINE
  8
0
  6
CENTER
 62
2
 10
165.000000
 20
21.075001
 11
165.000000
 21
12.075000
  0
LINE
  8
0
  6
CENTER
 62
2
 10
160.500000
 20
16.575001
 11
169.500000
 21
16.575001
  0
LINE
  8
0
  6
CENTER
 62
2
 10
241.000000
 20
45.075001
 11
241.000000
 21
36.075001
  0
LINE
  8
0
  6
CENTER
 62
2
 10
236.500000
 20
40.575001
 11
245.500000
 21
40.575001
  0
LINE
  8
0
  6
CENTER
 62
2
 10
241.000000
 20
21.075001
 11
241.000000
 21
12.075000
  0
LINE
  8
0
  6
CENTER
 62
2
 10
236.500000
 20
16.575001
 11
245.500000
 21
16.575001
  0
LINE
  8
0
  6
CENTER
 62
2
 10
248.000000
 20
40.974998
 11
248.000000
 21
25.174999
  0
LINE
  8
0
  6
CENTER
 62
2
 10
240.100006
 20
33.075001
 11
255.899994
 21
33.075001
  0
LINE
  8
0
  6
CONTINUOUS
 62
7
 10
165.000000
 20
55.075001
 11
165.000000
 21
45.075001
  0
LINE
  8
0
  6
CONTINUOUS
 62
7
 10
165.000000
 20
55.075001
 11
241.000000
 21
55.075001
  0
LINE
  8
0
  6
CONTINUOUS
 62
7
 10
241.000000
 20
55.075001
 11
241.000000
 21
45.075001
  0
LINE
  8
0
  6
CONTINUOUS
 62
7
 10
184.149994
 20
96.574997
 11
184.149994
 21
96.074997
  0
LINE
  8
0
  6
CONTINUOUS
 62
7
 10
191.750000
 20
97.074997
 11
191.750000
 21
96.074997
  0
LINE
  8
0
  6
CONTINUOUS
 62
7
 10
191.750000
 20
97.074997
 11
239.250000
 21
97.074997
  0
LINE
  8
0
  6
CONTINUOUS
 62
7
 10
241.000000
 20
85.074997
 11
246.850006
 21
85.074997
  0
LINE
  8
0
  6
CONTINUOUS
 62
7
 10
184.149994
 20
96.574997
 11
191.750000
 21
96.574997
  0
LINE
  8
0
  6
CONTINUOUS
 62
7
 10
150.000000
 20
92.074997
 11
165.000000
 21
92.074997
  0
LINE
  8
0
  6
CONTINUOUS
 62
7
 10
239.250000
 20
97.074997
 11
239.250000
 21
96.074997
  0
LINE
  8
0
  6
CONTINUOUS
 62
7
 10
246.850006
 20
96.574997
 11
239.250000
 21
96.574997
  0
LINE
  8
0
  6
CONTINUOUS
 62
7
 10
150.000000
 20
75.074997
 11
256.000000
 21
75.074997
  0
LINE
  8
0
  6
CONTINUOUS
 62
7
 10
160.800003
 20
80.574997
 11
165.000000
 21
80.574997
  0
LINE
  8
0
  6
CONTINUOUS
 62
7
 10
245.199997
 20
80.574997
 11
241.000000
 21
80.574997
  0
LINE
  8
0
  6
CONTINUOUS
 62
7
 10
246.850006
 20
96.574997
 11
246.850006
 21
85.074997
  0
LINE
  8
0
  6
CENTER
 62
2
 10
195.500000
 20
95.074997
 11
195.500000
 21
99.074997
  0
LINE
  8
0
  6
CENTER
 62
2
 10
215.500000
 20
95.074997
 11
215.500000
 21
99.074997
  0
LINE
  8
0
  6
CENTER
 62
2
 10
235.500000
 20
95.074997
 11
235.500000
 21
99.074997
  0
LINE
  8
0
  6
CONTINUOUS
 62
7
 10
165.000000
 20
96.074997
 11
165.000000
 21
77.074997
  0
LINE
  8
0
  6
CONTINUOUS
 62
2
 10
165.000000
 20
85.275002
 11
241.000000
 21
85.275002
  0
LINE
  8
0
  6
CONTINUOUS
 62
2
 10
165.000000
 20
87.875000
 11
241.000000
 21
87.875000
  0
LINE
  8
0
  6
CONTINUOUS
 62
2
 10
165.000000
 20
91.275002
 11
241.000000
 21
91.275002
  0
LINE
  8
0
  6
CONTINUOUS
 62
2
 10
165.000000
 20
93.875000
 11
241.000000
 21
93.875000
  0
LINE
  8
0
  6
CONTINUOUS
 62
7
 10
165.000000
 20
96.074997
 11
241.000000
 21
96.074997
  0
LINE
  8
0
  6
CONTINUOUS
 62
7
 10
241.000000
 20
96.074997
 11
241.000000
 21
77.074997
  0
LINE
  8
0
  6
CONTINUOUS
 62
7
 10
165.000000
 20
77.074997
 11
241.000000
 21
77.074997
  0
LINE
  8
0
  6
DASHED
 62
2
 10
161.000000
 20
80.574997
 11
161.000000
 21
79.574997
  0
LINE
  8
0
  6
DASHED
 62
2
 10
161.000000
 20
79.574997
 11
169.000000
 21
79.574997
  0
LINE
  8
0
  6
DASHED
 62
2
 10
162.500000
 20
79.574997
 11
162.500000
 21
75.074997
  0
LINE
  8
0
  6
DASHED
 62
2
 10
162.899994
 20
79.574997
 11
162.899994
 21
75.074997
  0
LINE
  8
0
  6
CENTER
 62
2
 10
165.000000
 20
82.574997
 11
165.000000
 21
73.074997
  0
LINE
  8
0
  6
DASHED
 62
2
 10
167.100006
 20
79.574997
 11
167.100006
 21
75.074997
  0
LINE
  8
0
  6
DASHED
 62
2
 10
167.500000
 20
79.574997
 11
167.500000
 21
75.074997
  0
LINE
  8
0
  6
DASHED
 62
2
 10
169.000000
 20
80.574997
 11
169.000000
 21
79.574997
  0
LINE
  8
0
  6
DASHED
 62
2
 10
237.000000
 20
80.574997
 11
237.000000
 21
79.574997
  0
LINE
  8
0
  6
DASHED
 62
2
 10
237.000000
 20
79.574997
 11
245.000000
 21
79.574997
  0
LINE
  8
0
  6
DASHED
 62
2
 10
238.500000
 20
79.574997
 11
238.500000
 21
75.074997
  0
LINE
  8
0
  6
DASHED
 62
2
 10
238.899994
 20
79.574997
 11
238.899994
 21
75.074997
  0
LINE
  8
0
  6
CENTER
 62
2
 10
241.000000
 20
82.574997
 11
241.000000
 21
73.074997
  0
LINE
  8
0
  6
DASHED
 62
2
 10
243.100006
 20
79.574997
 11
243.100006
 21
75.074997
  0
LINE
  8
0
  6
DASHED
 62
2
 10
243.500000
 20
79.574997
 11
243.500000
 21
75.074997
  0
LINE
  8
0
  6
DASHED
 62
2
 10
245.000000
 20
80.574997
 11
245.000000
 21
79.574997
  0
LINE
  8
0
  6
CONTINUOUS
 62
7
 10
256.000000
 20
92.074997
 11
256.000000
 21
75.074997
  0
LINE
  8
0
  6
CONTINUOUS
 62
7
 10
150.000000
 20
84.574997
 11
158.653000
 21
84.574997
  0
LINE
  8
0
  6
CONTINUOUS
 62
7
 10
285.000000
 20
-157.175003
 11
270.000000
 21
-157.175003
  0
LINE
  8
0
  6
CONTINUOUS
 62
7
 10
285.000000
 20
-161.175003
 11
285.000000
 21
-164.675003
  0
LINE
  8
0
  6
CONTINUOUS
 62
7
 10
285.000000
 20
-157.175003
 11
285.000000
 21
-158.175003
  0
LINE
  8
0
  6
CONTINUOUS
 62
7
 10
293.500000
 20
-152.175003
 11
286.500000
 21
-152.175003
  0
LINE
  8
0
  6
CONTINUOUS
 62
7
 10
293.500000
 20
-164.175003
 11
285.000000
 21
-164.175003
  0
LINE
  8
0
  6
CONTINUOUS
 62
7
 10
286.200012
 20
-152.475006
 11
268.799988
 21
-152.475006
  0
LINE
  8
0
  6
CONTINUOUS
 62
7
 10
286.500000
 20
-152.175003
 11
286.200012
 21
-152.475006
  0
LINE
  8
0
  6
CONTINUOUS
 62
7
 10
270.000000
 20
-161.175003
 11
270.000000
 21
-164.675003
  0
LINE
  8
0
  6
CONTINUOUS
 62
7
 10
270.000000
 20
-157.175003
 11
270.000000
 21
-158.175003
  0
LINE
  8
0
  6
CONTINUOUS
 62
7
 10
261.500000
 20
-152.175003
 11
261.500000
 21
-164.175003
  0
LINE
  8
0
  6
CONTINUOUS
 62
7
 10
261.500000
 20
-152.175003
 11
268.500000
 21
-152.175003
  0
LINE
  8
0
  6
CONTINUOUS
 62
7
 10
261.500000
 20
-164.175003
 11
270.000000
 21
-164.175003
  0
LINE
  8
0
  6
CONTINUOUS
 62
7
 10
268.500000
 20
-152.175003
 11
268.799988
 21
-152.475006
  0
LINE
  8
0
  6
CONTINUOUS
 62
7
 10
293.500000
 20
-152.175003
 11
293.500000
 21
-164.175003
  0
LINE
  8
0
  6
CONTINUOUS
 62
7
 10
261.000000
 20
-164.675003
 11
270.000000
 21
-164.675003
  0
LINE
  8
0
  6
CONTINUOUS
 62
7
 10
261.000000
 20
-174.175003
 11
294.000000
 21
-174.175003
  0
LINE
  8
0
  6
CONTINUOUS
 62
7
 10
294.000000
 20
-164.675003
 11
285.000000
 21
-164.675003
  0
LINE
  8
0
  6
CONTINUOUS
 62
7
 10
261.000000
 20
-164.675003
 11
261.000000
 21
-174.175003
  0
LINE
  8
0
  6
CONTINUOUS
 62
7
 10
294.000000
 20
-164.675003
 11
294.000000
 21
-174.175003
  0
LINE
  8
0
  6
CENTER
 62
2
 10
277.500000
 20
-150.175003
 11
277.500000
 21
-176.175003
  0
LINE
  8
0
  6
CENTER
 62
2
 10
285.899994
 20
-166.175003
 11
269.100006
 21
-166.175003
  0
LINE
  8
0
  6
CENTER
 62
2
 10
287.500000
 20
-165.175003
 11
287.500000
 21
-172.175003
  0
LINE
  8
0
  6
CENTER
 62
2
 10
291.000000
 20
-168.675003
 11
284.000000
 21
-168.675003
  0
LINE
  8
0
  6
CONTINUOUS
 62
7
 10
304.000000
 20
-172.175003
 11
294.000000
 21
-172.175003
  0
LINE
  8
0
  6
CONTINUOUS
 62
2
 10
304.000000
 20
-157.975006
 11
303.000000
 21
-157.975006
  0
LINE
  8
0
  6
CONTINUOUS
 62
2
 10
303.000000
 20
-154.524994
 11
303.000000
 21
-155.375000
  0
LINE
  8
0
  6
CONTINUOUS
 62
2
 10
303.000000
 20
-158.824997
 11
299.200012
 21
-158.824997
  0
LINE
  8
0
  6
CONTINUOUS
 62
2
 10
297.700012
 20
-156.024994
 11
297.700012
 21
-157.324997
  0
LINE
  8
0
  6
CONTINUOUS
 62
2
 10
303.000000
 20
-154.524994
 11
299.200012
 21
-154.524994
  0
LINE
  8
0
  6
CONTINUOUS
 62
2
 10
304.000000
 20
-155.375000
 11
303.000000
 21
-155.375000
  0
LINE
  8
0
  6
CONTINUOUS
 62
7
 10
304.000000
 20
-153.175003
 11
304.000000
 21
-172.175003
  0
LINE
  8
0
  6
CONTINUOUS
 62
7
 10
304.000000
 20
-153.175003
 11
296.500000
 21
-153.175003
  0
LINE
  8
0
  6
CONTINUOUS
 62
7
 10
296.500000
 20
-153.175003
 11
296.500000
 21
-165.675003
  0
LINE
  8
0
  6
CONTINUOUS
 62
7
 10
296.500000
 20
-165.675003
 11
294.000000
 21
-165.675003
  0
LINE
  8
0
  6
CONTINUOUS
 62
7
 10
295.500000
 20
-165.175003
 11
294.000000
 21
-165.175003
  0
LINE
  8
0
  6
CONTINUOUS
 62
7
 10
295.500000
 20
-154.175003
 11
295.500000
 21
-165.175003
  0
LINE
  8
0
  6
CONTINUOUS
 62
7
 10
295.500000
 20
-154.175003
 11
293.500000
 21
-154.175003
  0
LINE
  8
0
  6
CENTER
 62
2
 10
290.000000
 20
-150.175003
 11
290.000000
 21
-154.175003
  0
LINE
  8
0
  6
CENTER
 62
2
 10
265.000000
 20
-150.175003
 11
265.000000
 21
-154.175003
  0
LINE
  8
0
  6
CENTER
 62
2
 10
265.500000
 20
-172.175003
 11
265.500000
 21
-176.175003
  0
LINE
  8
0
  6
CENTER
 62
2
 10
289.500000
 20
-172.175003
 11
289.500000
 21
-176.175003
  0
LINE
  8
0
  6
CONTINUOUS
 62
2
 10
303.000000
 20
-157.975006
 11
303.000000
 21
-158.824997
  0
LINE
  8
0
  6
CENTER
 62
2
 10
306.000000
 20
-156.675003
 11
295.700012
 21
-156.675003
  0
LINE
  8
0
  6
CENTER
 62
2
 10
306.000000
 20
-162.675003
 11
295.700012
 21
-162.675003
  0
LINE
  8
0
  6
CONTINUOUS
 62
7
 10
-273.000000
 20
-157.175003
 11
-258.000000
 21
-157.175003
  0
LINE
  8
0
  6
CONTINUOUS
 62
7
 10
-273.000000
 20
-161.175003
 11
-273.000000
 21
-164.675003
  0
LINE
  8
0
  6
CONTINUOUS
 62
7
 10
-273.000000
 20
-157.175003
 11
-273.000000
 21
-158.175003
  0
LINE
  8
0
  6
CONTINUOUS
 62
7
 10
-281.500000
 20
-152.175003
 11
-274.500000
 21
-152.175003
  0
LINE
  8
0
  6
CONTINUOUS
 62
7
 10
-281.500000
 20
-164.175003
 11
-273.000000
 21
-164.175003
  0
LINE
  8
0
  6
CONTINUOUS
 62
7
 10
-274.200012
 20
-152.475006
 11
-256.799988
 21
-152.475006
  0
LINE
  8
0
  6
CONTINUOUS
 62
7
 10
-274.500000
 20
-152.175003
 11
-274.200012
 21
-152.475006
  0
LINE
  8
0
  6
CONTINUOUS
 62
7
 10
-258.000000
 20
-161.175003
 11
-258.000000
 21
-164.675003
  0
LINE
  8
0
  6
CONTINUOUS
 62
7
 10
-258.000000
 20
-157.175003
 11
-258.000000
 21
-158.175003
  0
LINE
  8
0
  6
CONTINUOUS
 62
7
 10
-249.500000
 20
-152.175003
 11
-249.500000
 21
-164.175003
  0
LINE
  8
0
  6
CONTINUOUS
 62
7
 10
-249.500000
 20
-152.175003
 11
-256.500000
 21
-152.175003
  0
LINE
  8
0
  6
CONTINUOUS
 62
7
 10
-249.500000
 20
-164.175003
 11
-258.000000
 21
-164.175003
  0
LINE
  8
0
  6
CONTINUOUS
 62
7
 10
-256.500000
 20
-152.175003
 11
-256.799988
 21
-152.475006
  0
LINE
  8
0
  6
CONTINUOUS
 62
7
 10
-281.500000
 20
-152.175003
 11
-281.500000
 21
-164.175003
  0
LINE
  8
0
  6
CONTINUOUS
 62
7
 10
-249.000000
 20
-164.675003
 11
-258.000000
 21
-164.675003
  0
LINE
  8
0
  6
CONTINUOUS
 62
7
 10
-249.000000
 20
-174.175003
 11
-282.000000
 21
-174.175003
  0
LINE
  8
0
  6
CONTINUOUS
 62
7
 10
-282.000000
 20
-164.675003
 11
-273.000000
 21
-164.675003
  0
LINE
  8
0
  6
CONTINUOUS
 62
7
 10
-249.000000
 20
-164.675003
 11
-249.000000
 21
-174.175003
  0
LINE
  8
0
  6
CONTINUOUS
 62
7
 10
-282.000000
 20
-164.675003
 11
-282.000000
 21
-174.175003
  0
LINE
  8
0
  6
CENTER
 62
2
 10
-265.500000
 20
-150.175003
 11
-265.500000
 21
-176.175003
  0
LINE
  8
0
  6
CENTER
 62
2
 10
-273.899994
 20
-166.175003
 11
-257.100006
 21
-166.175003
  0
LINE
  8
0
  6
CENTER
 62
2
 10
-275.500000
 20
-165.175003
 11
-275.500000
 21
-172.175003
  0
LINE
  8
0
  6
CENTER
 62
2
 10
-279.000000
 20
-168.675003
 11
-272.000000
 21
-168.675003
  0
LINE
  8
0
  6
CONTINUOUS
 62
7
 10
-292.000000
 20
-172.175003
 11
-282.000000
 21
-172.175003
  0
LINE
  8
0
  6
CONTINUOUS
 62
2
 10
-292.000000
 20
-157.975006
 11
-291.000000
 21
-157.975006
  0
LINE
  8
0
  6
CONTINUOUS
 62
2
 10
-291.000000
 20
-154.524994
 11
-291.000000
 21
-155.375000
  0
LINE
  8
0
  6
CONTINUOUS
 62
2
 10
-291.000000
 20
-158.824997
 11
-287.200012
 21
-158.824997
  0
LINE
  8
0
  6
CONTINUOUS
 62
2
 10
-285.700012
 20
-156.024994
 11
-285.700012
 21
-157.324997
  0
LINE
  8
0
  6
CONTINUOUS
 62
2
 10
-291.000000
 20
-154.524994
 11
-287.200012
 21
-154.524994
  0
LINE
  8
0
  6
CONTINUOUS
 62
2
 10
-292.000000
 20
-155.375000
 11
-291.000000
 21
-155.375000
  0
LINE
  8
0
  6
CONTINUOUS
 62
7
 10
-292.000000
 20
-153.175003
 11
-292.000000
 21
-172.175003
  0
LINE
  8
0
  6
CONTINUOUS
 62
7
 10
-292.000000
 20
-153.175003
 11
-284.500000
 21
-153.175003
  0
LINE
  8
0
  6
CONTINUOUS
 62
7
 10
-284.500000
 20
-153.175003
 11
-284.500000
 21
-165.675003
  0
LINE
  8
0
  6
CONTINUOUS
 62
7
 10
-284.500000
 20
-165.675003
 11
-282.000000
 21
-165.675003
  0
LINE
  8
0
  6
CONTINUOUS
 62
7
 10
-283.500000
 20
-165.175003
 11
-282.000000
 21
-165.175003
  0
LINE
  8
0
  6
CONTINUOUS
 62
7
 10
-283.500000
 20
-154.175003
 11
-283.500000
 21
-165.175003
  0
LINE
  8
0
  6
CONTINUOUS
 62
7
 10
-283.500000
 20
-154.175003
 11
-281.500000
 21
-154.175003
  0
LINE
  8
0
  6
CENTER
 62
2
 10
-278.000000
 20
-150.175003
 11
-278.000000
 21
-154.175003
  0
LINE
  8
0
  6
CENTER
 62
2
 10
-253.000000
 20
-150.175003
 11
-253.000000
 21
-154.175003
  0
LINE
  8
0
  6
CENTER
 62
2
 10
-253.500000
 20
-172.175003
 11
-253.500000
 21
-176.175003
  0
LINE
  8
0
  6
CENTER
 62
2
 10
-277.500000
 20
-172.175003
 11
-277.500000
 21
-176.175003
  0
LINE
  8
0
  6
CONTINUOUS
 62
2
 10
-291.000000
 20
-157.975006
 11
-291.000000
 21
-158.824997
  0
LINE
  8
0
  6
CENTER
 62
2
 10
-294.000000
 20
-156.675003
 11
-283.700012
 21
-156.675003
  0
LINE
  8
0
  6
CENTER
 62
2
 10
-294.000000
 20
-162.675003
 11
-283.700012
 21
-162.675003
  0
LINE
  8
0
  6
CONTINUOUS
 62
7
 10
-139.000000
 20
-157.175003
 11
-154.000000
 21
-157.175003
  0
LINE
  8
0
  6
CONTINUOUS
 62
7
 10
-139.000000
 20
-161.175003
 11
-139.000000
 21
-164.675003
  0
LINE
  8
0
  6
CONTINUOUS
 62
7
 10
-139.000000
 20
-157.175003
 11
-139.000000
 21
-158.175003
  0
LINE
  8
0
  6
CONTINUOUS
 62
7
 10
-130.500000
 20
-152.175003
 11
-137.500000
 21
-152.175003
  0
LINE
  8
0
  6
CONTINUOUS
 62
7
 10
-130.500000
 20
-164.175003
 11
-139.000000
 21
-164.175003
  0
LINE
  8
0
  6
CONTINUOUS
 62
7
 10
-137.800003
 20
-152.475006
 11
-155.199997
 21
-152.475006
  0
LINE
  8
0
  6
CONTINUOUS
 62
7
 10
-137.500000
 20
-152.175003
 11
-137.800003
 21
-152.475006
  0
LINE
  8
0
  6
CONTINUOUS
 62
7
 10
-154.000000
 20
-161.175003
 11
-154.000000
 21
-164.675003
  0
LINE
  8
0
  6
CONTINUOUS
 62
7
 10
-154.000000
 20
-157.175003
 11
-154.000000
 21
-158.175003
  0
LINE
  8
0
  6
CONTINUOUS
 62
7
 10
-162.500000
 20
-152.175003
 11
-162.500000
 21
-164.175003
  0
LINE
  8
0
  6
CONTINUOUS
 62
7
 10
-162.500000
 20
-152.175003
 11
-155.500000
 21
-152.175003
  0
LINE
  8
0
  6
CONTINUOUS
 62
7
 10
-162.500000
 20
-164.175003
 11
-154.000000
 21
-164.175003
  0
LINE
  8
0
  6
CONTINUOUS
 62
7
 10
-155.500000
 20
-152.175003
 11
-155.199997
 21
-152.475006
  0
LINE
  8
0
  6
CONTINUOUS
 62
7
 10
-130.500000
 20
-152.175003
 11
-130.500000
 21
-164.175003
  0
LINE
  8
0
  6
CONTINUOUS
 62
7
 10
-163.000000
 20
-164.675003
 11
-154.000000
 21
-164.675003
  0
LINE
  8
0
  6
CONTINUOUS
 62
7
 10
-163.000000
 20
-174.175003
 11
-130.000000
 21
-174.175003
  0
LINE
  8
0
  6
CONTINUOUS
 62
7
 10
-130.000000
 20
-164.675003
 11
-139.000000
 21
-164.675003
  0
LINE
  8
0
  6
CONTINUOUS
 62
7
 10
-163.000000
 20
-164.675003
 11
-163.000000
 21
-174.175003
  0
LINE
  8
0
  6
CONTINUOUS
 62
7
 10
-130.000000
 20
-164.675003
 11
-130.000000
 21
-174.175003
  0
LINE
  8
0
  6
CENTER
 62
2
 10
-146.500000
 20
-150.175003
 11
-146.500000
 21
-176.175003
  0
LINE
  8
0
  6
CENTER
 62
2
 10
-138.100006
 20
-166.175003
 11
-154.899994
 21
-166.175003
  0
LINE
  8
0
  6
CENTER
 62
2
 10
-136.500000
 20
-165.175003
 11
-136.500000
 21
-172.175003
  0
LINE
  8
0
  6
CENTER
 62
2
 10
-133.000000
 20
-168.675003
 11
-140.000000
 21
-168.675003
  0
LINE
  8
0
  6
CONTINUOUS
 62
7
 10
-120.000000
 20
-172.175003
 11
-130.000000
 21
-172.175003
  0
LINE
  8
0
  6
CONTINUOUS
 62
2
 10
-120.000000
 20
-157.975006
 11
-121.000000
 21
-157.975006
  0
LINE
  8
0
  6
CONTINUOUS
 62
2
 10
-121.000000
 20
-154.524994
 11
-121.000000
 21
-155.375000
  0
LINE
  8
0
  6
CONTINUOUS
 62
2
 10
-121.000000
 20
-158.824997
 11
-124.800003
 21
-158.824997
  0
LINE
  8
0
  6
CONTINUOUS
 62
2
 10
-126.300003
 20
-156.024994
 11
-126.300003
 21
-157.324997
  0
LINE
  8
0
  6
CONTINUOUS
 62
2
 10
-121.000000
 20
-154.524994
 11
-124.800003
 21
-154.524994
  0
LINE
  8
0
  6
CONTINUOUS
 62
2
 10
-120.000000
 20
-155.375000
 11
-121.000000
 21
-155.375000
  0
LINE
  8
0
  6
CONTINUOUS
 62
7
 10
-120.000000
 20
-153.175003
 11
-120.000000
 21
-172.175003
  0
LINE
  8
0
  6
CONTINUOUS
 62
7
 10
-120.000000
 20
-153.175003
 11
-127.500000
 21
-153.175003
  0
LINE
  8
0
  6
CONTINUOUS
 62
7
 10
-127.500000
 20
-153.175003
 11
-127.500000
 21
-165.675003
  0
LINE
  8
0
  6
CONTINUOUS
 62
7
 10
-127.500000
 20
-165.675003
 11
-130.000000
 21
-165.675003
  0
LINE
  8
0
  6
CONTINUOUS
 62
7
 10
-128.500000
 20
-165.175003
 11
-130.000000
 21
-165.175003
  0
LINE
  8
0
  6
CONTINUOUS
 62
7
 10
-128.500000
 20
-154.175003
 11
-128.500000
 21
-165.175003
  0
LINE
  8
0
  6
CONTINUOUS
 62
7
 10
-128.500000
 20
-154.175003
 11
-130.500000
 21
-154.175003
  0
LINE
  8
0
  6
CENTER
 62
2
 10
-134.000000
 20
-150.175003
 11
-134.000000
 21
-154.175003
  0
LINE
  8
0
  6
CENTER
 62
2
 10
-159.000000
 20
-150.175003
 11
-159.000000
 21
-154.175003
  0
LINE
  8
0
  6
CENTER
 62
2
 10
-158.500000
 20
-172.175003
 11
-158.500000
 21
-176.175003
  0
LINE
  8
0
  6
CENTER
 62
2
 10
-134.500000
 20
-172.175003
 11
-134.500000
 21
-176.175003
  0
LINE
  8
0
  6
CONTINUOUS
 62
2
 10
-121.000000
 20
-157.975006
 11
-121.000000
 21
-158.824997
  0
LINE
  8
0
  6
CENTER
 62
2
 10
-118.000000
 20
-156.675003
 11
-128.300003
 21
-156.675003
  0
LINE
  8
0
  6
CENTER
 62
2
 10
-118.000000
 20
-162.675003
 11
-128.300003
 21
-162.675003
  0
LINE
  8
0
  6
CENTER
 62
2
 10
-238.000000
 20
85.074997
 11
-238.000000
 21
76.074997
  0
LINE
  8
0
  6
CENTER
 62
2
 10
-242.500000
 20
80.574997
 11
-233.500000
 21
80.574997
  0
LINE
  8
0
  6
CENTER
 62
2
 10
-174.000000
 20
85.074997
 11
-174.000000
 21
76.074997
  0
LINE
  8
0
  6
CENTER
 62
2
 10
-178.500000
 20
80.574997
 11
-169.500000
 21
80.574997
  0
LINE
  8
0
  6
CENTER
 62
2
 10
156.000000
 20
85.074997
 11
156.000000
 21
76.074997
  0
LINE
  8
0
  6
CENTER
 62
2
 10
151.500000
 20
80.574997
 11
160.500000
 21
80.574997
  0
LINE
  8
0
  6
CENTER
 62
2
 10
250.000000
 20
85.074997
 11
250.000000
 21
76.074997
  0
LINE
  8
0
  6
CENTER
 62
2
 10
245.500000
 20
80.574997
 11
254.500000
 21
80.574997
  0
LINE
  8
0
  6
CENTER
 62
2
 10
-238.000000
 20
-164.175003
 11
-238.000000
 21
-173.175003
  0
LINE
  8
0
  6
CENTER
 62
2
 10
-242.500000
 20
-168.675003
 11
-233.500000
 21
-168.675003
  0
LINE
  8
0
  6
CENTER
 62
2
 10
-174.000000
 20
-164.175003
 11
-174.000000
 21
-173.175003
  0
LINE
  8
0
  6
CENTER
 62
2
 10
-178.500000
 20
-168.675003
 11
-169.500000
 21
-168.675003
  0
LINE
  8
0
  6
CENTER
 62
2
 10
156.000000
 20
-164.175003
 11
156.000000
 21
-173.175003
  0
LINE
  8
0
  6
CENTER
 62
2
 10
151.500000
 20
-168.675003
 11
160.500000
 21
-168.675003
  0
LINE
  8
0
  6
CENTER
 62
2
 10
250.000000
 20
-164.175003
 11
250.000000
 21
-173.175003
  0
LINE
  8
0
  6
CENTER
 62
2
 10
245.500000
 20
-168.675003
 11
254.500000
 21
-168.675003
  0
LINE
  8
0
  6
CONTINUOUS
 62
7
 10
0.274994
 20
276.250000
 11
0.274994
 21
-276.750000
  0
LINE
  8
0
  6
CONTINUOUS
 62
7
 10
-399.250000
 20
-0.250000
 11
399.799988
 21
-0.250000
  0
CIRCLE
  8
0
  6
CONTINUOUS
 62
7
 10
128.500000
 20
-166.175003
 40
6.400000
  0
ARC
  8
0
  6
CONTINUOUS
 62
7
 10
136.800003
 20
-159.675003
 40
1.700010
 50
118.071999
 51
241.925995
  0
ARC
  8
0
  6
CONTINUOUS
 62
7
 10
120.199997
 20
-159.675003
 40
1.699990
 50
298.071014
 51
61.925098
  0
CIRCLE
  8
0
  6
CONTINUOUS
 62
2
 10
118.500000
 20
-168.675003
 40
1.500000
  0
CIRCLE
  8
0
  6
CONTINUOUS
 62
7
 10
118.500000
 20
-168.675003
 40
1.250000
  0
ARC
  8
0
  6
CONTINUOUS
 62
2
 10
106.800003
 20
-157.324997
 40
1.500000
 50
270.000000
 51
0.000000
  0
ARC
  8
0
  6
CONTINUOUS
 62
2
 10
106.800003
 20
-156.024994
 40
1.500000
 50
0.000000
 51
90.000000
  0
CIRCLE
  8
0
  6
CONTINUOUS
 62
2
 10
-188.500000
 20
-118.175003
 40
1.500000
  0
CIRCLE
  8
0
  6
CONTINUOUS
 62
7
 10
-188.500000
 20
-118.175003
 40
1.200000
  0
CIRCLE
  8
0
  6
CONTINUOUS
 62
2
 10
-188.500000
 20
-93.175003
 40
1.500000
  0
CIRCLE
  8
0
  6
CONTINUOUS
 62
7
 10
-188.500000
 20
-93.175003
 40
1.200000
  0
CIRCLE
  8
0
  6
CONTINUOUS
 62
7
 10
-229.000000
 20
-117.675003
 40
4.000000
  0
CIRCLE
  8
0
  6
CONTINUOUS
 62
2
 10
-229.000000
 20
-117.675003
 40
2.500000
  0
CIRCLE
  8
0
  6
CONTINUOUS
 62
7
 10
-229.000000
 20
-117.675003
 40
2.100000
  0
CIRCLE
  8
0
  6
CONTINUOUS
 62
7
 10
-229.000000
 20
-93.675003
 40
4.000000
  0
CIRCLE
  8
0
  6
CONTINUOUS
 62
2
 10
-229.000000
 20
-93.675003
 40
2.500000
  0
CIRCLE
  8
0
  6
CONTINUOUS
 62
7
 10
-229.000000
 20
-93.675003
 40
2.100000
  0
ARC
  8
0
  6
DASHED
 62
2
 10
-183.000000
 20
-93.675003
 40
2.500000
 50
216.869995
 51
143.130005
  0
CIRCLE
  8
0
  6
DASHED
 62
2
 10
-183.000000
 20
-93.675003
 40
2.100000
  0
CIRCLE
  8
0
  6
DASHED
 62
2
 10
-183.000000
 20
-93.675003
 40
4.000000
  0
CIRCLE
  8
0
  6
DASHED
 62
2
 10
-183.000000
 20
-117.675003
 40
4.000000
  0
CIRCLE
  8
0
  6
DASHED
 62
2
 10
-183.000000
 20
-117.675003
 40
2.500000
  0
CIRCLE
  8
0
  6
DASHED
 62
2
 10
-183.000000
 20
-117.675003
 40
2.100000
  0
CIRCLE
  8
0
  6
CONTINUOUS
 62
2
 10
-204.500000
 20
-156.675003
 40
1.500000
  0
CIRCLE
  8
0
  6
CONTINUOUS
 62
2
 10
-192.500000
 20
-156.675003
 40
1.500000
  0
CIRCLE
  8
0
  6
CONTINUOUS
 62
7
 10
-204.500000
 20
-156.675003
 40
1.250000
  0
CIRCLE
  8
0
  6
CONTINUOUS
 62
7
 10
-192.500000
 20
-156.675003
 40
1.250000
  0
CIRCLE
  8
0
  6
CONTINUOUS
 62
7
 10
-208.500000
 20
-118.175003
 40
1.200000
  0
CIRCLE
  8
0
  6
CONTINUOUS
 62
2
 10
-208.500000
 20
-118.175003
 40
1.500000
  0
CIRCLE
  8
0
  6
CONTINUOUS
 62
7
 10
-208.500000
 20
-93.175003
 40
1.200000
  0
CIRCLE
  8
0
  6
CONTINUOUS
 62
2
 10
-208.500000
 20
-93.175003
 40
1.500000
  0
CIRCLE
  8
0
  6
CONTINUOUS
 62
2
 10
-191.000000
 20
-168.675003
 40
1.500000
  0
ARC
  8
0
  6
CONTINUOUS
 62
7
 10
-174.000000
 20
-168.675003
 40
4.800000
 50
123.556999
 51
180.000000
  0
ARC
  8
0
  6
CONTINUOUS
 62
7
 10
-221.000000
 20
-168.675003
 40
3.000000
 50
0.000000
 51
180.000000
  0
CIRCLE
  8
0
  6
CONTINUOUS
 62
7
 10
-221.000000
 20
-168.675003
 40
1.250000
  0
CIRCLE
  8
0
  6
CONTINUOUS
 62
7
 10
-191.000000
 20
-168.675003
 40
1.250000
  0
ARC
  8
0
  6
CONTINUOUS
 62
7
 10
-238.000000
 20
-168.675003
 40
4.800000
 50
0.000000
 51
56.442600
  0
ARC
  8
0
  6
CONTINUOUS
 62
7
 10
-191.000000
 20
-168.675003
 40
3.000000
 50
0.000000
 51
180.000000
  0
CIRCLE
  8
0
  6
CONTINUOUS
 62
2
 10
-221.000000
 20
-168.675003
 40
1.500000
  0
CIRCLE
  8
0
  6
CONTINUOUS
 62
2
 10
-229.000000
 20
-232.675003
 40
2.500000
  0
CIRCLE
  8
0
  6
CONTINUOUS
 62
7
 10
-229.000000
 20
-232.675003
 40
2.100000
  0
CIRCLE
  8
0
  6
CONTINUOUS
 62
2
 10
-229.000000
 20
-208.675003
 40
2.500000
  0
CIRCLE
  8
0
  6
CONTINUOUS
 62
7
 10
-229.000000
 20
-208.675003
 40
2.100000
  0
CIRCLE
  8
0
  6
CONTINUOUS
 62
7
 10
-183.000000
 20
-208.675003
 40
2.100000
  0
CIRCLE
  8
0
  6
CONTINUOUS
 62
2
 10
-183.000000
 20
-232.675003
 40
2.500000
  0
CIRCLE
  8
0
  6
CONTINUOUS
 62
7
 10
-183.000000
 20
-232.675003
 40
2.100000
  0
CIRCLE
  8
0
  6
CONTINUOUS
 62
2
 10
-183.000000
 20
-208.675003
 40
2.500000
  0
CIRCLE
  8
0
  6
CONTINUOUS
 62
7
 10
-176.000000
 20
-216.175003
 40
5.900000
  0
CIRCLE
  8
0
  6
CONTINUOUS
 62
7
 10
-236.000000
 20
-216.175003
 40
5.900000
  0
ARC
  8
0
  6
CONTINUOUS
 62
7
 10
-174.000000
 20
-42.674999
 40
4.800000
 50
180.000000
 51
236.442993
  0
ARC
  8
0
  6
CONTINUOUS
 62
7
 10
-238.000000
 20
-42.674999
 40
4.800000
 50
303.557007
 51
0.000000
  0
ARC
  8
0
  6
CONTINUOUS
 62
7
 10
156.000000
 20
-42.674999
 40
4.800000
 50
303.557007
 51
0.000000
  0
CIRCLE
  8
0
  6
CONTINUOUS
 62
2
 10
215.500000
 20
-118.175003
 40
1.500000
  0
CIRCLE
  8
0
  6
CONTINUOUS
 62
7
 10
215.500000
 20
-118.175003
 40
1.200000
  0
CIRCLE
  8
0
  6
CONTINUOUS
 62
2
 10
215.500000
 20
-93.175003
 40
1.500000
  0
CIRCLE
  8
0
  6
CONTINUOUS
 62
7
 10
215.500000
 20
-93.175003
 40
1.200000
  0
CIRCLE
  8
0
  6
CONTINUOUS
 62
2
 10
235.500000
 20
-118.175003
 40
1.500000
  0
CIRCLE
  8
0
  6
CONTINUOUS
 62
7
 10
235.500000
 20
-118.175003
 40
1.200000
  0
CIRCLE
  8
0
  6
CONTINUOUS
 62
2
 10
235.500000
 20
-93.175003
 40
1.500000
  0
CIRCLE
  8
0
  6
CONTINUOUS
 62
7
 10
235.500000
 20
-93.175003
 40
1.200000
  0
CIRCLE
  8
0
  6
CONTINUOUS
 62
7
 10
165.000000
 20
-117.675003
 40
4.000000
  0
CIRCLE
  8
0
  6
CONTINUOUS
 62
2
 10
165.000000
 20
-117.675003
 40
2.500000
  0
CIRCLE
  8
0
  6
CONTINUOUS
 62
7
 10
165.000000
 20
-117.675003
 40
2.100000
  0
CIRCLE
  8
0
  6
CONTINUOUS
 62
7
 10
165.000000
 20
-93.675003
 40
4.000000
  0
CIRCLE
  8
0
  6
CONTINUOUS
 62
2
 10
165.000000
 20
-93.675003
 40
2.500000
  0
CIRCLE
  8
0
  6
CONTINUOUS
 62
7
 10
165.000000
 20
-93.675003
 40
2.100000
  0
CIRCLE
  8
0
  6
DASHED
 62
2
 10
241.000000
 20
-93.675003
 40
2.500000
  0
CIRCLE
  8
0
  6
DASHED
 62
2
 10
241.000000
 20
-93.675003
 40
2.100000
  0
CIRCLE
  8
0
  6
DASHED
 62
2
 10
241.000000
 20
-93.675003
 40
4.000000
  0
CIRCLE
  8
0
  6
DASHED
 62
2
 10
241.000000
 20
-117.675003
 40
4.000000
  0
CIRCLE
  8
0
  6
DASHED
 62
2
 10
241.000000
 20
-117.675003
 40
2.500000
  0
CIRCLE
  8
0
  6
DASHED
 62
2
 10
241.000000
 20
-117.675003
 40
2.100000
  0
CIRCLE
  8
0
  6
CONTINUOUS
 62
2
 10
209.500000
 20
-156.675003
 40
1.500000
  0
CIRCLE
  8
0
  6
CONTINUOUS
 62
2
 10
221.500000
 20
-156.675003
 40
1.500000
  0
CIRCLE
  8
0
  6
CONTINUOUS
 62
7
 10
209.500000
 20
-156.675003
 40
1.250000
  0
CIRCLE
  8
0
  6
CONTINUOUS
 62
7
 10
221.500000
 20
-156.675003
 40
1.250000
  0
CIRCLE
  8
0
  6
CONTINUOUS
 62
7
 10
195.500000
 20
-118.175003
 40
1.200000
  0
CIRCLE
  8
0
  6
CONTINUOUS
 62
2
 10
195.500000
 20
-118.175003
 40
1.500000
  0
CIRCLE
  8
0
  6
CONTINUOUS
 62
7
 10
195.500000
 20
-93.175003
 40
1.200000
  0
CIRCLE
  8
0
  6
CONTINUOUS
 62
2
 10
195.500000
 20
-93.175003
 40
1.500000
  0
CIRCLE
  8
0
  6
CONTINUOUS
 62
2
 10
233.000000
 20
-168.675003
 40
1.500000
  0
ARC
  8
0
  6
CONTINUOUS
 62
7
 10
250.000000
 20
-168.675003
 40
4.800000
 50
123.556999
 51
180.000000
  0
ARC
  8
0
  6
CONTINUOUS
 62
7
 10
173.000000
 20
-168.675003
 40
3.000000
 50
0.000000
 51
180.000000
  0
CIRCLE
  8
0
  6
CONTINUOUS
 62
7
 10
173.000000
 20
-168.675003
 40
1.250000
  0
CIRCLE
  8
0
  6
CONTINUOUS
 62
7
 10
233.000000
 20
-168.675003
 40
1.250000
  0
ARC
  8
0
  6
CONTINUOUS
 62
7
 10
156.000000
 20
-168.675003
 40
4.800000
 50
0.000000
 51
56.442600
  0
ARC
  8
0
  6
CONTINUOUS
 62
7
 10
233.000000
 20
-168.675003
 40
3.000000
 50
0.000000
 51
180.000000
  0
CIRCLE
  8
0
  6
CONTINUOUS
 62
2
 10
173.000000
 20
-168.675003
 40
1.500000
  0
ARC
  8
0
  6
CONTINUOUS
 62
7
 10
250.000000
 20
-42.674999
 40
4.800000
 50
180.000000
 51
236.442993
  0
CIRCLE
  8
0
  6
CONTINUOUS
 62
2
 10
165.000000
 20
-232.675003
 40
2.500000
  0
CIRCLE
  8
0
  6
CONTINUOUS
 62
7
 10
165.000000
 20
-232.675003
 40
2.100000
  0
CIRCLE
  8
0
  6
CONTINUOUS
 62
2
 10
165.000000
 20
-208.675003
 40
2.500000
  0
CIRCLE
  8
0
  6
CONTINUOUS
 62
7
 10
165.000000
 20
-208.675003
 40
2.100000
  0
CIRCLE
  8
0
  6
CONTINUOUS
 62
7
 10
241.000000
 20
-208.675003
 40
2.100000
  0
CIRCLE
  8
0
  6
CONTINUOUS
 62
2
 10
241.000000
 20
-232.675003
 40
2.500000
  0
CIRCLE
  8
0
  6
CONTINUOUS
 62
7
 10
241.000000
 20
-232.675003
 40
2.100000
  0
CIRCLE
  8
0
  6
CONTINUOUS
 62
2
 10
241.000000
 20
-208.675003
 40
2.500000
  0
CIRCLE
  8
0
  6
CONTINUOUS
 62
7
 10
248.000000
 20
-216.175003
 40
5.900000
  0
CIRCLE
  8
0
  6
CONTINUOUS
 62
7
 10
158.000000
 20
-216.175003
 40
5.900000
  0
ARC
  8
0
  6
CONTINUOUS
 62
2
 10
-158.199997
 20
91.925003
 40
1.500000
 50
270.000000
 51
0.000000
  0
CIRCLE
  8
0
  6
CONTINUOUS
 62
7
 10
-275.500000
 20
83.074997
 40
6.400000
  0
ARC
  8
0
  6
CONTINUOUS
 62
7
 10
-267.200012
 20
89.574997
 40
1.700010
 50
118.071999
 51
241.925995
  0
ARC
  8
0
  6
CONTINUOUS
 62
7
 10
-283.799988
 20
89.574997
 40
1.699990
 50
298.071014
 51
61.925499
  0
CIRCLE
  8
0
  6
CONTINUOUS
 62
2
 10
-285.500000
 20
80.574997
 40
1.500000
  0
CIRCLE
  8
0
  6
CONTINUOUS
 62
7
 10
-285.500000
 20
80.574997
 40
1.250000
  0
ARC
  8
0
  6
CONTINUOUS
 62
2
 10
-253.800003
 20
91.925003
 40
1.500000
 50
180.000000
 51
270.000000
  0
ARC
  8
0
  6
CONTINUOUS
 62
2
 10
-253.800003
 20
93.224998
 40
1.500000
 50
90.000000
 51
180.000000
  0
CIRCLE
  8
0
  6
CONTINUOUS
 62
2
 10
-126.500000
 20
80.574997
 40
1.500000
  0
CIRCLE
  8
0
  6
CONTINUOUS
 62
7
 10
-126.500000
 20
80.574997
 40
1.250000
  0
CIRCLE
  8
0
  6
CONTINUOUS
 62
2
 10
-188.500000
 20
156.074997
 40
1.500000
  0
CIRCLE
  8
0
  6
CONTINUOUS
 62
7
 10
-188.500000
 20
156.074997
 40
1.200000
  0
CIRCLE
  8
0
  6
CONTINUOUS
 62
2
 10
-188.500000
 20
131.074997
 40
1.500000
  0
CIRCLE
  8
0
  6
CONTINUOUS
 62
7
 10
-188.500000
 20
131.074997
 40
1.200000
  0
CIRCLE
  8
0
  6
CONTINUOUS
 62
7
 10
-229.000000
 20
155.574997
 40
4.000000
  0
CIRCLE
  8
0
  6
CONTINUOUS
 62
2
 10
-229.000000
 20
155.574997
 40
2.500000
  0
CIRCLE
  8
0
  6
CONTINUOUS
 62
7
 10
-229.000000
 20
155.574997
 40
2.100000
  0
CIRCLE
  8
0
  6
CONTINUOUS
 62
7
 10
-229.000000
 20
131.574997
 40
4.000000
  0
CIRCLE
  8
0
  6
CONTINUOUS
 62
2
 10
-229.000000
 20
131.574997
 40
2.500000
  0
CIRCLE
  8
0
  6
CONTINUOUS
 62
7
 10
-229.000000
 20
131.574997
 40
2.100000
  0
ARC
  8
0
  6
DASHED
 62
2
 10
-183.000000
 20
131.574997
 40
2.500000
 50
216.869995
 51
143.130005
  0
CIRCLE
  8
0
  6
DASHED
 62
2
 10
-183.000000
 20
131.574997
 40
2.100000
  0
CIRCLE
  8
0
  6
DASHED
 62
2
 10
-183.000000
 20
131.574997
 40
4.000000
  0
CIRCLE
  8
0
  6
DASHED
 62
2
 10
-183.000000
 20
155.574997
 40
4.000000
  0
CIRCLE
  8
0
  6
DASHED
 62
2
 10
-183.000000
 20
155.574997
 40
2.500000
  0
CIRCLE
  8
0
  6
DASHED
 62
2
 10
-183.000000
 20
155.574997
 40
2.100000
  0
CIRCLE
  8
0
  6
CONTINUOUS
 62
2
 10
-204.500000
 20
194.574997
 40
1.500000
  0
CIRCLE
  8
0
  6
CONTINUOUS
 62
2
 10
-192.500000
 20
194.574997
 40
1.500000
  0
CIRCLE
  8
0
  6
CONTINUOUS
 62
7
 10
-204.500000
 20
194.574997
 40
1.250000
  0
CIRCLE
  8
0
  6
CONTINUOUS
 62
7
 10
-192.500000
 20
194.574997
 40
1.250000
  0
CIRCLE
  8
0
  6
CONTINUOUS
 62
7
 10
-208.500000
 20
156.074997
 40
1.200000
  0
CIRCLE
  8
0
  6
CONTINUOUS
 62
2
 10
-208.500000
 20
156.074997
 40
1.500000
  0
CIRCLE
  8
0
  6
CONTINUOUS
 62
7
 10
-208.500000
 20
131.074997
 40
1.200000
  0
CIRCLE
  8
0
  6
CONTINUOUS
 62
2
 10
-208.500000
 20
131.074997
 40
1.500000
  0
CIRCLE
  8
0
  6
CONTINUOUS
 62
2
 10
-191.000000
 20
206.574997
 40
1.500000
  0
ARC
  8
0
  6
CONTINUOUS
 62
7
 10
-174.000000
 20
206.574997
 40
4.800000
 50
180.000000
 51
236.442993
  0
ARC
  8
0
  6
CONTINUOUS
 62
7
 10
-221.000000
 20
206.574997
 40
3.000000
 50
180.000000
 51
0.000000
  0
CIRCLE
  8
0
  6
CONTINUOUS
 62
7
 10
-221.000000
 20
206.574997
 40
1.250000
  0
CIRCLE
  8
0
  6
CONTINUOUS
 62
7
 10
-191.000000
 20
206.574997
 40
1.250000
  0
ARC
  8
0
  6
CONTINUOUS
 62
7
 10
-238.000000
 20
206.574997
 40
4.800000
 50
303.557007
 51
0.000000
  0
ARC
  8
0
  6
CONTINUOUS
 62
7
 10
-191.000000
 20
206.574997
 40
3.000000
 50
180.000000
 51
0.000000
  0
CIRCLE
  8
0
  6
CONTINUOUS
 62
2
 10
-221.000000
 20
206.574997
 40
1.500000
  0
ARC
  8
0
  6
CONTINUOUS
 62
2
 10
-158.199997
 20
93.224998
 40
1.500000
 50
0.000000
 51
90.000000
  0
CIRCLE
  8
0
  6
CONTINUOUS
 62
7
 10
-136.500000
 20
83.074997
 40
6.400000
  0
ARC
  8
0
  6
CONTINUOUS
 62
7
 10
-144.800003
 20
89.574997
 40
1.700010
 50
298.074005
 51
61.928101
  0
ARC
  8
0
  6
CONTINUOUS
 62
7
 10
-128.199997
 20
89.574997
 40
1.700000
 50
118.074997
 51
241.929001
  0
CIRCLE
  8
0
  6
CONTINUOUS
 62
2
 10
-229.000000
 20
16.575001
 40
2.500000
  0
CIRCLE
  8
0
  6
CONTINUOUS
 62
7
 10
-229.000000
 20
16.575001
 40
2.100000
  0
CIRCLE
  8
0
  6
CONTINUOUS
 62
2
 10
-229.000000
 20
40.575001
 40
2.500000
  0
CIRCLE
  8
0
  6
CONTINUOUS
 62
7
 10
-229.000000
 20
40.575001
 40
2.100000
  0
CIRCLE
  8
0
  6
CONTINUOUS
 62
7
 10
-183.000000
 20
40.575001
 40
2.100000
  0
CIRCLE
  8
0
  6
CONTINUOUS
 62
2
 10
-183.000000
 20
16.575001
 40
2.500000
  0
CIRCLE
  8
0
  6
CONTINUOUS
 62
7
 10
-183.000000
 20
16.575001
 40
2.100000
  0
CIRCLE
  8
0
  6
CONTINUOUS
 62
2
 10
-183.000000
 20
40.575001
 40
2.500000
  0
CIRCLE
  8
0
  6
CONTINUOUS
 62
7
 10
-176.000000
 20
33.075001
 40
5.900000
  0
CIRCLE
  8
0
  6
CONTINUOUS
 62
7
 10
-236.000000
 20
33.075001
 40
5.900000
  0
ARC
  8
0
  6
CONTINUOUS
 62
7
 10
-174.000000
 20
80.574997
 40
4.800000
 50
123.556999
 51
180.000000
  0
ARC
  8
0
  6
CONTINUOUS
 62
7
 10
-238.000000
 20
80.574997
 40
4.800000
 50
0.000000
 51
56.442600
  0
CIRCLE
  8
0
  6
CONTINUOUS
 62
7
 10
118.500000
 20
83.074997
 40
6.400000
  0
ARC
  8
0
  6
CONTINUOUS
 62
7
 10
126.800003
 20
89.574997
 40
1.700010
 50
118.071999
 51
241.925995
  0
ARC
  8
0
  6
CONTINUOUS
 62
7
 10
110.199997
 20
89.574997
 40
1.699990
 50
298.071014
 51
61.925201
  0
CIRCLE
  8
0
  6
CONTINUOUS
 62
2
 10
108.500000
 20
80.574997
 40
1.500000
  0
CIRCLE
  8
0
  6
CONTINUOUS
 62
7
 10
108.500000
 20
80.574997
 40
1.250000
  0
ARC
  8
0
  6
CONTINUOUS
 62
2
 10
140.199997
 20
91.925003
 40
1.500000
 50
180.000000
 51
270.000000
  0
ARC
  8
0
  6
CONTINUOUS
 62
2
 10
140.199997
 20
93.224998
 40
1.500000
 50
90.000000
 51
180.000000
  0
ARC
  8
0
  6
CONTINUOUS
 62
7
 10
156.000000
 20
80.574997
 40
4.800000
 50
0.000000
 51
56.442600
  0
CIRCLE
  8
0
  6
CONTINUOUS
 62
2
 10
215.500000
 20
156.074997
 40
1.500000
  0
CIRCLE
  8
0
  6
CONTINUOUS
 62
7
 10
215.500000
 20
156.074997
 40
1.200000
  0
CIRCLE
  8
0
  6
CONTINUOUS
 62
2
 10
215.500000
 20
131.074997
 40
1.500000
  0
CIRCLE
  8
0
  6
CONTINUOUS
 62
7
 10
215.500000
 20
131.074997
 40
1.200000
  0
CIRCLE
  8
0
  6
CONTINUOUS
 62
2
 10
235.500000
 20
156.074997
 40
1.500000
  0
CIRCLE
  8
0
  6
CONTINUOUS
 62
7
 10
235.500000
 20
156.074997
 40
1.200000
  0
CIRCLE
  8
0
  6
CONTINUOUS
 62
2
 10
235.500000
 20
131.074997
 40
1.500000
  0
CIRCLE
  8
0
  6
CONTINUOUS
 62
7
 10
235.500000
 20
131.074997
 40
1.200000
  0
CIRCLE
  8
0
  6
CONTINUOUS
 62
7
 10
165.000000
 20
155.574997
 40
4.000000
  0
CIRCLE
  8
0
  6
CONTINUOUS
 62
2
 10
165.000000
 20
155.574997
 40
2.500000
  0
CIRCLE
  8
0
  6
CONTINUOUS
 62
7
 10
165.000000
 20
155.574997
 40
2.100000
  0
CIRCLE
  8
0
  6
CONTINUOUS
 62
7
 10
165.000000
 20
131.574997
 40
4.000000
  0
CIRCLE
  8
0
  6
CONTINUOUS
 62
2
 10
165.000000
 20
131.574997
 40
2.500000
  0
CIRCLE
  8
0
  6
CONTINUOUS
 62
7
 10
165.000000
 20
131.574997
 40
2.100000
  0
CIRCLE
  8
0
  6
DASHED
 62
2
 10
241.000000
 20
131.574997
 40
2.500000
  0
CIRCLE
  8
0
  6
DASHED
 62
2
 10
241.000000
 20
131.574997
 40
2.100000
  0
CIRCLE
  8
0
  6
DASHED
 62
2
 10
241.000000
 20
131.574997
 40
4.000000
  0
CIRCLE
  8
0
  6
DASHED
 62
2
 10
241.000000
 20
155.574997
 40
4.000000
  0
CIRCLE
  8
0
  6
DASHED
 62
2
 10
241.000000
 20
155.574997
 40
2.500000
  0
CIRCLE
  8
0
  6
DASHED
 62
2
 10
241.000000
 20
155.574997
 40
2.100000
  0
CIRCLE
  8
0
  6
CONTINUOUS
 62
2
 10
209.500000
 20
194.574997
 40
1.500000
  0
CIRCLE
  8
0
  6
CONTINUOUS
 62
2
 10
221.500000
 20
194.574997
 40
1.500000
  0
CIRCLE
  8
0
  6
CONTINUOUS
 62
7
 10
209.500000
 20
194.574997
 40
1.250000
  0
CIRCLE
  8
0
  6
CONTINUOUS
 62
7
 10
221.500000
 20
194.574997
 40
1.250000
  0
CIRCLE
  8
0
  6
CONTINUOUS
 62
7
 10
195.500000
 20
156.074997
 40
1.200000
  0
CIRCLE
  8
0
  6
CONTINUOUS
 62
2
 10
195.500000
 20
156.074997
 40
1.500000
  0
CIRCLE
  8
0
  6
CONTINUOUS
 62
7
 10
195.500000
 20
131.074997
 40
1.200000
  0
CIRCLE
  8
0
  6
CONTINUOUS
 62
2
 10
195.500000
 20
131.074997
 40
1.500000
  0
CIRCLE
  8
0
  6
CONTINUOUS
 62
2
 10
233.000000
 20
206.574997
 40
1.500000
  0
ARC
  8
0
  6
CONTINUOUS
 62
7
 10
250.000000
 20
206.574997
 40
4.800000
 50
180.000000
 51
236.442993
  0
ARC
  8
0
  6
CONTINUOUS
 62
7
 10
173.000000
 20
206.574997
 40
3.000000
 50
180.000000
 51
0.000000
  0
CIRCLE
  8
0
  6
CONTINUOUS
 62
7
 10
173.000000
 20
206.574997
 40
1.250000
  0
CIRCLE
  8
0
  6
CONTINUOUS
 62
7
 10
233.000000
 20
206.574997
 40
1.250000
  0
ARC
  8
0
  6
CONTINUOUS
 62
7
 10
156.000000
 20
206.574997
 40
4.800000
 50
303.557007
 51
0.000000
  0
ARC
  8
0
  6
CONTINUOUS
 62
7
 10
233.000000
 20
206.574997
 40
3.000000
 50
180.000000
 51
0.000000
  0
CIRCLE
  8
0
  6
CONTINUOUS
 62
2
 10
173.000000
 20
206.574997
 40
1.500000
  0
ARC
  8
0
  6
CONTINUOUS
 62
7
 10
250.000000
 20
80.574997
 40
4.800000
 50
123.556999
 51
180.000000
  0
CIRCLE
  8
0
  6
CONTINUOUS
 62
7
 10
287.500000
 20
83.074997
 40
6.400000
  0
ARC
  8
0
  6
CONTINUOUS
 62
7
 10
279.200012
 20
89.574997
 40
1.700020
 50
298.074005
 51
61.928101
  0
ARC
  8
0
  6
CONTINUOUS
 62
7
 10
295.799988
 20
89.574997
 40
1.699990
 50
118.074997
 51
241.929001
  0
CIRCLE
  8
0
  6
CONTINUOUS
 62
2
 10
297.500000
 20
80.574997
 40
1.500000
  0
CIRCLE
  8
0
  6
CONTINUOUS
 62
7
 10
297.500000
 20
80.574997
 40
1.250000
  0
ARC
  8
0
  6
CONTINUOUS
 62
2
 10
265.799988
 20
91.925003
 40
1.500000
 50
270.000000
 51
0.000000
  0
ARC
  8
0
  6
CONTINUOUS
 62
2
 10
265.799988
 20
93.224998
 40
1.500000
 50
0.000000
 51
90.000000
  0
CIRCLE
  8
0
  6
CONTINUOUS
 62
2
 10
165.000000
 20
16.575001
 40
2.500000
  0
CIRCLE
  8
0
  6
CONTINUOUS
 62
7
 10
165.000000
 20
16.575001
 40
2.100000
  0
CIRCLE
  8
0
  6
CONTINUOUS
 62
2
 10
165.000000
 20
40.575001
 40
2.500000
  0
CIRCLE
  8
0
  6
CONTINUOUS
 62
7
 10
165.000000
 20
40.575001
 40
2.100000
  0
CIRCLE
  8
0
  6
CONTINUOUS
 62
7
 10
241.000000
 20
40.575001
 40
2.100000
  0
CIRCLE
  8
0
  6
CONTINUOUS
 62
2
 10
241.000000
 20
16.575001
 40
2.500000
  0
CIRCLE
  8
0
  6
CONTINUOUS
 62
7
 10
241.000000
 20
16.575001
 40
2.100000
  0
CIRCLE
  8
0
  6
CONTINUOUS
 62
2
 10
241.000000
 20
40.575001
 40
2.500000
  0
CIRCLE
  8
0
  6
CONTINUOUS
 62
7
 10
248.000000
 20
33.075001
 40
5.900000
  0
CIRCLE
  8
0
  6
CONTINUOUS
 62
7
 10
158.000000
 20
33.075001
 40
5.900000
  0
ARC
  8
0
  6
CONTINUOUS
 62
2
 10
299.200012
 20
-156.024994
 40
1.500000
 50
90.000000
 51
180.000000
  0
CIRCLE
  8
0
  6
CONTINUOUS
 62
7
 10
277.500000
 20
-166.175003
 40
6.400000
  0
ARC
  8
0
  6
CONTINUOUS
 62
7
 10
269.200012
 20
-159.675003
 40
1.700010
 50
298.074005
 51
61.928101
  0
ARC
  8
0
  6
CONTINUOUS
 62
7
 10
285.799988
 20
-159.675003
 40
1.699980
 50
118.074997
 51
241.929001
  0
CIRCLE
  8
0
  6
CONTINUOUS
 62
2
 10
287.500000
 20
-168.675003
 40
1.500000
  0
CIRCLE
  8
0
  6
CONTINUOUS
 62
7
 10
287.500000
 20
-168.675003
 40
1.250000
  0
ARC
  8
0
  6
CONTINUOUS
 62
2
 10
299.200012
 20
-157.324997
 40
1.500000
 50
180.000000
 51
270.000000
  0
CIRCLE
  8
0
  6
CONTINUOUS
 62
7
 10
-265.500000
 20
-166.175003
 40
6.400000
  0
ARC
  8
0
  6
CONTINUOUS
 62
7
 10
-257.200012
 20
-159.675003
 40
1.700010
 50
118.071999
 51
241.925995
  0
ARC
  8
0
  6
CONTINUOUS
 62
7
 10
-273.799988
 20
-159.675003
 40
1.699990
 50
298.071014
 51
61.925301
  0
CIRCLE
  8
0
  6
CONTINUOUS
 62
2
 10
-275.500000
 20
-168.675003
 40
1.500000
  0
CIRCLE
  8
0
  6
CONTINUOUS
 62
7
 10
-275.500000
 20
-168.675003
 40
1.250000
  0
ARC
  8
0
  6
CONTINUOUS
 62
2
 10
-287.200012
 20
-157.324997
 40
1.500000
 50
270.000000
 51
0.000000
  0
ARC
  8
0
  6
CONTINUOUS
 62
2
 10
-287.200012
 20
-156.024994
 40
1.500000
 50
0.000000
 51
90.000000
  0
ARC
  8
0
  6
CONTINUOUS
 62
2
 10
-124.800003
 20
-156.024994
 40
1.500000
 50
90.000000
 51
180.000000
  0
CIRCLE
  8
0
  6
CONTINUOUS
 62
7
 10
-146.500000
 20
-166.175003
 40
6.400000
  0
ARC
  8
0
  6
CONTINUOUS
 62
7
 10
-154.800003
 20
-159.675003
 40
1.700000
 50
298.074005
 51
61.928101
  0
ARC
  8
0
  6
CONTINUOUS
 62
7
 10
-138.199997
 20
-159.675003
 40
1.699990
 50
118.074997
 51
241.929001
  0
CIRCLE
  8
0
  6
CONTINUOUS
 62
2
 10
-136.500000
 20
-168.675003
 40
1.500000
  0
CIRCLE
  8
0
  6
CONTINUOUS
 62
7
 10
-136.500000
 20
-168.675003
 40
1.250000
  0
ARC
  8
0
  6
CONTINUOUS
 62
2
 10
-124.800003
 20
-157.324997
 40
1.500000
 50
180.000000
 51
270.000000
  0
CIRCLE
  8
0
  6
CONTINUOUS
 62
2
 10
-238.000000
 20
80.574997
 40
2.500000
  0
CIRCLE
  8
0
  6
CONTINUOUS
 62
7
 10
-238.000000
 20
80.574997
 40
2.100000
  0
CIRCLE
  8
0
  6
CONTINUOUS
 62
2
 10
-174.000000
 20
80.574997
 40
2.500000
  0
CIRCLE
  8
0
  6
CONTINUOUS
 62
7
 10
-174.000000
 20
80.574997
 40
2.100000
  0
CIRCLE
  8
0
  6
CONTINUOUS
 62
2
 10
156.000000
 20
80.574997
 40
2.500000
  0
CIRCLE
  8
0
  6
CONTINUOUS
 62
7
 10
156.000000
 20
80.574997
 40
2.100000
  0
CIRCLE
  8
0
  6
CONTINUOUS
 62
2
 10
250.000000
 20
80.574997
 40
2.500000
  0
CIRCLE
  8
0
  6
CONTINUOUS
 62
7
 10
250.000000
 20
80.574997
 40
2.100000
  0
CIRCLE
  8
0
  6
CONTINUOUS
 62
2
 10
-238.000000
 20
-168.675003
 40
2.500000
  0
CIRCLE
  8
0
  6
CONTINUOUS
 62
7
 10
-238.000000
 20
-168.675003
 40
2.100000
  0
CIRCLE
  8
0
  6
CONTINUOUS
 62
2
 10
-174.000000
 20
-168.675003
 40
2.500000
  0
CIRCLE
  8
0
  6
CONTINUOUS
 62
7
 10
-174.000000
 20
-168.675003
 40
2.100000
  0
CIRCLE
  8
0
  6
CONTINUOUS
 62
2
 10
156.000000
 20
-168.675003
 40
2.500000
  0
CIRCLE
  8
0
  6
CONTINUOUS
 62
7
 10
156.000000
 20
-168.675003
 40
2.100000
  0
CIRCLE
  8
0
  6
CONTINUOUS
 62
2
 10
250.000000
 20
-168.675003
 40
2.500000
  0
CIRCLE
  8
0
  6
CONTINUOUS
 62
7
 10
250.000000
 20
-168.675003
 40
2.100000
  0
TEXT
  8
0
 62
7
 10
249.264832
 20
-267.375000
 40
12.500000
  1
KOGANEI CORP.
 50
0.000000
 41
0.771525
 51
0.000000
  7
STANDARD
  0
TEXT
  8
0
 62
7
 10
292.414673
 20
261.500000
 40
9.000000
  1
Ver.1.0
 50
0.000000
 41
1.010331
 51
0.000000
  7
STANDARD
  0
TEXT
  8
0
 62
7
 10
15.774433
 20
-22.500000
 40
9.000000
  1
MODEL:APTS-GT12-25-TP-R***
 50
0.000000
 41
0.762001
 51
0.000000
  7
STANDARD
  0
TEXT
  8
0
 62
7
 10
-351.135315
 20
261.500000
 40
9.000000
  1
AP TABLE
 50
0.000000
 41
0.775607
 51
0.000000
  7
STANDARD
  0
TEXT
  8
0
 62
7
 10
-383.750580
 20
-22.500000
 40
9.000000
  1
MODEL:APTS-GT12-15-TP-R***
 50
0.000000
 41
0.772733
 51
0.000000
  7
STANDARD
  0
TEXT
  8
0
 62
7
 10
-383.750580
 20
229.000000
 40
9.000000
  1
MODEL:APTS-SD12-15-TP-R***
 50
0.000000
 41
0.772733
 51
0.000000
  7
STANDARD
  0
TEXT
  8
0
 62
7
 10
15.774433
 20
229.000000
 40
9.000000
  1
MODEL:APTS-SD12-25-TP-R***
 50
0.000000
 41
0.762001
 51
0.000000
  7
STANDARD
  0
ENDSEC
  0
EOF
