  0
SECTION
  2
HEADER
  0
ENDSEC
  0
SECTION
  2
TABLES
  0
TABLE
  2
LTYPE
 70
     4
  0
LTYPE
  2
CONTINUOUS
 70
    64
  3
Solid line
 72
    65
 73
     0
 40
0.000000
  0
LTYPE
  2
DASHED
 70
    64
  3
__ __ __ __ __ __ __ __ __ __ __ __ __ __ __
 72
    65
 73
     2
 40
3.500000
 49
2.000000
 49
-1.500000
  0
LTYPE
  2
CENTER
 70
    64
  3
____ _ ____ _ ____ _ ____ _ ____ _ ____ _ ____
 72
    65
 73
     4
 40
17.500000
 49
13.000000
 49
-1.500000
 49
1.500000
 49
-1.500000
  0
LTYPE
  2
PHANTOM
 70
    64
  3
_____ _ _ _____ _ _ _____ _ _ _____ _ _ ____  
 72
    65
 73
     6
 40
15.500000
 49
8.000000
 49
-1.500000
 49
1.500000
 49
-1.500000
 49
1.500000
 49
-1.500000
  0
ENDTAB
  0
TABLE
  2
LAYER
 70
     1
  0
LAYER
  2
0
 70
     0
 62
     7
  6
CONTINUOUS
  0
ENDTAB
  0
TABLE
  2
STYLE
 70
     1
  0
STYLE
  2
STANDARD
 70
     0
 40
0.000000
 41
1.000000
 50
0.000000
 71
     0
 42
0.200000
  3
txt
  4
BIGFONT
  0
ENDTAB
  0
TABLE
  2
VIEW
 70
     0
  0
ENDTAB
  0
ENDSEC
  0
SECTION
  2
BLOCKS
  0
ENDSEC
  0
SECTION
  2
ENTITIES
  0
LINE
  8
0
  6
CONTINUOUS
 62
7
 10
399.799988
 20
276.250000
 11
399.799988
 21
-276.750000
  0
LINE
  8
0
  6
CONTINUOUS
 62
7
 10
-399.250000
 20
276.250000
 11
-399.250000
 21
-276.750000
  0
LINE
  8
0
  6
CONTINUOUS
 62
7
 10
-399.250000
 20
276.250000
 11
399.799988
 21
276.250000
  0
LINE
  8
0
  6
CONTINUOUS
 62
7
 10
-399.250000
 20
-276.750000
 11
399.799988
 21
-276.750000
  0
LINE
  8
0
  6
CONTINUOUS
 62
7
 10
239.800003
 20
-251.750000
 11
399.799988
 21
-251.750000
  0
LINE
  8
0
  6
CONTINUOUS
 62
7
 10
239.800003
 20
251.250000
 11
399.799988
 21
251.250000
  0
LINE
  8
0
  6
CONTINUOUS
 62
7
 10
-399.250000
 20
251.250000
 11
-239.250000
 21
251.250000
  0
LINE
  8
0
  6
CONTINUOUS
 62
7
 10
239.800003
 20
-251.750000
 11
239.800003
 21
-276.750000
  0
LINE
  8
0
  6
CONTINUOUS
 62
7
 10
239.800003
 20
251.250000
 11
239.800003
 21
276.250000
  0
LINE
  8
0
  6
CONTINUOUS
 62
7
 10
-239.250000
 20
276.250000
 11
-239.250000
 21
251.250000
  0
LINE
  8
0
  6
CENTER
 62
2
 10
-176.000000
 20
-107.175003
 11
-256.000000
 21
-107.175003
  0
LINE
  8
0
  6
CONTINUOUS
 62
7
 10
-221.899994
 20
-123.175003
 11
-221.899994
 21
-91.175003
  0
LINE
  8
0
  6
CONTINUOUS
 62
7
 10
-195.100006
 20
-123.175003
 11
-221.899994
 21
-123.175003
  0
LINE
  8
0
  6
CONTINUOUS
 62
7
 10
-195.100006
 20
-91.175003
 11
-221.899994
 21
-91.175003
  0
LINE
  8
0
  6
CONTINUOUS
 62
7
 10
-195.100006
 20
-123.175003
 11
-195.100006
 21
-91.175003
  0
LINE
  8
0
  6
CONTINUOUS
 62
7
 10
-195.100006
 20
-122.974998
 11
-187.500000
 21
-122.974998
  0
LINE
  8
0
  6
CONTINUOUS
 62
7
 10
-187.500000
 20
-122.974998
 11
-187.500000
 21
-91.375000
  0
LINE
  8
0
  6
CONTINUOUS
 62
7
 10
-195.100006
 20
-91.375000
 11
-187.500000
 21
-91.375000
  0
LINE
  8
0
  6
CONTINUOUS
 62
7
 10
-254.000000
 20
-114.675003
 11
-229.500000
 21
-114.675003
  0
LINE
  8
0
  6
CONTINUOUS
 62
7
 10
-187.500000
 20
-114.675003
 11
-178.000000
 21
-114.675003
  0
LINE
  8
0
  6
CONTINUOUS
 62
7
 10
-254.000000
 20
-99.675003
 11
-229.500000
 21
-99.675003
  0
LINE
  8
0
  6
CONTINUOUS
 62
7
 10
-187.500000
 20
-99.675003
 11
-178.000000
 21
-99.675003
  0
LINE
  8
0
  6
CONTINUOUS
 62
7
 10
-195.100006
 20
-98.175003
 11
-221.899994
 21
-98.175003
  0
LINE
  8
0
  6
CONTINUOUS
 62
7
 10
-195.100006
 20
-116.175003
 11
-221.899994
 21
-116.175003
  0
LINE
  8
0
  6
CONTINUOUS
 62
7
 10
-254.000000
 20
-90.675003
 11
-178.000000
 21
-90.675003
  0
LINE
  8
0
  6
CONTINUOUS
 62
7
 10
-254.000000
 20
-90.675003
 11
-254.000000
 21
-123.675003
  0
LINE
  8
0
  6
CONTINUOUS
 62
7
 10
-178.000000
 20
-90.675003
 11
-178.000000
 21
-123.675003
  0
LINE
  8
0
  6
CENTER
 62
2
 10
-176.000000
 20
-208.175003
 11
-256.000000
 21
-208.175003
  0
LINE
  8
0
  6
CONTINUOUS
 62
7
 10
-254.000000
 20
-224.675003
 11
-178.000000
 21
-224.675003
  0
LINE
  8
0
  6
CONTINUOUS
 62
7
 10
-254.000000
 20
-191.675003
 11
-178.000000
 21
-191.675003
  0
LINE
  8
0
  6
CONTINUOUS
 62
7
 10
-254.000000
 20
-191.675003
 11
-254.000000
 21
-224.675003
  0
LINE
  8
0
  6
CONTINUOUS
 62
7
 10
-178.000000
 20
-191.675003
 11
-178.000000
 21
-224.675003
  0
LINE
  8
0
  6
CONTINUOUS
 62
7
 10
-229.500000
 20
-122.974998
 11
-229.500000
 21
-91.387497
  0
LINE
  8
0
  6
CONTINUOUS
 62
7
 10
-221.899994
 20
-122.974998
 11
-229.500000
 21
-122.974998
  0
LINE
  8
0
  6
CONTINUOUS
 62
7
 10
-221.899994
 20
-91.375000
 11
-229.500000
 21
-91.375000
  0
LINE
  8
0
  6
CENTER
 62
2
 10
-193.000000
 20
-101.175003
 11
-193.000000
 21
-89.175003
  0
LINE
  8
0
  6
CENTER
 62
2
 10
-199.000000
 20
-95.175003
 11
-187.000000
 21
-95.175003
  0
LINE
  8
0
  6
CENTER
 62
2
 10
-193.000000
 20
-125.175003
 11
-193.000000
 21
-113.175003
  0
LINE
  8
0
  6
CENTER
 62
2
 10
-199.000000
 20
-119.175003
 11
-187.000000
 21
-119.175003
  0
LINE
  8
0
  6
CENTER
 62
2
 10
-198.500000
 20
-123.175003
 11
-198.500000
 21
-116.175003
  0
LINE
  8
0
  6
CENTER
 62
2
 10
-202.000000
 20
-119.675003
 11
-195.000000
 21
-119.675003
  0
LINE
  8
0
  6
CENTER
 62
2
 10
-218.500000
 20
-123.175003
 11
-218.500000
 21
-116.175003
  0
LINE
  8
0
  6
CENTER
 62
2
 10
-222.000000
 20
-119.675003
 11
-215.000000
 21
-119.675003
  0
LINE
  8
0
  6
CENTER
 62
2
 10
-198.500000
 20
-98.175003
 11
-198.500000
 21
-91.175003
  0
LINE
  8
0
  6
CENTER
 62
2
 10
-202.000000
 20
-94.675003
 11
-195.000000
 21
-94.675003
  0
LINE
  8
0
  6
CENTER
 62
2
 10
-218.500000
 20
-98.175003
 11
-218.500000
 21
-91.175003
  0
LINE
  8
0
  6
CENTER
 62
2
 10
-222.000000
 20
-94.675003
 11
-215.000000
 21
-94.675003
  0
LINE
  8
0
  6
CENTER
 62
2
 10
-239.000000
 20
-101.175003
 11
-239.000000
 21
-89.175003
  0
LINE
  8
0
  6
CENTER
 62
2
 10
-245.000000
 20
-95.175003
 11
-233.000000
 21
-95.175003
  0
LINE
  8
0
  6
CENTER
 62
2
 10
-239.000000
 20
-125.175003
 11
-239.000000
 21
-113.175003
  0
LINE
  8
0
  6
CENTER
 62
2
 10
-245.000000
 20
-119.175003
 11
-233.000000
 21
-119.175003
  0
LINE
  8
0
  6
CENTER
 62
2
 10
-239.000000
 20
-191.675003
 11
-239.000000
 21
-200.675003
  0
LINE
  8
0
  6
CENTER
 62
2
 10
-243.500000
 20
-196.175003
 11
-234.500000
 21
-196.175003
  0
LINE
  8
0
  6
CENTER
 62
2
 10
-246.000000
 20
-195.774994
 11
-246.000000
 21
-211.574997
  0
LINE
  8
0
  6
CENTER
 62
2
 10
-253.899994
 20
-203.675003
 11
-238.100006
 21
-203.675003
  0
LINE
  8
0
  6
CENTER
 62
2
 10
-193.000000
 20
-191.675003
 11
-193.000000
 21
-200.675003
  0
LINE
  8
0
  6
CENTER
 62
2
 10
-197.500000
 20
-196.175003
 11
-188.500000
 21
-196.175003
  0
LINE
  8
0
  6
CENTER
 62
2
 10
-186.000000
 20
-195.774994
 11
-186.000000
 21
-211.574997
  0
LINE
  8
0
  6
CENTER
 62
2
 10
-193.899994
 20
-203.675003
 11
-178.100006
 21
-203.675003
  0
LINE
  8
0
  6
CENTER
 62
2
 10
-193.000000
 20
-215.675003
 11
-193.000000
 21
-224.675003
  0
LINE
  8
0
  6
CENTER
 62
2
 10
-197.500000
 20
-220.175003
 11
-188.500000
 21
-220.175003
  0
LINE
  8
0
  6
CENTER
 62
2
 10
-239.000000
 20
-215.675003
 11
-239.000000
 21
-224.675003
  0
LINE
  8
0
  6
CENTER
 62
2
 10
-243.500000
 20
-220.175003
 11
-234.500000
 21
-220.175003
  0
LINE
  8
0
  6
DASHED
 62
2
 10
-235.000000
 20
-163.175003
 11
-235.000000
 21
-164.175003
  0
LINE
  8
0
  6
DASHED
 62
2
 10
-235.000000
 20
-164.175003
 11
-243.000000
 21
-164.175003
  0
LINE
  8
0
  6
DASHED
 62
2
 10
-236.500000
 20
-164.175003
 11
-236.500000
 21
-168.675003
  0
LINE
  8
0
  6
DASHED
 62
2
 10
-236.899994
 20
-164.175003
 11
-236.899994
 21
-168.675003
  0
LINE
  8
0
  6
CENTER
 62
2
 10
-239.000000
 20
-161.175003
 11
-239.000000
 21
-170.675003
  0
LINE
  8
0
  6
DASHED
 62
2
 10
-241.100006
 20
-164.175003
 11
-241.100006
 21
-168.675003
  0
LINE
  8
0
  6
DASHED
 62
2
 10
-241.500000
 20
-164.175003
 11
-241.500000
 21
-168.675003
  0
LINE
  8
0
  6
DASHED
 62
2
 10
-243.000000
 20
-163.175003
 11
-243.000000
 21
-164.175003
  0
LINE
  8
0
  6
DASHED
 62
2
 10
-189.000000
 20
-163.175003
 11
-189.000000
 21
-164.175003
  0
LINE
  8
0
  6
DASHED
 62
2
 10
-189.000000
 20
-164.175003
 11
-197.000000
 21
-164.175003
  0
LINE
  8
0
  6
DASHED
 62
2
 10
-190.500000
 20
-164.175003
 11
-190.500000
 21
-168.675003
  0
LINE
  8
0
  6
DASHED
 62
2
 10
-190.899994
 20
-164.175003
 11
-190.899994
 21
-168.675003
  0
LINE
  8
0
  6
CENTER
 62
2
 10
-193.000000
 20
-161.175003
 11
-193.000000
 21
-170.675003
  0
LINE
  8
0
  6
DASHED
 62
2
 10
-195.100006
 20
-164.175003
 11
-195.100006
 21
-168.675003
  0
LINE
  8
0
  6
DASHED
 62
2
 10
-195.500000
 20
-164.175003
 11
-195.500000
 21
-168.675003
  0
LINE
  8
0
  6
DASHED
 62
2
 10
-197.000000
 20
-163.175003
 11
-197.000000
 21
-164.175003
  0
LINE
  8
0
  6
CENTER
 62
2
 10
256.000000
 20
-107.175003
 11
146.000000
 21
-107.175003
  0
LINE
  8
0
  6
CONTINUOUS
 62
7
 10
189.750000
 20
-123.175003
 11
189.750000
 21
-91.175003
  0
LINE
  8
0
  6
CONTINUOUS
 62
7
 10
237.250000
 20
-123.175003
 11
189.750000
 21
-123.175003
  0
LINE
  8
0
  6
CONTINUOUS
 62
7
 10
237.250000
 20
-91.175003
 11
189.750000
 21
-91.175003
  0
LINE
  8
0
  6
CONTINUOUS
 62
7
 10
237.250000
 20
-123.175003
 11
237.250000
 21
-91.175003
  0
LINE
  8
0
  6
CONTINUOUS
 62
7
 10
237.250000
 20
-122.974998
 11
244.850006
 21
-122.974998
  0
LINE
  8
0
  6
CONTINUOUS
 62
7
 10
244.850006
 20
-122.974998
 11
244.850006
 21
-91.375000
  0
LINE
  8
0
  6
CONTINUOUS
 62
7
 10
237.250000
 20
-91.375000
 11
244.850006
 21
-91.375000
  0
LINE
  8
0
  6
CONTINUOUS
 62
7
 10
148.000000
 20
-114.675003
 11
182.149994
 21
-114.675003
  0
LINE
  8
0
  6
CONTINUOUS
 62
7
 10
244.850006
 20
-114.675003
 11
254.000000
 21
-114.675003
  0
LINE
  8
0
  6
CONTINUOUS
 62
7
 10
148.000000
 20
-99.675003
 11
182.149994
 21
-99.675003
  0
LINE
  8
0
  6
CONTINUOUS
 62
7
 10
244.850006
 20
-99.675003
 11
254.000000
 21
-99.675003
  0
LINE
  8
0
  6
CONTINUOUS
 62
7
 10
237.250000
 20
-98.175003
 11
189.750000
 21
-98.175003
  0
LINE
  8
0
  6
CONTINUOUS
 62
7
 10
237.250000
 20
-116.175003
 11
189.750000
 21
-116.175003
  0
LINE
  8
0
  6
CONTINUOUS
 62
7
 10
148.000000
 20
-90.675003
 11
254.000000
 21
-90.675003
  0
LINE
  8
0
  6
CONTINUOUS
 62
7
 10
148.000000
 20
-90.675003
 11
148.000000
 21
-123.675003
  0
LINE
  8
0
  6
CONTINUOUS
 62
7
 10
254.000000
 20
-90.675003
 11
254.000000
 21
-123.675003
  0
LINE
  8
0
  6
CENTER
 62
2
 10
256.000000
 20
-208.175003
 11
146.000000
 21
-208.175003
  0
LINE
  8
0
  6
CONTINUOUS
 62
7
 10
148.000000
 20
-224.675003
 11
254.000000
 21
-224.675003
  0
LINE
  8
0
  6
CONTINUOUS
 62
7
 10
148.000000
 20
-191.675003
 11
254.000000
 21
-191.675003
  0
LINE
  8
0
  6
CONTINUOUS
 62
7
 10
148.000000
 20
-191.675003
 11
148.000000
 21
-224.675003
  0
LINE
  8
0
  6
CONTINUOUS
 62
7
 10
254.000000
 20
-191.675003
 11
254.000000
 21
-224.675003
  0
LINE
  8
0
  6
CONTINUOUS
 62
7
 10
182.149994
 20
-122.974998
 11
182.149994
 21
-91.387497
  0
LINE
  8
0
  6
CONTINUOUS
 62
7
 10
189.750000
 20
-91.375000
 11
182.149994
 21
-91.375000
  0
LINE
  8
0
  6
CONTINUOUS
 62
7
 10
189.750000
 20
-122.974998
 11
182.149994
 21
-122.974998
  0
LINE
  8
0
  6
CENTER
 62
2
 10
163.000000
 20
-125.175003
 11
163.000000
 21
-113.175003
  0
LINE
  8
0
  6
CENTER
 62
2
 10
157.000000
 20
-119.175003
 11
169.000000
 21
-119.175003
  0
LINE
  8
0
  6
CENTER
 62
2
 10
163.000000
 20
-101.175003
 11
163.000000
 21
-89.175003
  0
LINE
  8
0
  6
CENTER
 62
2
 10
157.000000
 20
-95.175003
 11
169.000000
 21
-95.175003
  0
LINE
  8
0
  6
CENTER
 62
2
 10
193.500000
 20
-123.175003
 11
193.500000
 21
-116.175003
  0
LINE
  8
0
  6
CENTER
 62
2
 10
190.000000
 20
-119.675003
 11
197.000000
 21
-119.675003
  0
LINE
  8
0
  6
CENTER
 62
2
 10
213.500000
 20
-123.175003
 11
213.500000
 21
-116.175003
  0
LINE
  8
0
  6
CENTER
 62
2
 10
210.000000
 20
-119.675003
 11
217.000000
 21
-119.675003
  0
LINE
  8
0
  6
CENTER
 62
2
 10
233.500000
 20
-123.175003
 11
233.500000
 21
-116.175003
  0
LINE
  8
0
  6
CENTER
 62
2
 10
230.000000
 20
-119.675003
 11
237.000000
 21
-119.675003
  0
LINE
  8
0
  6
CENTER
 62
2
 10
239.000000
 20
-125.175003
 11
239.000000
 21
-113.175003
  0
LINE
  8
0
  6
CENTER
 62
2
 10
233.000000
 20
-119.175003
 11
245.000000
 21
-119.175003
  0
LINE
  8
0
  6
CENTER
 62
2
 10
239.000000
 20
-101.175003
 11
239.000000
 21
-89.175003
  0
LINE
  8
0
  6
CENTER
 62
2
 10
233.000000
 20
-95.175003
 11
245.000000
 21
-95.175003
  0
LINE
  8
0
  6
CENTER
 62
2
 10
233.500000
 20
-98.175003
 11
233.500000
 21
-91.175003
  0
LINE
  8
0
  6
CENTER
 62
2
 10
230.000000
 20
-94.675003
 11
237.000000
 21
-94.675003
  0
LINE
  8
0
  6
CENTER
 62
2
 10
193.500000
 20
-98.175003
 11
193.500000
 21
-91.175003
  0
LINE
  8
0
  6
CENTER
 62
2
 10
190.000000
 20
-94.675003
 11
197.000000
 21
-94.675003
  0
LINE
  8
0
  6
CENTER
 62
2
 10
213.500000
 20
-98.175003
 11
213.500000
 21
-91.175003
  0
LINE
  8
0
  6
CENTER
 62
2
 10
210.000000
 20
-94.675003
 11
217.000000
 21
-94.675003
  0
LINE
  8
0
  6
CENTER
 62
2
 10
163.000000
 20
-191.675003
 11
163.000000
 21
-200.675003
  0
LINE
  8
0
  6
CENTER
 62
2
 10
158.500000
 20
-196.175003
 11
167.500000
 21
-196.175003
  0
LINE
  8
0
  6
CENTER
 62
2
 10
156.000000
 20
-195.774994
 11
156.000000
 21
-211.574997
  0
LINE
  8
0
  6
CENTER
 62
2
 10
148.100006
 20
-203.675003
 11
163.899994
 21
-203.675003
  0
LINE
  8
0
  6
CENTER
 62
2
 10
163.000000
 20
-215.675003
 11
163.000000
 21
-224.675003
  0
LINE
  8
0
  6
CENTER
 62
2
 10
158.500000
 20
-220.175003
 11
167.500000
 21
-220.175003
  0
LINE
  8
0
  6
CENTER
 62
2
 10
239.000000
 20
-191.675003
 11
239.000000
 21
-200.675003
  0
LINE
  8
0
  6
CENTER
 62
2
 10
234.500000
 20
-196.175003
 11
243.500000
 21
-196.175003
  0
LINE
  8
0
  6
CENTER
 62
2
 10
239.000000
 20
-215.675003
 11
239.000000
 21
-224.675003
  0
LINE
  8
0
  6
CENTER
 62
2
 10
234.500000
 20
-220.175003
 11
243.500000
 21
-220.175003
  0
LINE
  8
0
  6
CENTER
 62
2
 10
246.000000
 20
-195.774994
 11
246.000000
 21
-211.574997
  0
LINE
  8
0
  6
CENTER
 62
2
 10
238.100006
 20
-203.675003
 11
253.899994
 21
-203.675003
  0
LINE
  8
0
  6
DASHED
 62
2
 10
167.000000
 20
-163.175003
 11
167.000000
 21
-164.175003
  0
LINE
  8
0
  6
DASHED
 62
2
 10
167.000000
 20
-164.175003
 11
159.000000
 21
-164.175003
  0
LINE
  8
0
  6
DASHED
 62
2
 10
165.500000
 20
-164.175003
 11
165.500000
 21
-168.675003
  0
LINE
  8
0
  6
DASHED
 62
2
 10
165.100006
 20
-164.175003
 11
165.100006
 21
-168.675003
  0
LINE
  8
0
  6
CENTER
 62
2
 10
163.000000
 20
-161.175003
 11
163.000000
 21
-170.675003
  0
LINE
  8
0
  6
DASHED
 62
2
 10
160.899994
 20
-164.175003
 11
160.899994
 21
-168.675003
  0
LINE
  8
0
  6
DASHED
 62
2
 10
160.500000
 20
-164.175003
 11
160.500000
 21
-168.675003
  0
LINE
  8
0
  6
DASHED
 62
2
 10
159.000000
 20
-163.175003
 11
159.000000
 21
-164.175003
  0
LINE
  8
0
  6
DASHED
 62
2
 10
243.000000
 20
-163.175003
 11
243.000000
 21
-164.175003
  0
LINE
  8
0
  6
DASHED
 62
2
 10
243.000000
 20
-164.175003
 11
235.000000
 21
-164.175003
  0
LINE
  8
0
  6
DASHED
 62
2
 10
241.500000
 20
-164.175003
 11
241.500000
 21
-168.675003
  0
LINE
  8
0
  6
DASHED
 62
2
 10
241.100006
 20
-164.175003
 11
241.100006
 21
-168.675003
  0
LINE
  8
0
  6
DASHED
 62
2
 10
236.899994
 20
-164.175003
 11
236.899994
 21
-168.675003
  0
LINE
  8
0
  6
DASHED
 62
2
 10
236.500000
 20
-164.175003
 11
236.500000
 21
-168.675003
  0
LINE
  8
0
  6
DASHED
 62
2
 10
235.000000
 20
-163.175003
 11
235.000000
 21
-164.175003
  0
LINE
  8
0
  6
CONTINUOUS
 62
7
 10
-186.000000
 20
-62.674999
 11
-186.000000
 21
-65.425003
  0
LINE
  8
0
  6
CONTINUOUS
 62
7
 10
-241.000000
 20
-67.175003
 11
-241.000000
 21
-62.674999
  0
LINE
  8
0
  6
CONTINUOUS
 62
7
 10
-241.000000
 20
-67.175003
 11
-235.000000
 21
-67.175003
  0
LINE
  8
0
  6
CONTINUOUS
 62
7
 10
-246.000000
 20
-64.175003
 11
-251.500000
 21
-64.175003
  0
LINE
  8
0
  6
CONTINUOUS
 62
2
 10
-246.000000
 20
-63.674999
 11
-251.500000
 21
-63.674999
  0
LINE
  8
0
  6
CONTINUOUS
 62
7
 10
-251.500000
 20
-64.175003
 11
-251.500000
 21
-62.674999
  0
LINE
  8
0
  6
CONTINUOUS
 62
7
 10
-246.000000
 20
-65.425003
 11
-241.000000
 21
-65.425003
  0
LINE
  8
0
  6
CONTINUOUS
 62
7
 10
-246.000000
 20
-65.425003
 11
-246.000000
 21
-62.674999
  0
LINE
  8
0
  6
CONTINUOUS
 62
7
 10
-246.000000
 20
-63.921001
 11
-241.000000
 21
-63.921001
  0
LINE
  8
0
  6
CONTINUOUS
 62
7
 10
-186.000000
 20
-65.425003
 11
-187.500000
 21
-65.425003
  0
LINE
  8
0
  6
CONTINUOUS
 62
7
 10
-186.000000
 20
-63.921001
 11
-187.500000
 21
-63.921001
  0
LINE
  8
0
  6
CONTINUOUS
 62
7
 10
-180.500000
 20
-64.175003
 11
-180.500000
 21
-62.674999
  0
LINE
  8
0
  6
CONTINUOUS
 62
7
 10
-186.000000
 20
-64.175003
 11
-180.500000
 21
-64.175003
  0
LINE
  8
0
  6
CONTINUOUS
 62
2
 10
-186.000000
 20
-63.674999
 11
-180.500000
 21
-63.674999
  0
LINE
  8
0
  6
CENTER
 62
2
 10
-232.389999
 20
-128.675003
 11
-255.098999
 21
-128.675003
  0
LINE
  8
0
  6
CONTINUOUS
 62
7
 10
-241.000000
 20
-133.675003
 11
-191.000000
 21
-133.675003
  0
LINE
  8
0
  6
CONTINUOUS
 62
7
 10
-235.000000
 20
-133.675003
 11
-235.000000
 21
-123.675003
  0
LINE
  8
0
  6
CONTINUOUS
 62
7
 10
-198.500000
 20
-133.175003
 11
-198.500000
 21
-123.175003
  0
LINE
  8
0
  6
CENTER
 62
2
 10
-200.110001
 20
-128.675003
 11
-177.401001
 21
-128.675003
  0
LINE
  8
0
  6
CONTINUOUS
 62
7
 10
-197.000000
 20
-133.675003
 11
-197.000000
 21
-123.675003
  0
LINE
  8
0
  6
CONTINUOUS
 62
7
 10
-198.500000
 20
-133.175003
 11
-218.500000
 21
-133.175003
  0
LINE
  8
0
  6
CONTINUOUS
 62
7
 10
-218.500000
 20
-133.175003
 11
-218.500000
 21
-123.175003
  0
LINE
  8
0
  6
CONTINUOUS
 62
7
 10
-198.500000
 20
-123.675003
 11
-178.000000
 21
-123.675003
  0
LINE
  8
0
  6
CONTINUOUS
 62
7
 10
-254.000000
 20
-123.675003
 11
-218.500000
 21
-123.675003
  0
LINE
  8
0
  6
CONTINUOUS
 62
7
 10
-241.000000
 20
-133.675003
 11
-241.000000
 21
-123.675003
  0
LINE
  8
0
  6
CONTINUOUS
 62
7
 10
-191.000000
 20
-133.675003
 11
-191.000000
 21
-123.675003
  0
LINE
  8
0
  6
CONTINUOUS
 62
2
 10
-246.000000
 20
-126.175003
 11
-251.500000
 21
-126.175003
  0
LINE
  8
0
  6
CONTINUOUS
 62
7
 10
-246.000000
 20
-125.675003
 11
-251.500000
 21
-125.675003
  0
LINE
  8
0
  6
CONTINUOUS
 62
7
 10
-251.500000
 20
-131.675003
 11
-251.500000
 21
-125.675003
  0
LINE
  8
0
  6
CONTINUOUS
 62
2
 10
-246.000000
 20
-131.175003
 11
-251.500000
 21
-131.175003
  0
LINE
  8
0
  6
CONTINUOUS
 62
7
 10
-246.000000
 20
-131.675003
 11
-251.500000
 21
-131.675003
  0
LINE
  8
0
  6
CONTINUOUS
 62
2
 10
-186.000000
 20
-131.175003
 11
-180.500000
 21
-131.175003
  0
LINE
  8
0
  6
CONTINUOUS
 62
7
 10
-186.000000
 20
-131.675003
 11
-180.500000
 21
-131.675003
  0
LINE
  8
0
  6
CONTINUOUS
 62
7
 10
-180.500000
 20
-125.675003
 11
-180.500000
 21
-131.675003
  0
LINE
  8
0
  6
CONTINUOUS
 62
2
 10
-186.000000
 20
-126.175003
 11
-180.500000
 21
-126.175003
  0
LINE
  8
0
  6
CONTINUOUS
 62
7
 10
-186.000000
 20
-125.675003
 11
-180.500000
 21
-125.675003
  0
LINE
  8
0
  6
CONTINUOUS
 62
7
 10
-241.000000
 20
-124.675003
 11
-246.000000
 21
-124.675003
  0
LINE
  8
0
  6
CONTINUOUS
 62
7
 10
-246.000000
 20
-132.675003
 11
-246.000000
 21
-124.675003
  0
LINE
  8
0
  6
CONTINUOUS
 62
7
 10
-241.000000
 20
-132.675003
 11
-246.000000
 21
-132.675003
  0
LINE
  8
0
  6
CONTINUOUS
 62
7
 10
-241.000000
 20
-131.919006
 11
-246.000000
 21
-131.919006
  0
LINE
  8
0
  6
CONTINUOUS
 62
7
 10
-241.000000
 20
-129.431000
 11
-246.000000
 21
-129.431000
  0
LINE
  8
0
  6
CONTINUOUS
 62
7
 10
-241.000000
 20
-127.918999
 11
-246.000000
 21
-127.918999
  0
LINE
  8
0
  6
CONTINUOUS
 62
7
 10
-241.000000
 20
-125.431000
 11
-246.000000
 21
-125.431000
  0
LINE
  8
0
  6
CONTINUOUS
 62
7
 10
-191.000000
 20
-132.675003
 11
-186.000000
 21
-132.675003
  0
LINE
  8
0
  6
CONTINUOUS
 62
7
 10
-186.000000
 20
-124.675003
 11
-186.000000
 21
-132.675003
  0
LINE
  8
0
  6
CONTINUOUS
 62
7
 10
-191.000000
 20
-124.675003
 11
-186.000000
 21
-124.675003
  0
LINE
  8
0
  6
CONTINUOUS
 62
7
 10
-191.000000
 20
-125.431000
 11
-186.000000
 21
-125.431000
  0
LINE
  8
0
  6
CONTINUOUS
 62
7
 10
-191.000000
 20
-127.918999
 11
-186.000000
 21
-127.918999
  0
LINE
  8
0
  6
CONTINUOUS
 62
7
 10
-191.000000
 20
-129.431000
 11
-186.000000
 21
-129.431000
  0
LINE
  8
0
  6
CONTINUOUS
 62
7
 10
-191.000000
 20
-131.919006
 11
-186.000000
 21
-131.919006
  0
LINE
  8
0
  6
CONTINUOUS
 62
7
 10
-191.000000
 20
-181.675003
 11
-241.000000
 21
-181.675003
  0
LINE
  8
0
  6
CONTINUOUS
 62
7
 10
-241.000000
 20
-181.675003
 11
-241.000000
 21
-191.675003
  0
LINE
  8
0
  6
CONTINUOUS
 62
7
 10
-191.000000
 20
-181.675003
 11
-191.000000
 21
-191.675003
  0
LINE
  8
0
  6
CENTER
 62
2
 10
-239.000000
 20
-186.675003
 11
-255.098999
 21
-186.675003
  0
LINE
  8
0
  6
CONTINUOUS
 62
7
 10
-191.000000
 20
-187.431000
 11
-186.000000
 21
-187.431000
  0
LINE
  8
0
  6
CONTINUOUS
 62
2
 10
-246.000000
 20
-184.175003
 11
-251.500000
 21
-184.175003
  0
LINE
  8
0
  6
CONTINUOUS
 62
7
 10
-246.000000
 20
-183.675003
 11
-251.500000
 21
-183.675003
  0
LINE
  8
0
  6
CONTINUOUS
 62
7
 10
-251.500000
 20
-189.675003
 11
-251.500000
 21
-183.675003
  0
LINE
  8
0
  6
CONTINUOUS
 62
2
 10
-246.000000
 20
-189.175003
 11
-251.500000
 21
-189.175003
  0
LINE
  8
0
  6
CONTINUOUS
 62
7
 10
-246.000000
 20
-189.675003
 11
-251.500000
 21
-189.675003
  0
LINE
  8
0
  6
CONTINUOUS
 62
7
 10
-241.000000
 20
-182.675003
 11
-246.000000
 21
-182.675003
  0
LINE
  8
0
  6
CONTINUOUS
 62
7
 10
-246.000000
 20
-190.675003
 11
-246.000000
 21
-182.675003
  0
LINE
  8
0
  6
CONTINUOUS
 62
7
 10
-241.000000
 20
-190.675003
 11
-246.000000
 21
-190.675003
  0
LINE
  8
0
  6
CONTINUOUS
 62
7
 10
-241.000000
 20
-189.919006
 11
-246.000000
 21
-189.919006
  0
LINE
  8
0
  6
CONTINUOUS
 62
7
 10
-241.000000
 20
-187.431000
 11
-246.000000
 21
-187.431000
  0
LINE
  8
0
  6
CONTINUOUS
 62
7
 10
-241.000000
 20
-185.919006
 11
-246.000000
 21
-185.919006
  0
LINE
  8
0
  6
CONTINUOUS
 62
7
 10
-241.000000
 20
-183.431000
 11
-246.000000
 21
-183.431000
  0
LINE
  8
0
  6
CENTER
 62
2
 10
-193.000000
 20
-186.675003
 11
-177.401001
 21
-186.675003
  0
LINE
  8
0
  6
CONTINUOUS
 62
7
 10
-191.000000
 20
-189.919006
 11
-186.000000
 21
-189.919006
  0
LINE
  8
0
  6
CONTINUOUS
 62
2
 10
-186.000000
 20
-189.175003
 11
-180.500000
 21
-189.175003
  0
LINE
  8
0
  6
CONTINUOUS
 62
7
 10
-186.000000
 20
-189.675003
 11
-180.500000
 21
-189.675003
  0
LINE
  8
0
  6
CONTINUOUS
 62
7
 10
-180.500000
 20
-183.675003
 11
-180.500000
 21
-189.675003
  0
LINE
  8
0
  6
CONTINUOUS
 62
2
 10
-186.000000
 20
-184.175003
 11
-180.500000
 21
-184.175003
  0
LINE
  8
0
  6
CONTINUOUS
 62
7
 10
-186.000000
 20
-183.675003
 11
-180.500000
 21
-183.675003
  0
LINE
  8
0
  6
CONTINUOUS
 62
7
 10
-191.000000
 20
-190.675003
 11
-186.000000
 21
-190.675003
  0
LINE
  8
0
  6
CONTINUOUS
 62
7
 10
-186.000000
 20
-182.675003
 11
-186.000000
 21
-190.675003
  0
LINE
  8
0
  6
CONTINUOUS
 62
7
 10
-191.000000
 20
-182.675003
 11
-186.000000
 21
-182.675003
  0
LINE
  8
0
  6
CONTINUOUS
 62
7
 10
-191.000000
 20
-183.431000
 11
-186.000000
 21
-183.431000
  0
LINE
  8
0
  6
CONTINUOUS
 62
7
 10
-191.000000
 20
-185.919006
 11
-186.000000
 21
-185.919006
  0
LINE
  8
0
  6
CENTER
 62
2
 10
-232.389999
 20
-153.175003
 11
-254.026001
 21
-153.175003
  0
LINE
  8
0
  6
CONTINUOUS
 62
7
 10
-221.899994
 20
-146.675003
 11
-195.100006
 21
-146.675003
  0
LINE
  8
0
  6
CONTINUOUS
 62
7
 10
-233.000000
 20
-158.675003
 11
-199.000000
 21
-158.675003
  0
LINE
  8
0
  6
CONTINUOUS
 62
7
 10
-229.500000
 20
-147.175003
 11
-221.899994
 21
-147.175003
  0
LINE
  8
0
  6
CONTINUOUS
 62
7
 10
-254.000000
 20
-151.675003
 11
-251.500000
 21
-151.675003
  0
LINE
  8
0
  6
CONTINUOUS
 62
7
 10
-180.500000
 20
-151.675003
 11
-178.000000
 21
-151.675003
  0
LINE
  8
0
  6
CONTINUOUS
 62
7
 10
-187.500000
 20
-147.175003
 11
-197.000000
 21
-147.175003
  0
LINE
  8
0
  6
CONTINUOUS
 62
7
 10
-254.000000
 20
-159.175003
 11
-245.347000
 21
-159.175003
  0
LINE
  8
0
  6
CONTINUOUS
 62
7
 10
-254.000000
 20
-168.675003
 11
-178.000000
 21
-168.675003
  0
LINE
  8
0
  6
CONTINUOUS
 62
7
 10
-254.000000
 20
-151.675003
 11
-254.000000
 21
-168.675003
  0
LINE
  8
0
  6
CONTINUOUS
 62
7
 10
-178.000000
 20
-151.675003
 11
-178.000000
 21
-168.675003
  0
LINE
  8
0
  6
CONTINUOUS
 62
7
 10
-243.199997
 20
-163.175003
 11
-241.000000
 21
-163.175003
  0
LINE
  8
0
  6
CONTINUOUS
 62
7
 10
-188.800003
 20
-163.175003
 11
-191.000000
 21
-163.175003
  0
LINE
  8
0
  6
CONTINUOUS
 62
7
 10
-186.653000
 20
-159.175003
 11
-178.000000
 21
-159.175003
  0
LINE
  8
0
  6
CONTINUOUS
 62
7
 10
-191.000000
 20
-147.175003
 11
-191.000000
 21
-168.175003
  0
LINE
  8
0
  6
CONTINUOUS
 62
7
 10
-218.500000
 20
-157.175003
 11
-218.500000
 21
-147.175003
  0
LINE
  8
0
  6
CONTINUOUS
 62
7
 10
-198.500000
 20
-157.175003
 11
-198.500000
 21
-147.175003
  0
LINE
  8
0
  6
CONTINUOUS
 62
7
 10
-218.500000
 20
-157.175003
 11
-198.500000
 21
-157.175003
  0
LINE
  8
0
  6
CONTINUOUS
 62
7
 10
-218.500000
 20
-147.175003
 11
-198.500000
 21
-147.175003
  0
LINE
  8
0
  6
CONTINUOUS
 62
7
 10
-241.000000
 20
-168.175003
 11
-191.000000
 21
-168.175003
  0
LINE
  8
0
  6
CONTINUOUS
 62
7
 10
-246.000000
 20
-156.175003
 11
-251.500000
 21
-156.175003
  0
LINE
  8
0
  6
CONTINUOUS
 62
2
 10
-246.000000
 20
-155.675003
 11
-251.500000
 21
-155.675003
  0
LINE
  8
0
  6
CONTINUOUS
 62
2
 10
-246.000000
 20
-150.675003
 11
-251.500000
 21
-150.675003
  0
LINE
  8
0
  6
CONTINUOUS
 62
7
 10
-246.000000
 20
-150.175003
 11
-251.500000
 21
-150.175003
  0
LINE
  8
0
  6
CONTINUOUS
 62
7
 10
-251.500000
 20
-156.175003
 11
-251.500000
 21
-150.175003
  0
LINE
  8
0
  6
CONTINUOUS
 62
7
 10
-233.500000
 20
-151.675003
 11
-229.500000
 21
-151.675003
  0
LINE
  8
0
  6
CONTINUOUS
 62
7
 10
-235.000000
 20
-147.175003
 11
-235.000000
 21
-156.675003
  0
LINE
  8
0
  6
CONTINUOUS
 62
7
 10
-197.000000
 20
-147.175003
 11
-197.000000
 21
-156.675003
  0
LINE
  8
0
  6
CONTINUOUS
 62
7
 10
-187.500000
 20
-147.175003
 11
-187.500000
 21
-148.925003
  0
LINE
  8
0
  6
CONTINUOUS
 62
7
 10
-229.500000
 20
-147.175003
 11
-229.500000
 21
-158.675003
  0
LINE
  8
0
  6
CONTINUOUS
 62
7
 10
-221.899994
 20
-146.675003
 11
-221.899994
 21
-158.675003
  0
LINE
  8
0
  6
CONTINUOUS
 62
7
 10
-195.100006
 20
-146.675003
 11
-195.100006
 21
-147.175003
  0
LINE
  8
0
  6
CONTINUOUS
 62
7
 10
-241.000000
 20
-147.175003
 11
-241.000000
 21
-168.175003
  0
LINE
  8
0
  6
CONTINUOUS
 62
7
 10
-241.000000
 20
-147.175003
 11
-235.000000
 21
-147.175003
  0
LINE
  8
0
  6
CONTINUOUS
 62
7
 10
-246.000000
 20
-157.425003
 11
-241.000000
 21
-157.425003
  0
LINE
  8
0
  6
CONTINUOUS
 62
7
 10
-246.000000
 20
-157.425003
 11
-246.000000
 21
-148.925003
  0
LINE
  8
0
  6
CONTINUOUS
 62
7
 10
-246.000000
 20
-148.925003
 11
-241.000000
 21
-148.925003
  0
LINE
  8
0
  6
CONTINUOUS
 62
7
 10
-246.000000
 20
-150.429001
 11
-241.000000
 21
-150.429001
  0
LINE
  8
0
  6
CONTINUOUS
 62
7
 10
-246.000000
 20
-151.738998
 11
-241.000000
 21
-151.738998
  0
LINE
  8
0
  6
CONTINUOUS
 62
7
 10
-246.000000
 20
-154.610992
 11
-241.000000
 21
-154.610992
  0
LINE
  8
0
  6
CONTINUOUS
 62
7
 10
-246.000000
 20
-155.921005
 11
-241.000000
 21
-155.921005
  0
LINE
  8
0
  6
CENTER
 62
2
 10
-199.610001
 20
-153.175003
 11
-177.973999
 21
-153.175003
  0
LINE
  8
0
  6
CONTINUOUS
 62
7
 10
-186.000000
 20
-156.175003
 11
-180.500000
 21
-156.175003
  0
LINE
  8
0
  6
CONTINUOUS
 62
2
 10
-186.000000
 20
-155.675003
 11
-180.500000
 21
-155.675003
  0
LINE
  8
0
  6
CONTINUOUS
 62
2
 10
-186.000000
 20
-150.675003
 11
-180.500000
 21
-150.675003
  0
LINE
  8
0
  6
CONTINUOUS
 62
7
 10
-186.000000
 20
-150.175003
 11
-180.500000
 21
-150.175003
  0
LINE
  8
0
  6
CONTINUOUS
 62
7
 10
-180.500000
 20
-156.175003
 11
-180.500000
 21
-150.175003
  0
LINE
  8
0
  6
CONTINUOUS
 62
7
 10
-186.000000
 20
-157.425003
 11
-191.000000
 21
-157.425003
  0
LINE
  8
0
  6
CONTINUOUS
 62
7
 10
-186.000000
 20
-157.425003
 11
-186.000000
 21
-148.925003
  0
LINE
  8
0
  6
CONTINUOUS
 62
7
 10
-186.000000
 20
-148.925003
 11
-191.000000
 21
-148.925003
  0
LINE
  8
0
  6
CONTINUOUS
 62
7
 10
-186.000000
 20
-150.429001
 11
-191.000000
 21
-150.429001
  0
LINE
  8
0
  6
CONTINUOUS
 62
7
 10
-186.000000
 20
-151.738998
 11
-191.000000
 21
-151.738998
  0
LINE
  8
0
  6
CONTINUOUS
 62
7
 10
-186.000000
 20
-154.610992
 11
-191.000000
 21
-154.610992
  0
LINE
  8
0
  6
CONTINUOUS
 62
7
 10
-186.000000
 20
-155.921005
 11
-191.000000
 21
-155.921005
  0
LINE
  8
0
  6
CONTINUOUS
 62
7
 10
89.000000
 20
-151.675003
 11
104.000000
 21
-151.675003
  0
LINE
  8
0
  6
CONTINUOUS
 62
7
 10
89.000000
 20
-155.675003
 11
89.000000
 21
-159.175003
  0
LINE
  8
0
  6
CONTINUOUS
 62
7
 10
89.000000
 20
-151.675003
 11
89.000000
 21
-152.675003
  0
LINE
  8
0
  6
CONTINUOUS
 62
7
 10
80.500000
 20
-146.675003
 11
87.500000
 21
-146.675003
  0
LINE
  8
0
  6
CONTINUOUS
 62
7
 10
80.500000
 20
-158.675003
 11
89.000000
 21
-158.675003
  0
LINE
  8
0
  6
CONTINUOUS
 62
7
 10
87.800003
 20
-146.975006
 11
105.199997
 21
-146.975006
  0
LINE
  8
0
  6
CONTINUOUS
 62
7
 10
87.500000
 20
-146.675003
 11
87.800003
 21
-146.975006
  0
LINE
  8
0
  6
CONTINUOUS
 62
7
 10
104.000000
 20
-155.675003
 11
104.000000
 21
-159.175003
  0
LINE
  8
0
  6
CONTINUOUS
 62
7
 10
104.000000
 20
-151.675003
 11
104.000000
 21
-152.675003
  0
LINE
  8
0
  6
CONTINUOUS
 62
7
 10
112.500000
 20
-146.675003
 11
112.500000
 21
-158.675003
  0
LINE
  8
0
  6
CONTINUOUS
 62
7
 10
112.500000
 20
-146.675003
 11
105.500000
 21
-146.675003
  0
LINE
  8
0
  6
CONTINUOUS
 62
7
 10
112.500000
 20
-158.675003
 11
104.000000
 21
-158.675003
  0
LINE
  8
0
  6
CONTINUOUS
 62
7
 10
105.500000
 20
-146.675003
 11
105.199997
 21
-146.975006
  0
LINE
  8
0
  6
CONTINUOUS
 62
7
 10
80.500000
 20
-146.675003
 11
80.500000
 21
-158.675003
  0
LINE
  8
0
  6
CONTINUOUS
 62
7
 10
113.000000
 20
-159.175003
 11
104.000000
 21
-159.175003
  0
LINE
  8
0
  6
CONTINUOUS
 62
7
 10
113.000000
 20
-168.675003
 11
80.000000
 21
-168.675003
  0
LINE
  8
0
  6
CONTINUOUS
 62
7
 10
80.000000
 20
-159.175003
 11
89.000000
 21
-159.175003
  0
LINE
  8
0
  6
CONTINUOUS
 62
7
 10
80.000000
 20
-159.175003
 11
80.000000
 21
-168.675003
  0
LINE
  8
0
  6
CONTINUOUS
 62
7
 10
113.000000
 20
-147.175003
 11
113.000000
 21
-168.675003
  0
LINE
  8
0
  6
CENTER
 62
2
 10
96.500000
 20
-144.675003
 11
96.500000
 21
-170.675003
  0
LINE
  8
0
  6
CENTER
 62
2
 10
88.099998
 20
-160.675003
 11
104.900002
 21
-160.675003
  0
LINE
  8
0
  6
CENTER
 62
2
 10
86.500000
 20
-159.675003
 11
86.500000
 21
-166.675003
  0
LINE
  8
0
  6
CENTER
 62
2
 10
83.000000
 20
-163.175003
 11
90.000000
 21
-163.175003
  0
LINE
  8
0
  6
CENTER
 62
2
 10
84.500000
 20
-166.675003
 11
84.500000
 21
-170.675003
  0
LINE
  8
0
  6
CENTER
 62
2
 10
108.500000
 20
-166.675003
 11
108.500000
 21
-170.675003
  0
LINE
  8
0
  6
CENTER
 62
2
 10
109.000000
 20
-144.675003
 11
109.000000
 21
-148.675003
  0
LINE
  8
0
  6
CENTER
 62
2
 10
84.000000
 20
-144.675003
 11
84.000000
 21
-148.675003
  0
LINE
  8
0
  6
CONTINUOUS
 62
7
 10
123.000000
 20
-147.175003
 11
123.000000
 21
-168.175003
  0
LINE
  8
0
  6
CONTINUOUS
 62
7
 10
113.000000
 20
-168.175003
 11
123.000000
 21
-168.175003
  0
LINE
  8
0
  6
CONTINUOUS
 62
7
 10
112.500000
 20
-147.175003
 11
123.000000
 21
-147.175003
  0
LINE
  8
0
  6
CENTER
 62
2
 10
123.000000
 20
-153.175003
 11
113.000000
 21
-153.175003
  0
LINE
  8
0
  6
CENTER
 62
2
 10
118.000000
 20
-148.175003
 11
118.000000
 21
-158.175003
  0
LINE
  8
0
  6
CONTINUOUS
 62
7
 10
114.755997
 20
-150.429001
 11
117.244003
 21
-148.992996
  0
LINE
  8
0
  6
CONTINUOUS
 62
7
 10
118.000000
 20
-151.442993
 11
119.500000
 21
-152.309006
  0
LINE
  8
0
  6
CONTINUOUS
 62
7
 10
119.500000
 20
-152.309006
 11
119.500000
 21
-154.041000
  0
LINE
  8
0
  6
CONTINUOUS
 62
7
 10
118.000000
 20
-154.906998
 11
119.500000
 21
-154.041000
  0
LINE
  8
0
  6
CONTINUOUS
 62
7
 10
116.500000
 20
-154.041000
 11
118.000000
 21
-154.906998
  0
LINE
  8
0
  6
CONTINUOUS
 62
7
 10
116.500000
 20
-152.309006
 11
116.500000
 21
-154.041000
  0
LINE
  8
0
  6
CONTINUOUS
 62
7
 10
118.000000
 20
-151.442993
 11
116.500000
 21
-152.309006
  0
LINE
  8
0
  6
CONTINUOUS
 62
7
 10
118.755997
 20
-148.992996
 11
121.244003
 21
-150.429001
  0
LINE
  8
0
  6
CONTINUOUS
 62
7
 10
122.000000
 20
-151.738998
 11
122.000000
 21
-154.610992
  0
LINE
  8
0
  6
CONTINUOUS
 62
7
 10
121.244003
 20
-155.921005
 11
118.755997
 21
-157.356995
  0
LINE
  8
0
  6
CONTINUOUS
 62
7
 10
117.244003
 20
-157.356995
 11
114.755997
 21
-155.921005
  0
LINE
  8
0
  6
CONTINUOUS
 62
7
 10
114.000000
 20
-154.610992
 11
114.000000
 21
-151.738998
  0
LINE
  8
0
  6
CONTINUOUS
 62
7
 10
313.000000
 20
-151.675003
 11
298.000000
 21
-151.675003
  0
LINE
  8
0
  6
CONTINUOUS
 62
7
 10
313.000000
 20
-155.675003
 11
313.000000
 21
-159.175003
  0
LINE
  8
0
  6
CONTINUOUS
 62
7
 10
313.000000
 20
-151.675003
 11
313.000000
 21
-152.675003
  0
LINE
  8
0
  6
CONTINUOUS
 62
7
 10
321.500000
 20
-146.675003
 11
314.500000
 21
-146.675003
  0
LINE
  8
0
  6
CONTINUOUS
 62
7
 10
321.500000
 20
-158.675003
 11
313.000000
 21
-158.675003
  0
LINE
  8
0
  6
CONTINUOUS
 62
7
 10
314.200012
 20
-146.975006
 11
296.799988
 21
-146.975006
  0
LINE
  8
0
  6
CONTINUOUS
 62
7
 10
314.500000
 20
-146.675003
 11
314.200012
 21
-146.975006
  0
LINE
  8
0
  6
CONTINUOUS
 62
7
 10
298.000000
 20
-155.675003
 11
298.000000
 21
-159.175003
  0
LINE
  8
0
  6
CONTINUOUS
 62
7
 10
298.000000
 20
-151.675003
 11
298.000000
 21
-152.675003
  0
LINE
  8
0
  6
CONTINUOUS
 62
7
 10
289.500000
 20
-146.675003
 11
289.500000
 21
-158.675003
  0
LINE
  8
0
  6
CONTINUOUS
 62
7
 10
289.500000
 20
-146.675003
 11
296.500000
 21
-146.675003
  0
LINE
  8
0
  6
CONTINUOUS
 62
7
 10
289.500000
 20
-158.675003
 11
298.000000
 21
-158.675003
  0
LINE
  8
0
  6
CONTINUOUS
 62
7
 10
296.500000
 20
-146.675003
 11
296.799988
 21
-146.975006
  0
LINE
  8
0
  6
CONTINUOUS
 62
7
 10
321.500000
 20
-146.675003
 11
321.500000
 21
-158.675003
  0
LINE
  8
0
  6
CONTINUOUS
 62
7
 10
289.000000
 20
-159.175003
 11
298.000000
 21
-159.175003
  0
LINE
  8
0
  6
CONTINUOUS
 62
7
 10
289.000000
 20
-168.675003
 11
322.000000
 21
-168.675003
  0
LINE
  8
0
  6
CONTINUOUS
 62
7
 10
322.000000
 20
-159.175003
 11
313.000000
 21
-159.175003
  0
LINE
  8
0
  6
CONTINUOUS
 62
7
 10
322.000000
 20
-159.175003
 11
322.000000
 21
-168.675003
  0
LINE
  8
0
  6
CONTINUOUS
 62
7
 10
289.000000
 20
-147.175003
 11
289.000000
 21
-168.675003
  0
LINE
  8
0
  6
CENTER
 62
2
 10
305.500000
 20
-144.675003
 11
305.500000
 21
-170.675003
  0
LINE
  8
0
  6
CENTER
 62
2
 10
313.899994
 20
-160.675003
 11
297.100006
 21
-160.675003
  0
LINE
  8
0
  6
CENTER
 62
2
 10
315.500000
 20
-159.675003
 11
315.500000
 21
-166.675003
  0
LINE
  8
0
  6
CENTER
 62
2
 10
319.000000
 20
-163.175003
 11
312.000000
 21
-163.175003
  0
LINE
  8
0
  6
CENTER
 62
2
 10
317.500000
 20
-166.675003
 11
317.500000
 21
-170.675003
  0
LINE
  8
0
  6
CENTER
 62
2
 10
293.500000
 20
-166.675003
 11
293.500000
 21
-170.675003
  0
LINE
  8
0
  6
CENTER
 62
2
 10
293.000000
 20
-144.675003
 11
293.000000
 21
-148.675003
  0
LINE
  8
0
  6
CENTER
 62
2
 10
318.000000
 20
-144.675003
 11
318.000000
 21
-148.675003
  0
LINE
  8
0
  6
CONTINUOUS
 62
7
 10
279.000000
 20
-147.175003
 11
279.000000
 21
-168.175003
  0
LINE
  8
0
  6
CONTINUOUS
 62
7
 10
289.000000
 20
-168.175003
 11
279.000000
 21
-168.175003
  0
LINE
  8
0
  6
CONTINUOUS
 62
7
 10
289.500000
 20
-147.175003
 11
279.000000
 21
-147.175003
  0
LINE
  8
0
  6
CENTER
 62
2
 10
279.000000
 20
-153.175003
 11
289.000000
 21
-153.175003
  0
LINE
  8
0
  6
CENTER
 62
2
 10
284.000000
 20
-148.175003
 11
284.000000
 21
-158.175003
  0
LINE
  8
0
  6
CONTINUOUS
 62
7
 10
287.243988
 20
-150.429001
 11
284.756012
 21
-148.992996
  0
LINE
  8
0
  6
CONTINUOUS
 62
7
 10
284.000000
 20
-151.442993
 11
282.500000
 21
-152.309006
  0
LINE
  8
0
  6
CONTINUOUS
 62
7
 10
282.500000
 20
-152.309006
 11
282.500000
 21
-154.041000
  0
LINE
  8
0
  6
CONTINUOUS
 62
7
 10
284.000000
 20
-154.906998
 11
282.500000
 21
-154.041000
  0
LINE
  8
0
  6
CONTINUOUS
 62
7
 10
285.500000
 20
-154.041000
 11
284.000000
 21
-154.906998
  0
LINE
  8
0
  6
CONTINUOUS
 62
7
 10
285.500000
 20
-152.309006
 11
285.500000
 21
-154.041000
  0
LINE
  8
0
  6
CONTINUOUS
 62
7
 10
284.000000
 20
-151.442993
 11
285.500000
 21
-152.309006
  0
LINE
  8
0
  6
CONTINUOUS
 62
7
 10
283.243988
 20
-148.992996
 11
280.756012
 21
-150.429001
  0
LINE
  8
0
  6
CONTINUOUS
 62
7
 10
280.000000
 20
-151.738998
 11
280.000000
 21
-154.610992
  0
LINE
  8
0
  6
CONTINUOUS
 62
7
 10
280.756012
 20
-155.921005
 11
283.243988
 21
-157.356995
  0
LINE
  8
0
  6
CONTINUOUS
 62
7
 10
284.756012
 20
-157.356995
 11
287.243988
 21
-155.921005
  0
LINE
  8
0
  6
CONTINUOUS
 62
7
 10
288.000000
 20
-154.610992
 11
288.000000
 21
-151.738998
  0
LINE
  8
0
  6
CONTINUOUS
 62
7
 10
167.000000
 20
-67.175003
 11
177.000000
 21
-67.175003
  0
LINE
  8
0
  6
CONTINUOUS
 62
7
 10
167.000000
 20
-67.175003
 11
167.000000
 21
-66.675003
  0
LINE
  8
0
  6
CONTINUOUS
 62
7
 10
177.000000
 20
-67.175003
 11
177.000000
 21
-66.675003
  0
LINE
  8
0
  6
CONTINUOUS
 62
7
 10
162.000000
 20
-64.175003
 11
156.500000
 21
-64.175003
  0
LINE
  8
0
  6
CONTINUOUS
 62
2
 10
162.000000
 20
-63.674999
 11
156.500000
 21
-63.674999
  0
LINE
  8
0
  6
CONTINUOUS
 62
7
 10
156.500000
 20
-64.175003
 11
156.500000
 21
-62.674999
  0
LINE
  8
0
  6
CONTINUOUS
 62
7
 10
162.000000
 20
-65.425003
 11
163.000000
 21
-65.425003
  0
LINE
  8
0
  6
CONTINUOUS
 62
7
 10
162.000000
 20
-65.425003
 11
162.000000
 21
-62.674999
  0
LINE
  8
0
  6
CONTINUOUS
 62
7
 10
162.000000
 20
-63.921001
 11
163.000000
 21
-63.921001
  0
LINE
  8
0
  6
CONTINUOUS
 62
2
 10
244.850006
 20
-63.674999
 11
245.500000
 21
-63.674999
  0
LINE
  8
0
  6
CONTINUOUS
 62
7
 10
244.850006
 20
-64.175003
 11
245.500000
 21
-64.175003
  0
LINE
  8
0
  6
CONTINUOUS
 62
7
 10
245.500000
 20
-62.674999
 11
245.500000
 21
-64.175003
  0
LINE
  8
0
  6
CENTER
 62
2
 10
179.610001
 20
-128.675003
 11
152.901001
 21
-128.675003
  0
LINE
  8
0
  6
CONTINUOUS
 62
7
 10
162.000000
 20
-189.675003
 11
156.500000
 21
-189.675003
  0
LINE
  8
0
  6
CONTINUOUS
 62
2
 10
162.000000
 20
-189.175003
 11
156.500000
 21
-189.175003
  0
LINE
  8
0
  6
CONTINUOUS
 62
7
 10
162.000000
 20
-183.675003
 11
156.500000
 21
-183.675003
  0
LINE
  8
0
  6
CONTINUOUS
 62
2
 10
162.000000
 20
-184.175003
 11
156.500000
 21
-184.175003
  0
LINE
  8
0
  6
CONTINUOUS
 62
7
 10
156.500000
 20
-189.675003
 11
156.500000
 21
-183.675003
  0
LINE
  8
0
  6
CONTINUOUS
 62
7
 10
167.000000
 20
-224.675003
 11
235.000000
 21
-224.675003
  0
LINE
  8
0
  6
CONTINUOUS
 62
7
 10
177.000000
 20
-133.675003
 11
177.000000
 21
-123.675003
  0
LINE
  8
0
  6
CONTINUOUS
 62
7
 10
223.500000
 20
-133.175003
 11
223.500000
 21
-123.175003
  0
LINE
  8
0
  6
CENTER
 62
2
 10
221.889999
 20
-128.675003
 11
248.598999
 21
-128.675003
  0
LINE
  8
0
  6
CONTINUOUS
 62
7
 10
240.000000
 20
-189.675003
 11
245.500000
 21
-189.675003
  0
LINE
  8
0
  6
CONTINUOUS
 62
2
 10
240.000000
 20
-189.175003
 11
245.500000
 21
-189.175003
  0
LINE
  8
0
  6
CONTINUOUS
 62
7
 10
240.000000
 20
-183.675003
 11
245.500000
 21
-183.675003
  0
LINE
  8
0
  6
CONTINUOUS
 62
2
 10
240.000000
 20
-184.175003
 11
245.500000
 21
-184.175003
  0
LINE
  8
0
  6
CONTINUOUS
 62
7
 10
245.500000
 20
-189.675003
 11
245.500000
 21
-183.675003
  0
LINE
  8
0
  6
CONTINUOUS
 62
7
 10
235.000000
 20
-133.675003
 11
167.000000
 21
-133.675003
  0
LINE
  8
0
  6
CONTINUOUS
 62
7
 10
225.000000
 20
-133.675003
 11
225.000000
 21
-123.675003
  0
LINE
  8
0
  6
CONTINUOUS
 62
7
 10
223.500000
 20
-133.175003
 11
203.500000
 21
-133.175003
  0
LINE
  8
0
  6
CONTINUOUS
 62
7
 10
203.500000
 20
-133.175003
 11
203.500000
 21
-123.175003
  0
LINE
  8
0
  6
CONTINUOUS
 62
7
 10
223.500000
 20
-123.675003
 11
254.000000
 21
-123.675003
  0
LINE
  8
0
  6
CONTINUOUS
 62
7
 10
177.000000
 20
-133.675003
 11
177.000000
 21
-123.675003
  0
LINE
  8
0
  6
CONTINUOUS
 62
7
 10
148.000000
 20
-123.675003
 11
203.500000
 21
-123.675003
  0
LINE
  8
0
  6
CONTINUOUS
 62
7
 10
167.000000
 20
-133.675003
 11
167.000000
 21
-123.675003
  0
LINE
  8
0
  6
CONTINUOUS
 62
7
 10
235.000000
 20
-133.675003
 11
235.000000
 21
-123.675003
  0
LINE
  8
0
  6
CONTINUOUS
 62
7
 10
167.000000
 20
-182.675003
 11
162.000000
 21
-182.675003
  0
LINE
  8
0
  6
CONTINUOUS
 62
7
 10
162.000000
 20
-190.675003
 11
162.000000
 21
-182.675003
  0
LINE
  8
0
  6
CONTINUOUS
 62
7
 10
167.000000
 20
-190.675003
 11
162.000000
 21
-190.675003
  0
LINE
  8
0
  6
CONTINUOUS
 62
7
 10
167.000000
 20
-189.919006
 11
162.000000
 21
-189.919006
  0
LINE
  8
0
  6
CONTINUOUS
 62
7
 10
167.000000
 20
-187.431000
 11
162.000000
 21
-187.431000
  0
LINE
  8
0
  6
CONTINUOUS
 62
7
 10
167.000000
 20
-185.919006
 11
162.000000
 21
-185.919006
  0
LINE
  8
0
  6
CONTINUOUS
 62
7
 10
167.000000
 20
-183.431000
 11
162.000000
 21
-183.431000
  0
LINE
  8
0
  6
CONTINUOUS
 62
7
 10
235.000000
 20
-190.675003
 11
240.000000
 21
-190.675003
  0
LINE
  8
0
  6
CONTINUOUS
 62
7
 10
240.000000
 20
-182.675003
 11
240.000000
 21
-190.675003
  0
LINE
  8
0
  6
CONTINUOUS
 62
7
 10
235.000000
 20
-182.675003
 11
240.000000
 21
-182.675003
  0
LINE
  8
0
  6
CONTINUOUS
 62
7
 10
235.000000
 20
-183.431000
 11
240.000000
 21
-183.431000
  0
LINE
  8
0
  6
CONTINUOUS
 62
7
 10
235.000000
 20
-185.919006
 11
240.000000
 21
-185.919006
  0
LINE
  8
0
  6
CONTINUOUS
 62
7
 10
235.000000
 20
-187.431000
 11
240.000000
 21
-187.431000
  0
LINE
  8
0
  6
CONTINUOUS
 62
7
 10
235.000000
 20
-189.919006
 11
240.000000
 21
-189.919006
  0
LINE
  8
0
  6
CONTINUOUS
 62
7
 10
167.000000
 20
-181.675003
 11
167.000000
 21
-191.675003
  0
LINE
  8
0
  6
CONTINUOUS
 62
7
 10
235.000000
 20
-181.675003
 11
167.000000
 21
-181.675003
  0
LINE
  8
0
  6
CONTINUOUS
 62
7
 10
235.000000
 20
-181.675003
 11
235.000000
 21
-191.675003
  0
LINE
  8
0
  6
CENTER
 62
2
 10
168.432007
 20
-186.675003
 11
152.901001
 21
-186.675003
  0
LINE
  8
0
  6
CENTER
 62
2
 10
232.610001
 20
-186.675003
 11
248.598999
 21
-186.675003
  0
LINE
  8
0
  6
CONTINUOUS
 62
7
 10
240.000000
 20
-124.675003
 11
240.000000
 21
-132.675003
  0
LINE
  8
0
  6
CONTINUOUS
 62
7
 10
235.000000
 20
-124.675003
 11
240.000000
 21
-124.675003
  0
LINE
  8
0
  6
CONTINUOUS
 62
7
 10
162.000000
 20
-131.675003
 11
156.500000
 21
-131.675003
  0
LINE
  8
0
  6
CONTINUOUS
 62
2
 10
162.000000
 20
-131.175003
 11
156.500000
 21
-131.175003
  0
LINE
  8
0
  6
CONTINUOUS
 62
7
 10
162.000000
 20
-125.675003
 11
156.500000
 21
-125.675003
  0
LINE
  8
0
  6
CONTINUOUS
 62
2
 10
162.000000
 20
-126.175003
 11
156.500000
 21
-126.175003
  0
LINE
  8
0
  6
CONTINUOUS
 62
7
 10
156.500000
 20
-131.675003
 11
156.500000
 21
-125.675003
  0
LINE
  8
0
  6
CONTINUOUS
 62
7
 10
167.000000
 20
-133.675003
 11
235.000000
 21
-133.675003
  0
LINE
  8
0
  6
CONTINUOUS
 62
7
 10
235.000000
 20
-125.431000
 11
240.000000
 21
-125.431000
  0
LINE
  8
0
  6
CONTINUOUS
 62
7
 10
235.000000
 20
-132.675003
 11
240.000000
 21
-132.675003
  0
LINE
  8
0
  6
CONTINUOUS
 62
7
 10
167.000000
 20
-124.675003
 11
162.000000
 21
-124.675003
  0
LINE
  8
0
  6
CONTINUOUS
 62
7
 10
162.000000
 20
-132.675003
 11
162.000000
 21
-124.675003
  0
LINE
  8
0
  6
CONTINUOUS
 62
7
 10
167.000000
 20
-132.675003
 11
162.000000
 21
-132.675003
  0
LINE
  8
0
  6
CONTINUOUS
 62
7
 10
167.000000
 20
-131.919006
 11
162.000000
 21
-131.919006
  0
LINE
  8
0
  6
CONTINUOUS
 62
7
 10
167.000000
 20
-129.431000
 11
162.000000
 21
-129.431000
  0
LINE
  8
0
  6
CONTINUOUS
 62
7
 10
167.000000
 20
-127.918999
 11
162.000000
 21
-127.918999
  0
LINE
  8
0
  6
CONTINUOUS
 62
7
 10
167.000000
 20
-125.431000
 11
162.000000
 21
-125.431000
  0
LINE
  8
0
  6
CONTINUOUS
 62
7
 10
235.000000
 20
-131.919006
 11
240.000000
 21
-131.919006
  0
LINE
  8
0
  6
CONTINUOUS
 62
7
 10
235.000000
 20
-129.431000
 11
240.000000
 21
-129.431000
  0
LINE
  8
0
  6
CONTINUOUS
 62
7
 10
240.000000
 20
-131.675003
 11
245.500000
 21
-131.675003
  0
LINE
  8
0
  6
CONTINUOUS
 62
2
 10
240.000000
 20
-131.175003
 11
245.500000
 21
-131.175003
  0
LINE
  8
0
  6
CONTINUOUS
 62
7
 10
240.000000
 20
-125.675003
 11
245.500000
 21
-125.675003
  0
LINE
  8
0
  6
CONTINUOUS
 62
2
 10
240.000000
 20
-126.175003
 11
245.500000
 21
-126.175003
  0
LINE
  8
0
  6
CONTINUOUS
 62
7
 10
245.500000
 20
-131.675003
 11
245.500000
 21
-125.675003
  0
LINE
  8
0
  6
CONTINUOUS
 62
7
 10
235.000000
 20
-127.918999
 11
240.000000
 21
-127.918999
  0
LINE
  8
0
  6
CENTER
 62
2
 10
179.610001
 20
-153.175003
 11
153.973999
 21
-153.175003
  0
LINE
  8
0
  6
CENTER
 62
2
 10
222.389999
 20
-153.175003
 11
247.059998
 21
-153.175003
  0
LINE
  8
0
  6
CONTINUOUS
 62
7
 10
189.750000
 20
-146.675003
 11
237.250000
 21
-146.675003
  0
LINE
  8
0
  6
CONTINUOUS
 62
7
 10
182.149994
 20
-147.175003
 11
189.750000
 21
-147.175003
  0
LINE
  8
0
  6
CONTINUOUS
 62
7
 10
148.000000
 20
-151.675003
 11
156.500000
 21
-151.675003
  0
LINE
  8
0
  6
CONTINUOUS
 62
7
 10
245.500000
 20
-151.675003
 11
254.000000
 21
-151.675003
  0
LINE
  8
0
  6
CONTINUOUS
 62
7
 10
244.850006
 20
-147.175003
 11
244.850006
 21
-150.175003
  0
LINE
  8
0
  6
CONTINUOUS
 62
7
 10
244.850006
 20
-147.175003
 11
237.250000
 21
-147.175003
  0
LINE
  8
0
  6
CONTINUOUS
 62
7
 10
148.000000
 20
-159.175003
 11
156.653000
 21
-159.175003
  0
LINE
  8
0
  6
CONTINUOUS
 62
7
 10
148.000000
 20
-168.675003
 11
254.000000
 21
-168.675003
  0
LINE
  8
0
  6
CONTINUOUS
 62
7
 10
148.000000
 20
-151.675003
 11
148.000000
 21
-168.675003
  0
LINE
  8
0
  6
CONTINUOUS
 62
7
 10
254.000000
 20
-151.675003
 11
254.000000
 21
-168.675003
  0
LINE
  8
0
  6
CONTINUOUS
 62
7
 10
158.800003
 20
-163.175003
 11
167.000000
 21
-163.175003
  0
LINE
  8
0
  6
CONTINUOUS
 62
7
 10
243.199997
 20
-163.175003
 11
235.000000
 21
-163.175003
  0
LINE
  8
0
  6
CONTINUOUS
 62
7
 10
245.347000
 20
-159.175003
 11
254.000000
 21
-159.175003
  0
LINE
  8
0
  6
CONTINUOUS
 62
7
 10
203.500000
 20
-157.175003
 11
203.500000
 21
-147.175003
  0
LINE
  8
0
  6
CONTINUOUS
 62
7
 10
223.500000
 20
-157.175003
 11
223.500000
 21
-147.175003
  0
LINE
  8
0
  6
CONTINUOUS
 62
7
 10
203.500000
 20
-157.175003
 11
223.500000
 21
-157.175003
  0
LINE
  8
0
  6
CONTINUOUS
 62
7
 10
203.500000
 20
-147.175003
 11
223.500000
 21
-147.175003
  0
LINE
  8
0
  6
CONTINUOUS
 62
7
 10
245.500000
 20
-156.175003
 11
245.500000
 21
-150.175003
  0
LINE
  8
0
  6
CONTINUOUS
 62
7
 10
240.000000
 20
-156.175003
 11
245.500000
 21
-156.175003
  0
LINE
  8
0
  6
CONTINUOUS
 62
2
 10
240.000000
 20
-155.675003
 11
245.500000
 21
-155.675003
  0
LINE
  8
0
  6
CONTINUOUS
 62
2
 10
240.000000
 20
-150.675003
 11
245.500000
 21
-150.675003
  0
LINE
  8
0
  6
CONTINUOUS
 62
7
 10
240.000000
 20
-150.175003
 11
245.500000
 21
-150.175003
  0
LINE
  8
0
  6
CONTINUOUS
 62
7
 10
167.000000
 20
-168.175003
 11
235.000000
 21
-168.175003
  0
LINE
  8
0
  6
CONTINUOUS
 62
7
 10
162.000000
 20
-156.175003
 11
156.500000
 21
-156.175003
  0
LINE
  8
0
  6
CONTINUOUS
 62
2
 10
162.000000
 20
-155.675003
 11
156.500000
 21
-155.675003
  0
LINE
  8
0
  6
CONTINUOUS
 62
2
 10
162.000000
 20
-150.675003
 11
156.500000
 21
-150.675003
  0
LINE
  8
0
  6
CONTINUOUS
 62
7
 10
162.000000
 20
-150.175003
 11
156.500000
 21
-150.175003
  0
LINE
  8
0
  6
CONTINUOUS
 62
7
 10
156.500000
 20
-156.175003
 11
156.500000
 21
-150.175003
  0
LINE
  8
0
  6
CONTINUOUS
 62
7
 10
178.500000
 20
-151.675003
 11
182.149994
 21
-151.675003
  0
LINE
  8
0
  6
CONTINUOUS
 62
7
 10
235.000000
 20
-158.675003
 11
244.850006
 21
-158.675003
  0
LINE
  8
0
  6
CONTINUOUS
 62
7
 10
244.850006
 20
-156.175003
 11
244.850006
 21
-158.675003
  0
LINE
  8
0
  6
CONTINUOUS
 62
7
 10
225.000000
 20
-147.175003
 11
225.000000
 21
-156.675003
  0
LINE
  8
0
  6
CONTINUOUS
 62
7
 10
182.149994
 20
-147.175003
 11
182.149994
 21
-158.675003
  0
LINE
  8
0
  6
CONTINUOUS
 62
7
 10
189.750000
 20
-146.675003
 11
189.750000
 21
-158.675003
  0
LINE
  8
0
  6
CONTINUOUS
 62
7
 10
237.250000
 20
-146.675003
 11
237.250000
 21
-148.925003
  0
LINE
  8
0
  6
CONTINUOUS
 62
7
 10
177.000000
 20
-147.175003
 11
177.000000
 21
-156.675003
  0
LINE
  8
0
  6
CONTINUOUS
 62
7
 10
167.000000
 20
-147.175003
 11
167.000000
 21
-168.175003
  0
LINE
  8
0
  6
CONTINUOUS
 62
7
 10
235.000000
 20
-147.175003
 11
235.000000
 21
-168.175003
  0
LINE
  8
0
  6
CONTINUOUS
 62
7
 10
235.000000
 20
-147.175003
 11
225.000000
 21
-147.175003
  0
LINE
  8
0
  6
CONTINUOUS
 62
7
 10
167.000000
 20
-147.175003
 11
177.000000
 21
-147.175003
  0
LINE
  8
0
  6
CONTINUOUS
 62
7
 10
240.000000
 20
-148.925003
 11
235.000000
 21
-148.925003
  0
LINE
  8
0
  6
CONTINUOUS
 62
7
 10
240.000000
 20
-148.925003
 11
240.000000
 21
-157.425003
  0
LINE
  8
0
  6
CONTINUOUS
 62
7
 10
240.000000
 20
-157.425003
 11
235.000000
 21
-157.425003
  0
LINE
  8
0
  6
CONTINUOUS
 62
7
 10
240.000000
 20
-155.921005
 11
235.000000
 21
-155.921005
  0
LINE
  8
0
  6
CONTINUOUS
 62
7
 10
240.000000
 20
-154.610992
 11
235.000000
 21
-154.610992
  0
LINE
  8
0
  6
CONTINUOUS
 62
7
 10
240.000000
 20
-151.738998
 11
235.000000
 21
-151.738998
  0
LINE
  8
0
  6
CONTINUOUS
 62
7
 10
240.000000
 20
-150.429001
 11
235.000000
 21
-150.429001
  0
LINE
  8
0
  6
CONTINUOUS
 62
7
 10
162.000000
 20
-157.425003
 11
167.000000
 21
-157.425003
  0
LINE
  8
0
  6
CONTINUOUS
 62
7
 10
162.000000
 20
-157.425003
 11
162.000000
 21
-148.925003
  0
LINE
  8
0
  6
CONTINUOUS
 62
7
 10
162.000000
 20
-148.925003
 11
167.000000
 21
-148.925003
  0
LINE
  8
0
  6
CONTINUOUS
 62
7
 10
162.000000
 20
-150.429001
 11
167.000000
 21
-150.429001
  0
LINE
  8
0
  6
CONTINUOUS
 62
7
 10
162.000000
 20
-151.738998
 11
167.000000
 21
-151.738998
  0
LINE
  8
0
  6
CONTINUOUS
 62
7
 10
162.000000
 20
-154.610992
 11
167.000000
 21
-154.610992
  0
LINE
  8
0
  6
CONTINUOUS
 62
7
 10
162.000000
 20
-155.921005
 11
167.000000
 21
-155.921005
  0
LINE
  8
0
  6
CONTINUOUS
 62
7
 10
179.000000
 20
-158.675003
 11
223.000000
 21
-158.675003
  0
LINE
  8
0
  6
CONTINUOUS
 62
7
 10
70.000000
 20
-166.675003
 11
80.000000
 21
-166.675003
  0
LINE
  8
0
  6
CONTINUOUS
 62
2
 10
70.000000
 20
-152.475006
 11
71.000000
 21
-152.475006
  0
LINE
  8
0
  6
CONTINUOUS
 62
2
 10
71.000000
 20
-149.024994
 11
71.000000
 21
-149.875000
  0
LINE
  8
0
  6
CONTINUOUS
 62
2
 10
71.000000
 20
-153.324997
 11
74.800003
 21
-153.324997
  0
LINE
  8
0
  6
CONTINUOUS
 62
2
 10
76.300003
 20
-150.524994
 11
76.300003
 21
-151.824997
  0
LINE
  8
0
  6
CONTINUOUS
 62
2
 10
71.000000
 20
-149.024994
 11
74.800003
 21
-149.024994
  0
LINE
  8
0
  6
CONTINUOUS
 62
2
 10
70.000000
 20
-149.875000
 11
71.000000
 21
-149.875000
  0
LINE
  8
0
  6
CONTINUOUS
 62
7
 10
70.000000
 20
-147.675003
 11
70.000000
 21
-166.675003
  0
LINE
  8
0
  6
CONTINUOUS
 62
7
 10
70.000000
 20
-147.675003
 11
77.500000
 21
-147.675003
  0
LINE
  8
0
  6
CONTINUOUS
 62
7
 10
77.500000
 20
-147.675003
 11
77.500000
 21
-160.175003
  0
LINE
  8
0
  6
CONTINUOUS
 62
7
 10
77.500000
 20
-160.175003
 11
80.000000
 21
-160.175003
  0
LINE
  8
0
  6
CONTINUOUS
 62
7
 10
78.500000
 20
-159.675003
 11
80.000000
 21
-159.675003
  0
LINE
  8
0
  6
CONTINUOUS
 62
7
 10
78.500000
 20
-148.675003
 11
78.500000
 21
-159.675003
  0
LINE
  8
0
  6
CONTINUOUS
 62
7
 10
78.500000
 20
-148.675003
 11
80.500000
 21
-148.675003
  0
LINE
  8
0
  6
CONTINUOUS
 62
2
 10
71.000000
 20
-152.475006
 11
71.000000
 21
-153.324997
  0
LINE
  8
0
  6
CENTER
 62
2
 10
68.000000
 20
-151.175003
 11
78.300003
 21
-151.175003
  0
LINE
  8
0
  6
CENTER
 62
2
 10
68.000000
 20
-157.175003
 11
78.300003
 21
-157.175003
  0
LINE
  8
0
  6
CONTINUOUS
 62
7
 10
332.000000
 20
-166.675003
 11
322.000000
 21
-166.675003
  0
LINE
  8
0
  6
CONTINUOUS
 62
2
 10
332.000000
 20
-152.475006
 11
331.000000
 21
-152.475006
  0
LINE
  8
0
  6
CONTINUOUS
 62
2
 10
331.000000
 20
-149.024994
 11
331.000000
 21
-149.875000
  0
LINE
  8
0
  6
CONTINUOUS
 62
2
 10
331.000000
 20
-153.324997
 11
327.200012
 21
-153.324997
  0
LINE
  8
0
  6
CONTINUOUS
 62
2
 10
325.700012
 20
-150.524994
 11
325.700012
 21
-151.824997
  0
LINE
  8
0
  6
CONTINUOUS
 62
2
 10
331.000000
 20
-149.024994
 11
327.200012
 21
-149.024994
  0
LINE
  8
0
  6
CONTINUOUS
 62
2
 10
332.000000
 20
-149.875000
 11
331.000000
 21
-149.875000
  0
LINE
  8
0
  6
CONTINUOUS
 62
7
 10
332.000000
 20
-147.675003
 11
332.000000
 21
-166.675003
  0
LINE
  8
0
  6
CONTINUOUS
 62
7
 10
332.000000
 20
-147.675003
 11
324.500000
 21
-147.675003
  0
LINE
  8
0
  6
CONTINUOUS
 62
7
 10
324.500000
 20
-147.675003
 11
324.500000
 21
-160.175003
  0
LINE
  8
0
  6
CONTINUOUS
 62
7
 10
324.500000
 20
-160.175003
 11
322.000000
 21
-160.175003
  0
LINE
  8
0
  6
CONTINUOUS
 62
7
 10
323.500000
 20
-159.675003
 11
322.000000
 21
-159.675003
  0
LINE
  8
0
  6
CONTINUOUS
 62
7
 10
323.500000
 20
-148.675003
 11
323.500000
 21
-159.675003
  0
LINE
  8
0
  6
CONTINUOUS
 62
7
 10
323.500000
 20
-148.675003
 11
321.500000
 21
-148.675003
  0
LINE
  8
0
  6
CONTINUOUS
 62
2
 10
331.000000
 20
-152.475006
 11
331.000000
 21
-153.324997
  0
LINE
  8
0
  6
CENTER
 62
2
 10
334.000000
 20
-151.175003
 11
323.700012
 21
-151.175003
  0
LINE
  8
0
  6
CENTER
 62
2
 10
334.000000
 20
-157.175003
 11
323.700012
 21
-157.175003
  0
LINE
  8
0
  6
CONTINUOUS
 62
7
 10
-254.000000
 20
-62.674999
 11
-239.000000
 21
-62.674999
  0
LINE
  8
0
  6
CONTINUOUS
 62
7
 10
-254.000000
 20
-55.174999
 11
-245.347000
 21
-55.174999
  0
LINE
  8
0
  6
CONTINUOUS
 62
7
 10
-254.000000
 20
-45.674999
 11
-178.000000
 21
-45.674999
  0
LINE
  8
0
  6
CONTINUOUS
 62
7
 10
-254.000000
 20
-62.674999
 11
-254.000000
 21
-45.674999
  0
LINE
  8
0
  6
CONTINUOUS
 62
7
 10
-243.199997
 20
-51.174999
 11
-239.000000
 21
-51.174999
  0
LINE
  8
0
  6
CONTINUOUS
 62
7
 10
-239.000000
 20
-47.674999
 11
-193.000000
 21
-47.674999
  0
LINE
  8
0
  6
CONTINUOUS
 62
2
 10
-239.000000
 20
-55.875000
 11
-193.000000
 21
-55.875000
  0
LINE
  8
0
  6
CONTINUOUS
 62
2
 10
-239.000000
 20
-58.474998
 11
-193.000000
 21
-58.474998
  0
LINE
  8
0
  6
CONTINUOUS
 62
2
 10
-239.000000
 20
-61.875000
 11
-193.000000
 21
-61.875000
  0
LINE
  8
0
  6
CONTINUOUS
 62
2
 10
-239.000000
 20
-64.474998
 11
-193.000000
 21
-64.474998
  0
LINE
  8
0
  6
CONTINUOUS
 62
7
 10
-239.000000
 20
-66.675003
 11
-193.000000
 21
-66.675003
  0
LINE
  8
0
  6
CONTINUOUS
 62
7
 10
-239.000000
 20
-66.675003
 11
-239.000000
 21
-47.674999
  0
LINE
  8
0
  6
DASHED
 62
2
 10
-243.000000
 20
-51.174999
 11
-243.000000
 21
-50.174999
  0
LINE
  8
0
  6
DASHED
 62
2
 10
-243.000000
 20
-50.174999
 11
-235.000000
 21
-50.174999
  0
LINE
  8
0
  6
DASHED
 62
2
 10
-241.500000
 20
-50.174999
 11
-241.500000
 21
-45.674999
  0
LINE
  8
0
  6
DASHED
 62
2
 10
-241.100006
 20
-50.174999
 11
-241.100006
 21
-45.674999
  0
LINE
  8
0
  6
CENTER
 62
2
 10
-239.000000
 20
-53.174999
 11
-239.000000
 21
-43.674999
  0
LINE
  8
0
  6
DASHED
 62
2
 10
-236.899994
 20
-50.174999
 11
-236.899994
 21
-45.674999
  0
LINE
  8
0
  6
DASHED
 62
2
 10
-236.500000
 20
-50.174999
 11
-236.500000
 21
-45.674999
  0
LINE
  8
0
  6
DASHED
 62
2
 10
-235.000000
 20
-51.174999
 11
-235.000000
 21
-50.174999
  0
LINE
  8
0
  6
CONTINUOUS
 62
7
 10
-229.500000
 20
-67.175003
 11
-229.500000
 21
-66.675003
  0
LINE
  8
0
  6
CONTINUOUS
 62
7
 10
-221.899994
 20
-67.675003
 11
-221.899994
 21
-66.675003
  0
LINE
  8
0
  6
CONTINUOUS
 62
7
 10
-221.899994
 20
-67.675003
 11
-195.100006
 21
-67.675003
  0
LINE
  8
0
  6
CONTINUOUS
 62
7
 10
-229.500000
 20
-67.175003
 11
-221.899994
 21
-67.175003
  0
LINE
  8
0
  6
CONTINUOUS
 62
7
 10
-187.500000
 20
-62.674999
 11
-178.000000
 21
-62.674999
  0
LINE
  8
0
  6
CONTINUOUS
 62
7
 10
-187.500000
 20
-67.175003
 11
-187.500000
 21
-55.674999
  0
LINE
  8
0
  6
CONTINUOUS
 62
7
 10
-195.100006
 20
-67.675003
 11
-195.100006
 21
-66.675003
  0
LINE
  8
0
  6
CONTINUOUS
 62
7
 10
-187.500000
 20
-67.175003
 11
-195.100006
 21
-67.175003
  0
LINE
  8
0
  6
CONTINUOUS
 62
7
 10
-178.000000
 20
-62.674999
 11
-178.000000
 21
-45.674999
  0
LINE
  8
0
  6
CONTINUOUS
 62
7
 10
-193.000000
 20
-66.675003
 11
-193.000000
 21
-47.674999
  0
LINE
  8
0
  6
CENTER
 62
2
 10
-218.500000
 20
-148.675003
 11
-218.500000
 21
-144.675003
  0
LINE
  8
0
  6
CENTER
 62
2
 10
-198.500000
 20
-148.675003
 11
-198.500000
 21
-144.675003
  0
LINE
  8
0
  6
CONTINUOUS
 62
7
 10
-193.000000
 20
-55.674999
 11
-187.500000
 21
-55.674999
  0
LINE
  8
0
  6
CONTINUOUS
 62
7
 10
-188.800003
 20
-51.174999
 11
-193.000000
 21
-51.174999
  0
LINE
  8
0
  6
CONTINUOUS
 62
7
 10
-186.653000
 20
-55.174999
 11
-178.000000
 21
-55.174999
  0
LINE
  8
0
  6
DASHED
 62
2
 10
-197.000000
 20
-51.174999
 11
-197.000000
 21
-50.174999
  0
LINE
  8
0
  6
DASHED
 62
2
 10
-197.000000
 20
-50.174999
 11
-189.000000
 21
-50.174999
  0
LINE
  8
0
  6
DASHED
 62
2
 10
-195.500000
 20
-50.174999
 11
-195.500000
 21
-45.674999
  0
LINE
  8
0
  6
DASHED
 62
2
 10
-195.100006
 20
-50.174999
 11
-195.100006
 21
-45.674999
  0
LINE
  8
0
  6
CENTER
 62
2
 10
-193.000000
 20
-53.174999
 11
-193.000000
 21
-43.674999
  0
LINE
  8
0
  6
DASHED
 62
2
 10
-190.899994
 20
-50.174999
 11
-190.899994
 21
-45.674999
  0
LINE
  8
0
  6
DASHED
 62
2
 10
-190.500000
 20
-50.174999
 11
-190.500000
 21
-45.674999
  0
LINE
  8
0
  6
DASHED
 62
2
 10
-189.000000
 20
-51.174999
 11
-189.000000
 21
-50.174999
  0
LINE
  8
0
  6
CONTINUOUS
 62
7
 10
-235.000000
 20
-67.175003
 11
-235.000000
 21
-66.675003
  0
LINE
  8
0
  6
CONTINUOUS
 62
7
 10
-239.000000
 20
-234.675003
 11
-239.000000
 21
-224.675003
  0
LINE
  8
0
  6
CONTINUOUS
 62
7
 10
-239.000000
 20
-234.675003
 11
-193.000000
 21
-234.675003
  0
LINE
  8
0
  6
CONTINUOUS
 62
7
 10
-193.000000
 20
-234.675003
 11
-193.000000
 21
-224.675003
  0
LINE
  8
0
  6
CONTINUOUS
 62
7
 10
-205.250000
 20
-90.675003
 11
-205.250000
 21
-89.175003
  0
LINE
  8
0
  6
CONTINUOUS
 62
7
 10
-193.000000
 20
-80.675003
 11
-193.000000
 21
-90.675003
  0
LINE
  8
0
  6
CONTINUOUS
 62
7
 10
-239.000000
 20
-80.675003
 11
-239.000000
 21
-90.675003
  0
LINE
  8
0
  6
CONTINUOUS
 62
7
 10
-239.000000
 20
-88.175003
 11
-193.000000
 21
-88.175003
  0
LINE
  8
0
  6
CONTINUOUS
 62
7
 10
-239.000000
 20
-80.675003
 11
-193.000000
 21
-80.675003
  0
LINE
  8
0
  6
CONTINUOUS
 62
7
 10
-211.750000
 20
-90.675003
 11
-211.750000
 21
-89.175003
  0
LINE
  8
0
  6
CONTINUOUS
 62
7
 10
-211.750000
 20
-89.175003
 11
-205.250000
 21
-89.175003
  0
LINE
  8
0
  6
CONTINUOUS
 62
7
 10
-235.000000
 20
-147.675003
 11
-229.500000
 21
-147.675003
  0
LINE
  8
0
  6
CONTINUOUS
 62
7
 10
-313.000000
 20
-151.675003
 11
-298.000000
 21
-151.675003
  0
LINE
  8
0
  6
CONTINUOUS
 62
7
 10
-313.000000
 20
-155.675003
 11
-313.000000
 21
-159.175003
  0
LINE
  8
0
  6
CONTINUOUS
 62
7
 10
-313.000000
 20
-151.675003
 11
-313.000000
 21
-152.675003
  0
LINE
  8
0
  6
CONTINUOUS
 62
7
 10
-321.500000
 20
-146.675003
 11
-314.500000
 21
-146.675003
  0
LINE
  8
0
  6
CONTINUOUS
 62
7
 10
-321.500000
 20
-158.675003
 11
-313.000000
 21
-158.675003
  0
LINE
  8
0
  6
CONTINUOUS
 62
7
 10
-314.200012
 20
-146.975006
 11
-296.799988
 21
-146.975006
  0
LINE
  8
0
  6
CONTINUOUS
 62
7
 10
-314.500000
 20
-146.675003
 11
-314.200012
 21
-146.975006
  0
LINE
  8
0
  6
CONTINUOUS
 62
7
 10
-298.000000
 20
-155.675003
 11
-298.000000
 21
-159.175003
  0
LINE
  8
0
  6
CONTINUOUS
 62
7
 10
-298.000000
 20
-151.675003
 11
-298.000000
 21
-152.675003
  0
LINE
  8
0
  6
CONTINUOUS
 62
7
 10
-289.500000
 20
-146.675003
 11
-289.500000
 21
-158.675003
  0
LINE
  8
0
  6
CONTINUOUS
 62
7
 10
-289.500000
 20
-146.675003
 11
-296.500000
 21
-146.675003
  0
LINE
  8
0
  6
CONTINUOUS
 62
7
 10
-289.500000
 20
-158.675003
 11
-298.000000
 21
-158.675003
  0
LINE
  8
0
  6
CONTINUOUS
 62
7
 10
-296.500000
 20
-146.675003
 11
-296.799988
 21
-146.975006
  0
LINE
  8
0
  6
CONTINUOUS
 62
7
 10
-321.500000
 20
-146.675003
 11
-321.500000
 21
-158.675003
  0
LINE
  8
0
  6
CONTINUOUS
 62
7
 10
-289.000000
 20
-159.175003
 11
-298.000000
 21
-159.175003
  0
LINE
  8
0
  6
CONTINUOUS
 62
7
 10
-289.000000
 20
-168.675003
 11
-322.000000
 21
-168.675003
  0
LINE
  8
0
  6
CONTINUOUS
 62
7
 10
-322.000000
 20
-159.175003
 11
-313.000000
 21
-159.175003
  0
LINE
  8
0
  6
CONTINUOUS
 62
7
 10
-322.000000
 20
-159.175003
 11
-322.000000
 21
-168.675003
  0
LINE
  8
0
  6
CONTINUOUS
 62
7
 10
-289.000000
 20
-147.175003
 11
-289.000000
 21
-168.675003
  0
LINE
  8
0
  6
CENTER
 62
2
 10
-305.500000
 20
-144.675003
 11
-305.500000
 21
-170.675003
  0
LINE
  8
0
  6
CENTER
 62
2
 10
-313.899994
 20
-160.675003
 11
-297.100006
 21
-160.675003
  0
LINE
  8
0
  6
CENTER
 62
2
 10
-315.500000
 20
-159.675003
 11
-315.500000
 21
-166.675003
  0
LINE
  8
0
  6
CENTER
 62
2
 10
-319.000000
 20
-163.175003
 11
-312.000000
 21
-163.175003
  0
LINE
  8
0
  6
CENTER
 62
2
 10
-317.500000
 20
-166.675003
 11
-317.500000
 21
-170.675003
  0
LINE
  8
0
  6
CENTER
 62
2
 10
-293.500000
 20
-166.675003
 11
-293.500000
 21
-170.675003
  0
LINE
  8
0
  6
CENTER
 62
2
 10
-293.000000
 20
-144.675003
 11
-293.000000
 21
-148.675003
  0
LINE
  8
0
  6
CENTER
 62
2
 10
-318.000000
 20
-144.675003
 11
-318.000000
 21
-148.675003
  0
LINE
  8
0
  6
CONTINUOUS
 62
7
 10
-279.000000
 20
-147.175003
 11
-279.000000
 21
-168.175003
  0
LINE
  8
0
  6
CONTINUOUS
 62
7
 10
-289.000000
 20
-168.175003
 11
-279.000000
 21
-168.175003
  0
LINE
  8
0
  6
CONTINUOUS
 62
7
 10
-289.500000
 20
-147.175003
 11
-279.000000
 21
-147.175003
  0
LINE
  8
0
  6
CENTER
 62
2
 10
-279.000000
 20
-153.175003
 11
-289.000000
 21
-153.175003
  0
LINE
  8
0
  6
CENTER
 62
2
 10
-284.000000
 20
-148.175003
 11
-284.000000
 21
-158.175003
  0
LINE
  8
0
  6
CONTINUOUS
 62
7
 10
-287.243988
 20
-150.429001
 11
-284.756012
 21
-148.992996
  0
LINE
  8
0
  6
CONTINUOUS
 62
7
 10
-284.000000
 20
-151.442993
 11
-282.500000
 21
-152.309006
  0
LINE
  8
0
  6
CONTINUOUS
 62
7
 10
-282.500000
 20
-152.309006
 11
-282.500000
 21
-154.041000
  0
LINE
  8
0
  6
CONTINUOUS
 62
7
 10
-284.000000
 20
-154.906998
 11
-282.500000
 21
-154.041000
  0
LINE
  8
0
  6
CONTINUOUS
 62
7
 10
-285.500000
 20
-154.041000
 11
-284.000000
 21
-154.906998
  0
LINE
  8
0
  6
CONTINUOUS
 62
7
 10
-285.500000
 20
-152.309006
 11
-285.500000
 21
-154.041000
  0
LINE
  8
0
  6
CONTINUOUS
 62
7
 10
-284.000000
 20
-151.442993
 11
-285.500000
 21
-152.309006
  0
LINE
  8
0
  6
CONTINUOUS
 62
7
 10
-283.243988
 20
-148.992996
 11
-280.756012
 21
-150.429001
  0
LINE
  8
0
  6
CONTINUOUS
 62
7
 10
-280.000000
 20
-151.738998
 11
-280.000000
 21
-154.610992
  0
LINE
  8
0
  6
CONTINUOUS
 62
7
 10
-280.756012
 20
-155.921005
 11
-283.243988
 21
-157.356995
  0
LINE
  8
0
  6
CONTINUOUS
 62
7
 10
-284.756012
 20
-157.356995
 11
-287.243988
 21
-155.921005
  0
LINE
  8
0
  6
CONTINUOUS
 62
7
 10
-288.000000
 20
-154.610992
 11
-288.000000
 21
-151.738998
  0
LINE
  8
0
  6
CONTINUOUS
 62
7
 10
-332.000000
 20
-166.675003
 11
-322.000000
 21
-166.675003
  0
LINE
  8
0
  6
CONTINUOUS
 62
2
 10
-332.000000
 20
-152.475006
 11
-331.000000
 21
-152.475006
  0
LINE
  8
0
  6
CONTINUOUS
 62
2
 10
-331.000000
 20
-149.024994
 11
-331.000000
 21
-149.875000
  0
LINE
  8
0
  6
CONTINUOUS
 62
2
 10
-331.000000
 20
-153.324997
 11
-327.200012
 21
-153.324997
  0
LINE
  8
0
  6
CONTINUOUS
 62
2
 10
-325.700012
 20
-150.524994
 11
-325.700012
 21
-151.824997
  0
LINE
  8
0
  6
CONTINUOUS
 62
2
 10
-331.000000
 20
-149.024994
 11
-327.200012
 21
-149.024994
  0
LINE
  8
0
  6
CONTINUOUS
 62
2
 10
-332.000000
 20
-149.875000
 11
-331.000000
 21
-149.875000
  0
LINE
  8
0
  6
CONTINUOUS
 62
7
 10
-332.000000
 20
-147.675003
 11
-332.000000
 21
-166.675003
  0
LINE
  8
0
  6
CONTINUOUS
 62
7
 10
-332.000000
 20
-147.675003
 11
-324.500000
 21
-147.675003
  0
LINE
  8
0
  6
CONTINUOUS
 62
7
 10
-324.500000
 20
-147.675003
 11
-324.500000
 21
-160.175003
  0
LINE
  8
0
  6
CONTINUOUS
 62
7
 10
-324.500000
 20
-160.175003
 11
-322.000000
 21
-160.175003
  0
LINE
  8
0
  6
CONTINUOUS
 62
7
 10
-323.500000
 20
-159.675003
 11
-322.000000
 21
-159.675003
  0
LINE
  8
0
  6
CONTINUOUS
 62
7
 10
-323.500000
 20
-148.675003
 11
-323.500000
 21
-159.675003
  0
LINE
  8
0
  6
CONTINUOUS
 62
7
 10
-323.500000
 20
-148.675003
 11
-321.500000
 21
-148.675003
  0
LINE
  8
0
  6
CONTINUOUS
 62
2
 10
-331.000000
 20
-152.475006
 11
-331.000000
 21
-153.324997
  0
LINE
  8
0
  6
CENTER
 62
2
 10
-334.000000
 20
-151.175003
 11
-323.700012
 21
-151.175003
  0
LINE
  8
0
  6
CENTER
 62
2
 10
-334.000000
 20
-157.175003
 11
-323.700012
 21
-157.175003
  0
LINE
  8
0
  6
CONTINUOUS
 62
7
 10
-119.000000
 20
-151.675003
 11
-134.000000
 21
-151.675003
  0
LINE
  8
0
  6
CONTINUOUS
 62
7
 10
-119.000000
 20
-155.675003
 11
-119.000000
 21
-159.175003
  0
LINE
  8
0
  6
CONTINUOUS
 62
7
 10
-119.000000
 20
-151.675003
 11
-119.000000
 21
-152.675003
  0
LINE
  8
0
  6
CONTINUOUS
 62
7
 10
-110.500000
 20
-146.675003
 11
-117.500000
 21
-146.675003
  0
LINE
  8
0
  6
CONTINUOUS
 62
7
 10
-110.500000
 20
-158.675003
 11
-119.000000
 21
-158.675003
  0
LINE
  8
0
  6
CONTINUOUS
 62
7
 10
-117.800003
 20
-146.975006
 11
-135.199997
 21
-146.975006
  0
LINE
  8
0
  6
CONTINUOUS
 62
7
 10
-117.500000
 20
-146.675003
 11
-117.800003
 21
-146.975006
  0
LINE
  8
0
  6
CONTINUOUS
 62
7
 10
-134.000000
 20
-155.675003
 11
-134.000000
 21
-159.175003
  0
LINE
  8
0
  6
CONTINUOUS
 62
7
 10
-134.000000
 20
-151.675003
 11
-134.000000
 21
-152.675003
  0
LINE
  8
0
  6
CONTINUOUS
 62
7
 10
-142.500000
 20
-146.675003
 11
-142.500000
 21
-158.675003
  0
LINE
  8
0
  6
CONTINUOUS
 62
7
 10
-142.500000
 20
-146.675003
 11
-135.500000
 21
-146.675003
  0
LINE
  8
0
  6
CONTINUOUS
 62
7
 10
-142.500000
 20
-158.675003
 11
-134.000000
 21
-158.675003
  0
LINE
  8
0
  6
CONTINUOUS
 62
7
 10
-135.500000
 20
-146.675003
 11
-135.199997
 21
-146.975006
  0
LINE
  8
0
  6
CONTINUOUS
 62
7
 10
-110.500000
 20
-146.675003
 11
-110.500000
 21
-158.675003
  0
LINE
  8
0
  6
CONTINUOUS
 62
7
 10
-143.000000
 20
-159.175003
 11
-134.000000
 21
-159.175003
  0
LINE
  8
0
  6
CONTINUOUS
 62
7
 10
-143.000000
 20
-168.675003
 11
-110.000000
 21
-168.675003
  0
LINE
  8
0
  6
CONTINUOUS
 62
7
 10
-110.000000
 20
-159.175003
 11
-119.000000
 21
-159.175003
  0
LINE
  8
0
  6
CONTINUOUS
 62
7
 10
-110.000000
 20
-159.175003
 11
-110.000000
 21
-168.675003
  0
LINE
  8
0
  6
CONTINUOUS
 62
7
 10
-143.000000
 20
-147.175003
 11
-143.000000
 21
-168.675003
  0
LINE
  8
0
  6
CENTER
 62
2
 10
-126.500000
 20
-144.675003
 11
-126.500000
 21
-170.675003
  0
LINE
  8
0
  6
CENTER
 62
2
 10
-118.099998
 20
-160.675003
 11
-134.899994
 21
-160.675003
  0
LINE
  8
0
  6
CENTER
 62
2
 10
-116.500000
 20
-159.675003
 11
-116.500000
 21
-166.675003
  0
LINE
  8
0
  6
CENTER
 62
2
 10
-113.000000
 20
-163.175003
 11
-120.000000
 21
-163.175003
  0
LINE
  8
0
  6
CENTER
 62
2
 10
-114.500000
 20
-166.675003
 11
-114.500000
 21
-170.675003
  0
LINE
  8
0
  6
CENTER
 62
2
 10
-138.500000
 20
-166.675003
 11
-138.500000
 21
-170.675003
  0
LINE
  8
0
  6
CENTER
 62
2
 10
-139.000000
 20
-144.675003
 11
-139.000000
 21
-148.675003
  0
LINE
  8
0
  6
CENTER
 62
2
 10
-114.000000
 20
-144.675003
 11
-114.000000
 21
-148.675003
  0
LINE
  8
0
  6
CONTINUOUS
 62
7
 10
-153.000000
 20
-147.175003
 11
-153.000000
 21
-168.175003
  0
LINE
  8
0
  6
CONTINUOUS
 62
7
 10
-143.000000
 20
-168.175003
 11
-153.000000
 21
-168.175003
  0
LINE
  8
0
  6
CONTINUOUS
 62
7
 10
-142.500000
 20
-147.175003
 11
-153.000000
 21
-147.175003
  0
LINE
  8
0
  6
CENTER
 62
2
 10
-153.000000
 20
-153.175003
 11
-143.000000
 21
-153.175003
  0
LINE
  8
0
  6
CENTER
 62
2
 10
-148.000000
 20
-148.175003
 11
-148.000000
 21
-158.175003
  0
LINE
  8
0
  6
CONTINUOUS
 62
7
 10
-144.755997
 20
-150.429001
 11
-147.244003
 21
-148.992996
  0
LINE
  8
0
  6
CONTINUOUS
 62
7
 10
-148.000000
 20
-151.442993
 11
-149.500000
 21
-152.309006
  0
LINE
  8
0
  6
CONTINUOUS
 62
7
 10
-149.500000
 20
-152.309006
 11
-149.500000
 21
-154.041000
  0
LINE
  8
0
  6
CONTINUOUS
 62
7
 10
-148.000000
 20
-154.906998
 11
-149.500000
 21
-154.041000
  0
LINE
  8
0
  6
CONTINUOUS
 62
7
 10
-146.500000
 20
-154.041000
 11
-148.000000
 21
-154.906998
  0
LINE
  8
0
  6
CONTINUOUS
 62
7
 10
-146.500000
 20
-152.309006
 11
-146.500000
 21
-154.041000
  0
LINE
  8
0
  6
CONTINUOUS
 62
7
 10
-148.000000
 20
-151.442993
 11
-146.500000
 21
-152.309006
  0
LINE
  8
0
  6
CONTINUOUS
 62
7
 10
-148.755997
 20
-148.992996
 11
-151.244003
 21
-150.429001
  0
LINE
  8
0
  6
CONTINUOUS
 62
7
 10
-152.000000
 20
-151.738998
 11
-152.000000
 21
-154.610992
  0
LINE
  8
0
  6
CONTINUOUS
 62
7
 10
-151.244003
 20
-155.921005
 11
-148.755997
 21
-157.356995
  0
LINE
  8
0
  6
CONTINUOUS
 62
7
 10
-147.244003
 20
-157.356995
 11
-144.755997
 21
-155.921005
  0
LINE
  8
0
  6
CONTINUOUS
 62
7
 10
-144.000000
 20
-154.610992
 11
-144.000000
 21
-151.738998
  0
LINE
  8
0
  6
CONTINUOUS
 62
7
 10
-100.000000
 20
-166.675003
 11
-110.000000
 21
-166.675003
  0
LINE
  8
0
  6
CONTINUOUS
 62
2
 10
-100.000000
 20
-152.475006
 11
-101.000000
 21
-152.475006
  0
LINE
  8
0
  6
CONTINUOUS
 62
2
 10
-101.000000
 20
-149.024994
 11
-101.000000
 21
-149.875000
  0
LINE
  8
0
  6
CONTINUOUS
 62
2
 10
-101.000000
 20
-153.324997
 11
-104.800003
 21
-153.324997
  0
LINE
  8
0
  6
CONTINUOUS
 62
2
 10
-106.300003
 20
-150.524994
 11
-106.300003
 21
-151.824997
  0
LINE
  8
0
  6
CONTINUOUS
 62
2
 10
-101.000000
 20
-149.024994
 11
-104.800003
 21
-149.024994
  0
LINE
  8
0
  6
CONTINUOUS
 62
2
 10
-100.000000
 20
-149.875000
 11
-101.000000
 21
-149.875000
  0
LINE
  8
0
  6
CONTINUOUS
 62
7
 10
-100.000000
 20
-147.675003
 11
-100.000000
 21
-166.675003
  0
LINE
  8
0
  6
CONTINUOUS
 62
7
 10
-100.000000
 20
-147.675003
 11
-107.500000
 21
-147.675003
  0
LINE
  8
0
  6
CONTINUOUS
 62
7
 10
-107.500000
 20
-147.675003
 11
-107.500000
 21
-160.175003
  0
LINE
  8
0
  6
CONTINUOUS
 62
7
 10
-107.500000
 20
-160.175003
 11
-110.000000
 21
-160.175003
  0
LINE
  8
0
  6
CONTINUOUS
 62
7
 10
-108.500000
 20
-159.675003
 11
-110.000000
 21
-159.675003
  0
LINE
  8
0
  6
CONTINUOUS
 62
7
 10
-108.500000
 20
-148.675003
 11
-108.500000
 21
-159.675003
  0
LINE
  8
0
  6
CONTINUOUS
 62
7
 10
-108.500000
 20
-148.675003
 11
-110.500000
 21
-148.675003
  0
LINE
  8
0
  6
CONTINUOUS
 62
2
 10
-101.000000
 20
-152.475006
 11
-101.000000
 21
-153.324997
  0
LINE
  8
0
  6
CENTER
 62
2
 10
-98.000000
 20
-151.175003
 11
-108.300003
 21
-151.175003
  0
LINE
  8
0
  6
CENTER
 62
2
 10
-98.000000
 20
-157.175003
 11
-108.300003
 21
-157.175003
  0
LINE
  8
0
  6
CONTINUOUS
 62
7
 10
244.850006
 20
-62.674999
 11
254.000000
 21
-62.674999
  0
LINE
  8
0
  6
CONTINUOUS
 62
7
 10
148.000000
 20
-62.674999
 11
148.000000
 21
-45.674999
  0
LINE
  8
0
  6
CONTINUOUS
 62
7
 10
245.347000
 20
-55.174999
 11
254.000000
 21
-55.174999
  0
LINE
  8
0
  6
CONTINUOUS
 62
7
 10
182.149994
 20
-67.175003
 11
182.149994
 21
-66.675003
  0
LINE
  8
0
  6
CONTINUOUS
 62
7
 10
189.750000
 20
-67.675003
 11
189.750000
 21
-66.675003
  0
LINE
  8
0
  6
CONTINUOUS
 62
7
 10
189.750000
 20
-67.675003
 11
237.250000
 21
-67.675003
  0
LINE
  8
0
  6
CONTINUOUS
 62
7
 10
239.000000
 20
-55.674999
 11
244.850006
 21
-55.674999
  0
LINE
  8
0
  6
CONTINUOUS
 62
7
 10
182.149994
 20
-67.175003
 11
189.750000
 21
-67.175003
  0
LINE
  8
0
  6
CONTINUOUS
 62
7
 10
148.000000
 20
-62.674999
 11
163.000000
 21
-62.674999
  0
LINE
  8
0
  6
CONTINUOUS
 62
7
 10
237.250000
 20
-67.675003
 11
237.250000
 21
-66.675003
  0
LINE
  8
0
  6
CONTINUOUS
 62
7
 10
244.850006
 20
-67.175003
 11
237.250000
 21
-67.175003
  0
LINE
  8
0
  6
CONTINUOUS
 62
7
 10
148.000000
 20
-45.674999
 11
254.000000
 21
-45.674999
  0
LINE
  8
0
  6
CONTINUOUS
 62
7
 10
158.800003
 20
-51.174999
 11
163.000000
 21
-51.174999
  0
LINE
  8
0
  6
CONTINUOUS
 62
7
 10
243.199997
 20
-51.174999
 11
239.000000
 21
-51.174999
  0
LINE
  8
0
  6
CONTINUOUS
 62
7
 10
244.850006
 20
-67.175003
 11
244.850006
 21
-55.674999
  0
LINE
  8
0
  6
CENTER
 62
2
 10
193.500000
 20
-144.675003
 11
193.500000
 21
-148.675003
  0
LINE
  8
0
  6
CENTER
 62
2
 10
213.500000
 20
-144.675003
 11
213.500000
 21
-148.675003
  0
LINE
  8
0
  6
CENTER
 62
2
 10
233.500000
 20
-144.675003
 11
233.500000
 21
-148.675003
  0
LINE
  8
0
  6
CONTINUOUS
 62
7
 10
163.000000
 20
-66.675003
 11
163.000000
 21
-47.674999
  0
LINE
  8
0
  6
CONTINUOUS
 62
2
 10
163.000000
 20
-55.875000
 11
239.000000
 21
-55.875000
  0
LINE
  8
0
  6
CONTINUOUS
 62
2
 10
163.000000
 20
-58.474998
 11
239.000000
 21
-58.474998
  0
LINE
  8
0
  6
CONTINUOUS
 62
2
 10
163.000000
 20
-61.875000
 11
239.000000
 21
-61.875000
  0
LINE
  8
0
  6
CONTINUOUS
 62
2
 10
163.000000
 20
-64.474998
 11
239.000000
 21
-64.474998
  0
LINE
  8
0
  6
CONTINUOUS
 62
7
 10
163.000000
 20
-66.675003
 11
239.000000
 21
-66.675003
  0
LINE
  8
0
  6
CONTINUOUS
 62
7
 10
239.000000
 20
-66.675003
 11
239.000000
 21
-47.674999
  0
LINE
  8
0
  6
CONTINUOUS
 62
7
 10
163.000000
 20
-47.674999
 11
239.000000
 21
-47.674999
  0
LINE
  8
0
  6
DASHED
 62
2
 10
159.000000
 20
-51.174999
 11
159.000000
 21
-50.174999
  0
LINE
  8
0
  6
DASHED
 62
2
 10
159.000000
 20
-50.174999
 11
167.000000
 21
-50.174999
  0
LINE
  8
0
  6
DASHED
 62
2
 10
160.500000
 20
-50.174999
 11
160.500000
 21
-45.674999
  0
LINE
  8
0
  6
DASHED
 62
2
 10
160.899994
 20
-50.174999
 11
160.899994
 21
-45.674999
  0
LINE
  8
0
  6
CENTER
 62
2
 10
163.000000
 20
-53.174999
 11
163.000000
 21
-43.674999
  0
LINE
  8
0
  6
DASHED
 62
2
 10
165.100006
 20
-50.174999
 11
165.100006
 21
-45.674999
  0
LINE
  8
0
  6
DASHED
 62
2
 10
165.500000
 20
-50.174999
 11
165.500000
 21
-45.674999
  0
LINE
  8
0
  6
DASHED
 62
2
 10
167.000000
 20
-51.174999
 11
167.000000
 21
-50.174999
  0
LINE
  8
0
  6
DASHED
 62
2
 10
235.000000
 20
-51.174999
 11
235.000000
 21
-50.174999
  0
LINE
  8
0
  6
DASHED
 62
2
 10
235.000000
 20
-50.174999
 11
243.000000
 21
-50.174999
  0
LINE
  8
0
  6
DASHED
 62
2
 10
236.500000
 20
-50.174999
 11
236.500000
 21
-45.674999
  0
LINE
  8
0
  6
DASHED
 62
2
 10
236.899994
 20
-50.174999
 11
236.899994
 21
-45.674999
  0
LINE
  8
0
  6
CENTER
 62
2
 10
239.000000
 20
-53.174999
 11
239.000000
 21
-43.674999
  0
LINE
  8
0
  6
DASHED
 62
2
 10
241.100006
 20
-50.174999
 11
241.100006
 21
-45.674999
  0
LINE
  8
0
  6
DASHED
 62
2
 10
241.500000
 20
-50.174999
 11
241.500000
 21
-45.674999
  0
LINE
  8
0
  6
DASHED
 62
2
 10
243.000000
 20
-51.174999
 11
243.000000
 21
-50.174999
  0
LINE
  8
0
  6
CONTINUOUS
 62
7
 10
254.000000
 20
-62.674999
 11
254.000000
 21
-45.674999
  0
LINE
  8
0
  6
CONTINUOUS
 62
7
 10
148.000000
 20
-55.174999
 11
156.653000
 21
-55.174999
  0
LINE
  8
0
  6
CONTINUOUS
 62
7
 10
163.000000
 20
-234.675003
 11
239.000000
 21
-234.675003
  0
LINE
  8
0
  6
CONTINUOUS
 62
7
 10
163.000000
 20
-234.675003
 11
163.000000
 21
-224.675003
  0
LINE
  8
0
  6
CONTINUOUS
 62
7
 10
239.000000
 20
-234.675003
 11
239.000000
 21
-224.675003
  0
LINE
  8
0
  6
CONTINUOUS
 62
7
 10
239.000000
 20
-80.675003
 11
239.000000
 21
-90.675003
  0
LINE
  8
0
  6
CONTINUOUS
 62
7
 10
216.750000
 20
-89.175003
 11
216.750000
 21
-90.675003
  0
LINE
  8
0
  6
CONTINUOUS
 62
7
 10
163.000000
 20
-80.675003
 11
163.000000
 21
-90.675003
  0
LINE
  8
0
  6
CONTINUOUS
 62
7
 10
163.000000
 20
-88.175003
 11
239.000000
 21
-88.175003
  0
LINE
  8
0
  6
CONTINUOUS
 62
7
 10
163.000000
 20
-80.675003
 11
239.000000
 21
-80.675003
  0
LINE
  8
0
  6
CONTINUOUS
 62
7
 10
210.250000
 20
-89.175003
 11
216.750000
 21
-89.175003
  0
LINE
  8
0
  6
CONTINUOUS
 62
7
 10
210.250000
 20
-89.175003
 11
210.250000
 21
-90.675003
  0
LINE
  8
0
  6
CONTINUOUS
 62
7
 10
163.000000
 20
-148.925003
 11
163.000000
 21
-147.675003
  0
LINE
  8
0
  6
CONTINUOUS
 62
7
 10
163.000000
 20
-147.675003
 11
167.000000
 21
-147.675003
  0
LINE
  8
0
  6
CONTINUOUS
 62
7
 10
177.000000
 20
-147.675003
 11
182.149994
 21
-147.675003
  0
LINE
  8
0
  6
CENTER
 62
2
 10
-176.000000
 20
143.574997
 11
-256.000000
 21
143.574997
  0
LINE
  8
0
  6
CONTINUOUS
 62
7
 10
-221.899994
 20
159.574997
 11
-221.899994
 21
127.574997
  0
LINE
  8
0
  6
CONTINUOUS
 62
7
 10
-195.100006
 20
159.574997
 11
-221.899994
 21
159.574997
  0
LINE
  8
0
  6
CONTINUOUS
 62
7
 10
-195.100006
 20
127.574997
 11
-221.899994
 21
127.574997
  0
LINE
  8
0
  6
CONTINUOUS
 62
7
 10
-195.100006
 20
159.574997
 11
-195.100006
 21
127.574997
  0
LINE
  8
0
  6
CONTINUOUS
 62
7
 10
-195.100006
 20
159.375000
 11
-187.500000
 21
159.375000
  0
LINE
  8
0
  6
CONTINUOUS
 62
7
 10
-187.500000
 20
159.375000
 11
-187.500000
 21
127.775002
  0
LINE
  8
0
  6
CONTINUOUS
 62
7
 10
-195.100006
 20
127.775002
 11
-187.500000
 21
127.775002
  0
LINE
  8
0
  6
CONTINUOUS
 62
7
 10
-254.000000
 20
151.074997
 11
-229.500000
 21
151.074997
  0
LINE
  8
0
  6
CONTINUOUS
 62
7
 10
-187.500000
 20
151.074997
 11
-178.000000
 21
151.074997
  0
LINE
  8
0
  6
CONTINUOUS
 62
7
 10
-254.000000
 20
136.074997
 11
-229.500000
 21
136.074997
  0
LINE
  8
0
  6
CONTINUOUS
 62
7
 10
-187.500000
 20
136.074997
 11
-178.000000
 21
136.074997
  0
LINE
  8
0
  6
CONTINUOUS
 62
7
 10
-195.100006
 20
134.574997
 11
-221.899994
 21
134.574997
  0
LINE
  8
0
  6
CONTINUOUS
 62
7
 10
-195.100006
 20
152.574997
 11
-221.899994
 21
152.574997
  0
LINE
  8
0
  6
CONTINUOUS
 62
7
 10
-254.000000
 20
127.074997
 11
-178.000000
 21
127.074997
  0
LINE
  8
0
  6
CONTINUOUS
 62
7
 10
-254.000000
 20
127.074997
 11
-254.000000
 21
160.074997
  0
LINE
  8
0
  6
CONTINUOUS
 62
7
 10
-178.000000
 20
127.074997
 11
-178.000000
 21
160.074997
  0
LINE
  8
0
  6
CENTER
 62
2
 10
-176.000000
 20
42.575001
 11
-256.000000
 21
42.575001
  0
LINE
  8
0
  6
CONTINUOUS
 62
7
 10
-254.000000
 20
26.075001
 11
-178.000000
 21
26.075001
  0
LINE
  8
0
  6
CONTINUOUS
 62
7
 10
-254.000000
 20
59.075001
 11
-178.000000
 21
59.075001
  0
LINE
  8
0
  6
CONTINUOUS
 62
7
 10
-254.000000
 20
59.075001
 11
-254.000000
 21
26.075001
  0
LINE
  8
0
  6
CONTINUOUS
 62
7
 10
-178.000000
 20
59.075001
 11
-178.000000
 21
26.075001
  0
LINE
  8
0
  6
CONTINUOUS
 62
7
 10
-229.500000
 20
159.375000
 11
-229.500000
 21
127.788002
  0
LINE
  8
0
  6
CONTINUOUS
 62
7
 10
-221.899994
 20
159.375000
 11
-229.500000
 21
159.375000
  0
LINE
  8
0
  6
CONTINUOUS
 62
7
 10
-221.899994
 20
127.775002
 11
-229.500000
 21
127.775002
  0
LINE
  8
0
  6
CENTER
 62
2
 10
-193.000000
 20
137.574997
 11
-193.000000
 21
125.574997
  0
LINE
  8
0
  6
CENTER
 62
2
 10
-199.000000
 20
131.574997
 11
-187.000000
 21
131.574997
  0
LINE
  8
0
  6
CENTER
 62
2
 10
-193.000000
 20
161.574997
 11
-193.000000
 21
149.574997
  0
LINE
  8
0
  6
CENTER
 62
2
 10
-199.000000
 20
155.574997
 11
-187.000000
 21
155.574997
  0
LINE
  8
0
  6
CENTER
 62
2
 10
-198.500000
 20
159.574997
 11
-198.500000
 21
152.574997
  0
LINE
  8
0
  6
CENTER
 62
2
 10
-202.000000
 20
156.074997
 11
-195.000000
 21
156.074997
  0
LINE
  8
0
  6
CENTER
 62
2
 10
-218.500000
 20
159.574997
 11
-218.500000
 21
152.574997
  0
LINE
  8
0
  6
CENTER
 62
2
 10
-222.000000
 20
156.074997
 11
-215.000000
 21
156.074997
  0
LINE
  8
0
  6
CENTER
 62
2
 10
-198.500000
 20
134.574997
 11
-198.500000
 21
127.574997
  0
LINE
  8
0
  6
CENTER
 62
2
 10
-202.000000
 20
131.074997
 11
-195.000000
 21
131.074997
  0
LINE
  8
0
  6
CENTER
 62
2
 10
-218.500000
 20
134.574997
 11
-218.500000
 21
127.574997
  0
LINE
  8
0
  6
CENTER
 62
2
 10
-222.000000
 20
131.074997
 11
-215.000000
 21
131.074997
  0
LINE
  8
0
  6
CENTER
 62
2
 10
-239.000000
 20
137.574997
 11
-239.000000
 21
125.574997
  0
LINE
  8
0
  6
CENTER
 62
2
 10
-245.000000
 20
131.574997
 11
-233.000000
 21
131.574997
  0
LINE
  8
0
  6
CENTER
 62
2
 10
-239.000000
 20
161.574997
 11
-239.000000
 21
149.574997
  0
LINE
  8
0
  6
CENTER
 62
2
 10
-245.000000
 20
155.574997
 11
-233.000000
 21
155.574997
  0
LINE
  8
0
  6
CENTER
 62
2
 10
-239.000000
 20
59.075001
 11
-239.000000
 21
50.075001
  0
LINE
  8
0
  6
CENTER
 62
2
 10
-243.500000
 20
54.575001
 11
-234.500000
 21
54.575001
  0
LINE
  8
0
  6
CENTER
 62
2
 10
-246.000000
 20
54.974998
 11
-246.000000
 21
39.174999
  0
LINE
  8
0
  6
CENTER
 62
2
 10
-253.899994
 20
47.075001
 11
-238.100006
 21
47.075001
  0
LINE
  8
0
  6
CENTER
 62
2
 10
-193.000000
 20
59.075001
 11
-193.000000
 21
50.075001
  0
LINE
  8
0
  6
CENTER
 62
2
 10
-197.500000
 20
54.575001
 11
-188.500000
 21
54.575001
  0
LINE
  8
0
  6
CENTER
 62
2
 10
-186.000000
 20
54.974998
 11
-186.000000
 21
39.174999
  0
LINE
  8
0
  6
CENTER
 62
2
 10
-193.899994
 20
47.075001
 11
-178.100006
 21
47.075001
  0
LINE
  8
0
  6
CENTER
 62
2
 10
-193.000000
 20
35.075001
 11
-193.000000
 21
26.075001
  0
LINE
  8
0
  6
CENTER
 62
2
 10
-197.500000
 20
30.575001
 11
-188.500000
 21
30.575001
  0
LINE
  8
0
  6
CENTER
 62
2
 10
-239.000000
 20
35.075001
 11
-239.000000
 21
26.075001
  0
LINE
  8
0
  6
CENTER
 62
2
 10
-243.500000
 20
30.575001
 11
-234.500000
 21
30.575001
  0
LINE
  8
0
  6
DASHED
 62
2
 10
-235.000000
 20
199.574997
 11
-235.000000
 21
200.574997
  0
LINE
  8
0
  6
DASHED
 62
2
 10
-235.000000
 20
200.574997
 11
-243.000000
 21
200.574997
  0
LINE
  8
0
  6
DASHED
 62
2
 10
-236.500000
 20
200.574997
 11
-236.500000
 21
205.074997
  0
LINE
  8
0
  6
DASHED
 62
2
 10
-236.899994
 20
200.574997
 11
-236.899994
 21
205.074997
  0
LINE
  8
0
  6
CENTER
 62
2
 10
-239.000000
 20
197.574997
 11
-239.000000
 21
207.074997
  0
LINE
  8
0
  6
DASHED
 62
2
 10
-241.100006
 20
200.574997
 11
-241.100006
 21
205.074997
  0
LINE
  8
0
  6
DASHED
 62
2
 10
-241.500000
 20
200.574997
 11
-241.500000
 21
205.074997
  0
LINE
  8
0
  6
DASHED
 62
2
 10
-243.000000
 20
199.574997
 11
-243.000000
 21
200.574997
  0
LINE
  8
0
  6
DASHED
 62
2
 10
-189.000000
 20
199.574997
 11
-189.000000
 21
200.574997
  0
LINE
  8
0
  6
DASHED
 62
2
 10
-189.000000
 20
200.574997
 11
-197.000000
 21
200.574997
  0
LINE
  8
0
  6
DASHED
 62
2
 10
-190.500000
 20
200.574997
 11
-190.500000
 21
205.074997
  0
LINE
  8
0
  6
DASHED
 62
2
 10
-190.899994
 20
200.574997
 11
-190.899994
 21
205.074997
  0
LINE
  8
0
  6
CENTER
 62
2
 10
-193.000000
 20
197.574997
 11
-193.000000
 21
207.074997
  0
LINE
  8
0
  6
DASHED
 62
2
 10
-195.100006
 20
200.574997
 11
-195.100006
 21
205.074997
  0
LINE
  8
0
  6
DASHED
 62
2
 10
-195.500000
 20
200.574997
 11
-195.500000
 21
205.074997
  0
LINE
  8
0
  6
DASHED
 62
2
 10
-197.000000
 20
199.574997
 11
-197.000000
 21
200.574997
  0
LINE
  8
0
  6
CENTER
 62
2
 10
256.000000
 20
143.574997
 11
146.000000
 21
143.574997
  0
LINE
  8
0
  6
CONTINUOUS
 62
7
 10
189.750000
 20
159.574997
 11
189.750000
 21
127.574997
  0
LINE
  8
0
  6
CONTINUOUS
 62
7
 10
237.250000
 20
159.574997
 11
189.750000
 21
159.574997
  0
LINE
  8
0
  6
CONTINUOUS
 62
7
 10
237.250000
 20
127.574997
 11
189.750000
 21
127.574997
  0
LINE
  8
0
  6
CONTINUOUS
 62
7
 10
237.250000
 20
159.574997
 11
237.250000
 21
127.574997
  0
LINE
  8
0
  6
CONTINUOUS
 62
7
 10
237.250000
 20
159.375000
 11
244.850006
 21
159.375000
  0
LINE
  8
0
  6
CONTINUOUS
 62
7
 10
244.850006
 20
159.375000
 11
244.850006
 21
127.775002
  0
LINE
  8
0
  6
CONTINUOUS
 62
7
 10
237.250000
 20
127.775002
 11
244.850006
 21
127.775002
  0
LINE
  8
0
  6
CONTINUOUS
 62
7
 10
148.000000
 20
151.074997
 11
182.149994
 21
151.074997
  0
LINE
  8
0
  6
CONTINUOUS
 62
7
 10
244.850006
 20
151.074997
 11
254.000000
 21
151.074997
  0
LINE
  8
0
  6
CONTINUOUS
 62
7
 10
148.000000
 20
136.074997
 11
182.149994
 21
136.074997
  0
LINE
  8
0
  6
CONTINUOUS
 62
7
 10
244.850006
 20
136.074997
 11
254.000000
 21
136.074997
  0
LINE
  8
0
  6
CONTINUOUS
 62
7
 10
237.250000
 20
134.574997
 11
189.750000
 21
134.574997
  0
LINE
  8
0
  6
CONTINUOUS
 62
7
 10
237.250000
 20
152.574997
 11
189.750000
 21
152.574997
  0
LINE
  8
0
  6
CONTINUOUS
 62
7
 10
148.000000
 20
127.074997
 11
254.000000
 21
127.074997
  0
LINE
  8
0
  6
CONTINUOUS
 62
7
 10
148.000000
 20
127.074997
 11
148.000000
 21
160.074997
  0
LINE
  8
0
  6
CONTINUOUS
 62
7
 10
254.000000
 20
127.074997
 11
254.000000
 21
160.074997
  0
LINE
  8
0
  6
CENTER
 62
2
 10
256.000000
 20
42.575001
 11
146.000000
 21
42.575001
  0
LINE
  8
0
  6
CONTINUOUS
 62
7
 10
148.000000
 20
26.075001
 11
254.000000
 21
26.075001
  0
LINE
  8
0
  6
CONTINUOUS
 62
7
 10
148.000000
 20
59.075001
 11
254.000000
 21
59.075001
  0
LINE
  8
0
  6
CONTINUOUS
 62
7
 10
148.000000
 20
59.075001
 11
148.000000
 21
26.075001
  0
LINE
  8
0
  6
CONTINUOUS
 62
7
 10
254.000000
 20
59.075001
 11
254.000000
 21
26.075001
  0
LINE
  8
0
  6
CONTINUOUS
 62
7
 10
182.149994
 20
159.375000
 11
182.149994
 21
127.788002
  0
LINE
  8
0
  6
CONTINUOUS
 62
7
 10
189.750000
 20
127.775002
 11
182.149994
 21
127.775002
  0
LINE
  8
0
  6
CONTINUOUS
 62
7
 10
189.750000
 20
159.375000
 11
182.149994
 21
159.375000
  0
LINE
  8
0
  6
CENTER
 62
2
 10
163.000000
 20
161.574997
 11
163.000000
 21
149.574997
  0
LINE
  8
0
  6
CENTER
 62
2
 10
157.000000
 20
155.574997
 11
169.000000
 21
155.574997
  0
LINE
  8
0
  6
CENTER
 62
2
 10
163.000000
 20
137.574997
 11
163.000000
 21
125.574997
  0
LINE
  8
0
  6
CENTER
 62
2
 10
157.000000
 20
131.574997
 11
169.000000
 21
131.574997
  0
LINE
  8
0
  6
CENTER
 62
2
 10
193.500000
 20
159.574997
 11
193.500000
 21
152.574997
  0
LINE
  8
0
  6
CENTER
 62
2
 10
190.000000
 20
156.074997
 11
197.000000
 21
156.074997
  0
LINE
  8
0
  6
CENTER
 62
2
 10
213.500000
 20
159.574997
 11
213.500000
 21
152.574997
  0
LINE
  8
0
  6
CENTER
 62
2
 10
210.000000
 20
156.074997
 11
217.000000
 21
156.074997
  0
LINE
  8
0
  6
CENTER
 62
2
 10
233.500000
 20
159.574997
 11
233.500000
 21
152.574997
  0
LINE
  8
0
  6
CENTER
 62
2
 10
230.000000
 20
156.074997
 11
237.000000
 21
156.074997
  0
LINE
  8
0
  6
CENTER
 62
2
 10
239.000000
 20
161.574997
 11
239.000000
 21
149.574997
  0
LINE
  8
0
  6
CENTER
 62
2
 10
233.000000
 20
155.574997
 11
245.000000
 21
155.574997
  0
LINE
  8
0
  6
CENTER
 62
2
 10
239.000000
 20
137.574997
 11
239.000000
 21
125.574997
  0
LINE
  8
0
  6
CENTER
 62
2
 10
233.000000
 20
131.574997
 11
245.000000
 21
131.574997
  0
LINE
  8
0
  6
CENTER
 62
2
 10
233.500000
 20
134.574997
 11
233.500000
 21
127.574997
  0
LINE
  8
0
  6
CENTER
 62
2
 10
230.000000
 20
131.074997
 11
237.000000
 21
131.074997
  0
LINE
  8
0
  6
CENTER
 62
2
 10
193.500000
 20
134.574997
 11
193.500000
 21
127.574997
  0
LINE
  8
0
  6
CENTER
 62
2
 10
190.000000
 20
131.074997
 11
197.000000
 21
131.074997
  0
LINE
  8
0
  6
CENTER
 62
2
 10
213.500000
 20
134.574997
 11
213.500000
 21
127.574997
  0
LINE
  8
0
  6
CENTER
 62
2
 10
210.000000
 20
131.074997
 11
217.000000
 21
131.074997
  0
LINE
  8
0
  6
CENTER
 62
2
 10
163.000000
 20
59.075001
 11
163.000000
 21
50.075001
  0
LINE
  8
0
  6
CENTER
 62
2
 10
158.500000
 20
54.575001
 11
167.500000
 21
54.575001
  0
LINE
  8
0
  6
CENTER
 62
2
 10
156.000000
 20
54.974998
 11
156.000000
 21
39.174999
  0
LINE
  8
0
  6
CENTER
 62
2
 10
148.100006
 20
47.075001
 11
163.899994
 21
47.075001
  0
LINE
  8
0
  6
CENTER
 62
2
 10
163.000000
 20
35.075001
 11
163.000000
 21
26.075001
  0
LINE
  8
0
  6
CENTER
 62
2
 10
158.500000
 20
30.575001
 11
167.500000
 21
30.575001
  0
LINE
  8
0
  6
CENTER
 62
2
 10
239.000000
 20
59.075001
 11
239.000000
 21
50.075001
  0
LINE
  8
0
  6
CENTER
 62
2
 10
234.500000
 20
54.575001
 11
243.500000
 21
54.575001
  0
LINE
  8
0
  6
CENTER
 62
2
 10
239.000000
 20
35.075001
 11
239.000000
 21
26.075001
  0
LINE
  8
0
  6
CENTER
 62
2
 10
234.500000
 20
30.575001
 11
243.500000
 21
30.575001
  0
LINE
  8
0
  6
CENTER
 62
2
 10
246.000000
 20
54.974998
 11
246.000000
 21
39.174999
  0
LINE
  8
0
  6
CENTER
 62
2
 10
238.100006
 20
47.075001
 11
253.899994
 21
47.075001
  0
LINE
  8
0
  6
DASHED
 62
2
 10
167.000000
 20
199.574997
 11
167.000000
 21
200.574997
  0
LINE
  8
0
  6
DASHED
 62
2
 10
167.000000
 20
200.574997
 11
159.000000
 21
200.574997
  0
LINE
  8
0
  6
DASHED
 62
2
 10
165.500000
 20
200.574997
 11
165.500000
 21
205.074997
  0
LINE
  8
0
  6
DASHED
 62
2
 10
165.100006
 20
200.574997
 11
165.100006
 21
205.074997
  0
LINE
  8
0
  6
CENTER
 62
2
 10
163.000000
 20
197.574997
 11
163.000000
 21
207.074997
  0
LINE
  8
0
  6
DASHED
 62
2
 10
160.899994
 20
200.574997
 11
160.899994
 21
205.074997
  0
LINE
  8
0
  6
DASHED
 62
2
 10
160.500000
 20
200.574997
 11
160.500000
 21
205.074997
  0
LINE
  8
0
  6
DASHED
 62
2
 10
159.000000
 20
199.574997
 11
159.000000
 21
200.574997
  0
LINE
  8
0
  6
DASHED
 62
2
 10
243.000000
 20
199.574997
 11
243.000000
 21
200.574997
  0
LINE
  8
0
  6
DASHED
 62
2
 10
243.000000
 20
200.574997
 11
235.000000
 21
200.574997
  0
LINE
  8
0
  6
DASHED
 62
2
 10
241.500000
 20
200.574997
 11
241.500000
 21
205.074997
  0
LINE
  8
0
  6
DASHED
 62
2
 10
241.100006
 20
200.574997
 11
241.100006
 21
205.074997
  0
LINE
  8
0
  6
DASHED
 62
2
 10
236.899994
 20
200.574997
 11
236.899994
 21
205.074997
  0
LINE
  8
0
  6
DASHED
 62
2
 10
236.500000
 20
200.574997
 11
236.500000
 21
205.074997
  0
LINE
  8
0
  6
DASHED
 62
2
 10
235.000000
 20
199.574997
 11
235.000000
 21
200.574997
  0
LINE
  8
0
  6
CONTINUOUS
 62
7
 10
-186.000000
 20
99.074997
 11
-186.000000
 21
101.824997
  0
LINE
  8
0
  6
CONTINUOUS
 62
7
 10
-241.000000
 20
103.574997
 11
-241.000000
 21
99.074997
  0
LINE
  8
0
  6
CONTINUOUS
 62
7
 10
-241.000000
 20
103.574997
 11
-235.000000
 21
103.574997
  0
LINE
  8
0
  6
CONTINUOUS
 62
7
 10
-246.000000
 20
100.574997
 11
-251.500000
 21
100.574997
  0
LINE
  8
0
  6
CONTINUOUS
 62
2
 10
-246.000000
 20
100.074997
 11
-251.500000
 21
100.074997
  0
LINE
  8
0
  6
CONTINUOUS
 62
7
 10
-251.500000
 20
100.574997
 11
-251.500000
 21
99.074997
  0
LINE
  8
0
  6
CONTINUOUS
 62
7
 10
-246.000000
 20
101.824997
 11
-241.000000
 21
101.824997
  0
LINE
  8
0
  6
CONTINUOUS
 62
7
 10
-246.000000
 20
101.824997
 11
-246.000000
 21
99.074997
  0
LINE
  8
0
  6
CONTINUOUS
 62
7
 10
-246.000000
 20
100.320999
 11
-241.000000
 21
100.320999
  0
LINE
  8
0
  6
CONTINUOUS
 62
7
 10
-186.000000
 20
101.824997
 11
-187.500000
 21
101.824997
  0
LINE
  8
0
  6
CONTINUOUS
 62
7
 10
-186.000000
 20
100.320999
 11
-187.500000
 21
100.320999
  0
LINE
  8
0
  6
CONTINUOUS
 62
7
 10
-180.500000
 20
100.574997
 11
-180.500000
 21
99.074997
  0
LINE
  8
0
  6
CONTINUOUS
 62
7
 10
-186.000000
 20
100.574997
 11
-180.500000
 21
100.574997
  0
LINE
  8
0
  6
CONTINUOUS
 62
2
 10
-186.000000
 20
100.074997
 11
-180.500000
 21
100.074997
  0
LINE
  8
0
  6
CENTER
 62
2
 10
-232.389999
 20
165.074997
 11
-255.098999
 21
165.074997
  0
LINE
  8
0
  6
CONTINUOUS
 62
7
 10
-241.000000
 20
170.074997
 11
-191.000000
 21
170.074997
  0
LINE
  8
0
  6
CONTINUOUS
 62
7
 10
-235.000000
 20
170.074997
 11
-235.000000
 21
160.074997
  0
LINE
  8
0
  6
CONTINUOUS
 62
7
 10
-198.500000
 20
169.574997
 11
-198.500000
 21
159.574997
  0
LINE
  8
0
  6
CENTER
 62
2
 10
-200.110001
 20
165.074997
 11
-177.401001
 21
165.074997
  0
LINE
  8
0
  6
CONTINUOUS
 62
7
 10
-197.000000
 20
170.074997
 11
-197.000000
 21
160.074997
  0
LINE
  8
0
  6
CONTINUOUS
 62
7
 10
-198.500000
 20
169.574997
 11
-218.500000
 21
169.574997
  0
LINE
  8
0
  6
CONTINUOUS
 62
7
 10
-218.500000
 20
169.574997
 11
-218.500000
 21
159.574997
  0
LINE
  8
0
  6
CONTINUOUS
 62
7
 10
-198.500000
 20
160.074997
 11
-178.000000
 21
160.074997
  0
LINE
  8
0
  6
CONTINUOUS
 62
7
 10
-254.000000
 20
160.074997
 11
-218.500000
 21
160.074997
  0
LINE
  8
0
  6
CONTINUOUS
 62
7
 10
-241.000000
 20
170.074997
 11
-241.000000
 21
160.074997
  0
LINE
  8
0
  6
CONTINUOUS
 62
7
 10
-191.000000
 20
170.074997
 11
-191.000000
 21
160.074997
  0
LINE
  8
0
  6
CONTINUOUS
 62
2
 10
-246.000000
 20
162.574997
 11
-251.500000
 21
162.574997
  0
LINE
  8
0
  6
CONTINUOUS
 62
7
 10
-246.000000
 20
162.074997
 11
-251.500000
 21
162.074997
  0
LINE
  8
0
  6
CONTINUOUS
 62
7
 10
-251.500000
 20
168.074997
 11
-251.500000
 21
162.074997
  0
LINE
  8
0
  6
CONTINUOUS
 62
2
 10
-246.000000
 20
167.574997
 11
-251.500000
 21
167.574997
  0
LINE
  8
0
  6
CONTINUOUS
 62
7
 10
-246.000000
 20
168.074997
 11
-251.500000
 21
168.074997
  0
LINE
  8
0
  6
CONTINUOUS
 62
2
 10
-186.000000
 20
167.574997
 11
-180.500000
 21
167.574997
  0
LINE
  8
0
  6
CONTINUOUS
 62
7
 10
-186.000000
 20
168.074997
 11
-180.500000
 21
168.074997
  0
LINE
  8
0
  6
CONTINUOUS
 62
7
 10
-180.500000
 20
162.074997
 11
-180.500000
 21
168.074997
  0
LINE
  8
0
  6
CONTINUOUS
 62
2
 10
-186.000000
 20
162.574997
 11
-180.500000
 21
162.574997
  0
LINE
  8
0
  6
CONTINUOUS
 62
7
 10
-186.000000
 20
162.074997
 11
-180.500000
 21
162.074997
  0
LINE
  8
0
  6
CONTINUOUS
 62
7
 10
-241.000000
 20
161.074997
 11
-246.000000
 21
161.074997
  0
LINE
  8
0
  6
CONTINUOUS
 62
7
 10
-246.000000
 20
169.074997
 11
-246.000000
 21
161.074997
  0
LINE
  8
0
  6
CONTINUOUS
 62
7
 10
-241.000000
 20
169.074997
 11
-246.000000
 21
169.074997
  0
LINE
  8
0
  6
CONTINUOUS
 62
7
 10
-241.000000
 20
168.319000
 11
-246.000000
 21
168.319000
  0
LINE
  8
0
  6
CONTINUOUS
 62
7
 10
-241.000000
 20
165.830994
 11
-246.000000
 21
165.830994
  0
LINE
  8
0
  6
CONTINUOUS
 62
7
 10
-241.000000
 20
164.319000
 11
-246.000000
 21
164.319000
  0
LINE
  8
0
  6
CONTINUOUS
 62
7
 10
-241.000000
 20
161.830994
 11
-246.000000
 21
161.830994
  0
LINE
  8
0
  6
CONTINUOUS
 62
7
 10
-191.000000
 20
169.074997
 11
-186.000000
 21
169.074997
  0
LINE
  8
0
  6
CONTINUOUS
 62
7
 10
-186.000000
 20
161.074997
 11
-186.000000
 21
169.074997
  0
LINE
  8
0
  6
CONTINUOUS
 62
7
 10
-191.000000
 20
161.074997
 11
-186.000000
 21
161.074997
  0
LINE
  8
0
  6
CONTINUOUS
 62
7
 10
-191.000000
 20
161.830994
 11
-186.000000
 21
161.830994
  0
LINE
  8
0
  6
CONTINUOUS
 62
7
 10
-191.000000
 20
164.319000
 11
-186.000000
 21
164.319000
  0
LINE
  8
0
  6
CONTINUOUS
 62
7
 10
-191.000000
 20
165.830994
 11
-186.000000
 21
165.830994
  0
LINE
  8
0
  6
CONTINUOUS
 62
7
 10
-191.000000
 20
168.319000
 11
-186.000000
 21
168.319000
  0
LINE
  8
0
  6
CONTINUOUS
 62
7
 10
-191.000000
 20
16.075001
 11
-241.000000
 21
16.075001
  0
LINE
  8
0
  6
CONTINUOUS
 62
7
 10
-241.000000
 20
16.075001
 11
-241.000000
 21
26.075001
  0
LINE
  8
0
  6
CONTINUOUS
 62
7
 10
-191.000000
 20
16.075001
 11
-191.000000
 21
26.075001
  0
LINE
  8
0
  6
CENTER
 62
2
 10
-239.000000
 20
21.075001
 11
-255.098999
 21
21.075001
  0
LINE
  8
0
  6
CONTINUOUS
 62
7
 10
-191.000000
 20
21.831301
 11
-186.000000
 21
21.831301
  0
LINE
  8
0
  6
CONTINUOUS
 62
2
 10
-246.000000
 20
18.575001
 11
-251.500000
 21
18.575001
  0
LINE
  8
0
  6
CONTINUOUS
 62
7
 10
-246.000000
 20
18.075001
 11
-251.500000
 21
18.075001
  0
LINE
  8
0
  6
CONTINUOUS
 62
7
 10
-251.500000
 20
24.075001
 11
-251.500000
 21
18.075001
  0
LINE
  8
0
  6
CONTINUOUS
 62
2
 10
-246.000000
 20
23.575001
 11
-251.500000
 21
23.575001
  0
LINE
  8
0
  6
CONTINUOUS
 62
7
 10
-246.000000
 20
24.075001
 11
-251.500000
 21
24.075001
  0
LINE
  8
0
  6
CONTINUOUS
 62
7
 10
-241.000000
 20
17.075001
 11
-246.000000
 21
17.075001
  0
LINE
  8
0
  6
CONTINUOUS
 62
7
 10
-246.000000
 20
25.075001
 11
-246.000000
 21
17.075001
  0
LINE
  8
0
  6
CONTINUOUS
 62
7
 10
-241.000000
 20
25.075001
 11
-246.000000
 21
25.075001
  0
LINE
  8
0
  6
CONTINUOUS
 62
7
 10
-241.000000
 20
24.318701
 11
-246.000000
 21
24.318701
  0
LINE
  8
0
  6
CONTINUOUS
 62
7
 10
-241.000000
 20
21.831301
 11
-246.000000
 21
21.831301
  0
LINE
  8
0
  6
CONTINUOUS
 62
7
 10
-241.000000
 20
20.318701
 11
-246.000000
 21
20.318701
  0
LINE
  8
0
  6
CONTINUOUS
 62
7
 10
-241.000000
 20
17.831301
 11
-246.000000
 21
17.831301
  0
LINE
  8
0
  6
CENTER
 62
2
 10
-193.000000
 20
21.075001
 11
-177.401001
 21
21.075001
  0
LINE
  8
0
  6
CONTINUOUS
 62
7
 10
-191.000000
 20
24.318701
 11
-186.000000
 21
24.318701
  0
LINE
  8
0
  6
CONTINUOUS
 62
2
 10
-186.000000
 20
23.575001
 11
-180.500000
 21
23.575001
  0
LINE
  8
0
  6
CONTINUOUS
 62
7
 10
-186.000000
 20
24.075001
 11
-180.500000
 21
24.075001
  0
LINE
  8
0
  6
CONTINUOUS
 62
7
 10
-180.500000
 20
18.075001
 11
-180.500000
 21
24.075001
  0
LINE
  8
0
  6
CONTINUOUS
 62
2
 10
-186.000000
 20
18.575001
 11
-180.500000
 21
18.575001
  0
LINE
  8
0
  6
CONTINUOUS
 62
7
 10
-186.000000
 20
18.075001
 11
-180.500000
 21
18.075001
  0
LINE
  8
0
  6
CONTINUOUS
 62
7
 10
-191.000000
 20
25.075001
 11
-186.000000
 21
25.075001
  0
LINE
  8
0
  6
CONTINUOUS
 62
7
 10
-186.000000
 20
17.075001
 11
-186.000000
 21
25.075001
  0
LINE
  8
0
  6
CONTINUOUS
 62
7
 10
-191.000000
 20
17.075001
 11
-186.000000
 21
17.075001
  0
LINE
  8
0
  6
CONTINUOUS
 62
7
 10
-191.000000
 20
17.831301
 11
-186.000000
 21
17.831301
  0
LINE
  8
0
  6
CONTINUOUS
 62
7
 10
-191.000000
 20
20.318701
 11
-186.000000
 21
20.318701
  0
LINE
  8
0
  6
CENTER
 62
2
 10
-232.389999
 20
189.574997
 11
-254.026001
 21
189.574997
  0
LINE
  8
0
  6
CONTINUOUS
 62
7
 10
-221.899994
 20
183.074997
 11
-195.100006
 21
183.074997
  0
LINE
  8
0
  6
CONTINUOUS
 62
7
 10
-233.000000
 20
195.074997
 11
-199.000000
 21
195.074997
  0
LINE
  8
0
  6
CONTINUOUS
 62
7
 10
-229.500000
 20
183.574997
 11
-221.899994
 21
183.574997
  0
LINE
  8
0
  6
CONTINUOUS
 62
7
 10
-254.000000
 20
188.074997
 11
-251.500000
 21
188.074997
  0
LINE
  8
0
  6
CONTINUOUS
 62
7
 10
-180.500000
 20
188.074997
 11
-178.000000
 21
188.074997
  0
LINE
  8
0
  6
CONTINUOUS
 62
7
 10
-187.500000
 20
183.574997
 11
-197.000000
 21
183.574997
  0
LINE
  8
0
  6
CONTINUOUS
 62
7
 10
-254.000000
 20
195.574997
 11
-245.347000
 21
195.574997
  0
LINE
  8
0
  6
CONTINUOUS
 62
7
 10
-254.000000
 20
205.074997
 11
-178.000000
 21
205.074997
  0
LINE
  8
0
  6
CONTINUOUS
 62
7
 10
-254.000000
 20
188.074997
 11
-254.000000
 21
205.074997
  0
LINE
  8
0
  6
CONTINUOUS
 62
7
 10
-178.000000
 20
188.074997
 11
-178.000000
 21
205.074997
  0
LINE
  8
0
  6
CONTINUOUS
 62
7
 10
-243.199997
 20
199.574997
 11
-241.000000
 21
199.574997
  0
LINE
  8
0
  6
CONTINUOUS
 62
7
 10
-188.800003
 20
199.574997
 11
-191.000000
 21
199.574997
  0
LINE
  8
0
  6
CONTINUOUS
 62
7
 10
-186.653000
 20
195.574997
 11
-178.000000
 21
195.574997
  0
LINE
  8
0
  6
CONTINUOUS
 62
7
 10
-191.000000
 20
183.574997
 11
-191.000000
 21
204.574997
  0
LINE
  8
0
  6
CONTINUOUS
 62
7
 10
-218.500000
 20
193.574997
 11
-218.500000
 21
183.574997
  0
LINE
  8
0
  6
CONTINUOUS
 62
7
 10
-198.500000
 20
193.574997
 11
-198.500000
 21
183.574997
  0
LINE
  8
0
  6
CONTINUOUS
 62
7
 10
-218.500000
 20
193.574997
 11
-198.500000
 21
193.574997
  0
LINE
  8
0
  6
CONTINUOUS
 62
7
 10
-218.500000
 20
183.574997
 11
-198.500000
 21
183.574997
  0
LINE
  8
0
  6
CONTINUOUS
 62
7
 10
-241.000000
 20
204.574997
 11
-191.000000
 21
204.574997
  0
LINE
  8
0
  6
CONTINUOUS
 62
7
 10
-246.000000
 20
192.574997
 11
-251.500000
 21
192.574997
  0
LINE
  8
0
  6
CONTINUOUS
 62
2
 10
-246.000000
 20
192.074997
 11
-251.500000
 21
192.074997
  0
LINE
  8
0
  6
CONTINUOUS
 62
2
 10
-246.000000
 20
187.074997
 11
-251.500000
 21
187.074997
  0
LINE
  8
0
  6
CONTINUOUS
 62
7
 10
-246.000000
 20
186.574997
 11
-251.500000
 21
186.574997
  0
LINE
  8
0
  6
CONTINUOUS
 62
7
 10
-251.500000
 20
192.574997
 11
-251.500000
 21
186.574997
  0
LINE
  8
0
  6
CONTINUOUS
 62
7
 10
-233.500000
 20
188.074997
 11
-229.500000
 21
188.074997
  0
LINE
  8
0
  6
CONTINUOUS
 62
7
 10
-235.000000
 20
183.574997
 11
-235.000000
 21
193.074997
  0
LINE
  8
0
  6
CONTINUOUS
 62
7
 10
-197.000000
 20
183.574997
 11
-197.000000
 21
193.074997
  0
LINE
  8
0
  6
CONTINUOUS
 62
7
 10
-187.500000
 20
183.574997
 11
-187.500000
 21
185.324997
  0
LINE
  8
0
  6
CONTINUOUS
 62
7
 10
-229.500000
 20
183.574997
 11
-229.500000
 21
195.074997
  0
LINE
  8
0
  6
CONTINUOUS
 62
7
 10
-221.899994
 20
183.074997
 11
-221.899994
 21
195.074997
  0
LINE
  8
0
  6
CONTINUOUS
 62
7
 10
-195.100006
 20
183.074997
 11
-195.100006
 21
183.574997
  0
LINE
  8
0
  6
CONTINUOUS
 62
7
 10
-241.000000
 20
183.574997
 11
-241.000000
 21
204.574997
  0
LINE
  8
0
  6
CONTINUOUS
 62
7
 10
-241.000000
 20
183.574997
 11
-235.000000
 21
183.574997
  0
LINE
  8
0
  6
CONTINUOUS
 62
7
 10
-246.000000
 20
193.824997
 11
-241.000000
 21
193.824997
  0
LINE
  8
0
  6
CONTINUOUS
 62
7
 10
-246.000000
 20
193.824997
 11
-246.000000
 21
185.324997
  0
LINE
  8
0
  6
CONTINUOUS
 62
7
 10
-246.000000
 20
185.324997
 11
-241.000000
 21
185.324997
  0
LINE
  8
0
  6
CONTINUOUS
 62
7
 10
-246.000000
 20
186.828995
 11
-241.000000
 21
186.828995
  0
LINE
  8
0
  6
CONTINUOUS
 62
7
 10
-246.000000
 20
188.139008
 11
-241.000000
 21
188.139008
  0
LINE
  8
0
  6
CONTINUOUS
 62
7
 10
-246.000000
 20
191.011002
 11
-241.000000
 21
191.011002
  0
LINE
  8
0
  6
CONTINUOUS
 62
7
 10
-246.000000
 20
192.320999
 11
-241.000000
 21
192.320999
  0
LINE
  8
0
  6
CENTER
 62
2
 10
-199.610001
 20
189.574997
 11
-177.973999
 21
189.574997
  0
LINE
  8
0
  6
CONTINUOUS
 62
7
 10
-186.000000
 20
192.574997
 11
-180.500000
 21
192.574997
  0
LINE
  8
0
  6
CONTINUOUS
 62
2
 10
-186.000000
 20
192.074997
 11
-180.500000
 21
192.074997
  0
LINE
  8
0
  6
CONTINUOUS
 62
2
 10
-186.000000
 20
187.074997
 11
-180.500000
 21
187.074997
  0
LINE
  8
0
  6
CONTINUOUS
 62
7
 10
-186.000000
 20
186.574997
 11
-180.500000
 21
186.574997
  0
LINE
  8
0
  6
CONTINUOUS
 62
7
 10
-180.500000
 20
192.574997
 11
-180.500000
 21
186.574997
  0
LINE
  8
0
  6
CONTINUOUS
 62
7
 10
-186.000000
 20
193.824997
 11
-191.000000
 21
193.824997
  0
LINE
  8
0
  6
CONTINUOUS
 62
7
 10
-186.000000
 20
193.824997
 11
-186.000000
 21
185.324997
  0
LINE
  8
0
  6
CONTINUOUS
 62
7
 10
-186.000000
 20
185.324997
 11
-191.000000
 21
185.324997
  0
LINE
  8
0
  6
CONTINUOUS
 62
7
 10
-186.000000
 20
186.828995
 11
-191.000000
 21
186.828995
  0
LINE
  8
0
  6
CONTINUOUS
 62
7
 10
-186.000000
 20
188.139008
 11
-191.000000
 21
188.139008
  0
LINE
  8
0
  6
CONTINUOUS
 62
7
 10
-186.000000
 20
191.011002
 11
-191.000000
 21
191.011002
  0
LINE
  8
0
  6
CONTINUOUS
 62
7
 10
-186.000000
 20
192.320999
 11
-191.000000
 21
192.320999
  0
LINE
  8
0
  6
CONTINUOUS
 62
7
 10
89.000000
 20
99.074997
 11
104.000000
 21
99.074997
  0
LINE
  8
0
  6
CONTINUOUS
 62
7
 10
89.000000
 20
95.074997
 11
89.000000
 21
91.574997
  0
LINE
  8
0
  6
CONTINUOUS
 62
7
 10
89.000000
 20
99.074997
 11
89.000000
 21
98.074997
  0
LINE
  8
0
  6
CONTINUOUS
 62
7
 10
80.500000
 20
104.074997
 11
87.500000
 21
104.074997
  0
LINE
  8
0
  6
CONTINUOUS
 62
7
 10
80.500000
 20
92.074997
 11
89.000000
 21
92.074997
  0
LINE
  8
0
  6
CONTINUOUS
 62
7
 10
87.800003
 20
103.775002
 11
105.199997
 21
103.775002
  0
LINE
  8
0
  6
CONTINUOUS
 62
7
 10
87.500000
 20
104.074997
 11
87.800003
 21
103.775002
  0
LINE
  8
0
  6
CONTINUOUS
 62
7
 10
104.000000
 20
95.074997
 11
104.000000
 21
91.574997
  0
LINE
  8
0
  6
CONTINUOUS
 62
7
 10
104.000000
 20
99.074997
 11
104.000000
 21
98.074997
  0
LINE
  8
0
  6
CONTINUOUS
 62
7
 10
112.500000
 20
104.074997
 11
112.500000
 21
92.074997
  0
LINE
  8
0
  6
CONTINUOUS
 62
7
 10
112.500000
 20
104.074997
 11
105.500000
 21
104.074997
  0
LINE
  8
0
  6
CONTINUOUS
 62
7
 10
112.500000
 20
92.074997
 11
104.000000
 21
92.074997
  0
LINE
  8
0
  6
CONTINUOUS
 62
7
 10
105.500000
 20
104.074997
 11
105.199997
 21
103.775002
  0
LINE
  8
0
  6
CONTINUOUS
 62
7
 10
80.500000
 20
104.074997
 11
80.500000
 21
92.074997
  0
LINE
  8
0
  6
CONTINUOUS
 62
7
 10
113.000000
 20
91.574997
 11
104.000000
 21
91.574997
  0
LINE
  8
0
  6
CONTINUOUS
 62
7
 10
113.000000
 20
82.074997
 11
80.000000
 21
82.074997
  0
LINE
  8
0
  6
CONTINUOUS
 62
7
 10
80.000000
 20
91.574997
 11
89.000000
 21
91.574997
  0
LINE
  8
0
  6
CONTINUOUS
 62
7
 10
113.000000
 20
91.574997
 11
113.000000
 21
82.074997
  0
LINE
  8
0
  6
CONTINUOUS
 62
7
 10
80.000000
 20
103.574997
 11
80.000000
 21
82.074997
  0
LINE
  8
0
  6
CENTER
 62
2
 10
96.500000
 20
106.074997
 11
96.500000
 21
80.074997
  0
LINE
  8
0
  6
CENTER
 62
2
 10
88.099998
 20
90.074997
 11
104.900002
 21
90.074997
  0
LINE
  8
0
  6
CENTER
 62
2
 10
86.500000
 20
91.074997
 11
86.500000
 21
84.074997
  0
LINE
  8
0
  6
CENTER
 62
2
 10
83.000000
 20
87.574997
 11
90.000000
 21
87.574997
  0
LINE
  8
0
  6
CENTER
 62
2
 10
84.500000
 20
84.074997
 11
84.500000
 21
80.074997
  0
LINE
  8
0
  6
CENTER
 62
2
 10
108.500000
 20
84.074997
 11
108.500000
 21
80.074997
  0
LINE
  8
0
  6
CENTER
 62
2
 10
109.000000
 20
106.074997
 11
109.000000
 21
102.074997
  0
LINE
  8
0
  6
CENTER
 62
2
 10
84.000000
 20
106.074997
 11
84.000000
 21
102.074997
  0
LINE
  8
0
  6
CONTINUOUS
 62
7
 10
70.000000
 20
103.574997
 11
70.000000
 21
82.574997
  0
LINE
  8
0
  6
CONTINUOUS
 62
7
 10
80.000000
 20
82.574997
 11
70.000000
 21
82.574997
  0
LINE
  8
0
  6
CONTINUOUS
 62
7
 10
80.500000
 20
103.574997
 11
70.000000
 21
103.574997
  0
LINE
  8
0
  6
CENTER
 62
2
 10
70.000000
 20
97.574997
 11
80.000000
 21
97.574997
  0
LINE
  8
0
  6
CENTER
 62
2
 10
75.000000
 20
102.574997
 11
75.000000
 21
92.574997
  0
LINE
  8
0
  6
CONTINUOUS
 62
7
 10
78.243698
 20
100.320999
 11
75.756203
 21
101.757004
  0
LINE
  8
0
  6
CONTINUOUS
 62
7
 10
75.000000
 20
99.306999
 11
73.500000
 21
98.441002
  0
LINE
  8
0
  6
CONTINUOUS
 62
7
 10
73.500000
 20
98.441002
 11
73.500000
 21
96.709000
  0
LINE
  8
0
  6
CONTINUOUS
 62
7
 10
75.000000
 20
95.842903
 11
73.500000
 21
96.709000
  0
LINE
  8
0
  6
CONTINUOUS
 62
7
 10
76.500000
 20
96.709000
 11
75.000000
 21
95.843002
  0
LINE
  8
0
  6
CONTINUOUS
 62
7
 10
76.500000
 20
98.441002
 11
76.500000
 21
96.709000
  0
LINE
  8
0
  6
CONTINUOUS
 62
7
 10
75.000000
 20
99.306999
 11
76.500000
 21
98.441002
  0
LINE
  8
0
  6
CONTINUOUS
 62
7
 10
74.243698
 20
101.757004
 11
71.756302
 21
100.320999
  0
LINE
  8
0
  6
CONTINUOUS
 62
7
 10
71.000000
 20
99.011200
 11
71.000000
 21
96.138901
  0
LINE
  8
0
  6
CONTINUOUS
 62
7
 10
71.756203
 20
94.828903
 11
74.243698
 21
93.392799
  0
LINE
  8
0
  6
CONTINUOUS
 62
7
 10
75.756203
 20
93.392799
 11
78.243698
 21
94.829002
  0
LINE
  8
0
  6
CONTINUOUS
 62
7
 10
79.000000
 20
96.138901
 11
79.000000
 21
99.011200
  0
LINE
  8
0
  6
CONTINUOUS
 62
7
 10
313.000000
 20
99.074997
 11
298.000000
 21
99.074997
  0
LINE
  8
0
  6
CONTINUOUS
 62
7
 10
313.000000
 20
95.074997
 11
313.000000
 21
91.574997
  0
LINE
  8
0
  6
CONTINUOUS
 62
7
 10
313.000000
 20
99.074997
 11
313.000000
 21
98.074997
  0
LINE
  8
0
  6
CONTINUOUS
 62
7
 10
321.500000
 20
104.074997
 11
314.500000
 21
104.074997
  0
LINE
  8
0
  6
CONTINUOUS
 62
7
 10
321.500000
 20
92.074997
 11
313.000000
 21
92.074997
  0
LINE
  8
0
  6
CONTINUOUS
 62
7
 10
314.200012
 20
103.775002
 11
296.799988
 21
103.775002
  0
LINE
  8
0
  6
CONTINUOUS
 62
7
 10
314.500000
 20
104.074997
 11
314.200012
 21
103.775002
  0
LINE
  8
0
  6
CONTINUOUS
 62
7
 10
298.000000
 20
95.074997
 11
298.000000
 21
91.574997
  0
LINE
  8
0
  6
CONTINUOUS
 62
7
 10
298.000000
 20
99.074997
 11
298.000000
 21
98.074997
  0
LINE
  8
0
  6
CONTINUOUS
 62
7
 10
289.500000
 20
104.074997
 11
289.500000
 21
92.074997
  0
LINE
  8
0
  6
CONTINUOUS
 62
7
 10
289.500000
 20
104.074997
 11
296.500000
 21
104.074997
  0
LINE
  8
0
  6
CONTINUOUS
 62
7
 10
289.500000
 20
92.074997
 11
298.000000
 21
92.074997
  0
LINE
  8
0
  6
CONTINUOUS
 62
7
 10
296.500000
 20
104.074997
 11
296.799988
 21
103.775002
  0
LINE
  8
0
  6
CONTINUOUS
 62
7
 10
321.500000
 20
104.074997
 11
321.500000
 21
92.074997
  0
LINE
  8
0
  6
CONTINUOUS
 62
7
 10
289.000000
 20
91.574997
 11
298.000000
 21
91.574997
  0
LINE
  8
0
  6
CONTINUOUS
 62
7
 10
289.000000
 20
82.074997
 11
322.000000
 21
82.074997
  0
LINE
  8
0
  6
CONTINUOUS
 62
7
 10
322.000000
 20
91.574997
 11
313.000000
 21
91.574997
  0
LINE
  8
0
  6
CONTINUOUS
 62
7
 10
289.000000
 20
91.574997
 11
289.000000
 21
82.074997
  0
LINE
  8
0
  6
CONTINUOUS
 62
7
 10
322.000000
 20
103.574997
 11
322.000000
 21
82.074997
  0
LINE
  8
0
  6
CENTER
 62
2
 10
305.500000
 20
106.074997
 11
305.500000
 21
80.074997
  0
LINE
  8
0
  6
CENTER
 62
2
 10
313.899994
 20
90.074997
 11
297.100006
 21
90.074997
  0
LINE
  8
0
  6
CENTER
 62
2
 10
315.500000
 20
91.074997
 11
315.500000
 21
84.074997
  0
LINE
  8
0
  6
CENTER
 62
2
 10
319.000000
 20
87.574997
 11
312.000000
 21
87.574997
  0
LINE
  8
0
  6
CENTER
 62
2
 10
317.500000
 20
84.074997
 11
317.500000
 21
80.074997
  0
LINE
  8
0
  6
CENTER
 62
2
 10
293.500000
 20
84.074997
 11
293.500000
 21
80.074997
  0
LINE
  8
0
  6
CENTER
 62
2
 10
293.000000
 20
106.074997
 11
293.000000
 21
102.074997
  0
LINE
  8
0
  6
CENTER
 62
2
 10
318.000000
 20
106.074997
 11
318.000000
 21
102.074997
  0
LINE
  8
0
  6
CONTINUOUS
 62
7
 10
332.000000
 20
103.574997
 11
332.000000
 21
82.574997
  0
LINE
  8
0
  6
CONTINUOUS
 62
7
 10
322.000000
 20
82.574997
 11
332.000000
 21
82.574997
  0
LINE
  8
0
  6
CONTINUOUS
 62
7
 10
321.500000
 20
103.574997
 11
332.000000
 21
103.574997
  0
LINE
  8
0
  6
CENTER
 62
2
 10
332.000000
 20
97.574997
 11
322.000000
 21
97.574997
  0
LINE
  8
0
  6
CENTER
 62
2
 10
327.000000
 20
102.574997
 11
327.000000
 21
92.574997
  0
LINE
  8
0
  6
CONTINUOUS
 62
7
 10
323.756012
 20
100.320999
 11
326.243988
 21
101.757004
  0
LINE
  8
0
  6
CONTINUOUS
 62
7
 10
327.000000
 20
99.306999
 11
328.500000
 21
98.441002
  0
LINE
  8
0
  6
CONTINUOUS
 62
7
 10
328.500000
 20
98.441002
 11
328.500000
 21
96.709000
  0
LINE
  8
0
  6
CONTINUOUS
 62
7
 10
327.000000
 20
95.843002
 11
328.500000
 21
96.709000
  0
LINE
  8
0
  6
CONTINUOUS
 62
7
 10
325.500000
 20
96.709000
 11
327.000000
 21
95.842903
  0
LINE
  8
0
  6
CONTINUOUS
 62
7
 10
325.500000
 20
98.441002
 11
325.500000
 21
96.709000
  0
LINE
  8
0
  6
CONTINUOUS
 62
7
 10
327.000000
 20
99.307098
 11
325.500000
 21
98.441002
  0
LINE
  8
0
  6
CONTINUOUS
 62
7
 10
327.756012
 20
101.757004
 11
330.243988
 21
100.320999
  0
LINE
  8
0
  6
CONTINUOUS
 62
7
 10
331.000000
 20
99.011200
 11
331.000000
 21
96.138901
  0
LINE
  8
0
  6
CONTINUOUS
 62
7
 10
330.243988
 20
94.829002
 11
327.756012
 21
93.392799
  0
LINE
  8
0
  6
CONTINUOUS
 62
7
 10
326.243988
 20
93.392799
 11
323.756012
 21
94.828903
  0
LINE
  8
0
  6
CONTINUOUS
 62
7
 10
323.000000
 20
96.138901
 11
323.000000
 21
99.011200
  0
LINE
  8
0
  6
CONTINUOUS
 62
7
 10
167.000000
 20
103.574997
 11
177.000000
 21
103.574997
  0
LINE
  8
0
  6
CONTINUOUS
 62
7
 10
167.000000
 20
103.574997
 11
167.000000
 21
103.074997
  0
LINE
  8
0
  6
CONTINUOUS
 62
7
 10
177.000000
 20
103.574997
 11
177.000000
 21
103.074997
  0
LINE
  8
0
  6
CONTINUOUS
 62
7
 10
162.000000
 20
100.574997
 11
156.500000
 21
100.574997
  0
LINE
  8
0
  6
CONTINUOUS
 62
2
 10
162.000000
 20
100.074997
 11
156.500000
 21
100.074997
  0
LINE
  8
0
  6
CONTINUOUS
 62
7
 10
156.500000
 20
100.574997
 11
156.500000
 21
99.074997
  0
LINE
  8
0
  6
CONTINUOUS
 62
7
 10
162.000000
 20
101.824997
 11
163.000000
 21
101.824997
  0
LINE
  8
0
  6
CONTINUOUS
 62
7
 10
162.000000
 20
101.824997
 11
162.000000
 21
99.074997
  0
LINE
  8
0
  6
CONTINUOUS
 62
7
 10
162.000000
 20
100.320999
 11
163.000000
 21
100.320999
  0
LINE
  8
0
  6
CONTINUOUS
 62
2
 10
244.850006
 20
100.074997
 11
245.500000
 21
100.074997
  0
LINE
  8
0
  6
CONTINUOUS
 62
7
 10
244.850006
 20
100.574997
 11
245.500000
 21
100.574997
  0
LINE
  8
0
  6
CONTINUOUS
 62
7
 10
245.500000
 20
99.074997
 11
245.500000
 21
100.574997
  0
LINE
  8
0
  6
CENTER
 62
2
 10
179.610001
 20
165.074997
 11
152.901001
 21
165.074997
  0
LINE
  8
0
  6
CONTINUOUS
 62
7
 10
162.000000
 20
24.075001
 11
156.500000
 21
24.075001
  0
LINE
  8
0
  6
CONTINUOUS
 62
2
 10
162.000000
 20
23.575001
 11
156.500000
 21
23.575001
  0
LINE
  8
0
  6
CONTINUOUS
 62
7
 10
162.000000
 20
18.075001
 11
156.500000
 21
18.075001
  0
LINE
  8
0
  6
CONTINUOUS
 62
2
 10
162.000000
 20
18.575001
 11
156.500000
 21
18.575001
  0
LINE
  8
0
  6
CONTINUOUS
 62
7
 10
156.500000
 20
24.075001
 11
156.500000
 21
18.075001
  0
LINE
  8
0
  6
CONTINUOUS
 62
7
 10
167.000000
 20
26.075001
 11
235.000000
 21
26.075001
  0
LINE
  8
0
  6
CONTINUOUS
 62
7
 10
177.000000
 20
170.074997
 11
177.000000
 21
160.074997
  0
LINE
  8
0
  6
CONTINUOUS
 62
7
 10
223.500000
 20
169.574997
 11
223.500000
 21
159.574997
  0
LINE
  8
0
  6
CENTER
 62
2
 10
221.889999
 20
165.074997
 11
248.598999
 21
165.074997
  0
LINE
  8
0
  6
CONTINUOUS
 62
7
 10
240.000000
 20
24.075001
 11
245.500000
 21
24.075001
  0
LINE
  8
0
  6
CONTINUOUS
 62
2
 10
240.000000
 20
23.575001
 11
245.500000
 21
23.575001
  0
LINE
  8
0
  6
CONTINUOUS
 62
7
 10
240.000000
 20
18.075001
 11
245.500000
 21
18.075001
  0
LINE
  8
0
  6
CONTINUOUS
 62
2
 10
240.000000
 20
18.575001
 11
245.500000
 21
18.575001
  0
LINE
  8
0
  6
CONTINUOUS
 62
7
 10
245.500000
 20
24.075001
 11
245.500000
 21
18.075001
  0
LINE
  8
0
  6
CONTINUOUS
 62
7
 10
235.000000
 20
170.074997
 11
167.000000
 21
170.074997
  0
LINE
  8
0
  6
CONTINUOUS
 62
7
 10
225.000000
 20
170.074997
 11
225.000000
 21
160.074997
  0
LINE
  8
0
  6
CONTINUOUS
 62
7
 10
223.500000
 20
169.574997
 11
203.500000
 21
169.574997
  0
LINE
  8
0
  6
CONTINUOUS
 62
7
 10
203.500000
 20
169.574997
 11
203.500000
 21
159.574997
  0
LINE
  8
0
  6
CONTINUOUS
 62
7
 10
223.500000
 20
160.074997
 11
254.000000
 21
160.074997
  0
LINE
  8
0
  6
CONTINUOUS
 62
7
 10
177.000000
 20
170.074997
 11
177.000000
 21
160.074997
  0
LINE
  8
0
  6
CONTINUOUS
 62
7
 10
148.000000
 20
160.074997
 11
203.500000
 21
160.074997
  0
LINE
  8
0
  6
CONTINUOUS
 62
7
 10
167.000000
 20
170.074997
 11
167.000000
 21
160.074997
  0
LINE
  8
0
  6
CONTINUOUS
 62
7
 10
235.000000
 20
170.074997
 11
235.000000
 21
160.074997
  0
LINE
  8
0
  6
CONTINUOUS
 62
7
 10
167.000000
 20
17.075001
 11
162.000000
 21
17.075001
  0
LINE
  8
0
  6
CONTINUOUS
 62
7
 10
162.000000
 20
25.075001
 11
162.000000
 21
17.075001
  0
LINE
  8
0
  6
CONTINUOUS
 62
7
 10
167.000000
 20
25.075001
 11
162.000000
 21
25.075001
  0
LINE
  8
0
  6
CONTINUOUS
 62
7
 10
167.000000
 20
24.318701
 11
162.000000
 21
24.318701
  0
LINE
  8
0
  6
CONTINUOUS
 62
7
 10
167.000000
 20
21.831301
 11
162.000000
 21
21.831301
  0
LINE
  8
0
  6
CONTINUOUS
 62
7
 10
167.000000
 20
20.318701
 11
162.000000
 21
20.318701
  0
LINE
  8
0
  6
CONTINUOUS
 62
7
 10
167.000000
 20
17.831301
 11
162.000000
 21
17.831301
  0
LINE
  8
0
  6
CONTINUOUS
 62
7
 10
235.000000
 20
25.075001
 11
240.000000
 21
25.075001
  0
LINE
  8
0
  6
CONTINUOUS
 62
7
 10
240.000000
 20
17.075001
 11
240.000000
 21
25.075001
  0
LINE
  8
0
  6
CONTINUOUS
 62
7
 10
235.000000
 20
17.075001
 11
240.000000
 21
17.075001
  0
LINE
  8
0
  6
CONTINUOUS
 62
7
 10
235.000000
 20
17.831301
 11
240.000000
 21
17.831301
  0
LINE
  8
0
  6
CONTINUOUS
 62
7
 10
235.000000
 20
20.318701
 11
240.000000
 21
20.318701
  0
LINE
  8
0
  6
CONTINUOUS
 62
7
 10
235.000000
 20
21.831301
 11
240.000000
 21
21.831301
  0
LINE
  8
0
  6
CONTINUOUS
 62
7
 10
235.000000
 20
24.318701
 11
240.000000
 21
24.318701
  0
LINE
  8
0
  6
CONTINUOUS
 62
7
 10
167.000000
 20
16.075001
 11
167.000000
 21
26.075001
  0
LINE
  8
0
  6
CONTINUOUS
 62
7
 10
235.000000
 20
16.075001
 11
167.000000
 21
16.075001
  0
LINE
  8
0
  6
CONTINUOUS
 62
7
 10
235.000000
 20
16.075001
 11
235.000000
 21
26.075001
  0
LINE
  8
0
  6
CENTER
 62
2
 10
168.432007
 20
21.075001
 11
152.901001
 21
21.075001
  0
LINE
  8
0
  6
CENTER
 62
2
 10
232.610001
 20
21.075001
 11
248.598999
 21
21.075001
  0
LINE
  8
0
  6
CONTINUOUS
 62
7
 10
240.000000
 20
161.074997
 11
240.000000
 21
169.074997
  0
LINE
  8
0
  6
CONTINUOUS
 62
7
 10
235.000000
 20
161.074997
 11
240.000000
 21
161.074997
  0
LINE
  8
0
  6
CONTINUOUS
 62
7
 10
162.000000
 20
168.074997
 11
156.500000
 21
168.074997
  0
LINE
  8
0
  6
CONTINUOUS
 62
2
 10
162.000000
 20
167.574997
 11
156.500000
 21
167.574997
  0
LINE
  8
0
  6
CONTINUOUS
 62
7
 10
162.000000
 20
162.074997
 11
156.500000
 21
162.074997
  0
LINE
  8
0
  6
CONTINUOUS
 62
2
 10
162.000000
 20
162.574997
 11
156.500000
 21
162.574997
  0
LINE
  8
0
  6
CONTINUOUS
 62
7
 10
156.500000
 20
168.074997
 11
156.500000
 21
162.074997
  0
LINE
  8
0
  6
CONTINUOUS
 62
7
 10
167.000000
 20
170.074997
 11
235.000000
 21
170.074997
  0
LINE
  8
0
  6
CONTINUOUS
 62
7
 10
235.000000
 20
161.830994
 11
240.000000
 21
161.830994
  0
LINE
  8
0
  6
CONTINUOUS
 62
7
 10
235.000000
 20
169.074997
 11
240.000000
 21
169.074997
  0
LINE
  8
0
  6
CONTINUOUS
 62
7
 10
167.000000
 20
161.074997
 11
162.000000
 21
161.074997
  0
LINE
  8
0
  6
CONTINUOUS
 62
7
 10
162.000000
 20
169.074997
 11
162.000000
 21
161.074997
  0
LINE
  8
0
  6
CONTINUOUS
 62
7
 10
167.000000
 20
169.074997
 11
162.000000
 21
169.074997
  0
LINE
  8
0
  6
CONTINUOUS
 62
7
 10
167.000000
 20
168.319000
 11
162.000000
 21
168.319000
  0
LINE
  8
0
  6
CONTINUOUS
 62
7
 10
167.000000
 20
165.830994
 11
162.000000
 21
165.830994
  0
LINE
  8
0
  6
CONTINUOUS
 62
7
 10
167.000000
 20
164.319000
 11
162.000000
 21
164.319000
  0
LINE
  8
0
  6
CONTINUOUS
 62
7
 10
167.000000
 20
161.830994
 11
162.000000
 21
161.830994
  0
LINE
  8
0
  6
CONTINUOUS
 62
7
 10
235.000000
 20
168.319000
 11
240.000000
 21
168.319000
  0
LINE
  8
0
  6
CONTINUOUS
 62
7
 10
235.000000
 20
165.830994
 11
240.000000
 21
165.830994
  0
LINE
  8
0
  6
CONTINUOUS
 62
7
 10
240.000000
 20
168.074997
 11
245.500000
 21
168.074997
  0
LINE
  8
0
  6
CONTINUOUS
 62
2
 10
240.000000
 20
167.574997
 11
245.500000
 21
167.574997
  0
LINE
  8
0
  6
CONTINUOUS
 62
7
 10
240.000000
 20
162.074997
 11
245.500000
 21
162.074997
  0
LINE
  8
0
  6
CONTINUOUS
 62
2
 10
240.000000
 20
162.574997
 11
245.500000
 21
162.574997
  0
LINE
  8
0
  6
CONTINUOUS
 62
7
 10
245.500000
 20
168.074997
 11
245.500000
 21
162.074997
  0
LINE
  8
0
  6
CONTINUOUS
 62
7
 10
235.000000
 20
164.319000
 11
240.000000
 21
164.319000
  0
LINE
  8
0
  6
CENTER
 62
2
 10
179.610001
 20
189.574997
 11
153.973999
 21
189.574997
  0
LINE
  8
0
  6
CENTER
 62
2
 10
222.389999
 20
189.574997
 11
247.059998
 21
189.574997
  0
LINE
  8
0
  6
CONTINUOUS
 62
7
 10
189.750000
 20
183.074997
 11
237.250000
 21
183.074997
  0
LINE
  8
0
  6
CONTINUOUS
 62
7
 10
182.149994
 20
183.574997
 11
189.750000
 21
183.574997
  0
LINE
  8
0
  6
CONTINUOUS
 62
7
 10
148.000000
 20
188.074997
 11
156.500000
 21
188.074997
  0
LINE
  8
0
  6
CONTINUOUS
 62
7
 10
245.500000
 20
188.074997
 11
254.000000
 21
188.074997
  0
LINE
  8
0
  6
CONTINUOUS
 62
7
 10
244.850006
 20
183.574997
 11
244.850006
 21
186.574997
  0
LINE
  8
0
  6
CONTINUOUS
 62
7
 10
244.850006
 20
183.574997
 11
237.250000
 21
183.574997
  0
LINE
  8
0
  6
CONTINUOUS
 62
7
 10
148.000000
 20
195.574997
 11
156.653000
 21
195.574997
  0
LINE
  8
0
  6
CONTINUOUS
 62
7
 10
148.000000
 20
205.074997
 11
254.000000
 21
205.074997
  0
LINE
  8
0
  6
CONTINUOUS
 62
7
 10
148.000000
 20
188.074997
 11
148.000000
 21
205.074997
  0
LINE
  8
0
  6
CONTINUOUS
 62
7
 10
254.000000
 20
188.074997
 11
254.000000
 21
205.074997
  0
LINE
  8
0
  6
CONTINUOUS
 62
7
 10
158.800003
 20
199.574997
 11
167.000000
 21
199.574997
  0
LINE
  8
0
  6
CONTINUOUS
 62
7
 10
243.199997
 20
199.574997
 11
235.000000
 21
199.574997
  0
LINE
  8
0
  6
CONTINUOUS
 62
7
 10
245.347000
 20
195.574997
 11
254.000000
 21
195.574997
  0
LINE
  8
0
  6
CONTINUOUS
 62
7
 10
203.500000
 20
193.574997
 11
203.500000
 21
183.574997
  0
LINE
  8
0
  6
CONTINUOUS
 62
7
 10
223.500000
 20
193.574997
 11
223.500000
 21
183.574997
  0
LINE
  8
0
  6
CONTINUOUS
 62
7
 10
203.500000
 20
193.574997
 11
223.500000
 21
193.574997
  0
LINE
  8
0
  6
CONTINUOUS
 62
7
 10
203.500000
 20
183.574997
 11
223.500000
 21
183.574997
  0
LINE
  8
0
  6
CONTINUOUS
 62
7
 10
245.500000
 20
192.574997
 11
245.500000
 21
186.574997
  0
LINE
  8
0
  6
CONTINUOUS
 62
7
 10
240.000000
 20
192.574997
 11
245.500000
 21
192.574997
  0
LINE
  8
0
  6
CONTINUOUS
 62
2
 10
240.000000
 20
192.074997
 11
245.500000
 21
192.074997
  0
LINE
  8
0
  6
CONTINUOUS
 62
2
 10
240.000000
 20
187.074997
 11
245.500000
 21
187.074997
  0
LINE
  8
0
  6
CONTINUOUS
 62
7
 10
240.000000
 20
186.574997
 11
245.500000
 21
186.574997
  0
LINE
  8
0
  6
CONTINUOUS
 62
7
 10
167.000000
 20
204.574997
 11
235.000000
 21
204.574997
  0
LINE
  8
0
  6
CONTINUOUS
 62
7
 10
162.000000
 20
192.574997
 11
156.500000
 21
192.574997
  0
LINE
  8
0
  6
CONTINUOUS
 62
2
 10
162.000000
 20
192.074997
 11
156.500000
 21
192.074997
  0
LINE
  8
0
  6
CONTINUOUS
 62
2
 10
162.000000
 20
187.074997
 11
156.500000
 21
187.074997
  0
LINE
  8
0
  6
CONTINUOUS
 62
7
 10
162.000000
 20
186.574997
 11
156.500000
 21
186.574997
  0
LINE
  8
0
  6
CONTINUOUS
 62
7
 10
156.500000
 20
192.574997
 11
156.500000
 21
186.574997
  0
LINE
  8
0
  6
CONTINUOUS
 62
7
 10
178.500000
 20
188.074997
 11
182.149994
 21
188.074997
  0
LINE
  8
0
  6
CONTINUOUS
 62
7
 10
235.000000
 20
195.074997
 11
244.850006
 21
195.074997
  0
LINE
  8
0
  6
CONTINUOUS
 62
7
 10
244.850006
 20
192.574997
 11
244.850006
 21
195.074997
  0
LINE
  8
0
  6
CONTINUOUS
 62
7
 10
225.000000
 20
183.574997
 11
225.000000
 21
193.074997
  0
LINE
  8
0
  6
CONTINUOUS
 62
7
 10
182.149994
 20
183.574997
 11
182.149994
 21
195.074997
  0
LINE
  8
0
  6
CONTINUOUS
 62
7
 10
189.750000
 20
183.074997
 11
189.750000
 21
195.074997
  0
LINE
  8
0
  6
CONTINUOUS
 62
7
 10
237.250000
 20
183.074997
 11
237.250000
 21
185.324997
  0
LINE
  8
0
  6
CONTINUOUS
 62
7
 10
177.000000
 20
183.574997
 11
177.000000
 21
193.074997
  0
LINE
  8
0
  6
CONTINUOUS
 62
7
 10
167.000000
 20
183.574997
 11
167.000000
 21
204.574997
  0
LINE
  8
0
  6
CONTINUOUS
 62
7
 10
235.000000
 20
183.574997
 11
235.000000
 21
204.574997
  0
LINE
  8
0
  6
CONTINUOUS
 62
7
 10
235.000000
 20
183.574997
 11
225.000000
 21
183.574997
  0
LINE
  8
0
  6
CONTINUOUS
 62
7
 10
167.000000
 20
183.574997
 11
177.000000
 21
183.574997
  0
LINE
  8
0
  6
CONTINUOUS
 62
7
 10
240.000000
 20
185.324997
 11
235.000000
 21
185.324997
  0
LINE
  8
0
  6
CONTINUOUS
 62
7
 10
240.000000
 20
185.324997
 11
240.000000
 21
193.824997
  0
LINE
  8
0
  6
CONTINUOUS
 62
7
 10
240.000000
 20
193.824997
 11
235.000000
 21
193.824997
  0
LINE
  8
0
  6
CONTINUOUS
 62
7
 10
240.000000
 20
192.320999
 11
235.000000
 21
192.320999
  0
LINE
  8
0
  6
CONTINUOUS
 62
7
 10
240.000000
 20
191.011002
 11
235.000000
 21
191.011002
  0
LINE
  8
0
  6
CONTINUOUS
 62
7
 10
240.000000
 20
188.139008
 11
235.000000
 21
188.139008
  0
LINE
  8
0
  6
CONTINUOUS
 62
7
 10
240.000000
 20
186.828995
 11
235.000000
 21
186.828995
  0
LINE
  8
0
  6
CONTINUOUS
 62
7
 10
162.000000
 20
193.824997
 11
167.000000
 21
193.824997
  0
LINE
  8
0
  6
CONTINUOUS
 62
7
 10
162.000000
 20
193.824997
 11
162.000000
 21
185.324997
  0
LINE
  8
0
  6
CONTINUOUS
 62
7
 10
162.000000
 20
185.324997
 11
167.000000
 21
185.324997
  0
LINE
  8
0
  6
CONTINUOUS
 62
7
 10
162.000000
 20
186.828995
 11
167.000000
 21
186.828995
  0
LINE
  8
0
  6
CONTINUOUS
 62
7
 10
162.000000
 20
188.139008
 11
167.000000
 21
188.139008
  0
LINE
  8
0
  6
CONTINUOUS
 62
7
 10
162.000000
 20
191.011002
 11
167.000000
 21
191.011002
  0
LINE
  8
0
  6
CONTINUOUS
 62
7
 10
162.000000
 20
192.320999
 11
167.000000
 21
192.320999
  0
LINE
  8
0
  6
CONTINUOUS
 62
7
 10
179.000000
 20
195.074997
 11
223.000000
 21
195.074997
  0
LINE
  8
0
  6
CONTINUOUS
 62
7
 10
123.000000
 20
84.074997
 11
113.000000
 21
84.074997
  0
LINE
  8
0
  6
CONTINUOUS
 62
2
 10
123.000000
 20
98.275002
 11
122.000000
 21
98.275002
  0
LINE
  8
0
  6
CONTINUOUS
 62
2
 10
122.000000
 20
101.724998
 11
122.000000
 21
100.875000
  0
LINE
  8
0
  6
CONTINUOUS
 62
2
 10
122.000000
 20
97.425003
 11
118.199997
 21
97.425003
  0
LINE
  8
0
  6
CONTINUOUS
 62
2
 10
116.699997
 20
100.224998
 11
116.699997
 21
98.925003
  0
LINE
  8
0
  6
CONTINUOUS
 62
2
 10
122.000000
 20
101.724998
 11
118.199997
 21
101.724998
  0
LINE
  8
0
  6
CONTINUOUS
 62
2
 10
123.000000
 20
100.875000
 11
122.000000
 21
100.875000
  0
LINE
  8
0
  6
CONTINUOUS
 62
7
 10
123.000000
 20
103.074997
 11
123.000000
 21
84.074997
  0
LINE
  8
0
  6
CONTINUOUS
 62
7
 10
123.000000
 20
103.074997
 11
115.500000
 21
103.074997
  0
LINE
  8
0
  6
CONTINUOUS
 62
7
 10
115.500000
 20
103.074997
 11
115.500000
 21
90.574997
  0
LINE
  8
0
  6
CONTINUOUS
 62
7
 10
115.500000
 20
90.574997
 11
113.000000
 21
90.574997
  0
LINE
  8
0
  6
CONTINUOUS
 62
7
 10
114.500000
 20
91.074997
 11
113.000000
 21
91.074997
  0
LINE
  8
0
  6
CONTINUOUS
 62
7
 10
114.500000
 20
102.074997
 11
114.500000
 21
91.074997
  0
LINE
  8
0
  6
CONTINUOUS
 62
7
 10
114.500000
 20
102.074997
 11
112.500000
 21
102.074997
  0
LINE
  8
0
  6
CONTINUOUS
 62
2
 10
122.000000
 20
98.275002
 11
122.000000
 21
97.425003
  0
LINE
  8
0
  6
CENTER
 62
2
 10
125.000000
 20
99.574997
 11
114.699997
 21
99.574997
  0
LINE
  8
0
  6
CENTER
 62
2
 10
125.000000
 20
93.574997
 11
114.699997
 21
93.574997
  0
LINE
  8
0
  6
CONTINUOUS
 62
7
 10
279.000000
 20
84.074997
 11
289.000000
 21
84.074997
  0
LINE
  8
0
  6
CONTINUOUS
 62
2
 10
279.000000
 20
98.275002
 11
280.000000
 21
98.275002
  0
LINE
  8
0
  6
CONTINUOUS
 62
2
 10
280.000000
 20
101.724998
 11
280.000000
 21
100.875000
  0
LINE
  8
0
  6
CONTINUOUS
 62
2
 10
280.000000
 20
97.425003
 11
283.799988
 21
97.425003
  0
LINE
  8
0
  6
CONTINUOUS
 62
2
 10
285.299988
 20
100.224998
 11
285.299988
 21
98.925003
  0
LINE
  8
0
  6
CONTINUOUS
 62
2
 10
280.000000
 20
101.724998
 11
283.799988
 21
101.724998
  0
LINE
  8
0
  6
CONTINUOUS
 62
2
 10
279.000000
 20
100.875000
 11
280.000000
 21
100.875000
  0
LINE
  8
0
  6
CONTINUOUS
 62
7
 10
279.000000
 20
103.074997
 11
279.000000
 21
84.074997
  0
LINE
  8
0
  6
CONTINUOUS
 62
7
 10
279.000000
 20
103.074997
 11
286.500000
 21
103.074997
  0
LINE
  8
0
  6
CONTINUOUS
 62
7
 10
286.500000
 20
103.074997
 11
286.500000
 21
90.574997
  0
LINE
  8
0
  6
CONTINUOUS
 62
7
 10
286.500000
 20
90.574997
 11
289.000000
 21
90.574997
  0
LINE
  8
0
  6
CONTINUOUS
 62
7
 10
287.500000
 20
91.074997
 11
289.000000
 21
91.074997
  0
LINE
  8
0
  6
CONTINUOUS
 62
7
 10
287.500000
 20
102.074997
 11
287.500000
 21
91.074997
  0
LINE
  8
0
  6
CONTINUOUS
 62
7
 10
287.500000
 20
102.074997
 11
289.500000
 21
102.074997
  0
LINE
  8
0
  6
CONTINUOUS
 62
2
 10
280.000000
 20
98.275002
 11
280.000000
 21
97.425003
  0
LINE
  8
0
  6
CENTER
 62
2
 10
277.000000
 20
99.574997
 11
287.299988
 21
99.574997
  0
LINE
  8
0
  6
CENTER
 62
2
 10
277.000000
 20
93.574997
 11
287.299988
 21
93.574997
  0
LINE
  8
0
  6
CONTINUOUS
 62
7
 10
-254.000000
 20
99.074997
 11
-239.000000
 21
99.074997
  0
LINE
  8
0
  6
CONTINUOUS
 62
7
 10
-254.000000
 20
91.574997
 11
-245.347000
 21
91.574997
  0
LINE
  8
0
  6
CONTINUOUS
 62
7
 10
-254.000000
 20
82.074997
 11
-178.000000
 21
82.074997
  0
LINE
  8
0
  6
CONTINUOUS
 62
7
 10
-254.000000
 20
99.074997
 11
-254.000000
 21
82.074997
  0
LINE
  8
0
  6
CONTINUOUS
 62
7
 10
-243.199997
 20
87.574997
 11
-239.000000
 21
87.574997
  0
LINE
  8
0
  6
CONTINUOUS
 62
7
 10
-239.000000
 20
84.074997
 11
-193.000000
 21
84.074997
  0
LINE
  8
0
  6
CONTINUOUS
 62
2
 10
-239.000000
 20
92.275002
 11
-193.000000
 21
92.275002
  0
LINE
  8
0
  6
CONTINUOUS
 62
2
 10
-239.000000
 20
94.875000
 11
-193.000000
 21
94.875000
  0
LINE
  8
0
  6
CONTINUOUS
 62
2
 10
-239.000000
 20
98.275002
 11
-193.000000
 21
98.275002
  0
LINE
  8
0
  6
CONTINUOUS
 62
2
 10
-239.000000
 20
100.875000
 11
-193.000000
 21
100.875000
  0
LINE
  8
0
  6
CONTINUOUS
 62
7
 10
-239.000000
 20
103.074997
 11
-193.000000
 21
103.074997
  0
LINE
  8
0
  6
CONTINUOUS
 62
7
 10
-239.000000
 20
103.074997
 11
-239.000000
 21
84.074997
  0
LINE
  8
0
  6
DASHED
 62
2
 10
-243.000000
 20
87.574997
 11
-243.000000
 21
86.574997
  0
LINE
  8
0
  6
DASHED
 62
2
 10
-243.000000
 20
86.574997
 11
-235.000000
 21
86.574997
  0
LINE
  8
0
  6
DASHED
 62
2
 10
-241.500000
 20
86.574997
 11
-241.500000
 21
82.074997
  0
LINE
  8
0
  6
DASHED
 62
2
 10
-241.100006
 20
86.574997
 11
-241.100006
 21
82.074997
  0
LINE
  8
0
  6
CENTER
 62
2
 10
-239.000000
 20
89.574997
 11
-239.000000
 21
80.074997
  0
LINE
  8
0
  6
DASHED
 62
2
 10
-236.899994
 20
86.574997
 11
-236.899994
 21
82.074997
  0
LINE
  8
0
  6
DASHED
 62
2
 10
-236.500000
 20
86.574997
 11
-236.500000
 21
82.074997
  0
LINE
  8
0
  6
DASHED
 62
2
 10
-235.000000
 20
87.574997
 11
-235.000000
 21
86.574997
  0
LINE
  8
0
  6
CONTINUOUS
 62
7
 10
-229.500000
 20
103.574997
 11
-229.500000
 21
103.074997
  0
LINE
  8
0
  6
CONTINUOUS
 62
7
 10
-221.899994
 20
104.074997
 11
-221.899994
 21
103.074997
  0
LINE
  8
0
  6
CONTINUOUS
 62
7
 10
-221.899994
 20
104.074997
 11
-195.100006
 21
104.074997
  0
LINE
  8
0
  6
CONTINUOUS
 62
7
 10
-229.500000
 20
103.574997
 11
-221.899994
 21
103.574997
  0
LINE
  8
0
  6
CONTINUOUS
 62
7
 10
-187.500000
 20
99.074997
 11
-178.000000
 21
99.074997
  0
LINE
  8
0
  6
CONTINUOUS
 62
7
 10
-187.500000
 20
103.574997
 11
-187.500000
 21
92.074997
  0
LINE
  8
0
  6
CONTINUOUS
 62
7
 10
-195.100006
 20
104.074997
 11
-195.100006
 21
103.074997
  0
LINE
  8
0
  6
CONTINUOUS
 62
7
 10
-187.500000
 20
103.574997
 11
-195.100006
 21
103.574997
  0
LINE
  8
0
  6
CONTINUOUS
 62
7
 10
-178.000000
 20
99.074997
 11
-178.000000
 21
82.074997
  0
LINE
  8
0
  6
CONTINUOUS
 62
7
 10
-193.000000
 20
103.074997
 11
-193.000000
 21
84.074997
  0
LINE
  8
0
  6
CENTER
 62
2
 10
-218.500000
 20
185.074997
 11
-218.500000
 21
181.074997
  0
LINE
  8
0
  6
CENTER
 62
2
 10
-198.500000
 20
185.074997
 11
-198.500000
 21
181.074997
  0
LINE
  8
0
  6
CONTINUOUS
 62
7
 10
-193.000000
 20
92.074997
 11
-187.500000
 21
92.074997
  0
LINE
  8
0
  6
CONTINUOUS
 62
7
 10
-188.800003
 20
87.574997
 11
-193.000000
 21
87.574997
  0
LINE
  8
0
  6
CONTINUOUS
 62
7
 10
-186.653000
 20
91.574997
 11
-178.000000
 21
91.574997
  0
LINE
  8
0
  6
DASHED
 62
2
 10
-197.000000
 20
87.574997
 11
-197.000000
 21
86.574997
  0
LINE
  8
0
  6
DASHED
 62
2
 10
-197.000000
 20
86.574997
 11
-189.000000
 21
86.574997
  0
LINE
  8
0
  6
DASHED
 62
2
 10
-195.500000
 20
86.574997
 11
-195.500000
 21
82.074997
  0
LINE
  8
0
  6
DASHED
 62
2
 10
-195.100006
 20
86.574997
 11
-195.100006
 21
82.074997
  0
LINE
  8
0
  6
CENTER
 62
2
 10
-193.000000
 20
89.574997
 11
-193.000000
 21
80.074997
  0
LINE
  8
0
  6
DASHED
 62
2
 10
-190.899994
 20
86.574997
 11
-190.899994
 21
82.074997
  0
LINE
  8
0
  6
DASHED
 62
2
 10
-190.500000
 20
86.574997
 11
-190.500000
 21
82.074997
  0
LINE
  8
0
  6
DASHED
 62
2
 10
-189.000000
 20
87.574997
 11
-189.000000
 21
86.574997
  0
LINE
  8
0
  6
CONTINUOUS
 62
7
 10
-235.000000
 20
103.574997
 11
-235.000000
 21
103.074997
  0
LINE
  8
0
  6
CONTINUOUS
 62
7
 10
-239.000000
 20
69.074997
 11
-239.000000
 21
59.075001
  0
LINE
  8
0
  6
CONTINUOUS
 62
7
 10
-239.000000
 20
69.074997
 11
-193.000000
 21
69.074997
  0
LINE
  8
0
  6
CONTINUOUS
 62
7
 10
-193.000000
 20
69.074997
 11
-193.000000
 21
59.075001
  0
LINE
  8
0
  6
CONTINUOUS
 62
7
 10
-205.250000
 20
127.074997
 11
-205.250000
 21
125.574997
  0
LINE
  8
0
  6
CONTINUOUS
 62
7
 10
-193.000000
 20
117.074997
 11
-193.000000
 21
127.074997
  0
LINE
  8
0
  6
CONTINUOUS
 62
7
 10
-239.000000
 20
117.074997
 11
-239.000000
 21
127.074997
  0
LINE
  8
0
  6
CONTINUOUS
 62
7
 10
-239.000000
 20
124.574997
 11
-193.000000
 21
124.574997
  0
LINE
  8
0
  6
CONTINUOUS
 62
7
 10
-239.000000
 20
117.074997
 11
-193.000000
 21
117.074997
  0
LINE
  8
0
  6
CONTINUOUS
 62
7
 10
-211.750000
 20
127.074997
 11
-211.750000
 21
125.574997
  0
LINE
  8
0
  6
CONTINUOUS
 62
7
 10
-211.750000
 20
125.574997
 11
-205.250000
 21
125.574997
  0
LINE
  8
0
  6
CONTINUOUS
 62
7
 10
-235.000000
 20
184.074997
 11
-229.500000
 21
184.074997
  0
LINE
  8
0
  6
CONTINUOUS
 62
7
 10
-313.000000
 20
99.074997
 11
-298.000000
 21
99.074997
  0
LINE
  8
0
  6
CONTINUOUS
 62
7
 10
-313.000000
 20
95.074997
 11
-313.000000
 21
91.574997
  0
LINE
  8
0
  6
CONTINUOUS
 62
7
 10
-313.000000
 20
99.074997
 11
-313.000000
 21
98.074997
  0
LINE
  8
0
  6
CONTINUOUS
 62
7
 10
-321.500000
 20
104.074997
 11
-314.500000
 21
104.074997
  0
LINE
  8
0
  6
CONTINUOUS
 62
7
 10
-321.500000
 20
92.074997
 11
-313.000000
 21
92.074997
  0
LINE
  8
0
  6
CONTINUOUS
 62
7
 10
-314.200012
 20
103.775002
 11
-296.799988
 21
103.775002
  0
LINE
  8
0
  6
CONTINUOUS
 62
7
 10
-314.500000
 20
104.074997
 11
-314.200012
 21
103.775002
  0
LINE
  8
0
  6
CONTINUOUS
 62
7
 10
-298.000000
 20
95.074997
 11
-298.000000
 21
91.574997
  0
LINE
  8
0
  6
CONTINUOUS
 62
7
 10
-298.000000
 20
99.074997
 11
-298.000000
 21
98.074997
  0
LINE
  8
0
  6
CONTINUOUS
 62
7
 10
-289.500000
 20
104.074997
 11
-289.500000
 21
92.074997
  0
LINE
  8
0
  6
CONTINUOUS
 62
7
 10
-289.500000
 20
104.074997
 11
-296.500000
 21
104.074997
  0
LINE
  8
0
  6
CONTINUOUS
 62
7
 10
-289.500000
 20
92.074997
 11
-298.000000
 21
92.074997
  0
LINE
  8
0
  6
CONTINUOUS
 62
7
 10
-296.500000
 20
104.074997
 11
-296.799988
 21
103.775002
  0
LINE
  8
0
  6
CONTINUOUS
 62
7
 10
-321.500000
 20
104.074997
 11
-321.500000
 21
92.074997
  0
LINE
  8
0
  6
CONTINUOUS
 62
7
 10
-289.000000
 20
91.574997
 11
-298.000000
 21
91.574997
  0
LINE
  8
0
  6
CONTINUOUS
 62
7
 10
-289.000000
 20
82.074997
 11
-322.000000
 21
82.074997
  0
LINE
  8
0
  6
CONTINUOUS
 62
7
 10
-322.000000
 20
91.574997
 11
-313.000000
 21
91.574997
  0
LINE
  8
0
  6
CONTINUOUS
 62
7
 10
-289.000000
 20
91.574997
 11
-289.000000
 21
82.074997
  0
LINE
  8
0
  6
CONTINUOUS
 62
7
 10
-322.000000
 20
103.574997
 11
-322.000000
 21
82.074997
  0
LINE
  8
0
  6
CENTER
 62
2
 10
-305.500000
 20
106.074997
 11
-305.500000
 21
80.074997
  0
LINE
  8
0
  6
CENTER
 62
2
 10
-313.899994
 20
90.074997
 11
-297.100006
 21
90.074997
  0
LINE
  8
0
  6
CENTER
 62
2
 10
-315.500000
 20
91.074997
 11
-315.500000
 21
84.074997
  0
LINE
  8
0
  6
CENTER
 62
2
 10
-319.000000
 20
87.574997
 11
-312.000000
 21
87.574997
  0
LINE
  8
0
  6
CENTER
 62
2
 10
-317.500000
 20
84.074997
 11
-317.500000
 21
80.074997
  0
LINE
  8
0
  6
CENTER
 62
2
 10
-293.500000
 20
84.074997
 11
-293.500000
 21
80.074997
  0
LINE
  8
0
  6
CENTER
 62
2
 10
-293.000000
 20
106.074997
 11
-293.000000
 21
102.074997
  0
LINE
  8
0
  6
CENTER
 62
2
 10
-318.000000
 20
106.074997
 11
-318.000000
 21
102.074997
  0
LINE
  8
0
  6
CONTINUOUS
 62
7
 10
-332.000000
 20
103.574997
 11
-332.000000
 21
82.574997
  0
LINE
  8
0
  6
CONTINUOUS
 62
7
 10
-322.000000
 20
82.574997
 11
-332.000000
 21
82.574997
  0
LINE
  8
0
  6
CONTINUOUS
 62
7
 10
-321.500000
 20
103.574997
 11
-332.000000
 21
103.574997
  0
LINE
  8
0
  6
CENTER
 62
2
 10
-332.000000
 20
97.574997
 11
-322.000000
 21
97.574997
  0
LINE
  8
0
  6
CENTER
 62
2
 10
-327.000000
 20
102.574997
 11
-327.000000
 21
92.574997
  0
LINE
  8
0
  6
CONTINUOUS
 62
7
 10
-323.756012
 20
100.320999
 11
-326.243988
 21
101.757004
  0
LINE
  8
0
  6
CONTINUOUS
 62
7
 10
-327.000000
 20
99.306999
 11
-328.500000
 21
98.441002
  0
LINE
  8
0
  6
CONTINUOUS
 62
7
 10
-328.500000
 20
98.441002
 11
-328.500000
 21
96.709000
  0
LINE
  8
0
  6
CONTINUOUS
 62
7
 10
-327.000000
 20
95.842903
 11
-328.500000
 21
96.709000
  0
LINE
  8
0
  6
CONTINUOUS
 62
7
 10
-325.500000
 20
96.708900
 11
-327.000000
 21
95.842903
  0
LINE
  8
0
  6
CONTINUOUS
 62
7
 10
-325.500000
 20
98.441002
 11
-325.500000
 21
96.709000
  0
LINE
  8
0
  6
CONTINUOUS
 62
7
 10
-327.000000
 20
99.306999
 11
-325.500000
 21
98.441002
  0
LINE
  8
0
  6
CONTINUOUS
 62
7
 10
-327.756012
 20
101.757004
 11
-330.243988
 21
100.320999
  0
LINE
  8
0
  6
CONTINUOUS
 62
7
 10
-331.000000
 20
99.011200
 11
-331.000000
 21
96.138901
  0
LINE
  8
0
  6
CONTINUOUS
 62
7
 10
-330.243988
 20
94.828903
 11
-327.756012
 21
93.392799
  0
LINE
  8
0
  6
CONTINUOUS
 62
7
 10
-326.243988
 20
93.392799
 11
-323.756012
 21
94.828903
  0
LINE
  8
0
  6
CONTINUOUS
 62
7
 10
-323.000000
 20
96.138901
 11
-323.000000
 21
99.011200
  0
LINE
  8
0
  6
CONTINUOUS
 62
7
 10
-279.000000
 20
84.074997
 11
-289.000000
 21
84.074997
  0
LINE
  8
0
  6
CONTINUOUS
 62
2
 10
-279.000000
 20
98.275002
 11
-280.000000
 21
98.275002
  0
LINE
  8
0
  6
CONTINUOUS
 62
2
 10
-280.000000
 20
101.724998
 11
-280.000000
 21
100.875000
  0
LINE
  8
0
  6
CONTINUOUS
 62
2
 10
-280.000000
 20
97.425003
 11
-283.799988
 21
97.425003
  0
LINE
  8
0
  6
CONTINUOUS
 62
2
 10
-285.299988
 20
100.224998
 11
-285.299988
 21
98.925003
  0
LINE
  8
0
  6
CONTINUOUS
 62
2
 10
-280.000000
 20
101.724998
 11
-283.799988
 21
101.724998
  0
LINE
  8
0
  6
CONTINUOUS
 62
2
 10
-279.000000
 20
100.875000
 11
-280.000000
 21
100.875000
  0
LINE
  8
0
  6
CONTINUOUS
 62
7
 10
-279.000000
 20
103.074997
 11
-279.000000
 21
84.074997
  0
LINE
  8
0
  6
CONTINUOUS
 62
7
 10
-279.000000
 20
103.074997
 11
-286.500000
 21
103.074997
  0
LINE
  8
0
  6
CONTINUOUS
 62
7
 10
-286.500000
 20
103.074997
 11
-286.500000
 21
90.574997
  0
LINE
  8
0
  6
CONTINUOUS
 62
7
 10
-286.500000
 20
90.574997
 11
-289.000000
 21
90.574997
  0
LINE
  8
0
  6
CONTINUOUS
 62
7
 10
-287.500000
 20
91.074997
 11
-289.000000
 21
91.074997
  0
LINE
  8
0
  6
CONTINUOUS
 62
7
 10
-287.500000
 20
102.074997
 11
-287.500000
 21
91.074997
  0
LINE
  8
0
  6
CONTINUOUS
 62
7
 10
-287.500000
 20
102.074997
 11
-289.500000
 21
102.074997
  0
LINE
  8
0
  6
CONTINUOUS
 62
2
 10
-280.000000
 20
98.275002
 11
-280.000000
 21
97.425003
  0
LINE
  8
0
  6
CENTER
 62
2
 10
-277.000000
 20
99.574997
 11
-287.299988
 21
99.574997
  0
LINE
  8
0
  6
CENTER
 62
2
 10
-277.000000
 20
93.574997
 11
-287.299988
 21
93.574997
  0
LINE
  8
0
  6
CONTINUOUS
 62
7
 10
-119.000000
 20
99.074997
 11
-134.000000
 21
99.074997
  0
LINE
  8
0
  6
CONTINUOUS
 62
7
 10
-119.000000
 20
95.074997
 11
-119.000000
 21
91.574997
  0
LINE
  8
0
  6
CONTINUOUS
 62
7
 10
-119.000000
 20
99.074997
 11
-119.000000
 21
98.074997
  0
LINE
  8
0
  6
CONTINUOUS
 62
7
 10
-110.500000
 20
104.074997
 11
-117.500000
 21
104.074997
  0
LINE
  8
0
  6
CONTINUOUS
 62
7
 10
-110.500000
 20
92.074997
 11
-119.000000
 21
92.074997
  0
LINE
  8
0
  6
CONTINUOUS
 62
7
 10
-117.800003
 20
103.775002
 11
-135.199997
 21
103.775002
  0
LINE
  8
0
  6
CONTINUOUS
 62
7
 10
-117.500000
 20
104.074997
 11
-117.800003
 21
103.775002
  0
LINE
  8
0
  6
CONTINUOUS
 62
7
 10
-134.000000
 20
95.074997
 11
-134.000000
 21
91.574997
  0
LINE
  8
0
  6
CONTINUOUS
 62
7
 10
-134.000000
 20
99.074997
 11
-134.000000
 21
98.074997
  0
LINE
  8
0
  6
CONTINUOUS
 62
7
 10
-142.500000
 20
104.074997
 11
-142.500000
 21
92.074997
  0
LINE
  8
0
  6
CONTINUOUS
 62
7
 10
-142.500000
 20
104.074997
 11
-135.500000
 21
104.074997
  0
LINE
  8
0
  6
CONTINUOUS
 62
7
 10
-142.500000
 20
92.074997
 11
-134.000000
 21
92.074997
  0
LINE
  8
0
  6
CONTINUOUS
 62
7
 10
-135.500000
 20
104.074997
 11
-135.199997
 21
103.775002
  0
LINE
  8
0
  6
CONTINUOUS
 62
7
 10
-110.500000
 20
104.074997
 11
-110.500000
 21
92.074997
  0
LINE
  8
0
  6
CONTINUOUS
 62
7
 10
-143.000000
 20
91.574997
 11
-134.000000
 21
91.574997
  0
LINE
  8
0
  6
CONTINUOUS
 62
7
 10
-143.000000
 20
82.074997
 11
-110.000000
 21
82.074997
  0
LINE
  8
0
  6
CONTINUOUS
 62
7
 10
-110.000000
 20
91.574997
 11
-119.000000
 21
91.574997
  0
LINE
  8
0
  6
CONTINUOUS
 62
7
 10
-143.000000
 20
91.574997
 11
-143.000000
 21
82.074997
  0
LINE
  8
0
  6
CONTINUOUS
 62
7
 10
-110.000000
 20
103.574997
 11
-110.000000
 21
82.074997
  0
LINE
  8
0
  6
CENTER
 62
2
 10
-126.500000
 20
106.074997
 11
-126.500000
 21
80.074997
  0
LINE
  8
0
  6
CENTER
 62
2
 10
-118.099998
 20
90.074997
 11
-134.899994
 21
90.074997
  0
LINE
  8
0
  6
CENTER
 62
2
 10
-116.500000
 20
91.074997
 11
-116.500000
 21
84.074997
  0
LINE
  8
0
  6
CENTER
 62
2
 10
-113.000000
 20
87.574997
 11
-120.000000
 21
87.574997
  0
LINE
  8
0
  6
CENTER
 62
2
 10
-114.500000
 20
84.074997
 11
-114.500000
 21
80.074997
  0
LINE
  8
0
  6
CENTER
 62
2
 10
-138.500000
 20
84.074997
 11
-138.500000
 21
80.074997
  0
LINE
  8
0
  6
CENTER
 62
2
 10
-139.000000
 20
106.074997
 11
-139.000000
 21
102.074997
  0
LINE
  8
0
  6
CENTER
 62
2
 10
-114.000000
 20
106.074997
 11
-114.000000
 21
102.074997
  0
LINE
  8
0
  6
CONTINUOUS
 62
7
 10
-100.000000
 20
103.574997
 11
-100.000000
 21
82.574997
  0
LINE
  8
0
  6
CONTINUOUS
 62
7
 10
-110.000000
 20
82.574997
 11
-100.000000
 21
82.574997
  0
LINE
  8
0
  6
CONTINUOUS
 62
7
 10
-110.500000
 20
103.574997
 11
-100.000000
 21
103.574997
  0
LINE
  8
0
  6
CENTER
 62
2
 10
-100.000000
 20
97.574997
 11
-110.000000
 21
97.574997
  0
LINE
  8
0
  6
CENTER
 62
2
 10
-105.000000
 20
102.574997
 11
-105.000000
 21
92.574997
  0
LINE
  8
0
  6
CONTINUOUS
 62
7
 10
-108.244003
 20
100.320999
 11
-105.755997
 21
101.757004
  0
LINE
  8
0
  6
CONTINUOUS
 62
7
 10
-105.000000
 20
99.306999
 11
-103.500000
 21
98.441002
  0
LINE
  8
0
  6
CONTINUOUS
 62
7
 10
-103.500000
 20
98.441002
 11
-103.500000
 21
96.709000
  0
LINE
  8
0
  6
CONTINUOUS
 62
7
 10
-105.000000
 20
95.842903
 11
-103.500000
 21
96.708900
  0
LINE
  8
0
  6
CONTINUOUS
 62
7
 10
-106.500000
 20
96.709000
 11
-105.000000
 21
95.843002
  0
LINE
  8
0
  6
CONTINUOUS
 62
7
 10
-106.500000
 20
98.441002
 11
-106.500000
 21
96.709000
  0
LINE
  8
0
  6
CONTINUOUS
 62
7
 10
-105.000000
 20
99.306999
 11
-106.500000
 21
98.441002
  0
LINE
  8
0
  6
CONTINUOUS
 62
7
 10
-104.244003
 20
101.757004
 11
-101.755997
 21
100.320999
  0
LINE
  8
0
  6
CONTINUOUS
 62
7
 10
-101.000000
 20
99.011200
 11
-101.000000
 21
96.138901
  0
LINE
  8
0
  6
CONTINUOUS
 62
7
 10
-101.755997
 20
94.828903
 11
-104.244003
 21
93.392799
  0
LINE
  8
0
  6
CONTINUOUS
 62
7
 10
-105.755997
 20
93.392799
 11
-108.244003
 21
94.828903
  0
LINE
  8
0
  6
CONTINUOUS
 62
7
 10
-109.000000
 20
96.138901
 11
-109.000000
 21
99.011200
  0
LINE
  8
0
  6
CONTINUOUS
 62
7
 10
-153.000000
 20
84.074997
 11
-143.000000
 21
84.074997
  0
LINE
  8
0
  6
CONTINUOUS
 62
2
 10
-153.000000
 20
98.275002
 11
-152.000000
 21
98.275002
  0
LINE
  8
0
  6
CONTINUOUS
 62
2
 10
-152.000000
 20
101.724998
 11
-152.000000
 21
100.875000
  0
LINE
  8
0
  6
CONTINUOUS
 62
2
 10
-152.000000
 20
97.425003
 11
-148.199997
 21
97.425003
  0
LINE
  8
0
  6
CONTINUOUS
 62
2
 10
-146.699997
 20
100.224998
 11
-146.699997
 21
98.925003
  0
LINE
  8
0
  6
CONTINUOUS
 62
2
 10
-152.000000
 20
101.724998
 11
-148.199997
 21
101.724998
  0
LINE
  8
0
  6
CONTINUOUS
 62
2
 10
-153.000000
 20
100.875000
 11
-152.000000
 21
100.875000
  0
LINE
  8
0
  6
CONTINUOUS
 62
7
 10
-153.000000
 20
103.074997
 11
-153.000000
 21
84.074997
  0
LINE
  8
0
  6
CONTINUOUS
 62
7
 10
-153.000000
 20
103.074997
 11
-145.500000
 21
103.074997
  0
LINE
  8
0
  6
CONTINUOUS
 62
7
 10
-145.500000
 20
103.074997
 11
-145.500000
 21
90.574997
  0
LINE
  8
0
  6
CONTINUOUS
 62
7
 10
-145.500000
 20
90.574997
 11
-143.000000
 21
90.574997
  0
LINE
  8
0
  6
CONTINUOUS
 62
7
 10
-144.500000
 20
91.074997
 11
-143.000000
 21
91.074997
  0
LINE
  8
0
  6
CONTINUOUS
 62
7
 10
-144.500000
 20
102.074997
 11
-144.500000
 21
91.074997
  0
LINE
  8
0
  6
CONTINUOUS
 62
7
 10
-144.500000
 20
102.074997
 11
-142.500000
 21
102.074997
  0
LINE
  8
0
  6
CONTINUOUS
 62
2
 10
-152.000000
 20
98.275002
 11
-152.000000
 21
97.425003
  0
LINE
  8
0
  6
CENTER
 62
2
 10
-155.000000
 20
99.574997
 11
-144.699997
 21
99.574997
  0
LINE
  8
0
  6
CENTER
 62
2
 10
-155.000000
 20
93.574997
 11
-144.699997
 21
93.574997
  0
LINE
  8
0
  6
CONTINUOUS
 62
7
 10
244.850006
 20
99.074997
 11
254.000000
 21
99.074997
  0
LINE
  8
0
  6
CONTINUOUS
 62
7
 10
148.000000
 20
99.074997
 11
148.000000
 21
82.074997
  0
LINE
  8
0
  6
CONTINUOUS
 62
7
 10
245.347000
 20
91.574997
 11
254.000000
 21
91.574997
  0
LINE
  8
0
  6
CONTINUOUS
 62
7
 10
182.149994
 20
103.574997
 11
182.149994
 21
103.074997
  0
LINE
  8
0
  6
CONTINUOUS
 62
7
 10
189.750000
 20
104.074997
 11
189.750000
 21
103.074997
  0
LINE
  8
0
  6
CONTINUOUS
 62
7
 10
189.750000
 20
104.074997
 11
237.250000
 21
104.074997
  0
LINE
  8
0
  6
CONTINUOUS
 62
7
 10
239.000000
 20
92.074997
 11
244.850006
 21
92.074997
  0
LINE
  8
0
  6
CONTINUOUS
 62
7
 10
182.149994
 20
103.574997
 11
189.750000
 21
103.574997
  0
LINE
  8
0
  6
CONTINUOUS
 62
7
 10
148.000000
 20
99.074997
 11
163.000000
 21
99.074997
  0
LINE
  8
0
  6
CONTINUOUS
 62
7
 10
237.250000
 20
104.074997
 11
237.250000
 21
103.074997
  0
LINE
  8
0
  6
CONTINUOUS
 62
7
 10
244.850006
 20
103.574997
 11
237.250000
 21
103.574997
  0
LINE
  8
0
  6
CONTINUOUS
 62
7
 10
148.000000
 20
82.074997
 11
254.000000
 21
82.074997
  0
LINE
  8
0
  6
CONTINUOUS
 62
7
 10
158.800003
 20
87.574997
 11
163.000000
 21
87.574997
  0
LINE
  8
0
  6
CONTINUOUS
 62
7
 10
243.199997
 20
87.574997
 11
239.000000
 21
87.574997
  0
LINE
  8
0
  6
CONTINUOUS
 62
7
 10
244.850006
 20
103.574997
 11
244.850006
 21
92.074997
  0
LINE
  8
0
  6
CENTER
 62
2
 10
193.500000
 20
181.074997
 11
193.500000
 21
185.074997
  0
LINE
  8
0
  6
CENTER
 62
2
 10
213.500000
 20
181.074997
 11
213.500000
 21
185.074997
  0
LINE
  8
0
  6
CENTER
 62
2
 10
233.500000
 20
181.074997
 11
233.500000
 21
185.074997
  0
LINE
  8
0
  6
CONTINUOUS
 62
7
 10
163.000000
 20
103.074997
 11
163.000000
 21
84.074997
  0
LINE
  8
0
  6
CONTINUOUS
 62
2
 10
163.000000
 20
92.275002
 11
239.000000
 21
92.275002
  0
LINE
  8
0
  6
CONTINUOUS
 62
2
 10
163.000000
 20
94.875000
 11
239.000000
 21
94.875000
  0
LINE
  8
0
  6
CONTINUOUS
 62
2
 10
163.000000
 20
98.275002
 11
239.000000
 21
98.275002
  0
LINE
  8
0
  6
CONTINUOUS
 62
2
 10
163.000000
 20
100.875000
 11
239.000000
 21
100.875000
  0
LINE
  8
0
  6
CONTINUOUS
 62
7
 10
163.000000
 20
103.074997
 11
239.000000
 21
103.074997
  0
LINE
  8
0
  6
CONTINUOUS
 62
7
 10
239.000000
 20
103.074997
 11
239.000000
 21
84.074997
  0
LINE
  8
0
  6
CONTINUOUS
 62
7
 10
163.000000
 20
84.074997
 11
239.000000
 21
84.074997
  0
LINE
  8
0
  6
DASHED
 62
2
 10
159.000000
 20
87.574997
 11
159.000000
 21
86.574997
  0
LINE
  8
0
  6
DASHED
 62
2
 10
159.000000
 20
86.574997
 11
167.000000
 21
86.574997
  0
LINE
  8
0
  6
DASHED
 62
2
 10
160.500000
 20
86.574997
 11
160.500000
 21
82.074997
  0
LINE
  8
0
  6
DASHED
 62
2
 10
160.899994
 20
86.574997
 11
160.899994
 21
82.074997
  0
LINE
  8
0
  6
CENTER
 62
2
 10
163.000000
 20
89.574997
 11
163.000000
 21
80.074997
  0
LINE
  8
0
  6
DASHED
 62
2
 10
165.100006
 20
86.574997
 11
165.100006
 21
82.074997
  0
LINE
  8
0
  6
DASHED
 62
2
 10
165.500000
 20
86.574997
 11
165.500000
 21
82.074997
  0
LINE
  8
0
  6
DASHED
 62
2
 10
167.000000
 20
87.574997
 11
167.000000
 21
86.574997
  0
LINE
  8
0
  6
DASHED
 62
2
 10
235.000000
 20
87.574997
 11
235.000000
 21
86.574997
  0
LINE
  8
0
  6
DASHED
 62
2
 10
235.000000
 20
86.574997
 11
243.000000
 21
86.574997
  0
LINE
  8
0
  6
DASHED
 62
2
 10
236.500000
 20
86.574997
 11
236.500000
 21
82.074997
  0
LINE
  8
0
  6
DASHED
 62
2
 10
236.899994
 20
86.574997
 11
236.899994
 21
82.074997
  0
LINE
  8
0
  6
CENTER
 62
2
 10
239.000000
 20
89.574997
 11
239.000000
 21
80.074997
  0
LINE
  8
0
  6
DASHED
 62
2
 10
241.100006
 20
86.574997
 11
241.100006
 21
82.074997
  0
LINE
  8
0
  6
DASHED
 62
2
 10
241.500000
 20
86.574997
 11
241.500000
 21
82.074997
  0
LINE
  8
0
  6
DASHED
 62
2
 10
243.000000
 20
87.574997
 11
243.000000
 21
86.574997
  0
LINE
  8
0
  6
CONTINUOUS
 62
7
 10
254.000000
 20
99.074997
 11
254.000000
 21
82.074997
  0
LINE
  8
0
  6
CONTINUOUS
 62
7
 10
148.000000
 20
91.574997
 11
156.653000
 21
91.574997
  0
LINE
  8
0
  6
CONTINUOUS
 62
7
 10
163.000000
 20
69.074997
 11
239.000000
 21
69.074997
  0
LINE
  8
0
  6
CONTINUOUS
 62
7
 10
163.000000
 20
69.074997
 11
163.000000
 21
59.075001
  0
LINE
  8
0
  6
CONTINUOUS
 62
7
 10
239.000000
 20
69.074997
 11
239.000000
 21
59.075001
  0
LINE
  8
0
  6
CONTINUOUS
 62
7
 10
239.000000
 20
117.074997
 11
239.000000
 21
127.074997
  0
LINE
  8
0
  6
CONTINUOUS
 62
7
 10
216.750000
 20
125.574997
 11
216.750000
 21
127.074997
  0
LINE
  8
0
  6
CONTINUOUS
 62
7
 10
163.000000
 20
117.074997
 11
163.000000
 21
127.074997
  0
LINE
  8
0
  6
CONTINUOUS
 62
7
 10
163.000000
 20
124.574997
 11
239.000000
 21
124.574997
  0
LINE
  8
0
  6
CONTINUOUS
 62
7
 10
163.000000
 20
117.074997
 11
239.000000
 21
117.074997
  0
LINE
  8
0
  6
CONTINUOUS
 62
7
 10
210.250000
 20
125.574997
 11
216.750000
 21
125.574997
  0
LINE
  8
0
  6
CONTINUOUS
 62
7
 10
210.250000
 20
125.574997
 11
210.250000
 21
127.074997
  0
LINE
  8
0
  6
CONTINUOUS
 62
7
 10
163.000000
 20
185.324997
 11
163.000000
 21
184.074997
  0
LINE
  8
0
  6
CONTINUOUS
 62
7
 10
163.000000
 20
184.074997
 11
167.000000
 21
184.074997
  0
LINE
  8
0
  6
CONTINUOUS
 62
7
 10
177.000000
 20
184.074997
 11
182.149994
 21
184.074997
  0
LINE
  8
0
  6
CENTER
 62
2
 10
-248.000000
 20
92.074997
 11
-248.000000
 21
83.074997
  0
LINE
  8
0
  6
CENTER
 62
2
 10
-252.500000
 20
87.574997
 11
-243.500000
 21
87.574997
  0
LINE
  8
0
  6
CENTER
 62
2
 10
-184.000000
 20
92.074997
 11
-184.000000
 21
83.074997
  0
LINE
  8
0
  6
CENTER
 62
2
 10
-188.500000
 20
87.574997
 11
-179.500000
 21
87.574997
  0
LINE
  8
0
  6
CENTER
 62
2
 10
154.000000
 20
92.074997
 11
154.000000
 21
83.074997
  0
LINE
  8
0
  6
CENTER
 62
2
 10
149.500000
 20
87.574997
 11
158.500000
 21
87.574997
  0
LINE
  8
0
  6
CENTER
 62
2
 10
248.000000
 20
92.074997
 11
248.000000
 21
83.074997
  0
LINE
  8
0
  6
CENTER
 62
2
 10
243.500000
 20
87.574997
 11
252.500000
 21
87.574997
  0
LINE
  8
0
  6
CENTER
 62
2
 10
-248.000000
 20
-158.675003
 11
-248.000000
 21
-167.675003
  0
LINE
  8
0
  6
CENTER
 62
2
 10
-252.500000
 20
-163.175003
 11
-243.500000
 21
-163.175003
  0
LINE
  8
0
  6
CENTER
 62
2
 10
-184.000000
 20
-158.675003
 11
-184.000000
 21
-167.675003
  0
LINE
  8
0
  6
CENTER
 62
2
 10
-188.500000
 20
-163.175003
 11
-179.500000
 21
-163.175003
  0
LINE
  8
0
  6
CENTER
 62
2
 10
154.000000
 20
-158.675003
 11
154.000000
 21
-167.675003
  0
LINE
  8
0
  6
CENTER
 62
2
 10
149.500000
 20
-163.175003
 11
158.500000
 21
-163.175003
  0
LINE
  8
0
  6
CENTER
 62
2
 10
248.000000
 20
-158.675003
 11
248.000000
 21
-167.675003
  0
LINE
  8
0
  6
CENTER
 62
2
 10
243.500000
 20
-163.175003
 11
252.500000
 21
-163.175003
  0
LINE
  8
0
  6
CONTINUOUS
 62
7
 10
178.500000
 20
163.274994
 11
177.000000
 21
163.274994
  0
LINE
  8
0
  6
CONTINUOUS
 62
7
 10
178.500000
 20
166.875000
 11
178.500000
 21
163.274994
  0
LINE
  8
0
  6
CONTINUOUS
 62
7
 10
178.500000
 20
166.875000
 11
177.000000
 21
166.875000
  0
LINE
  8
0
  6
CONTINUOUS
 62
7
 10
223.500000
 20
166.875000
 11
225.000000
 21
166.875000
  0
LINE
  8
0
  6
CONTINUOUS
 62
7
 10
223.500000
 20
163.274994
 11
225.000000
 21
163.274994
  0
LINE
  8
0
  6
CONTINUOUS
 62
7
 10
178.500000
 20
187.774994
 11
177.000000
 21
187.774994
  0
LINE
  8
0
  6
CONTINUOUS
 62
7
 10
178.500000
 20
191.375000
 11
178.500000
 21
187.774994
  0
LINE
  8
0
  6
CONTINUOUS
 62
7
 10
178.500000
 20
191.375000
 11
177.000000
 21
191.375000
  0
LINE
  8
0
  6
CONTINUOUS
 62
7
 10
223.500000
 20
191.375000
 11
225.000000
 21
191.375000
  0
LINE
  8
0
  6
CONTINUOUS
 62
7
 10
223.500000
 20
187.774994
 11
225.000000
 21
187.774994
  0
LINE
  8
0
  6
CONTINUOUS
 62
7
 10
178.500000
 20
-154.975006
 11
177.000000
 21
-154.975006
  0
LINE
  8
0
  6
CONTINUOUS
 62
7
 10
178.500000
 20
-151.375000
 11
178.500000
 21
-154.975006
  0
LINE
  8
0
  6
CONTINUOUS
 62
7
 10
178.500000
 20
-151.375000
 11
177.000000
 21
-151.375000
  0
LINE
  8
0
  6
CONTINUOUS
 62
7
 10
223.500000
 20
-151.375000
 11
225.000000
 21
-151.375000
  0
LINE
  8
0
  6
CONTINUOUS
 62
7
 10
223.500000
 20
-154.975006
 11
225.000000
 21
-154.975006
  0
LINE
  8
0
  6
CONTINUOUS
 62
7
 10
178.500000
 20
-130.475006
 11
177.000000
 21
-130.475006
  0
LINE
  8
0
  6
CONTINUOUS
 62
7
 10
178.500000
 20
-126.875000
 11
178.500000
 21
-130.475006
  0
LINE
  8
0
  6
CONTINUOUS
 62
7
 10
178.500000
 20
-126.875000
 11
177.000000
 21
-126.875000
  0
LINE
  8
0
  6
CONTINUOUS
 62
7
 10
223.500000
 20
-126.875000
 11
225.000000
 21
-126.875000
  0
LINE
  8
0
  6
CONTINUOUS
 62
7
 10
223.500000
 20
-130.475006
 11
225.000000
 21
-130.475006
  0
LINE
  8
0
  6
CONTINUOUS
 62
7
 10
-233.500000
 20
163.274994
 11
-235.000000
 21
163.274994
  0
LINE
  8
0
  6
CONTINUOUS
 62
7
 10
-233.500000
 20
166.875000
 11
-233.500000
 21
163.274994
  0
LINE
  8
0
  6
CONTINUOUS
 62
7
 10
-233.500000
 20
166.875000
 11
-235.000000
 21
166.875000
  0
LINE
  8
0
  6
CONTINUOUS
 62
7
 10
-198.500000
 20
166.875000
 11
-197.000000
 21
166.875000
  0
LINE
  8
0
  6
CONTINUOUS
 62
7
 10
-198.500000
 20
163.274994
 11
-197.000000
 21
163.274994
  0
LINE
  8
0
  6
CONTINUOUS
 62
7
 10
-233.500000
 20
187.774994
 11
-235.000000
 21
187.774994
  0
LINE
  8
0
  6
CONTINUOUS
 62
7
 10
-233.500000
 20
191.375000
 11
-233.500000
 21
187.774994
  0
LINE
  8
0
  6
CONTINUOUS
 62
7
 10
-233.500000
 20
191.375000
 11
-235.000000
 21
191.375000
  0
LINE
  8
0
  6
CONTINUOUS
 62
7
 10
-198.500000
 20
191.375000
 11
-197.000000
 21
191.375000
  0
LINE
  8
0
  6
CONTINUOUS
 62
7
 10
-198.500000
 20
187.774994
 11
-197.000000
 21
187.774994
  0
LINE
  8
0
  6
CONTINUOUS
 62
7
 10
-233.500000
 20
-154.975006
 11
-235.000000
 21
-154.975006
  0
LINE
  8
0
  6
CONTINUOUS
 62
7
 10
-233.500000
 20
-151.375000
 11
-233.500000
 21
-154.975006
  0
LINE
  8
0
  6
CONTINUOUS
 62
7
 10
-233.500000
 20
-151.375000
 11
-235.000000
 21
-151.375000
  0
LINE
  8
0
  6
CONTINUOUS
 62
7
 10
-198.500000
 20
-151.375000
 11
-197.000000
 21
-151.375000
  0
LINE
  8
0
  6
CONTINUOUS
 62
7
 10
-198.500000
 20
-154.975006
 11
-197.000000
 21
-154.975006
  0
LINE
  8
0
  6
CONTINUOUS
 62
7
 10
-233.500000
 20
-130.475006
 11
-235.000000
 21
-130.475006
  0
LINE
  8
0
  6
CONTINUOUS
 62
7
 10
-233.500000
 20
-126.875000
 11
-233.500000
 21
-130.475006
  0
LINE
  8
0
  6
CONTINUOUS
 62
7
 10
-233.500000
 20
-126.875000
 11
-235.000000
 21
-126.875000
  0
LINE
  8
0
  6
CONTINUOUS
 62
7
 10
-198.500000
 20
-126.875000
 11
-197.000000
 21
-126.875000
  0
LINE
  8
0
  6
CONTINUOUS
 62
7
 10
-198.500000
 20
-130.475006
 11
-197.000000
 21
-130.475006
  0
LINE
  8
0
  6
CENTER
 62
2
 10
-218.500000
 20
106.074997
 11
-218.500000
 21
102.074997
  0
LINE
  8
0
  6
CENTER
 62
2
 10
-198.500000
 20
106.074997
 11
-198.500000
 21
102.074997
  0
LINE
  8
0
  6
CENTER
 62
2
 10
193.500000
 20
102.074997
 11
193.500000
 21
106.074997
  0
LINE
  8
0
  6
CENTER
 62
2
 10
213.500000
 20
102.074997
 11
213.500000
 21
106.074997
  0
LINE
  8
0
  6
CENTER
 62
2
 10
233.500000
 20
102.074997
 11
233.500000
 21
106.074997
  0
LINE
  8
0
  6
CENTER
 62
2
 10
-218.500000
 20
-69.675003
 11
-218.500000
 21
-65.675003
  0
LINE
  8
0
  6
CENTER
 62
2
 10
-198.500000
 20
-69.675003
 11
-198.500000
 21
-65.675003
  0
LINE
  8
0
  6
CENTER
 62
2
 10
193.500000
 20
-65.675003
 11
193.500000
 21
-69.675003
  0
LINE
  8
0
  6
CENTER
 62
2
 10
213.500000
 20
-65.675003
 11
213.500000
 21
-69.675003
  0
LINE
  8
0
  6
CENTER
 62
2
 10
233.500000
 20
-65.675003
 11
233.500000
 21
-69.675003
  0
LINE
  8
0
  6
CONTINUOUS
 62
7
 10
0.274994
 20
276.250000
 11
0.274994
 21
-276.750000
  0
LINE
  8
0
  6
CONTINUOUS
 62
7
 10
-399.250000
 20
-0.250000
 11
399.799988
 21
-0.250000
  0
ARC
  8
0
  6
CONTINUOUS
 62
7
 10
179.000000
 20
-156.675003
 40
2.000000
 50
180.000000
 51
270.000000
  0
CIRCLE
  8
0
  6
CONTINUOUS
 62
2
 10
-198.500000
 20
-119.675003
 40
1.500000
  0
CIRCLE
  8
0
  6
CONTINUOUS
 62
7
 10
-198.500000
 20
-119.675003
 40
1.200000
  0
CIRCLE
  8
0
  6
CONTINUOUS
 62
2
 10
-198.500000
 20
-94.675003
 40
1.500000
  0
CIRCLE
  8
0
  6
CONTINUOUS
 62
7
 10
-198.500000
 20
-94.675003
 40
1.200000
  0
CIRCLE
  8
0
  6
CONTINUOUS
 62
7
 10
-239.000000
 20
-119.175003
 40
4.000000
  0
CIRCLE
  8
0
  6
CONTINUOUS
 62
2
 10
-239.000000
 20
-119.175003
 40
2.500000
  0
CIRCLE
  8
0
  6
CONTINUOUS
 62
7
 10
-239.000000
 20
-119.175003
 40
2.100000
  0
CIRCLE
  8
0
  6
CONTINUOUS
 62
7
 10
-239.000000
 20
-95.175003
 40
4.000000
  0
CIRCLE
  8
0
  6
CONTINUOUS
 62
2
 10
-239.000000
 20
-95.175003
 40
2.500000
  0
CIRCLE
  8
0
  6
CONTINUOUS
 62
7
 10
-239.000000
 20
-95.175003
 40
2.100000
  0
CIRCLE
  8
0
  6
CONTINUOUS
 62
2
 10
-239.000000
 20
-220.175003
 40
2.500000
  0
CIRCLE
  8
0
  6
CONTINUOUS
 62
7
 10
-239.000000
 20
-220.175003
 40
2.100000
  0
CIRCLE
  8
0
  6
CONTINUOUS
 62
2
 10
-239.000000
 20
-196.175003
 40
2.500000
  0
CIRCLE
  8
0
  6
CONTINUOUS
 62
7
 10
-239.000000
 20
-196.175003
 40
2.100000
  0
CIRCLE
  8
0
  6
CONTINUOUS
 62
7
 10
-193.000000
 20
-196.175003
 40
2.100000
  0
CIRCLE
  8
0
  6
CONTINUOUS
 62
2
 10
-193.000000
 20
-220.175003
 40
2.500000
  0
CIRCLE
  8
0
  6
CONTINUOUS
 62
7
 10
-193.000000
 20
-220.175003
 40
2.100000
  0
CIRCLE
  8
0
  6
CONTINUOUS
 62
2
 10
-193.000000
 20
-196.175003
 40
2.500000
  0
CIRCLE
  8
0
  6
CONTINUOUS
 62
7
 10
-186.000000
 20
-203.675003
 40
5.900000
  0
CIRCLE
  8
0
  6
CONTINUOUS
 62
7
 10
-246.000000
 20
-203.675003
 40
5.900000
  0
ARC
  8
0
  6
DASHED
 62
2
 10
-193.000000
 20
-95.175003
 40
2.500000
 50
216.869995
 51
143.130005
  0
CIRCLE
  8
0
  6
DASHED
 62
2
 10
-193.000000
 20
-95.175003
 40
2.100000
  0
CIRCLE
  8
0
  6
DASHED
 62
2
 10
-193.000000
 20
-95.175003
 40
4.000000
  0
CIRCLE
  8
0
  6
DASHED
 62
2
 10
-193.000000
 20
-119.175003
 40
4.000000
  0
CIRCLE
  8
0
  6
DASHED
 62
2
 10
-193.000000
 20
-119.175003
 40
2.500000
  0
CIRCLE
  8
0
  6
DASHED
 62
2
 10
-193.000000
 20
-119.175003
 40
2.100000
  0
CIRCLE
  8
0
  6
CONTINUOUS
 62
7
 10
-218.500000
 20
-119.675003
 40
1.200000
  0
CIRCLE
  8
0
  6
CONTINUOUS
 62
2
 10
-218.500000
 20
-119.675003
 40
1.500000
  0
CIRCLE
  8
0
  6
CONTINUOUS
 62
7
 10
-218.500000
 20
-94.675003
 40
1.200000
  0
CIRCLE
  8
0
  6
CONTINUOUS
 62
2
 10
-218.500000
 20
-94.675003
 40
1.500000
  0
CIRCLE
  8
0
  6
CONTINUOUS
 62
2
 10
213.500000
 20
-119.675003
 40
1.500000
  0
CIRCLE
  8
0
  6
CONTINUOUS
 62
7
 10
213.500000
 20
-119.675003
 40
1.200000
  0
CIRCLE
  8
0
  6
CONTINUOUS
 62
2
 10
213.500000
 20
-94.675003
 40
1.500000
  0
CIRCLE
  8
0
  6
CONTINUOUS
 62
7
 10
213.500000
 20
-94.675003
 40
1.200000
  0
CIRCLE
  8
0
  6
CONTINUOUS
 62
2
 10
233.500000
 20
-119.675003
 40
1.500000
  0
CIRCLE
  8
0
  6
CONTINUOUS
 62
7
 10
233.500000
 20
-119.675003
 40
1.200000
  0
CIRCLE
  8
0
  6
CONTINUOUS
 62
2
 10
233.500000
 20
-94.675003
 40
1.500000
  0
CIRCLE
  8
0
  6
CONTINUOUS
 62
7
 10
233.500000
 20
-94.675003
 40
1.200000
  0
CIRCLE
  8
0
  6
CONTINUOUS
 62
7
 10
163.000000
 20
-119.175003
 40
4.000000
  0
CIRCLE
  8
0
  6
CONTINUOUS
 62
2
 10
163.000000
 20
-119.175003
 40
2.500000
  0
CIRCLE
  8
0
  6
CONTINUOUS
 62
7
 10
163.000000
 20
-119.175003
 40
2.100000
  0
CIRCLE
  8
0
  6
CONTINUOUS
 62
7
 10
163.000000
 20
-95.175003
 40
4.000000
  0
CIRCLE
  8
0
  6
CONTINUOUS
 62
2
 10
163.000000
 20
-95.175003
 40
2.500000
  0
CIRCLE
  8
0
  6
CONTINUOUS
 62
7
 10
163.000000
 20
-95.175003
 40
2.100000
  0
CIRCLE
  8
0
  6
CONTINUOUS
 62
2
 10
163.000000
 20
-220.175003
 40
2.500000
  0
CIRCLE
  8
0
  6
CONTINUOUS
 62
7
 10
163.000000
 20
-220.175003
 40
2.100000
  0
CIRCLE
  8
0
  6
CONTINUOUS
 62
2
 10
163.000000
 20
-196.175003
 40
2.500000
  0
CIRCLE
  8
0
  6
CONTINUOUS
 62
7
 10
163.000000
 20
-196.175003
 40
2.100000
  0
CIRCLE
  8
0
  6
CONTINUOUS
 62
7
 10
239.000000
 20
-196.175003
 40
2.100000
  0
CIRCLE
  8
0
  6
CONTINUOUS
 62
2
 10
239.000000
 20
-220.175003
 40
2.500000
  0
CIRCLE
  8
0
  6
CONTINUOUS
 62
7
 10
239.000000
 20
-220.175003
 40
2.100000
  0
CIRCLE
  8
0
  6
CONTINUOUS
 62
2
 10
239.000000
 20
-196.175003
 40
2.500000
  0
CIRCLE
  8
0
  6
CONTINUOUS
 62
7
 10
246.000000
 20
-203.675003
 40
5.900000
  0
CIRCLE
  8
0
  6
CONTINUOUS
 62
7
 10
156.000000
 20
-203.675003
 40
5.900000
  0
CIRCLE
  8
0
  6
DASHED
 62
2
 10
239.000000
 20
-95.175003
 40
2.500000
  0
CIRCLE
  8
0
  6
DASHED
 62
2
 10
239.000000
 20
-95.175003
 40
2.100000
  0
CIRCLE
  8
0
  6
DASHED
 62
2
 10
239.000000
 20
-95.175003
 40
4.000000
  0
CIRCLE
  8
0
  6
DASHED
 62
2
 10
239.000000
 20
-119.175003
 40
4.000000
  0
CIRCLE
  8
0
  6
DASHED
 62
2
 10
239.000000
 20
-119.175003
 40
2.500000
  0
CIRCLE
  8
0
  6
DASHED
 62
2
 10
239.000000
 20
-119.175003
 40
2.100000
  0
CIRCLE
  8
0
  6
CONTINUOUS
 62
7
 10
193.500000
 20
-119.675003
 40
1.200000
  0
CIRCLE
  8
0
  6
CONTINUOUS
 62
2
 10
193.500000
 20
-119.675003
 40
1.500000
  0
CIRCLE
  8
0
  6
CONTINUOUS
 62
7
 10
193.500000
 20
-94.675003
 40
1.200000
  0
CIRCLE
  8
0
  6
CONTINUOUS
 62
2
 10
193.500000
 20
-94.675003
 40
1.500000
  0
ARC
  8
0
  6
CONTINUOUS
 62
7
 10
-184.000000
 20
-163.175003
 40
4.800000
 50
123.556999
 51
180.000000
  0
ARC
  8
0
  6
CONTINUOUS
 62
7
 10
-248.000000
 20
-163.175003
 40
4.800000
 50
0.000000
 51
56.442600
  0
ARC
  8
0
  6
CONTINUOUS
 62
7
 10
-199.000000
 20
-156.675003
 40
2.000000
 50
270.000000
 51
0.000000
  0
ARC
  8
0
  6
CONTINUOUS
 62
7
 10
-233.000000
 20
-156.675003
 40
2.000000
 50
180.000000
 51
270.000000
  0
ARC
  8
0
  6
CONTINUOUS
 62
7
 10
118.000000
 20
-153.175003
 40
4.250000
 50
319.750000
 51
340.250000
  0
ARC
  8
0
  6
CONTINUOUS
 62
7
 10
118.000000
 20
-153.175003
 40
4.250000
 50
19.749901
 51
40.250599
  0
CIRCLE
  8
0
  6
CONTINUOUS
 62
7
 10
96.500000
 20
-160.675003
 40
6.400000
  0
ARC
  8
0
  6
CONTINUOUS
 62
7
 10
104.800003
 20
-154.175003
 40
1.700010
 50
118.071999
 51
241.925995
  0
ARC
  8
0
  6
CONTINUOUS
 62
7
 10
88.199997
 20
-154.175003
 40
1.699990
 50
298.071014
 51
61.925098
  0
CIRCLE
  8
0
  6
CONTINUOUS
 62
2
 10
86.500000
 20
-163.175003
 40
1.500000
  0
CIRCLE
  8
0
  6
CONTINUOUS
 62
7
 10
86.500000
 20
-163.175003
 40
1.250000
  0
ARC
  8
0
  6
CONTINUOUS
 62
7
 10
118.000000
 20
-153.175003
 40
4.250000
 50
199.750000
 51
220.251007
  0
ARC
  8
0
  6
CONTINUOUS
 62
7
 10
118.000000
 20
-153.175003
 40
4.250000
 50
259.750000
 51
280.251007
  0
CIRCLE
  8
0
  6
CONTINUOUS
 62
7
 10
118.000000
 20
-153.175003
 40
3.000000
  0
ARC
  8
0
  6
CONTINUOUS
 62
7
 10
118.000000
 20
-153.175003
 40
4.250000
 50
139.750000
 51
160.251007
  0
ARC
  8
0
  6
CONTINUOUS
 62
7
 10
118.000000
 20
-153.175003
 40
4.250000
 50
79.750099
 51
100.250999
  0
ARC
  8
0
  6
CONTINUOUS
 62
7
 10
284.000000
 20
-153.175003
 40
4.249990
 50
79.749603
 51
100.250000
  0
ARC
  8
0
  6
CONTINUOUS
 62
7
 10
284.000000
 20
-153.175003
 40
4.250000
 50
139.748993
 51
160.250000
  0
ARC
  8
0
  6
CONTINUOUS
 62
7
 10
284.000000
 20
-153.175003
 40
4.249990
 50
199.750000
 51
220.250000
  0
CIRCLE
  8
0
  6
CONTINUOUS
 62
7
 10
305.500000
 20
-160.675003
 40
6.400000
  0
ARC
  8
0
  6
CONTINUOUS
 62
7
 10
297.200012
 20
-154.175003
 40
1.700010
 50
298.074005
 51
61.928101
  0
ARC
  8
0
  6
CONTINUOUS
 62
7
 10
313.799988
 20
-154.175003
 40
1.699980
 50
118.074997
 51
241.929001
  0
CIRCLE
  8
0
  6
CONTINUOUS
 62
2
 10
315.500000
 20
-163.175003
 40
1.500000
  0
CIRCLE
  8
0
  6
CONTINUOUS
 62
7
 10
315.500000
 20
-163.175003
 40
1.250000
  0
ARC
  8
0
  6
CONTINUOUS
 62
7
 10
284.000000
 20
-153.175003
 40
4.250000
 50
319.748993
 51
340.250000
  0
ARC
  8
0
  6
CONTINUOUS
 62
7
 10
284.000000
 20
-153.175003
 40
4.249990
 50
259.750000
 51
280.250000
  0
CIRCLE
  8
0
  6
CONTINUOUS
 62
7
 10
284.000000
 20
-153.175003
 40
3.000000
  0
ARC
  8
0
  6
CONTINUOUS
 62
7
 10
284.000000
 20
-153.175003
 40
4.249990
 50
19.749599
 51
40.250000
  0
ARC
  8
0
  6
CONTINUOUS
 62
7
 10
248.000000
 20
-163.175003
 40
4.800000
 50
123.556999
 51
180.000000
  0
ARC
  8
0
  6
CONTINUOUS
 62
7
 10
154.000000
 20
-163.175003
 40
4.800000
 50
0.000000
 51
56.442600
  0
ARC
  8
0
  6
CONTINUOUS
 62
7
 10
223.000000
 20
-156.675003
 40
2.000000
 50
270.000000
 51
0.000000
  0
ARC
  8
0
  6
CONTINUOUS
 62
2
 10
74.800003
 20
-151.824997
 40
1.500000
 50
270.000000
 51
0.000000
  0
ARC
  8
0
  6
CONTINUOUS
 62
2
 10
74.800003
 20
-150.524994
 40
1.500000
 50
0.000000
 51
90.000000
  0
ARC
  8
0
  6
CONTINUOUS
 62
2
 10
327.200012
 20
-151.824997
 40
1.500000
 50
180.000000
 51
270.000000
  0
ARC
  8
0
  6
CONTINUOUS
 62
2
 10
327.200012
 20
-150.524994
 40
1.500000
 50
90.000000
 51
180.000000
  0
ARC
  8
0
  6
CONTINUOUS
 62
7
 10
-184.000000
 20
-51.174999
 40
4.800000
 50
180.000000
 51
236.442993
  0
ARC
  8
0
  6
CONTINUOUS
 62
7
 10
-248.000000
 20
-51.174999
 40
4.800000
 50
303.557007
 51
0.000000
  0
ARC
  8
0
  6
CONTINUOUS
 62
2
 10
-327.200012
 20
-150.524994
 40
1.500000
 50
0.000000
 51
90.000000
  0
ARC
  8
0
  6
CONTINUOUS
 62
7
 10
-284.000000
 20
-153.175003
 40
4.250010
 50
319.750000
 51
340.250000
  0
ARC
  8
0
  6
CONTINUOUS
 62
7
 10
-284.000000
 20
-153.175003
 40
4.250000
 50
19.749901
 51
40.250599
  0
CIRCLE
  8
0
  6
CONTINUOUS
 62
7
 10
-305.500000
 20
-160.675003
 40
6.400000
  0
ARC
  8
0
  6
CONTINUOUS
 62
7
 10
-297.200012
 20
-154.175003
 40
1.700010
 50
118.071999
 51
241.925995
  0
ARC
  8
0
  6
CONTINUOUS
 62
7
 10
-313.799988
 20
-154.175003
 40
1.699990
 50
298.071014
 51
61.925301
  0
CIRCLE
  8
0
  6
CONTINUOUS
 62
2
 10
-315.500000
 20
-163.175003
 40
1.500000
  0
CIRCLE
  8
0
  6
CONTINUOUS
 62
7
 10
-315.500000
 20
-163.175003
 40
1.250000
  0
ARC
  8
0
  6
CONTINUOUS
 62
7
 10
-284.000000
 20
-153.175003
 40
4.250000
 50
199.750000
 51
220.251007
  0
ARC
  8
0
  6
CONTINUOUS
 62
7
 10
-284.000000
 20
-153.175003
 40
4.250000
 50
259.750000
 51
280.250000
  0
CIRCLE
  8
0
  6
CONTINUOUS
 62
7
 10
-284.000000
 20
-153.175003
 40
3.000000
  0
ARC
  8
0
  6
CONTINUOUS
 62
7
 10
-284.000000
 20
-153.175003
 40
4.250010
 50
139.750000
 51
160.250000
  0
ARC
  8
0
  6
CONTINUOUS
 62
7
 10
-284.000000
 20
-153.175003
 40
4.250000
 50
79.750099
 51
100.250000
  0
ARC
  8
0
  6
CONTINUOUS
 62
2
 10
-327.200012
 20
-151.824997
 40
1.500000
 50
270.000000
 51
0.000000
  0
ARC
  8
0
  6
CONTINUOUS
 62
7
 10
-148.000000
 20
-153.175003
 40
4.249990
 50
79.749397
 51
100.250000
  0
ARC
  8
0
  6
CONTINUOUS
 62
7
 10
-148.000000
 20
-153.175003
 40
4.250000
 50
139.748993
 51
160.250000
  0
ARC
  8
0
  6
CONTINUOUS
 62
7
 10
-148.000000
 20
-153.175003
 40
4.250000
 50
199.748993
 51
220.250000
  0
CIRCLE
  8
0
  6
CONTINUOUS
 62
7
 10
-126.500000
 20
-160.675003
 40
6.400000
  0
ARC
  8
0
  6
CONTINUOUS
 62
7
 10
-134.800003
 20
-154.175003
 40
1.700000
 50
298.074005
 51
61.928101
  0
ARC
  8
0
  6
CONTINUOUS
 62
7
 10
-118.199997
 20
-154.175003
 40
1.699990
 50
118.074997
 51
241.929001
  0
CIRCLE
  8
0
  6
CONTINUOUS
 62
2
 10
-116.500000
 20
-163.175003
 40
1.500000
  0
CIRCLE
  8
0
  6
CONTINUOUS
 62
7
 10
-116.500000
 20
-163.175003
 40
1.250000
  0
ARC
  8
0
  6
CONTINUOUS
 62
7
 10
-148.000000
 20
-153.175003
 40
4.250000
 50
319.748993
 51
340.250000
  0
ARC
  8
0
  6
CONTINUOUS
 62
7
 10
-148.000000
 20
-153.175003
 40
4.249990
 50
259.748993
 51
280.250000
  0
CIRCLE
  8
0
  6
CONTINUOUS
 62
7
 10
-148.000000
 20
-153.175003
 40
3.000000
  0
ARC
  8
0
  6
CONTINUOUS
 62
7
 10
-148.000000
 20
-153.175003
 40
4.250000
 50
19.749500
 51
40.250000
  0
ARC
  8
0
  6
CONTINUOUS
 62
2
 10
-104.800003
 20
-151.824997
 40
1.500000
 50
180.000000
 51
270.000000
  0
ARC
  8
0
  6
CONTINUOUS
 62
2
 10
-104.800003
 20
-150.524994
 40
1.500000
 50
90.000000
 51
180.000000
  0
ARC
  8
0
  6
CONTINUOUS
 62
7
 10
154.000000
 20
-51.174999
 40
4.800000
 50
303.557007
 51
0.000000
  0
ARC
  8
0
  6
CONTINUOUS
 62
7
 10
248.000000
 20
-51.174999
 40
4.800000
 50
180.000000
 51
236.442993
  0
ARC
  8
0
  6
CONTINUOUS
 62
7
 10
248.000000
 20
87.574997
 40
4.800000
 50
123.556999
 51
180.000000
  0
ARC
  8
0
  6
CONTINUOUS
 62
7
 10
154.000000
 20
87.574997
 40
4.800000
 50
0.000000
 51
56.442600
  0
ARC
  8
0
  6
CONTINUOUS
 62
7
 10
179.000000
 20
193.074997
 40
2.000000
 50
90.000000
 51
180.000000
  0
CIRCLE
  8
0
  6
CONTINUOUS
 62
2
 10
-198.500000
 20
156.074997
 40
1.500000
  0
CIRCLE
  8
0
  6
CONTINUOUS
 62
7
 10
-198.500000
 20
156.074997
 40
1.200000
  0
CIRCLE
  8
0
  6
CONTINUOUS
 62
2
 10
-198.500000
 20
131.074997
 40
1.500000
  0
CIRCLE
  8
0
  6
CONTINUOUS
 62
7
 10
-198.500000
 20
131.074997
 40
1.200000
  0
CIRCLE
  8
0
  6
CONTINUOUS
 62
7
 10
-239.000000
 20
155.574997
 40
4.000000
  0
CIRCLE
  8
0
  6
CONTINUOUS
 62
2
 10
-239.000000
 20
155.574997
 40
2.500000
  0
CIRCLE
  8
0
  6
CONTINUOUS
 62
7
 10
-239.000000
 20
155.574997
 40
2.100000
  0
CIRCLE
  8
0
  6
CONTINUOUS
 62
7
 10
-239.000000
 20
131.574997
 40
4.000000
  0
CIRCLE
  8
0
  6
CONTINUOUS
 62
2
 10
-239.000000
 20
131.574997
 40
2.500000
  0
CIRCLE
  8
0
  6
CONTINUOUS
 62
7
 10
-239.000000
 20
131.574997
 40
2.100000
  0
CIRCLE
  8
0
  6
CONTINUOUS
 62
2
 10
-239.000000
 20
30.575001
 40
2.500000
  0
CIRCLE
  8
0
  6
CONTINUOUS
 62
7
 10
-239.000000
 20
30.575001
 40
2.100000
  0
CIRCLE
  8
0
  6
CONTINUOUS
 62
2
 10
-239.000000
 20
54.575001
 40
2.500000
  0
CIRCLE
  8
0
  6
CONTINUOUS
 62
7
 10
-239.000000
 20
54.575001
 40
2.100000
  0
CIRCLE
  8
0
  6
CONTINUOUS
 62
7
 10
-193.000000
 20
54.575001
 40
2.100000
  0
CIRCLE
  8
0
  6
CONTINUOUS
 62
2
 10
-193.000000
 20
30.575001
 40
2.500000
  0
CIRCLE
  8
0
  6
CONTINUOUS
 62
7
 10
-193.000000
 20
30.575001
 40
2.100000
  0
CIRCLE
  8
0
  6
CONTINUOUS
 62
2
 10
-193.000000
 20
54.575001
 40
2.500000
  0
CIRCLE
  8
0
  6
CONTINUOUS
 62
7
 10
-186.000000
 20
47.075001
 40
5.900000
  0
CIRCLE
  8
0
  6
CONTINUOUS
 62
7
 10
-246.000000
 20
47.075001
 40
5.900000
  0
ARC
  8
0
  6
DASHED
 62
2
 10
-193.000000
 20
131.574997
 40
2.500000
 50
216.869995
 51
143.130005
  0
CIRCLE
  8
0
  6
DASHED
 62
2
 10
-193.000000
 20
131.574997
 40
2.100000
  0
CIRCLE
  8
0
  6
DASHED
 62
2
 10
-193.000000
 20
131.574997
 40
4.000000
  0
CIRCLE
  8
0
  6
DASHED
 62
2
 10
-193.000000
 20
155.574997
 40
4.000000
  0
CIRCLE
  8
0
  6
DASHED
 62
2
 10
-193.000000
 20
155.574997
 40
2.500000
  0
CIRCLE
  8
0
  6
DASHED
 62
2
 10
-193.000000
 20
155.574997
 40
2.100000
  0
CIRCLE
  8
0
  6
CONTINUOUS
 62
7
 10
-218.500000
 20
156.074997
 40
1.200000
  0
CIRCLE
  8
0
  6
CONTINUOUS
 62
2
 10
-218.500000
 20
156.074997
 40
1.500000
  0
CIRCLE
  8
0
  6
CONTINUOUS
 62
7
 10
-218.500000
 20
131.074997
 40
1.200000
  0
CIRCLE
  8
0
  6
CONTINUOUS
 62
2
 10
-218.500000
 20
131.074997
 40
1.500000
  0
CIRCLE
  8
0
  6
CONTINUOUS
 62
2
 10
213.500000
 20
156.074997
 40
1.500000
  0
CIRCLE
  8
0
  6
CONTINUOUS
 62
7
 10
213.500000
 20
156.074997
 40
1.200000
  0
CIRCLE
  8
0
  6
CONTINUOUS
 62
2
 10
213.500000
 20
131.074997
 40
1.500000
  0
CIRCLE
  8
0
  6
CONTINUOUS
 62
7
 10
213.500000
 20
131.074997
 40
1.200000
  0
CIRCLE
  8
0
  6
CONTINUOUS
 62
2
 10
233.500000
 20
156.074997
 40
1.500000
  0
CIRCLE
  8
0
  6
CONTINUOUS
 62
7
 10
233.500000
 20
156.074997
 40
1.200000
  0
CIRCLE
  8
0
  6
CONTINUOUS
 62
2
 10
233.500000
 20
131.074997
 40
1.500000
  0
CIRCLE
  8
0
  6
CONTINUOUS
 62
7
 10
233.500000
 20
131.074997
 40
1.200000
  0
CIRCLE
  8
0
  6
CONTINUOUS
 62
7
 10
163.000000
 20
155.574997
 40
4.000000
  0
CIRCLE
  8
0
  6
CONTINUOUS
 62
2
 10
163.000000
 20
155.574997
 40
2.500000
  0
CIRCLE
  8
0
  6
CONTINUOUS
 62
7
 10
163.000000
 20
155.574997
 40
2.100000
  0
CIRCLE
  8
0
  6
CONTINUOUS
 62
7
 10
163.000000
 20
131.574997
 40
4.000000
  0
CIRCLE
  8
0
  6
CONTINUOUS
 62
2
 10
163.000000
 20
131.574997
 40
2.500000
  0
CIRCLE
  8
0
  6
CONTINUOUS
 62
7
 10
163.000000
 20
131.574997
 40
2.100000
  0
CIRCLE
  8
0
  6
CONTINUOUS
 62
2
 10
163.000000
 20
30.575001
 40
2.500000
  0
CIRCLE
  8
0
  6
CONTINUOUS
 62
7
 10
163.000000
 20
30.575001
 40
2.100000
  0
CIRCLE
  8
0
  6
CONTINUOUS
 62
2
 10
163.000000
 20
54.575001
 40
2.500000
  0
CIRCLE
  8
0
  6
CONTINUOUS
 62
7
 10
163.000000
 20
54.575001
 40
2.100000
  0
CIRCLE
  8
0
  6
CONTINUOUS
 62
7
 10
239.000000
 20
54.575001
 40
2.100000
  0
CIRCLE
  8
0
  6
CONTINUOUS
 62
2
 10
239.000000
 20
30.575001
 40
2.500000
  0
CIRCLE
  8
0
  6
CONTINUOUS
 62
7
 10
239.000000
 20
30.575001
 40
2.100000
  0
CIRCLE
  8
0
  6
CONTINUOUS
 62
2
 10
239.000000
 20
54.575001
 40
2.500000
  0
CIRCLE
  8
0
  6
CONTINUOUS
 62
7
 10
246.000000
 20
47.075001
 40
5.900000
  0
CIRCLE
  8
0
  6
CONTINUOUS
 62
7
 10
156.000000
 20
47.075001
 40
5.900000
  0
CIRCLE
  8
0
  6
DASHED
 62
2
 10
239.000000
 20
131.574997
 40
2.500000
  0
CIRCLE
  8
0
  6
DASHED
 62
2
 10
239.000000
 20
131.574997
 40
2.100000
  0
CIRCLE
  8
0
  6
DASHED
 62
2
 10
239.000000
 20
131.574997
 40
4.000000
  0
CIRCLE
  8
0
  6
DASHED
 62
2
 10
239.000000
 20
155.574997
 40
4.000000
  0
CIRCLE
  8
0
  6
DASHED
 62
2
 10
239.000000
 20
155.574997
 40
2.500000
  0
CIRCLE
  8
0
  6
DASHED
 62
2
 10
239.000000
 20
155.574997
 40
2.100000
  0
CIRCLE
  8
0
  6
CONTINUOUS
 62
7
 10
193.500000
 20
156.074997
 40
1.200000
  0
CIRCLE
  8
0
  6
CONTINUOUS
 62
2
 10
193.500000
 20
156.074997
 40
1.500000
  0
CIRCLE
  8
0
  6
CONTINUOUS
 62
7
 10
193.500000
 20
131.074997
 40
1.200000
  0
CIRCLE
  8
0
  6
CONTINUOUS
 62
2
 10
193.500000
 20
131.074997
 40
1.500000
  0
ARC
  8
0
  6
CONTINUOUS
 62
7
 10
-184.000000
 20
199.574997
 40
4.800000
 50
180.000000
 51
236.442993
  0
ARC
  8
0
  6
CONTINUOUS
 62
7
 10
-248.000000
 20
199.574997
 40
4.800000
 50
303.557007
 51
0.000000
  0
ARC
  8
0
  6
CONTINUOUS
 62
7
 10
-199.000000
 20
193.074997
 40
2.000000
 50
0.000000
 51
90.000000
  0
ARC
  8
0
  6
CONTINUOUS
 62
7
 10
-233.000000
 20
193.074997
 40
2.000000
 50
90.000000
 51
180.000000
  0
ARC
  8
0
  6
CONTINUOUS
 62
7
 10
75.000000
 20
97.574997
 40
4.250000
 50
199.748993
 51
220.250000
  0
ARC
  8
0
  6
CONTINUOUS
 62
7
 10
75.000000
 20
97.574997
 40
4.250000
 50
139.750000
 51
160.250000
  0
CIRCLE
  8
0
  6
CONTINUOUS
 62
7
 10
96.500000
 20
90.074997
 40
6.400000
  0
ARC
  8
0
  6
CONTINUOUS
 62
7
 10
104.800003
 20
96.574997
 40
1.700010
 50
118.071999
 51
241.925995
  0
ARC
  8
0
  6
CONTINUOUS
 62
7
 10
88.199997
 20
96.574997
 40
1.699990
 50
298.071014
 51
61.925201
  0
CIRCLE
  8
0
  6
CONTINUOUS
 62
2
 10
86.500000
 20
87.574997
 40
1.500000
  0
CIRCLE
  8
0
  6
CONTINUOUS
 62
7
 10
86.500000
 20
87.574997
 40
1.250000
  0
ARC
  8
0
  6
CONTINUOUS
 62
7
 10
75.000000
 20
97.574997
 40
4.250000
 50
319.748993
 51
340.250000
  0
ARC
  8
0
  6
CONTINUOUS
 62
7
 10
75.000000
 20
97.574997
 40
4.250000
 50
259.748993
 51
280.250000
  0
CIRCLE
  8
0
  6
CONTINUOUS
 62
7
 10
75.000000
 20
97.574997
 40
3.000000
  0
ARC
  8
0
  6
CONTINUOUS
 62
7
 10
75.000000
 20
97.574997
 40
4.250000
 50
19.749500
 51
40.250000
  0
ARC
  8
0
  6
CONTINUOUS
 62
7
 10
75.000000
 20
97.574997
 40
4.250000
 50
79.749397
 51
100.250000
  0
ARC
  8
0
  6
CONTINUOUS
 62
7
 10
327.000000
 20
97.574997
 40
4.250000
 50
79.750099
 51
100.250000
  0
ARC
  8
0
  6
CONTINUOUS
 62
7
 10
327.000000
 20
97.574997
 40
4.250000
 50
19.750000
 51
40.250500
  0
ARC
  8
0
  6
CONTINUOUS
 62
7
 10
327.000000
 20
97.574997
 40
4.250000
 50
319.750000
 51
340.250000
  0
CIRCLE
  8
0
  6
CONTINUOUS
 62
7
 10
305.500000
 20
90.074997
 40
6.400000
  0
ARC
  8
0
  6
CONTINUOUS
 62
7
 10
297.200012
 20
96.574997
 40
1.700020
 50
298.074005
 51
61.928101
  0
ARC
  8
0
  6
CONTINUOUS
 62
7
 10
313.799988
 20
96.574997
 40
1.699990
 50
118.074997
 51
241.929001
  0
CIRCLE
  8
0
  6
CONTINUOUS
 62
2
 10
315.500000
 20
87.574997
 40
1.500000
  0
CIRCLE
  8
0
  6
CONTINUOUS
 62
7
 10
315.500000
 20
87.574997
 40
1.250000
  0
ARC
  8
0
  6
CONTINUOUS
 62
7
 10
327.000000
 20
97.574997
 40
4.250000
 50
199.750000
 51
220.250000
  0
ARC
  8
0
  6
CONTINUOUS
 62
7
 10
327.000000
 20
97.574997
 40
4.250000
 50
259.750000
 51
280.250000
  0
CIRCLE
  8
0
  6
CONTINUOUS
 62
7
 10
327.000000
 20
97.574997
 40
3.000000
  0
ARC
  8
0
  6
CONTINUOUS
 62
7
 10
327.000000
 20
97.574997
 40
4.250000
 50
139.750000
 51
160.250000
  0
ARC
  8
0
  6
CONTINUOUS
 62
7
 10
248.000000
 20
199.574997
 40
4.800000
 50
180.000000
 51
236.442993
  0
ARC
  8
0
  6
CONTINUOUS
 62
7
 10
154.000000
 20
199.574997
 40
4.800000
 50
303.557007
 51
0.000000
  0
ARC
  8
0
  6
CONTINUOUS
 62
7
 10
223.000000
 20
193.074997
 40
2.000000
 50
0.000000
 51
90.000000
  0
ARC
  8
0
  6
CONTINUOUS
 62
2
 10
118.199997
 20
98.925003
 40
1.500000
 50
180.000000
 51
270.000000
  0
ARC
  8
0
  6
CONTINUOUS
 62
2
 10
118.199997
 20
100.224998
 40
1.500000
 50
90.000000
 51
180.000000
  0
ARC
  8
0
  6
CONTINUOUS
 62
2
 10
283.799988
 20
98.925003
 40
1.500000
 50
270.000000
 51
0.000000
  0
ARC
  8
0
  6
CONTINUOUS
 62
2
 10
283.799988
 20
100.224998
 40
1.500000
 50
0.000000
 51
90.000000
  0
ARC
  8
0
  6
CONTINUOUS
 62
7
 10
-184.000000
 20
87.574997
 40
4.800000
 50
123.556999
 51
180.000000
  0
ARC
  8
0
  6
CONTINUOUS
 62
7
 10
-248.000000
 20
87.574997
 40
4.800000
 50
0.000000
 51
56.442600
  0
ARC
  8
0
  6
CONTINUOUS
 62
2
 10
-283.799988
 20
100.224998
 40
1.500000
 50
90.000000
 51
180.000000
  0
ARC
  8
0
  6
CONTINUOUS
 62
7
 10
-327.000000
 20
97.574997
 40
4.249990
 50
199.750000
 51
220.250000
  0
ARC
  8
0
  6
CONTINUOUS
 62
7
 10
-327.000000
 20
97.574997
 40
4.250000
 50
139.750000
 51
160.250000
  0
CIRCLE
  8
0
  6
CONTINUOUS
 62
7
 10
-305.500000
 20
90.074997
 40
6.400000
  0
ARC
  8
0
  6
CONTINUOUS
 62
7
 10
-297.200012
 20
96.574997
 40
1.700010
 50
118.071999
 51
241.925995
  0
ARC
  8
0
  6
CONTINUOUS
 62
7
 10
-313.799988
 20
96.574997
 40
1.699990
 50
298.071014
 51
61.925499
  0
CIRCLE
  8
0
  6
CONTINUOUS
 62
2
 10
-315.500000
 20
87.574997
 40
1.500000
  0
CIRCLE
  8
0
  6
CONTINUOUS
 62
7
 10
-315.500000
 20
87.574997
 40
1.250000
  0
ARC
  8
0
  6
CONTINUOUS
 62
7
 10
-327.000000
 20
97.574997
 40
4.250000
 50
319.748993
 51
340.250000
  0
ARC
  8
0
  6
CONTINUOUS
 62
7
 10
-327.000000
 20
97.574997
 40
4.250000
 50
259.750000
 51
280.250000
  0
CIRCLE
  8
0
  6
CONTINUOUS
 62
7
 10
-327.000000
 20
97.574997
 40
3.000000
  0
ARC
  8
0
  6
CONTINUOUS
 62
7
 10
-327.000000
 20
97.574997
 40
4.249990
 50
19.749599
 51
40.249901
  0
ARC
  8
0
  6
CONTINUOUS
 62
7
 10
-327.000000
 20
97.574997
 40
4.250000
 50
79.749603
 51
100.250000
  0
ARC
  8
0
  6
CONTINUOUS
 62
2
 10
-283.799988
 20
98.925003
 40
1.500000
 50
180.000000
 51
270.000000
  0
ARC
  8
0
  6
CONTINUOUS
 62
7
 10
-105.000000
 20
97.574997
 40
4.250000
 50
79.750099
 51
100.250999
  0
ARC
  8
0
  6
CONTINUOUS
 62
7
 10
-105.000000
 20
97.574997
 40
4.250000
 50
19.750000
 51
40.250500
  0
ARC
  8
0
  6
CONTINUOUS
 62
7
 10
-105.000000
 20
97.574997
 40
4.250000
 50
319.750000
 51
340.250000
  0
CIRCLE
  8
0
  6
CONTINUOUS
 62
7
 10
-126.500000
 20
90.074997
 40
6.400000
  0
ARC
  8
0
  6
CONTINUOUS
 62
7
 10
-134.800003
 20
96.574997
 40
1.700010
 50
298.074005
 51
61.928101
  0
ARC
  8
0
  6
CONTINUOUS
 62
7
 10
-118.199997
 20
96.574997
 40
1.699990
 50
118.074997
 51
241.929001
  0
CIRCLE
  8
0
  6
CONTINUOUS
 62
2
 10
-116.500000
 20
87.574997
 40
1.500000
  0
CIRCLE
  8
0
  6
CONTINUOUS
 62
7
 10
-116.500000
 20
87.574997
 40
1.250000
  0
ARC
  8
0
  6
CONTINUOUS
 62
7
 10
-105.000000
 20
97.574997
 40
4.250000
 50
199.750000
 51
220.250000
  0
ARC
  8
0
  6
CONTINUOUS
 62
7
 10
-105.000000
 20
97.574997
 40
4.250000
 50
259.750000
 51
280.251007
  0
CIRCLE
  8
0
  6
CONTINUOUS
 62
7
 10
-105.000000
 20
97.574997
 40
3.000000
  0
ARC
  8
0
  6
CONTINUOUS
 62
7
 10
-105.000000
 20
97.574997
 40
4.250000
 50
139.750000
 51
160.251007
  0
ARC
  8
0
  6
CONTINUOUS
 62
2
 10
-148.199997
 20
98.925003
 40
1.500000
 50
270.000000
 51
0.000000
  0
ARC
  8
0
  6
CONTINUOUS
 62
2
 10
-148.199997
 20
100.224998
 40
1.500000
 50
0.000000
 51
90.000000
  0
CIRCLE
  8
0
  6
CONTINUOUS
 62
7
 10
-248.000000
 20
87.574997
 40
2.100000
  0
CIRCLE
  8
0
  6
CONTINUOUS
 62
2
 10
-248.000000
 20
87.574997
 40
2.500000
  0
CIRCLE
  8
0
  6
CONTINUOUS
 62
7
 10
-184.000000
 20
87.574997
 40
2.100000
  0
CIRCLE
  8
0
  6
CONTINUOUS
 62
2
 10
-184.000000
 20
87.574997
 40
2.500000
  0
CIRCLE
  8
0
  6
CONTINUOUS
 62
7
 10
154.000000
 20
87.574997
 40
2.100000
  0
CIRCLE
  8
0
  6
CONTINUOUS
 62
2
 10
154.000000
 20
87.574997
 40
2.500000
  0
CIRCLE
  8
0
  6
CONTINUOUS
 62
7
 10
248.000000
 20
87.574997
 40
2.100000
  0
CIRCLE
  8
0
  6
CONTINUOUS
 62
2
 10
248.000000
 20
87.574997
 40
2.500000
  0
CIRCLE
  8
0
  6
CONTINUOUS
 62
7
 10
-248.000000
 20
-163.175003
 40
2.100000
  0
CIRCLE
  8
0
  6
CONTINUOUS
 62
2
 10
-248.000000
 20
-163.175003
 40
2.500000
  0
CIRCLE
  8
0
  6
CONTINUOUS
 62
7
 10
-184.000000
 20
-163.175003
 40
2.100000
  0
CIRCLE
  8
0
  6
CONTINUOUS
 62
2
 10
-184.000000
 20
-163.175003
 40
2.500000
  0
CIRCLE
  8
0
  6
CONTINUOUS
 62
7
 10
154.000000
 20
-163.175003
 40
2.100000
  0
CIRCLE
  8
0
  6
CONTINUOUS
 62
2
 10
154.000000
 20
-163.175003
 40
2.500000
  0
CIRCLE
  8
0
  6
CONTINUOUS
 62
7
 10
248.000000
 20
-163.175003
 40
2.100000
  0
CIRCLE
  8
0
  6
CONTINUOUS
 62
2
 10
248.000000
 20
-163.175003
 40
2.500000
  0
TEXT
  8
0
 62
7
 10
249.264832
 20
-267.375000
 40
12.500000
  1
KOGANEI CORP.
 50
0.000000
 41
0.771525
 51
0.000000
  7
STANDARD
  0
TEXT
  8
0
 62
7
 10
296.914673
 20
261.500000
 40
9.000000
  1
Ver1.0
 50
0.000000
 41
0.923193
 51
0.000000
  7
STANDARD
  0
TEXT
  8
0
 62
7
 10
-351.135315
 20
261.500000
 40
9.000000
  1
AP TABLE
 50
0.000000
 41
0.775607
 51
0.000000
  7
STANDARD
  0
TEXT
  8
0
 62
7
 10
15.774433
 20
-22.500000
 40
9.000000
  1
MODEL:APTS-GT12-25-TPQT-R***
 50
0.000000
 41
0.758337
 51
0.000000
  7
STANDARD
  0
TEXT
  8
0
 62
7
 10
-383.750580
 20
-22.500000
 40
9.000000
  1
MODEL:APTS-GT12-15-TPQT-R***
 50
0.000000
 41
0.768186
 51
0.000000
  7
STANDARD
  0
TEXT
  8
0
 62
7
 10
15.774433
 20
229.000000
 40
9.000000
  1
MODEL:APTS-SD12-25-TPQT-R***
 50
0.000000
 41
0.758337
 51
0.000000
  7
STANDARD
  0
TEXT
  8
0
 62
7
 10
-383.750580
 20
229.000000
 40
9.000000
  1
MODEL:APTS-SD12-15-TPQT-R***
 50
0.000000
 41
0.768186
 51
0.000000
  7
STANDARD
  0
ENDSEC
  0
EOF
