  0
SECTION
  2
HEADER
  0
ENDSEC
  0
SECTION
  2
TABLES
  0
TABLE
  2
LTYPE
 70
     4
  0
LTYPE
  2
CONTINUOUS
 70
    64
  3
Solid line
 72
    65
 73
     0
 40
0.000000
  0
LTYPE
  2
DASHED
 70
    64
  3
__ __ __ __ __ __ __ __ __ __ __ __ __ __ __
 72
    65
 73
     2
 40
3.500000
 49
2.000000
 49
-1.500000
  0
LTYPE
  2
CENTER
 70
    64
  3
____ _ ____ _ ____ _ ____ _ ____ _ ____ _ ____
 72
    65
 73
     4
 40
17.500000
 49
13.000000
 49
-1.500000
 49
1.500000
 49
-1.500000
  0
LTYPE
  2
PHANTOM
 70
    64
  3
_____ _ _ _____ _ _ _____ _ _ _____ _ _ ____  
 72
    65
 73
     6
 40
15.500000
 49
8.000000
 49
-1.500000
 49
1.500000
 49
-1.500000
 49
1.500000
 49
-1.500000
  0
ENDTAB
  0
TABLE
  2
LAYER
 70
     1
  0
LAYER
  2
0
 70
     0
 62
     7
  6
CONTINUOUS
  0
ENDTAB
  0
TABLE
  2
STYLE
 70
     1
  0
STYLE
  2
STANDARD
 70
     0
 40
0.000000
 41
1.000000
 50
0.000000
 71
     0
 42
0.200000
  3
txt
  4
BIGFONT
  0
ENDTAB
  0
TABLE
  2
VIEW
 70
     0
  0
ENDTAB
  0
ENDSEC
  0
SECTION
  2
BLOCKS
  0
ENDSEC
  0
SECTION
  2
ENTITIES
  0
LINE
  8
0
  6
CONTINUOUS
 62
7
 10
-281.250000
 20
195.500000
 11
282.100006
 21
195.500000
  0
LINE
  8
0
  6
CONTINUOUS
 62
7
 10
-281.250000
 20
195.500000
 11
-281.250000
 21
-195.000000
  0
LINE
  8
0
  6
CONTINUOUS
 62
7
 10
282.100006
 20
195.500000
 11
282.100006
 21
-195.000000
  0
LINE
  8
0
  6
CONTINUOUS
 62
7
 10
-281.250000
 20
-195.000000
 11
282.100006
 21
-195.000000
  0
LINE
  8
0
  6
CONTINUOUS
 62
7
 10
162.100006
 20
-175.000000
 11
162.100006
 21
-195.000000
  0
LINE
  8
0
  6
CONTINUOUS
 62
7
 10
162.100006
 20
-175.000000
 11
282.100006
 21
-175.000000
  0
LINE
  8
0
  6
CONTINUOUS
 62
7
 10
162.100006
 20
175.500000
 11
282.100006
 21
175.500000
  0
LINE
  8
0
  6
CONTINUOUS
 62
7
 10
-281.250000
 20
175.500000
 11
-161.250000
 21
175.500000
  0
LINE
  8
0
  6
CONTINUOUS
 62
7
 10
162.100006
 20
195.500000
 11
162.100006
 21
175.500000
  0
LINE
  8
0
  6
CONTINUOUS
 62
7
 10
-161.250000
 20
195.500000
 11
-161.250000
 21
175.500000
  0
LINE
  8
0
  6
CENTER
 62
2
 10
-100.000000
 20
25.250000
 11
-180.000000
 21
25.250000
  0
LINE
  8
0
  6
CONTINUOUS
 62
7
 10
-145.899994
 20
41.250000
 11
-145.899994
 21
9.250000
  0
LINE
  8
0
  6
CONTINUOUS
 62
7
 10
-119.099998
 20
41.250000
 11
-145.899994
 21
41.250000
  0
LINE
  8
0
  6
CONTINUOUS
 62
7
 10
-119.099998
 20
9.250000
 11
-145.899994
 21
9.250000
  0
LINE
  8
0
  6
CONTINUOUS
 62
7
 10
-119.099998
 20
41.250000
 11
-119.099998
 21
9.250000
  0
LINE
  8
0
  6
CONTINUOUS
 62
7
 10
-119.099998
 20
41.049999
 11
-111.500000
 21
41.049999
  0
LINE
  8
0
  6
CONTINUOUS
 62
7
 10
-111.500000
 20
41.049999
 11
-111.500000
 21
9.450000
  0
LINE
  8
0
  6
CONTINUOUS
 62
7
 10
-119.099998
 20
9.450000
 11
-111.500000
 21
9.450000
  0
LINE
  8
0
  6
CONTINUOUS
 62
7
 10
-178.000000
 20
32.750000
 11
-153.500000
 21
32.750000
  0
LINE
  8
0
  6
CONTINUOUS
 62
7
 10
-111.500000
 20
32.750000
 11
-102.000000
 21
32.750000
  0
LINE
  8
0
  6
CONTINUOUS
 62
7
 10
-178.000000
 20
17.750000
 11
-153.500000
 21
17.750000
  0
LINE
  8
0
  6
CONTINUOUS
 62
7
 10
-111.500000
 20
17.750000
 11
-102.000000
 21
17.750000
  0
LINE
  8
0
  6
CONTINUOUS
 62
7
 10
-119.099998
 20
16.250000
 11
-145.899994
 21
16.250000
  0
LINE
  8
0
  6
CONTINUOUS
 62
7
 10
-119.099998
 20
34.250000
 11
-145.899994
 21
34.250000
  0
LINE
  8
0
  6
CONTINUOUS
 62
7
 10
-178.000000
 20
8.750000
 11
-102.000000
 21
8.750000
  0
LINE
  8
0
  6
CONTINUOUS
 62
7
 10
-178.000000
 20
8.750000
 11
-178.000000
 21
41.750000
  0
LINE
  8
0
  6
CONTINUOUS
 62
7
 10
-102.000000
 20
8.750000
 11
-102.000000
 21
41.750000
  0
LINE
  8
0
  6
CENTER
 62
2
 10
-100.000000
 20
-84.750000
 11
-180.000000
 21
-84.750000
  0
LINE
  8
0
  6
CONTINUOUS
 62
7
 10
-178.000000
 20
-101.250000
 11
-102.000000
 21
-101.250000
  0
LINE
  8
0
  6
CONTINUOUS
 62
7
 10
-178.000000
 20
-68.250000
 11
-102.000000
 21
-68.250000
  0
LINE
  8
0
  6
CONTINUOUS
 62
7
 10
-178.000000
 20
-68.250000
 11
-178.000000
 21
-101.250000
  0
LINE
  8
0
  6
CONTINUOUS
 62
7
 10
-102.000000
 20
-68.250000
 11
-102.000000
 21
-101.250000
  0
LINE
  8
0
  6
CONTINUOUS
 62
7
 10
-153.500000
 20
41.049999
 11
-153.500000
 21
9.462500
  0
LINE
  8
0
  6
CONTINUOUS
 62
7
 10
-145.899994
 20
41.049999
 11
-153.500000
 21
41.049999
  0
LINE
  8
0
  6
CONTINUOUS
 62
7
 10
-145.899994
 20
9.450000
 11
-153.500000
 21
9.450000
  0
LINE
  8
0
  6
CENTER
 62
2
 10
-117.000000
 20
19.250000
 11
-117.000000
 21
7.250000
  0
LINE
  8
0
  6
CENTER
 62
2
 10
-123.000000
 20
13.250000
 11
-111.000000
 21
13.250000
  0
LINE
  8
0
  6
CENTER
 62
2
 10
-117.000000
 20
43.250000
 11
-117.000000
 21
31.250000
  0
LINE
  8
0
  6
CENTER
 62
2
 10
-123.000000
 20
37.250000
 11
-111.000000
 21
37.250000
  0
LINE
  8
0
  6
CENTER
 62
2
 10
-122.500000
 20
41.250000
 11
-122.500000
 21
34.250000
  0
LINE
  8
0
  6
CENTER
 62
2
 10
-126.000000
 20
37.750000
 11
-119.000000
 21
37.750000
  0
LINE
  8
0
  6
CENTER
 62
2
 10
-142.500000
 20
41.250000
 11
-142.500000
 21
34.250000
  0
LINE
  8
0
  6
CENTER
 62
2
 10
-146.000000
 20
37.750000
 11
-139.000000
 21
37.750000
  0
LINE
  8
0
  6
CENTER
 62
2
 10
-122.500000
 20
16.250000
 11
-122.500000
 21
9.250000
  0
LINE
  8
0
  6
CENTER
 62
2
 10
-126.000000
 20
12.750000
 11
-119.000000
 21
12.750000
  0
LINE
  8
0
  6
CENTER
 62
2
 10
-142.500000
 20
16.250000
 11
-142.500000
 21
9.250000
  0
LINE
  8
0
  6
CENTER
 62
2
 10
-146.000000
 20
12.750000
 11
-139.000000
 21
12.750000
  0
LINE
  8
0
  6
CENTER
 62
2
 10
-163.000000
 20
19.250000
 11
-163.000000
 21
7.250000
  0
LINE
  8
0
  6
CENTER
 62
2
 10
-169.000000
 20
13.250000
 11
-157.000000
 21
13.250000
  0
LINE
  8
0
  6
CENTER
 62
2
 10
-163.000000
 20
43.250000
 11
-163.000000
 21
31.250000
  0
LINE
  8
0
  6
CENTER
 62
2
 10
-169.000000
 20
37.250000
 11
-157.000000
 21
37.250000
  0
LINE
  8
0
  6
CENTER
 62
2
 10
-163.000000
 20
-68.250000
 11
-163.000000
 21
-77.250000
  0
LINE
  8
0
  6
CENTER
 62
2
 10
-167.500000
 20
-72.750000
 11
-158.500000
 21
-72.750000
  0
LINE
  8
0
  6
CENTER
 62
2
 10
-170.000000
 20
-72.349998
 11
-170.000000
 21
-88.150002
  0
LINE
  8
0
  6
CENTER
 62
2
 10
-177.899994
 20
-80.250000
 11
-162.100006
 21
-80.250000
  0
LINE
  8
0
  6
CENTER
 62
2
 10
-117.000000
 20
-68.250000
 11
-117.000000
 21
-77.250000
  0
LINE
  8
0
  6
CENTER
 62
2
 10
-121.500000
 20
-72.750000
 11
-112.500000
 21
-72.750000
  0
LINE
  8
0
  6
CENTER
 62
2
 10
-110.000000
 20
-72.349998
 11
-110.000000
 21
-88.150002
  0
LINE
  8
0
  6
CENTER
 62
2
 10
-117.900002
 20
-80.250000
 11
-102.099998
 21
-80.250000
  0
LINE
  8
0
  6
CENTER
 62
2
 10
-117.000000
 20
-92.250000
 11
-117.000000
 21
-101.250000
  0
LINE
  8
0
  6
CENTER
 62
2
 10
-121.500000
 20
-96.750000
 11
-112.500000
 21
-96.750000
  0
LINE
  8
0
  6
CENTER
 62
2
 10
-163.000000
 20
-92.250000
 11
-163.000000
 21
-101.250000
  0
LINE
  8
0
  6
CENTER
 62
2
 10
-167.500000
 20
-96.750000
 11
-158.500000
 21
-96.750000
  0
LINE
  8
0
  6
DASHED
 62
2
 10
-159.000000
 20
88.250000
 11
-159.000000
 21
89.250000
  0
LINE
  8
0
  6
DASHED
 62
2
 10
-159.000000
 20
89.250000
 11
-167.000000
 21
89.250000
  0
LINE
  8
0
  6
DASHED
 62
2
 10
-160.500000
 20
89.250000
 11
-160.500000
 21
93.750000
  0
LINE
  8
0
  6
DASHED
 62
2
 10
-160.899994
 20
89.250000
 11
-160.899994
 21
93.750000
  0
LINE
  8
0
  6
CENTER
 62
2
 10
-163.000000
 20
86.250000
 11
-163.000000
 21
95.750000
  0
LINE
  8
0
  6
DASHED
 62
2
 10
-165.100006
 20
89.250000
 11
-165.100006
 21
93.750000
  0
LINE
  8
0
  6
DASHED
 62
2
 10
-165.500000
 20
89.250000
 11
-165.500000
 21
93.750000
  0
LINE
  8
0
  6
DASHED
 62
2
 10
-167.000000
 20
88.250000
 11
-167.000000
 21
89.250000
  0
LINE
  8
0
  6
DASHED
 62
2
 10
-113.000000
 20
88.250000
 11
-113.000000
 21
89.250000
  0
LINE
  8
0
  6
DASHED
 62
2
 10
-113.000000
 20
89.250000
 11
-121.000000
 21
89.250000
  0
LINE
  8
0
  6
DASHED
 62
2
 10
-114.500000
 20
89.250000
 11
-114.500000
 21
93.750000
  0
LINE
  8
0
  6
DASHED
 62
2
 10
-114.900002
 20
89.250000
 11
-114.900002
 21
93.750000
  0
LINE
  8
0
  6
CENTER
 62
2
 10
-117.000000
 20
86.250000
 11
-117.000000
 21
95.750000
  0
LINE
  8
0
  6
DASHED
 62
2
 10
-119.099998
 20
89.250000
 11
-119.099998
 21
93.750000
  0
LINE
  8
0
  6
DASHED
 62
2
 10
-119.500000
 20
89.250000
 11
-119.500000
 21
93.750000
  0
LINE
  8
0
  6
DASHED
 62
2
 10
-121.000000
 20
88.250000
 11
-121.000000
 21
89.250000
  0
LINE
  8
0
  6
CENTER
 62
2
 10
196.000000
 20
25.250000
 11
86.000000
 21
25.250000
  0
LINE
  8
0
  6
CONTINUOUS
 62
7
 10
129.750000
 20
41.250000
 11
129.750000
 21
9.250000
  0
LINE
  8
0
  6
CONTINUOUS
 62
7
 10
177.250000
 20
41.250000
 11
129.750000
 21
41.250000
  0
LINE
  8
0
  6
CONTINUOUS
 62
7
 10
177.250000
 20
9.250000
 11
129.750000
 21
9.250000
  0
LINE
  8
0
  6
CONTINUOUS
 62
7
 10
177.250000
 20
41.250000
 11
177.250000
 21
9.250000
  0
LINE
  8
0
  6
CONTINUOUS
 62
7
 10
177.250000
 20
41.049999
 11
184.850006
 21
41.049999
  0
LINE
  8
0
  6
CONTINUOUS
 62
7
 10
184.850006
 20
41.049999
 11
184.850006
 21
9.450000
  0
LINE
  8
0
  6
CONTINUOUS
 62
7
 10
177.250000
 20
9.450000
 11
184.850006
 21
9.450000
  0
LINE
  8
0
  6
CONTINUOUS
 62
7
 10
88.000000
 20
32.750000
 11
122.150002
 21
32.750000
  0
LINE
  8
0
  6
CONTINUOUS
 62
7
 10
184.850006
 20
32.750000
 11
194.000000
 21
32.750000
  0
LINE
  8
0
  6
CONTINUOUS
 62
7
 10
88.000000
 20
17.750000
 11
122.150002
 21
17.750000
  0
LINE
  8
0
  6
CONTINUOUS
 62
7
 10
184.850006
 20
17.750000
 11
194.000000
 21
17.750000
  0
LINE
  8
0
  6
CONTINUOUS
 62
7
 10
177.250000
 20
16.250000
 11
129.750000
 21
16.250000
  0
LINE
  8
0
  6
CONTINUOUS
 62
7
 10
177.250000
 20
34.250000
 11
129.750000
 21
34.250000
  0
LINE
  8
0
  6
CONTINUOUS
 62
7
 10
88.000000
 20
41.750000
 11
143.500000
 21
41.750000
  0
LINE
  8
0
  6
CONTINUOUS
 62
7
 10
88.000000
 20
8.750000
 11
194.000000
 21
8.750000
  0
LINE
  8
0
  6
CONTINUOUS
 62
7
 10
88.000000
 20
8.750000
 11
88.000000
 21
41.750000
  0
LINE
  8
0
  6
CONTINUOUS
 62
7
 10
194.000000
 20
8.750000
 11
194.000000
 21
41.750000
  0
LINE
  8
0
  6
CENTER
 62
2
 10
196.000000
 20
-84.750000
 11
86.000000
 21
-84.750000
  0
LINE
  8
0
  6
CONTINUOUS
 62
7
 10
88.000000
 20
-101.250000
 11
194.000000
 21
-101.250000
  0
LINE
  8
0
  6
CONTINUOUS
 62
7
 10
88.000000
 20
-68.250000
 11
194.000000
 21
-68.250000
  0
LINE
  8
0
  6
CONTINUOUS
 62
7
 10
88.000000
 20
-68.250000
 11
88.000000
 21
-101.250000
  0
LINE
  8
0
  6
CONTINUOUS
 62
7
 10
194.000000
 20
-68.250000
 11
194.000000
 21
-101.250000
  0
LINE
  8
0
  6
CONTINUOUS
 62
7
 10
122.150002
 20
72.250000
 11
122.150002
 21
77.250000
  0
LINE
  8
0
  6
CONTINUOUS
 62
7
 10
129.750000
 20
71.750000
 11
129.750000
 21
83.750000
  0
LINE
  8
0
  6
CONTINUOUS
 62
7
 10
129.750000
 20
71.750000
 11
177.250000
 21
71.750000
  0
LINE
  8
0
  6
CONTINUOUS
 62
7
 10
122.150002
 20
83.750000
 11
169.500000
 21
83.750000
  0
LINE
  8
0
  6
CONTINUOUS
 62
7
 10
122.150002
 20
72.250000
 11
129.750000
 21
72.250000
  0
LINE
  8
0
  6
CONTINUOUS
 62
7
 10
118.500000
 20
76.750000
 11
122.150002
 21
76.750000
  0
LINE
  8
0
  6
CONTINUOUS
 62
7
 10
184.850006
 20
72.250000
 11
184.850006
 21
74.250000
  0
LINE
  8
0
  6
CONTINUOUS
 62
7
 10
177.250000
 20
71.750000
 11
177.250000
 21
72.250000
  0
LINE
  8
0
  6
CONTINUOUS
 62
7
 10
88.000000
 20
84.250000
 11
96.653297
 21
84.250000
  0
LINE
  8
0
  6
CONTINUOUS
 62
7
 10
88.000000
 20
93.750000
 11
194.000000
 21
93.750000
  0
LINE
  8
0
  6
CONTINUOUS
 62
7
 10
88.000000
 20
82.250000
 11
88.000000
 21
93.750000
  0
LINE
  8
0
  6
CONTINUOUS
 62
7
 10
194.000000
 20
82.250000
 11
194.000000
 21
93.750000
  0
LINE
  8
0
  6
CONTINUOUS
 62
7
 10
98.800003
 20
88.250000
 11
105.500000
 21
88.250000
  0
LINE
  8
0
  6
CONTINUOUS
 62
7
 10
183.199997
 20
88.250000
 11
176.500000
 21
88.250000
  0
LINE
  8
0
  6
CONTINUOUS
 62
7
 10
122.150002
 20
41.049999
 11
122.150002
 21
9.462500
  0
LINE
  8
0
  6
CONTINUOUS
 62
7
 10
129.750000
 20
9.450000
 11
122.150002
 21
9.450000
  0
LINE
  8
0
  6
CONTINUOUS
 62
7
 10
129.750000
 20
41.049999
 11
122.150002
 21
41.049999
  0
LINE
  8
0
  6
CONTINUOUS
 62
7
 10
185.347000
 20
84.250000
 11
194.000000
 21
84.250000
  0
LINE
  8
0
  6
CENTER
 62
2
 10
103.000000
 20
43.250000
 11
103.000000
 21
31.250000
  0
LINE
  8
0
  6
CENTER
 62
2
 10
97.000000
 20
37.250000
 11
109.000000
 21
37.250000
  0
LINE
  8
0
  6
CENTER
 62
2
 10
103.000000
 20
19.250000
 11
103.000000
 21
7.250000
  0
LINE
  8
0
  6
CENTER
 62
2
 10
97.000000
 20
13.250000
 11
109.000000
 21
13.250000
  0
LINE
  8
0
  6
CENTER
 62
2
 10
133.500000
 20
41.250000
 11
133.500000
 21
34.250000
  0
LINE
  8
0
  6
CENTER
 62
2
 10
130.000000
 20
37.750000
 11
137.000000
 21
37.750000
  0
LINE
  8
0
  6
CENTER
 62
2
 10
153.500000
 20
41.250000
 11
153.500000
 21
34.250000
  0
LINE
  8
0
  6
CENTER
 62
2
 10
150.000000
 20
37.750000
 11
157.000000
 21
37.750000
  0
LINE
  8
0
  6
CENTER
 62
2
 10
173.500000
 20
41.250000
 11
173.500000
 21
34.250000
  0
LINE
  8
0
  6
CENTER
 62
2
 10
170.000000
 20
37.750000
 11
177.000000
 21
37.750000
  0
LINE
  8
0
  6
CENTER
 62
2
 10
179.000000
 20
43.250000
 11
179.000000
 21
31.250000
  0
LINE
  8
0
  6
CENTER
 62
2
 10
173.000000
 20
37.250000
 11
185.000000
 21
37.250000
  0
LINE
  8
0
  6
CENTER
 62
2
 10
179.000000
 20
19.250000
 11
179.000000
 21
7.250000
  0
LINE
  8
0
  6
CENTER
 62
2
 10
173.000000
 20
13.250000
 11
185.000000
 21
13.250000
  0
LINE
  8
0
  6
CENTER
 62
2
 10
173.500000
 20
16.250000
 11
173.500000
 21
9.250000
  0
LINE
  8
0
  6
CENTER
 62
2
 10
170.000000
 20
12.750000
 11
177.000000
 21
12.750000
  0
LINE
  8
0
  6
CENTER
 62
2
 10
133.500000
 20
16.250000
 11
133.500000
 21
9.250000
  0
LINE
  8
0
  6
CENTER
 62
2
 10
130.000000
 20
12.750000
 11
137.000000
 21
12.750000
  0
LINE
  8
0
  6
CENTER
 62
2
 10
153.500000
 20
16.250000
 11
153.500000
 21
9.250000
  0
LINE
  8
0
  6
CENTER
 62
2
 10
150.000000
 20
12.750000
 11
157.000000
 21
12.750000
  0
LINE
  8
0
  6
CENTER
 62
2
 10
103.000000
 20
-68.250000
 11
103.000000
 21
-77.250000
  0
LINE
  8
0
  6
CENTER
 62
2
 10
98.500000
 20
-72.750000
 11
107.500000
 21
-72.750000
  0
LINE
  8
0
  6
CENTER
 62
2
 10
96.000000
 20
-72.349998
 11
96.000000
 21
-88.150002
  0
LINE
  8
0
  6
CENTER
 62
2
 10
88.099998
 20
-80.250000
 11
103.900002
 21
-80.250000
  0
LINE
  8
0
  6
CENTER
 62
2
 10
103.000000
 20
-92.250000
 11
103.000000
 21
-101.250000
  0
LINE
  8
0
  6
CENTER
 62
2
 10
98.500000
 20
-96.750000
 11
107.500000
 21
-96.750000
  0
LINE
  8
0
  6
CENTER
 62
2
 10
179.000000
 20
-68.250000
 11
179.000000
 21
-77.250000
  0
LINE
  8
0
  6
CENTER
 62
2
 10
174.500000
 20
-72.750000
 11
183.500000
 21
-72.750000
  0
LINE
  8
0
  6
CENTER
 62
2
 10
179.000000
 20
-92.250000
 11
179.000000
 21
-101.250000
  0
LINE
  8
0
  6
CENTER
 62
2
 10
174.500000
 20
-96.750000
 11
183.500000
 21
-96.750000
  0
LINE
  8
0
  6
CENTER
 62
2
 10
186.000000
 20
-72.349998
 11
186.000000
 21
-88.150002
  0
LINE
  8
0
  6
CENTER
 62
2
 10
178.100006
 20
-80.250000
 11
193.899994
 21
-80.250000
  0
LINE
  8
0
  6
DASHED
 62
2
 10
107.000000
 20
88.250000
 11
107.000000
 21
89.250000
  0
LINE
  8
0
  6
DASHED
 62
2
 10
107.000000
 20
89.250000
 11
99.000000
 21
89.250000
  0
LINE
  8
0
  6
DASHED
 62
2
 10
105.500000
 20
89.250000
 11
105.500000
 21
93.750000
  0
LINE
  8
0
  6
DASHED
 62
2
 10
105.099998
 20
89.250000
 11
105.099998
 21
93.750000
  0
LINE
  8
0
  6
CENTER
 62
2
 10
103.000000
 20
86.250000
 11
103.000000
 21
95.750000
  0
LINE
  8
0
  6
DASHED
 62
2
 10
100.900002
 20
89.250000
 11
100.900002
 21
93.750000
  0
LINE
  8
0
  6
DASHED
 62
2
 10
100.500000
 20
89.250000
 11
100.500000
 21
93.750000
  0
LINE
  8
0
  6
DASHED
 62
2
 10
99.000000
 20
88.250000
 11
99.000000
 21
89.250000
  0
LINE
  8
0
  6
DASHED
 62
2
 10
183.000000
 20
88.250000
 11
183.000000
 21
89.250000
  0
LINE
  8
0
  6
DASHED
 62
2
 10
183.000000
 20
89.250000
 11
175.000000
 21
89.250000
  0
LINE
  8
0
  6
DASHED
 62
2
 10
181.500000
 20
89.250000
 11
181.500000
 21
93.750000
  0
LINE
  8
0
  6
DASHED
 62
2
 10
181.100006
 20
89.250000
 11
181.100006
 21
93.750000
  0
LINE
  8
0
  6
CENTER
 62
2
 10
179.000000
 20
86.250000
 11
179.000000
 21
95.750000
  0
LINE
  8
0
  6
DASHED
 62
2
 10
176.899994
 20
89.250000
 11
176.899994
 21
93.750000
  0
LINE
  8
0
  6
DASHED
 62
2
 10
176.500000
 20
89.250000
 11
176.500000
 21
93.750000
  0
LINE
  8
0
  6
DASHED
 62
2
 10
175.000000
 20
88.250000
 11
175.000000
 21
89.250000
  0
LINE
  8
0
  6
CENTER
 62
2
 10
173.500000
 20
73.750000
 11
173.500000
 21
69.750000
  0
LINE
  8
0
  6
CENTER
 62
2
 10
153.500000
 20
73.750000
 11
153.500000
 21
69.750000
  0
LINE
  8
0
  6
CENTER
 62
2
 10
133.500000
 20
73.750000
 11
133.500000
 21
69.750000
  0
LINE
  8
0
  6
CONTINUOUS
 62
7
 10
-178.000000
 20
-26.750000
 11
-188.500000
 21
-26.750000
  0
LINE
  8
0
  6
CONTINUOUS
 62
7
 10
-102.500000
 20
-16.750000
 11
-110.500000
 21
-16.750000
  0
LINE
  8
0
  6
CONTINUOUS
 62
7
 10
-102.500000
 20
-20.352100
 11
-104.500000
 21
-20.352100
  0
LINE
  8
0
  6
CONTINUOUS
 62
7
 10
-102.500000
 20
-21.250000
 11
-102.500000
 21
-16.750000
  0
LINE
  8
0
  6
CONTINUOUS
 62
7
 10
-102.500000
 20
-19.185801
 11
-104.500000
 21
-19.185801
  0
LINE
  8
0
  6
CONTINUOUS
 62
7
 10
-90.500000
 20
-26.049999
 11
-90.500000
 21
-23.500000
  0
LINE
  8
0
  6
CONTINUOUS
 62
7
 10
-91.500000
 20
-26.049999
 11
-90.500000
 21
-26.049999
  0
LINE
  8
0
  6
CONTINUOUS
 62
7
 10
-91.500000
 20
-26.750000
 11
-91.500000
 21
-18.750000
  0
LINE
  8
0
  6
CONTINUOUS
 62
7
 10
-91.500000
 20
-23.500000
 11
-90.500000
 21
-23.500000
  0
LINE
  8
0
  6
CONTINUOUS
 62
7
 10
-91.500000
 20
-22.000000
 11
-90.500000
 21
-22.000000
  0
LINE
  8
0
  6
CONTINUOUS
 62
7
 10
-90.500000
 20
-22.000000
 11
-90.500000
 21
-19.450001
  0
LINE
  8
0
  6
CONTINUOUS
 62
7
 10
-91.500000
 20
-19.450001
 11
-90.500000
 21
-19.450001
  0
LINE
  8
0
  6
CONTINUOUS
 62
7
 10
-102.500000
 20
-18.750000
 11
-91.500000
 21
-18.750000
  0
LINE
  8
0
  6
CONTINUOUS
 62
2
 10
-102.500000
 20
-19.450001
 11
-91.500000
 21
-19.450001
  0
LINE
  8
0
  6
CONTINUOUS
 62
2
 10
-102.000000
 20
-26.049999
 11
-91.500000
 21
-26.049999
  0
LINE
  8
0
  6
CONTINUOUS
 62
7
 10
-102.000000
 20
-26.750000
 11
-91.500000
 21
-26.750000
  0
LINE
  8
0
  6
CONTINUOUS
 62
7
 10
-110.500000
 20
-21.250000
 11
-110.500000
 21
-16.750000
  0
LINE
  8
0
  6
CONTINUOUS
 62
7
 10
-111.500000
 20
-18.750000
 11
-110.500000
 21
-18.750000
  0
LINE
  8
0
  6
CONTINUOUS
 62
2
 10
-111.500000
 20
-19.450001
 11
-110.500000
 21
-19.450001
  0
LINE
  8
0
  6
CONTINUOUS
 62
2
 10
-177.500000
 20
-19.450001
 11
-188.500000
 21
-19.450001
  0
LINE
  8
0
  6
CONTINUOUS
 62
7
 10
-163.500000
 20
-18.750000
 11
-169.500000
 21
-18.750000
  0
LINE
  8
0
  6
CONTINUOUS
 62
2
 10
-178.000000
 20
-26.049999
 11
-188.500000
 21
-26.049999
  0
LINE
  8
0
  6
CONTINUOUS
 62
7
 10
-169.500000
 20
-21.250000
 11
-169.500000
 21
-16.750000
  0
LINE
  8
0
  6
CONTINUOUS
 62
7
 10
-169.500000
 20
-16.750000
 11
-177.500000
 21
-16.750000
  0
LINE
  8
0
  6
CONTINUOUS
 62
7
 10
-177.500000
 20
-16.750000
 11
-177.500000
 21
-21.250000
  0
LINE
  8
0
  6
CONTINUOUS
 62
7
 10
-177.500000
 20
-19.185801
 11
-175.500000
 21
-19.185801
  0
LINE
  8
0
  6
CONTINUOUS
 62
7
 10
-177.500000
 20
-20.352100
 11
-175.500000
 21
-20.352100
  0
LINE
  8
0
  6
CONTINUOUS
 62
7
 10
-177.500000
 20
-18.750000
 11
-188.500000
 21
-18.750000
  0
LINE
  8
0
  6
CONTINUOUS
 62
2
 10
-163.500000
 20
-19.450001
 11
-169.500000
 21
-19.450001
  0
LINE
  8
0
  6
CENTER
 62
2
 10
-89.500000
 20
-22.750000
 11
-104.000000
 21
-22.750000
  0
LINE
  8
0
  6
CONTINUOUS
 62
7
 10
-189.500000
 20
-19.450001
 11
-189.500000
 21
-22.000000
  0
LINE
  8
0
  6
CONTINUOUS
 62
7
 10
-188.500000
 20
-19.450001
 11
-189.500000
 21
-19.450001
  0
LINE
  8
0
  6
CONTINUOUS
 62
7
 10
-188.500000
 20
-18.750000
 11
-188.500000
 21
-26.750000
  0
LINE
  8
0
  6
CONTINUOUS
 62
7
 10
-188.500000
 20
-22.000000
 11
-189.500000
 21
-22.000000
  0
LINE
  8
0
  6
CONTINUOUS
 62
7
 10
-188.500000
 20
-23.500000
 11
-189.500000
 21
-23.500000
  0
LINE
  8
0
  6
CONTINUOUS
 62
7
 10
-189.500000
 20
-23.500000
 11
-189.500000
 21
-26.049999
  0
LINE
  8
0
  6
CONTINUOUS
 62
7
 10
-188.500000
 20
-26.049999
 11
-189.500000
 21
-26.049999
  0
LINE
  8
0
  6
CONTINUOUS
 62
7
 10
-163.500000
 20
-17.250000
 11
-163.500000
 21
-21.250000
  0
LINE
  8
0
  6
CONTINUOUS
 62
7
 10
-175.500000
 20
-21.250000
 11
-175.500000
 21
-16.750000
  0
LINE
  8
0
  6
CONTINUOUS
 62
7
 10
-104.500000
 20
-21.250000
 11
-104.500000
 21
-16.750000
  0
LINE
  8
0
  6
CENTER
 62
2
 10
-176.000000
 20
-22.750000
 11
-190.500000
 21
-22.750000
  0
LINE
  8
0
  6
CONTINUOUS
 62
7
 10
-104.500000
 20
-113.250000
 11
-175.500000
 21
-113.250000
  0
LINE
  8
0
  6
CONTINUOUS
 62
7
 10
-104.500000
 20
-113.250000
 11
-104.500000
 21
-101.250000
  0
LINE
  8
0
  6
CENTER
 62
2
 10
-89.500000
 20
-107.250000
 11
-106.346001
 21
-107.250000
  0
LINE
  8
0
  6
CONTINUOUS
 62
7
 10
-90.500000
 20
-110.550003
 11
-90.500000
 21
-103.949997
  0
LINE
  8
0
  6
CONTINUOUS
 62
7
 10
-91.500000
 20
-110.550003
 11
-90.500000
 21
-110.550003
  0
LINE
  8
0
  6
CONTINUOUS
 62
7
 10
-91.500000
 20
-111.250000
 11
-91.500000
 21
-103.250000
  0
LINE
  8
0
  6
CONTINUOUS
 62
7
 10
-91.500000
 20
-103.949997
 11
-90.500000
 21
-103.949997
  0
LINE
  8
0
  6
CONTINUOUS
 62
7
 10
-102.500000
 20
-103.250000
 11
-91.500000
 21
-103.250000
  0
LINE
  8
0
  6
CONTINUOUS
 62
2
 10
-102.500000
 20
-103.949997
 11
-91.500000
 21
-103.949997
  0
LINE
  8
0
  6
CONTINUOUS
 62
2
 10
-102.500000
 20
-110.550003
 11
-91.500000
 21
-110.550003
  0
LINE
  8
0
  6
CONTINUOUS
 62
7
 10
-102.500000
 20
-111.250000
 11
-91.500000
 21
-111.250000
  0
LINE
  8
0
  6
CONTINUOUS
 62
7
 10
-104.500000
 20
-101.750000
 11
-102.500000
 21
-101.750000
  0
LINE
  8
0
  6
CONTINUOUS
 62
7
 10
-102.500000
 20
-112.750000
 11
-102.500000
 21
-101.750000
  0
LINE
  8
0
  6
CONTINUOUS
 62
7
 10
-104.500000
 20
-112.750000
 11
-102.500000
 21
-112.750000
  0
LINE
  8
0
  6
CONTINUOUS
 62
7
 10
-104.500000
 20
-107.922997
 11
-102.500000
 21
-107.922997
  0
LINE
  8
0
  6
CONTINUOUS
 62
7
 10
-104.500000
 20
-106.577003
 11
-102.500000
 21
-106.577003
  0
LINE
  8
0
  6
CONTINUOUS
 62
7
 10
-104.500000
 20
-112.077003
 11
-102.500000
 21
-112.077003
  0
LINE
  8
0
  6
CONTINUOUS
 62
7
 10
-104.500000
 20
-102.422997
 11
-102.500000
 21
-102.422997
  0
LINE
  8
0
  6
CONTINUOUS
 62
7
 10
-175.500000
 20
-113.250000
 11
-175.500000
 21
-101.250000
  0
LINE
  8
0
  6
CONTINUOUS
 62
7
 10
-175.500000
 20
-112.750000
 11
-177.500000
 21
-112.750000
  0
LINE
  8
0
  6
CONTINUOUS
 62
7
 10
-177.500000
 20
-101.750000
 11
-177.500000
 21
-112.750000
  0
LINE
  8
0
  6
CONTINUOUS
 62
7
 10
-175.500000
 20
-101.750000
 11
-177.500000
 21
-101.750000
  0
LINE
  8
0
  6
CONTINUOUS
 62
7
 10
-175.500000
 20
-106.577003
 11
-177.500000
 21
-106.577003
  0
LINE
  8
0
  6
CONTINUOUS
 62
7
 10
-175.500000
 20
-107.922997
 11
-177.500000
 21
-107.922997
  0
LINE
  8
0
  6
CONTINUOUS
 62
7
 10
-175.500000
 20
-102.422997
 11
-177.500000
 21
-102.422997
  0
LINE
  8
0
  6
CONTINUOUS
 62
7
 10
-175.500000
 20
-112.077003
 11
-177.500000
 21
-112.077003
  0
LINE
  8
0
  6
CENTER
 62
2
 10
-174.498001
 20
-107.250000
 11
-190.500000
 21
-107.250000
  0
LINE
  8
0
  6
CONTINUOUS
 62
7
 10
-188.500000
 20
-103.949997
 11
-189.500000
 21
-103.949997
  0
LINE
  8
0
  6
CONTINUOUS
 62
7
 10
-188.500000
 20
-103.250000
 11
-188.500000
 21
-111.250000
  0
LINE
  8
0
  6
CONTINUOUS
 62
7
 10
-189.500000
 20
-103.949997
 11
-189.500000
 21
-110.550003
  0
LINE
  8
0
  6
CONTINUOUS
 62
7
 10
-188.500000
 20
-110.550003
 11
-189.500000
 21
-110.550003
  0
LINE
  8
0
  6
CONTINUOUS
 62
7
 10
-177.500000
 20
-103.250000
 11
-188.500000
 21
-103.250000
  0
LINE
  8
0
  6
CONTINUOUS
 62
2
 10
-177.500000
 20
-103.949997
 11
-188.500000
 21
-103.949997
  0
LINE
  8
0
  6
CONTINUOUS
 62
2
 10
-177.500000
 20
-110.550003
 11
-188.500000
 21
-110.550003
  0
LINE
  8
0
  6
CONTINUOUS
 62
7
 10
-177.500000
 20
-111.250000
 11
-188.500000
 21
-111.250000
  0
LINE
  8
0
  6
CONTINUOUS
 62
7
 10
-122.500000
 20
53.250000
 11
-122.500000
 21
41.250000
  0
LINE
  8
0
  6
CONTINUOUS
 62
7
 10
-122.500000
 20
51.250000
 11
-142.500000
 21
51.250000
  0
LINE
  8
0
  6
CONTINUOUS
 62
7
 10
-142.500000
 20
51.250000
 11
-142.500000
 21
41.250000
  0
LINE
  8
0
  6
CONTINUOUS
 62
7
 10
-122.500000
 20
41.750000
 11
-102.000000
 21
41.750000
  0
LINE
  8
0
  6
CONTINUOUS
 62
7
 10
-178.000000
 20
41.750000
 11
-142.500000
 21
41.750000
  0
LINE
  8
0
  6
CONTINUOUS
 62
7
 10
-175.500000
 20
53.750000
 11
-104.500000
 21
53.750000
  0
LINE
  8
0
  6
CONTINUOUS
 62
7
 10
-175.500000
 20
53.750000
 11
-175.500000
 21
41.750000
  0
LINE
  8
0
  6
CONTINUOUS
 62
7
 10
-169.500000
 20
53.750000
 11
-169.500000
 21
41.750000
  0
LINE
  8
0
  6
CONTINUOUS
 62
7
 10
-110.500000
 20
53.750000
 11
-110.500000
 21
41.750000
  0
LINE
  8
0
  6
CONTINUOUS
 62
7
 10
-104.500000
 20
53.750000
 11
-104.500000
 21
41.750000
  0
LINE
  8
0
  6
CENTER
 62
2
 10
-190.500000
 20
47.750000
 11
-152.500000
 21
47.750000
  0
LINE
  8
0
  6
CONTINUOUS
 62
7
 10
-189.500000
 20
51.049999
 11
-189.500000
 21
44.450001
  0
LINE
  8
0
  6
CONTINUOUS
 62
7
 10
-188.500000
 20
51.049999
 11
-189.500000
 21
51.049999
  0
LINE
  8
0
  6
CONTINUOUS
 62
7
 10
-188.500000
 20
51.750000
 11
-188.500000
 21
43.750000
  0
LINE
  8
0
  6
CONTINUOUS
 62
7
 10
-188.500000
 20
44.450001
 11
-189.500000
 21
44.450001
  0
LINE
  8
0
  6
CONTINUOUS
 62
7
 10
-177.500000
 20
43.750000
 11
-188.500000
 21
43.750000
  0
LINE
  8
0
  6
CONTINUOUS
 62
2
 10
-177.500000
 20
44.450001
 11
-188.500000
 21
44.450001
  0
LINE
  8
0
  6
CONTINUOUS
 62
2
 10
-177.500000
 20
51.049999
 11
-188.500000
 21
51.049999
  0
LINE
  8
0
  6
CONTINUOUS
 62
7
 10
-177.500000
 20
51.750000
 11
-188.500000
 21
51.750000
  0
LINE
  8
0
  6
CONTINUOUS
 62
7
 10
-163.500000
 20
43.750000
 11
-169.500000
 21
43.750000
  0
LINE
  8
0
  6
CONTINUOUS
 62
2
 10
-163.500000
 20
44.450001
 11
-169.500000
 21
44.450001
  0
LINE
  8
0
  6
CONTINUOUS
 62
2
 10
-163.500000
 20
51.049999
 11
-169.500000
 21
51.049999
  0
LINE
  8
0
  6
CONTINUOUS
 62
7
 10
-163.500000
 20
51.750000
 11
-169.500000
 21
51.750000
  0
LINE
  8
0
  6
CONTINUOUS
 62
7
 10
-163.500000
 20
53.250000
 11
-163.500000
 21
42.250000
  0
LINE
  8
0
  6
CONTINUOUS
 62
7
 10
-163.500000
 20
53.250000
 11
-157.500000
 21
53.250000
  0
LINE
  8
0
  6
CONTINUOUS
 62
7
 10
-157.500000
 20
53.250000
 11
-157.500000
 21
42.250000
  0
LINE
  8
0
  6
CONTINUOUS
 62
7
 10
-153.500000
 20
48.750000
 11
-157.500000
 21
48.750000
  0
LINE
  8
0
  6
CONTINUOUS
 62
7
 10
-153.500000
 20
46.750000
 11
-153.500000
 21
48.750000
  0
LINE
  8
0
  6
CONTINUOUS
 62
7
 10
-153.500000
 20
46.750000
 11
-157.500000
 21
46.750000
  0
LINE
  8
0
  6
CONTINUOUS
 62
7
 10
-163.500000
 20
42.250000
 11
-157.500000
 21
42.250000
  0
LINE
  8
0
  6
CONTINUOUS
 62
7
 10
-175.500000
 20
42.250000
 11
-177.500000
 21
42.250000
  0
LINE
  8
0
  6
CONTINUOUS
 62
7
 10
-177.500000
 20
53.250000
 11
-177.500000
 21
42.250000
  0
LINE
  8
0
  6
CONTINUOUS
 62
7
 10
-175.500000
 20
53.250000
 11
-177.500000
 21
53.250000
  0
LINE
  8
0
  6
CONTINUOUS
 62
7
 10
-175.500000
 20
48.423302
 11
-177.500000
 21
48.423302
  0
LINE
  8
0
  6
CONTINUOUS
 62
7
 10
-175.500000
 20
47.076698
 11
-177.500000
 21
47.076698
  0
LINE
  8
0
  6
CONTINUOUS
 62
7
 10
-175.500000
 20
52.576599
 11
-177.500000
 21
52.576599
  0
LINE
  8
0
  6
CONTINUOUS
 62
7
 10
-175.500000
 20
42.923302
 11
-177.500000
 21
42.923302
  0
LINE
  8
0
  6
CONTINUOUS
 62
7
 10
-104.500000
 20
53.250000
 11
-102.500000
 21
53.250000
  0
LINE
  8
0
  6
CONTINUOUS
 62
7
 10
-102.500000
 20
42.250000
 11
-102.500000
 21
53.250000
  0
LINE
  8
0
  6
CONTINUOUS
 62
7
 10
-104.500000
 20
42.250000
 11
-102.500000
 21
42.250000
  0
LINE
  8
0
  6
CONTINUOUS
 62
7
 10
-104.500000
 20
47.076599
 11
-102.500000
 21
47.076599
  0
LINE
  8
0
  6
CONTINUOUS
 62
7
 10
-104.500000
 20
48.423302
 11
-102.500000
 21
48.423302
  0
LINE
  8
0
  6
CONTINUOUS
 62
7
 10
-104.500000
 20
42.923302
 11
-102.500000
 21
42.923302
  0
LINE
  8
0
  6
CONTINUOUS
 62
7
 10
-104.500000
 20
52.576698
 11
-102.500000
 21
52.576698
  0
LINE
  8
0
  6
CENTER
 62
2
 10
-123.500000
 20
47.750000
 11
-89.500000
 21
47.750000
  0
LINE
  8
0
  6
CONTINUOUS
 62
7
 10
-91.500000
 20
44.450001
 11
-90.500000
 21
44.450001
  0
LINE
  8
0
  6
CONTINUOUS
 62
7
 10
-91.500000
 20
43.750000
 11
-91.500000
 21
51.750000
  0
LINE
  8
0
  6
CONTINUOUS
 62
7
 10
-90.500000
 20
44.450001
 11
-90.500000
 21
51.049999
  0
LINE
  8
0
  6
CONTINUOUS
 62
7
 10
-91.500000
 20
51.049999
 11
-90.500000
 21
51.049999
  0
LINE
  8
0
  6
CONTINUOUS
 62
7
 10
-102.500000
 20
43.750000
 11
-91.500000
 21
43.750000
  0
LINE
  8
0
  6
CONTINUOUS
 62
2
 10
-102.500000
 20
44.450001
 11
-91.500000
 21
44.450001
  0
LINE
  8
0
  6
CONTINUOUS
 62
2
 10
-102.500000
 20
51.049999
 11
-91.500000
 21
51.049999
  0
LINE
  8
0
  6
CONTINUOUS
 62
7
 10
-102.500000
 20
51.750000
 11
-91.500000
 21
51.750000
  0
LINE
  8
0
  6
CONTINUOUS
 62
7
 10
-116.500000
 20
43.750000
 11
-110.500000
 21
43.750000
  0
LINE
  8
0
  6
CONTINUOUS
 62
2
 10
-116.500000
 20
44.450001
 11
-110.500000
 21
44.450001
  0
LINE
  8
0
  6
CONTINUOUS
 62
7
 10
-116.500000
 20
51.750000
 11
-110.500000
 21
51.750000
  0
LINE
  8
0
  6
CONTINUOUS
 62
2
 10
-116.500000
 20
51.049999
 11
-110.500000
 21
51.049999
  0
LINE
  8
0
  6
CONTINUOUS
 62
7
 10
-116.500000
 20
42.250000
 11
-116.500000
 21
53.250000
  0
LINE
  8
0
  6
CONTINUOUS
 62
7
 10
-116.500000
 20
53.250000
 11
-122.500000
 21
53.250000
  0
LINE
  8
0
  6
CONTINUOUS
 62
7
 10
-116.500000
 20
42.250000
 11
-122.500000
 21
42.250000
  0
LINE
  8
0
  6
CONTINUOUS
 62
7
 10
-145.899994
 20
71.750000
 11
-119.099998
 21
71.750000
  0
LINE
  8
0
  6
CONTINUOUS
 62
7
 10
-153.500000
 20
83.750000
 11
-111.500000
 21
83.750000
  0
LINE
  8
0
  6
CONTINUOUS
 62
7
 10
-153.500000
 20
72.250000
 11
-145.899994
 21
72.250000
  0
LINE
  8
0
  6
CONTINUOUS
 62
7
 10
-111.500000
 20
72.250000
 11
-119.099998
 21
72.250000
  0
LINE
  8
0
  6
CONTINUOUS
 62
7
 10
-178.000000
 20
84.250000
 11
-175.500000
 21
84.250000
  0
LINE
  8
0
  6
CONTINUOUS
 62
7
 10
-178.000000
 20
93.750000
 11
-102.000000
 21
93.750000
  0
LINE
  8
0
  6
CONTINUOUS
 62
7
 10
-178.000000
 20
82.250000
 11
-178.000000
 21
93.750000
  0
LINE
  8
0
  6
CONTINUOUS
 62
7
 10
-102.000000
 20
82.250000
 11
-102.000000
 21
93.750000
  0
LINE
  8
0
  6
CONTINUOUS
 62
7
 10
-104.500000
 20
84.250000
 11
-102.000000
 21
84.250000
  0
LINE
  8
0
  6
CONTINUOUS
 62
7
 10
-142.500000
 20
82.250000
 11
-142.500000
 21
72.250000
  0
LINE
  8
0
  6
CONTINUOUS
 62
7
 10
-142.500000
 20
82.250000
 11
-122.500000
 21
82.250000
  0
LINE
  8
0
  6
CONTINUOUS
 62
7
 10
-175.500000
 20
93.250000
 11
-104.500000
 21
93.250000
  0
LINE
  8
0
  6
CONTINUOUS
 62
7
 10
-157.500000
 20
76.750000
 11
-153.500000
 21
76.750000
  0
LINE
  8
0
  6
CONTINUOUS
 62
7
 10
-111.500000
 20
72.250000
 11
-111.500000
 21
74.250000
  0
LINE
  8
0
  6
CONTINUOUS
 62
7
 10
-153.500000
 20
72.250000
 11
-153.500000
 21
83.750000
  0
LINE
  8
0
  6
CONTINUOUS
 62
7
 10
-145.899994
 20
71.750000
 11
-145.899994
 21
83.750000
  0
LINE
  8
0
  6
CONTINUOUS
 62
7
 10
-119.099998
 20
71.750000
 11
-119.099998
 21
72.750000
  0
LINE
  8
0
  6
CENTER
 62
2
 10
-190.500000
 20
78.250000
 11
-152.500000
 21
78.250000
  0
LINE
  8
0
  6
CONTINUOUS
 62
7
 10
-167.500000
 20
84.250000
 11
-112.500000
 21
84.250000
  0
LINE
  8
0
  6
CONTINUOUS
 62
7
 10
-169.500000
 20
82.250000
 11
-169.500000
 21
72.250000
  0
LINE
  8
0
  6
CONTINUOUS
 62
7
 10
-175.500000
 20
93.250000
 11
-175.500000
 21
72.250000
  0
LINE
  8
0
  6
CONTINUOUS
 62
7
 10
-110.500000
 20
82.250000
 11
-110.500000
 21
72.250000
  0
LINE
  8
0
  6
CONTINUOUS
 62
7
 10
-104.500000
 20
93.250000
 11
-104.500000
 21
72.250000
  0
LINE
  8
0
  6
CONTINUOUS
 62
7
 10
-142.500000
 20
72.250000
 11
-122.500000
 21
72.250000
  0
LINE
  8
0
  6
CONTINUOUS
 62
7
 10
-110.500000
 20
72.250000
 11
-102.500000
 21
72.250000
  0
LINE
  8
0
  6
CONTINUOUS
 62
7
 10
-122.500000
 20
72.250000
 11
-122.500000
 21
83.750000
  0
LINE
  8
0
  6
CONTINUOUS
 62
7
 10
-116.500000
 20
72.750000
 11
-116.500000
 21
83.750000
  0
LINE
  8
0
  6
CONTINUOUS
 62
7
 10
-116.500000
 20
72.750000
 11
-122.500000
 21
72.750000
  0
LINE
  8
0
  6
CONTINUOUS
 62
7
 10
-102.500000
 20
72.250000
 11
-102.500000
 21
84.250000
  0
LINE
  8
0
  6
CONTINUOUS
 62
7
 10
-102.500000
 20
74.685799
 11
-104.500000
 21
74.685799
  0
LINE
  8
0
  6
CONTINUOUS
 62
7
 10
-102.500000
 20
75.852097
 11
-104.500000
 21
75.852097
  0
LINE
  8
0
  6
CONTINUOUS
 62
7
 10
-102.500000
 20
80.647903
 11
-104.500000
 21
80.647903
  0
LINE
  8
0
  6
CONTINUOUS
 62
7
 10
-102.500000
 20
81.814201
 11
-104.500000
 21
81.814201
  0
LINE
  8
0
  6
CONTINUOUS
 62
7
 10
-111.500000
 20
82.250000
 11
-111.500000
 21
83.750000
  0
LINE
  8
0
  6
CONTINUOUS
 62
7
 10
-177.500000
 20
75.852097
 11
-175.500000
 21
75.852097
  0
LINE
  8
0
  6
CONTINUOUS
 62
7
 10
-177.500000
 20
84.250000
 11
-177.500000
 21
72.250000
  0
LINE
  8
0
  6
CONTINUOUS
 62
7
 10
-177.500000
 20
81.814201
 11
-175.500000
 21
81.814201
  0
LINE
  8
0
  6
CONTINUOUS
 62
7
 10
-177.500000
 20
74.685799
 11
-175.500000
 21
74.685799
  0
LINE
  8
0
  6
CONTINUOUS
 62
7
 10
-177.500000
 20
80.647903
 11
-175.500000
 21
80.647903
  0
LINE
  8
0
  6
CONTINUOUS
 62
7
 10
-177.500000
 20
72.250000
 11
-169.500000
 21
72.250000
  0
LINE
  8
0
  6
CONTINUOUS
 62
7
 10
-153.500000
 20
79.250000
 11
-157.500000
 21
79.250000
  0
LINE
  8
0
  6
CONTINUOUS
 62
7
 10
-153.500000
 20
77.250000
 11
-157.500000
 21
77.250000
  0
LINE
  8
0
  6
CONTINUOUS
 62
7
 10
-157.500000
 20
83.750000
 11
-157.500000
 21
72.750000
  0
LINE
  8
0
  6
CONTINUOUS
 62
7
 10
-163.500000
 20
72.750000
 11
-153.500000
 21
72.750000
  0
LINE
  8
0
  6
CONTINUOUS
 62
7
 10
-163.500000
 20
83.750000
 11
-157.500000
 21
83.750000
  0
LINE
  8
0
  6
CONTINUOUS
 62
7
 10
-163.500000
 20
83.750000
 11
-163.500000
 21
72.750000
  0
LINE
  8
0
  6
CENTER
 62
2
 10
-123.500000
 20
78.250000
 11
-89.500000
 21
78.250000
  0
LINE
  8
0
  6
CONTINUOUS
 62
7
 10
-90.500000
 20
74.949997
 11
-90.500000
 21
77.500000
  0
LINE
  8
0
  6
CONTINUOUS
 62
7
 10
-91.500000
 20
74.949997
 11
-90.500000
 21
74.949997
  0
LINE
  8
0
  6
CONTINUOUS
 62
7
 10
-91.500000
 20
74.250000
 11
-91.500000
 21
82.250000
  0
LINE
  8
0
  6
CONTINUOUS
 62
7
 10
-91.500000
 20
77.500000
 11
-90.500000
 21
77.500000
  0
LINE
  8
0
  6
CONTINUOUS
 62
7
 10
-91.500000
 20
79.000000
 11
-90.500000
 21
79.000000
  0
LINE
  8
0
  6
CONTINUOUS
 62
7
 10
-90.500000
 20
79.000000
 11
-90.500000
 21
81.550003
  0
LINE
  8
0
  6
CONTINUOUS
 62
7
 10
-91.500000
 20
81.550003
 11
-90.500000
 21
81.550003
  0
LINE
  8
0
  6
CONTINUOUS
 62
7
 10
-116.500000
 20
74.250000
 11
-110.500000
 21
74.250000
  0
LINE
  8
0
  6
CONTINUOUS
 62
7
 10
-116.500000
 20
82.250000
 11
-110.500000
 21
82.250000
  0
LINE
  8
0
  6
CONTINUOUS
 62
2
 10
-116.500000
 20
81.550003
 11
-110.500000
 21
81.550003
  0
LINE
  8
0
  6
CONTINUOUS
 62
2
 10
-116.500000
 20
74.949997
 11
-110.500000
 21
74.949997
  0
LINE
  8
0
  6
CONTINUOUS
 62
7
 10
-102.500000
 20
74.250000
 11
-91.500000
 21
74.250000
  0
LINE
  8
0
  6
CONTINUOUS
 62
2
 10
-102.500000
 20
74.949997
 11
-91.500000
 21
74.949997
  0
LINE
  8
0
  6
CONTINUOUS
 62
2
 10
-102.500000
 20
81.550003
 11
-91.500000
 21
81.550003
  0
LINE
  8
0
  6
CONTINUOUS
 62
7
 10
-102.500000
 20
82.250000
 11
-91.500000
 21
82.250000
  0
LINE
  8
0
  6
CONTINUOUS
 62
7
 10
-189.500000
 20
81.550003
 11
-189.500000
 21
79.000000
  0
LINE
  8
0
  6
CONTINUOUS
 62
7
 10
-188.500000
 20
81.550003
 11
-189.500000
 21
81.550003
  0
LINE
  8
0
  6
CONTINUOUS
 62
7
 10
-188.500000
 20
82.250000
 11
-188.500000
 21
74.250000
  0
LINE
  8
0
  6
CONTINUOUS
 62
7
 10
-188.500000
 20
79.000000
 11
-189.500000
 21
79.000000
  0
LINE
  8
0
  6
CONTINUOUS
 62
7
 10
-188.500000
 20
77.500000
 11
-189.500000
 21
77.500000
  0
LINE
  8
0
  6
CONTINUOUS
 62
7
 10
-189.500000
 20
77.500000
 11
-189.500000
 21
74.949997
  0
LINE
  8
0
  6
CONTINUOUS
 62
7
 10
-188.500000
 20
74.949997
 11
-189.500000
 21
74.949997
  0
LINE
  8
0
  6
CONTINUOUS
 62
7
 10
-163.500000
 20
82.250000
 11
-169.500000
 21
82.250000
  0
LINE
  8
0
  6
CONTINUOUS
 62
7
 10
-163.500000
 20
74.250000
 11
-169.500000
 21
74.250000
  0
LINE
  8
0
  6
CONTINUOUS
 62
2
 10
-163.500000
 20
74.949997
 11
-169.500000
 21
74.949997
  0
LINE
  8
0
  6
CONTINUOUS
 62
2
 10
-163.500000
 20
81.550003
 11
-169.500000
 21
81.550003
  0
LINE
  8
0
  6
CONTINUOUS
 62
7
 10
-177.500000
 20
74.250000
 11
-188.500000
 21
74.250000
  0
LINE
  8
0
  6
CONTINUOUS
 62
2
 10
-177.500000
 20
74.949997
 11
-188.500000
 21
74.949997
  0
LINE
  8
0
  6
CONTINUOUS
 62
2
 10
-177.500000
 20
81.550003
 11
-188.500000
 21
81.550003
  0
LINE
  8
0
  6
CONTINUOUS
 62
7
 10
-177.500000
 20
82.250000
 11
-188.500000
 21
82.250000
  0
LINE
  8
0
  6
CONTINUOUS
 62
7
 10
31.000000
 20
-21.250000
 11
46.000000
 21
-21.250000
  0
LINE
  8
0
  6
CONTINUOUS
 62
7
 10
31.000000
 20
-25.250000
 11
31.000000
 21
-28.750000
  0
LINE
  8
0
  6
CONTINUOUS
 62
7
 10
31.000000
 20
-21.250000
 11
31.000000
 21
-22.250000
  0
LINE
  8
0
  6
CONTINUOUS
 62
7
 10
22.500000
 20
-16.250000
 11
29.500000
 21
-16.250000
  0
LINE
  8
0
  6
CONTINUOUS
 62
7
 10
22.500000
 20
-28.250000
 11
31.000000
 21
-28.250000
  0
LINE
  8
0
  6
CONTINUOUS
 62
7
 10
29.799999
 20
-16.549999
 11
47.200001
 21
-16.549999
  0
LINE
  8
0
  6
CONTINUOUS
 62
7
 10
29.500000
 20
-16.250000
 11
29.799999
 21
-16.549999
  0
LINE
  8
0
  6
CONTINUOUS
 62
7
 10
46.000000
 20
-25.250000
 11
46.000000
 21
-28.750000
  0
LINE
  8
0
  6
CONTINUOUS
 62
7
 10
46.000000
 20
-21.250000
 11
46.000000
 21
-22.250000
  0
LINE
  8
0
  6
CONTINUOUS
 62
7
 10
54.500000
 20
-16.250000
 11
54.500000
 21
-28.250000
  0
LINE
  8
0
  6
CONTINUOUS
 62
7
 10
54.500000
 20
-16.250000
 11
47.500000
 21
-16.250000
  0
LINE
  8
0
  6
CONTINUOUS
 62
7
 10
54.500000
 20
-28.250000
 11
46.000000
 21
-28.250000
  0
LINE
  8
0
  6
CONTINUOUS
 62
7
 10
47.500000
 20
-16.250000
 11
47.200001
 21
-16.549999
  0
LINE
  8
0
  6
CONTINUOUS
 62
7
 10
22.500000
 20
-16.250000
 11
22.500000
 21
-28.250000
  0
LINE
  8
0
  6
CONTINUOUS
 62
7
 10
55.000000
 20
-28.750000
 11
46.000000
 21
-28.750000
  0
LINE
  8
0
  6
CONTINUOUS
 62
7
 10
55.000000
 20
-38.250000
 11
22.000000
 21
-38.250000
  0
LINE
  8
0
  6
CONTINUOUS
 62
7
 10
22.000000
 20
-28.750000
 11
31.000000
 21
-28.750000
  0
LINE
  8
0
  6
CONTINUOUS
 62
7
 10
55.000000
 20
-28.750000
 11
55.000000
 21
-38.250000
  0
LINE
  8
0
  6
CONTINUOUS
 62
7
 10
22.000000
 20
-16.750000
 11
22.000000
 21
-38.250000
  0
LINE
  8
0
  6
CENTER
 62
2
 10
38.500000
 20
-14.250000
 11
38.500000
 21
-40.250000
  0
LINE
  8
0
  6
CENTER
 62
2
 10
30.100000
 20
-30.250000
 11
46.900002
 21
-30.250000
  0
LINE
  8
0
  6
CENTER
 62
2
 10
28.500000
 20
-29.250000
 11
28.500000
 21
-36.250000
  0
LINE
  8
0
  6
CENTER
 62
2
 10
25.000000
 20
-32.750000
 11
32.000000
 21
-32.750000
  0
LINE
  8
0
  6
CENTER
 62
2
 10
26.500000
 20
-36.250000
 11
26.500000
 21
-40.250000
  0
LINE
  8
0
  6
CENTER
 62
2
 10
50.500000
 20
-36.250000
 11
50.500000
 21
-40.250000
  0
LINE
  8
0
  6
CENTER
 62
2
 10
51.000000
 20
-14.250000
 11
51.000000
 21
-18.250000
  0
LINE
  8
0
  6
CENTER
 62
2
 10
26.000000
 20
-14.250000
 11
26.000000
 21
-18.250000
  0
LINE
  8
0
  6
CONTINUOUS
 62
7
 10
10.000000
 20
-16.750000
 11
10.000000
 21
-37.750000
  0
LINE
  8
0
  6
CONTINUOUS
 62
7
 10
22.000000
 20
-37.750000
 11
10.000000
 21
-37.750000
  0
LINE
  8
0
  6
CONTINUOUS
 62
7
 10
22.500000
 20
-16.750000
 11
10.000000
 21
-16.750000
  0
LINE
  8
0
  6
CENTER
 62
2
 10
16.000000
 20
-15.750000
 11
16.000000
 21
-29.750000
  0
LINE
  8
0
  6
CENTER
 62
2
 10
23.000000
 20
-22.750000
 11
8.999980
 21
-22.750000
  0
LINE
  8
0
  6
CONTINUOUS
 62
7
 10
16.673401
 20
-28.712099
 11
20.826700
 21
-26.314199
  0
LINE
  8
0
  6
CONTINUOUS
 62
7
 10
11.173400
 20
-26.314199
 11
15.326600
 21
-28.712099
  0
LINE
  8
0
  6
CONTINUOUS
 62
7
 10
10.500000
 20
-20.352100
 11
10.500000
 21
-25.147900
  0
LINE
  8
0
  6
CONTINUOUS
 62
7
 10
15.326700
 20
-16.787901
 11
11.173300
 21
-19.185801
  0
LINE
  8
0
  6
CONTINUOUS
 62
7
 10
20.826599
 20
-19.185801
 11
16.673300
 21
-16.787901
  0
LINE
  8
0
  6
CONTINUOUS
 62
7
 10
17.636299
 20
-23.500000
 11
19.929001
 21
-23.500000
  0
LINE
  8
0
  6
CONTINUOUS
 62
7
 10
17.636299
 20
-22.000000
 11
19.929001
 21
-22.000000
  0
LINE
  8
0
  6
CONTINUOUS
 62
7
 10
12.070900
 20
-22.000000
 11
14.363700
 21
-22.000000
  0
LINE
  8
0
  6
CONTINUOUS
 62
7
 10
12.070900
 20
-23.500000
 11
14.363700
 21
-23.500000
  0
LINE
  8
0
  6
CONTINUOUS
 62
7
 10
21.500000
 20
-20.352100
 11
21.500000
 21
-25.147900
  0
LINE
  8
0
  6
CONTINUOUS
 62
7
 10
251.000000
 20
-21.250000
 11
236.000000
 21
-21.250000
  0
LINE
  8
0
  6
CONTINUOUS
 62
7
 10
251.000000
 20
-25.250000
 11
251.000000
 21
-28.750000
  0
LINE
  8
0
  6
CONTINUOUS
 62
7
 10
251.000000
 20
-21.250000
 11
251.000000
 21
-22.250000
  0
LINE
  8
0
  6
CONTINUOUS
 62
7
 10
259.500000
 20
-16.250000
 11
252.500000
 21
-16.250000
  0
LINE
  8
0
  6
CONTINUOUS
 62
7
 10
259.500000
 20
-28.250000
 11
251.000000
 21
-28.250000
  0
LINE
  8
0
  6
CONTINUOUS
 62
7
 10
252.199997
 20
-16.549999
 11
234.800003
 21
-16.549999
  0
LINE
  8
0
  6
CONTINUOUS
 62
7
 10
252.500000
 20
-16.249901
 11
252.199997
 21
-16.549999
  0
LINE
  8
0
  6
CONTINUOUS
 62
7
 10
236.000000
 20
-25.250000
 11
236.000000
 21
-28.750000
  0
LINE
  8
0
  6
CONTINUOUS
 62
7
 10
236.000000
 20
-21.250000
 11
236.000000
 21
-22.250000
  0
LINE
  8
0
  6
CONTINUOUS
 62
7
 10
227.500000
 20
-16.250000
 11
227.500000
 21
-28.250000
  0
LINE
  8
0
  6
CONTINUOUS
 62
7
 10
227.500000
 20
-16.250000
 11
234.500000
 21
-16.250000
  0
LINE
  8
0
  6
CONTINUOUS
 62
7
 10
227.500000
 20
-28.250000
 11
236.000000
 21
-28.250000
  0
LINE
  8
0
  6
CONTINUOUS
 62
7
 10
234.500000
 20
-16.250099
 11
234.800003
 21
-16.550100
  0
LINE
  8
0
  6
CONTINUOUS
 62
7
 10
259.500000
 20
-16.250000
 11
259.500000
 21
-28.250000
  0
LINE
  8
0
  6
CONTINUOUS
 62
7
 10
227.000000
 20
-28.750000
 11
236.000000
 21
-28.750000
  0
LINE
  8
0
  6
CONTINUOUS
 62
7
 10
227.000000
 20
-38.250000
 11
260.000000
 21
-38.250000
  0
LINE
  8
0
  6
CONTINUOUS
 62
7
 10
260.000000
 20
-28.750000
 11
251.000000
 21
-28.750000
  0
LINE
  8
0
  6
CONTINUOUS
 62
7
 10
227.000000
 20
-28.750000
 11
227.000000
 21
-38.250000
  0
LINE
  8
0
  6
CONTINUOUS
 62
7
 10
260.000000
 20
-16.750000
 11
260.000000
 21
-38.250000
  0
LINE
  8
0
  6
CENTER
 62
2
 10
243.500000
 20
-14.250000
 11
243.500000
 21
-40.250000
  0
LINE
  8
0
  6
CENTER
 62
2
 10
251.899994
 20
-30.250000
 11
235.100006
 21
-30.250000
  0
LINE
  8
0
  6
CENTER
 62
2
 10
253.500000
 20
-29.250000
 11
253.500000
 21
-36.250000
  0
LINE
  8
0
  6
CENTER
 62
2
 10
257.000000
 20
-32.750000
 11
250.000000
 21
-32.750000
  0
LINE
  8
0
  6
CENTER
 62
2
 10
255.500000
 20
-36.250000
 11
255.500000
 21
-40.250000
  0
LINE
  8
0
  6
CENTER
 62
2
 10
231.500000
 20
-36.250000
 11
231.500000
 21
-40.250000
  0
LINE
  8
0
  6
CENTER
 62
2
 10
231.000000
 20
-14.250000
 11
231.000000
 21
-18.250000
  0
LINE
  8
0
  6
CENTER
 62
2
 10
256.000000
 20
-14.250000
 11
256.000000
 21
-18.250000
  0
LINE
  8
0
  6
CONTINUOUS
 62
7
 10
272.000000
 20
-16.750000
 11
272.000000
 21
-37.750000
  0
LINE
  8
0
  6
CONTINUOUS
 62
7
 10
260.000000
 20
-37.750000
 11
272.000000
 21
-37.750000
  0
LINE
  8
0
  6
CONTINUOUS
 62
7
 10
259.500000
 20
-16.750000
 11
272.000000
 21
-16.750000
  0
LINE
  8
0
  6
CENTER
 62
2
 10
266.000000
 20
-15.750000
 11
266.000000
 21
-29.750000
  0
LINE
  8
0
  6
CENTER
 62
2
 10
259.000000
 20
-22.750000
 11
273.000000
 21
-22.750000
  0
LINE
  8
0
  6
CONTINUOUS
 62
7
 10
265.326996
 20
-28.712099
 11
261.173004
 21
-26.314199
  0
LINE
  8
0
  6
CONTINUOUS
 62
7
 10
270.826996
 20
-26.314199
 11
266.673004
 21
-28.712099
  0
LINE
  8
0
  6
CONTINUOUS
 62
7
 10
271.500000
 20
-20.352100
 11
271.500000
 21
-25.147900
  0
LINE
  8
0
  6
CONTINUOUS
 62
7
 10
266.673004
 20
-16.787901
 11
270.826996
 21
-19.185801
  0
LINE
  8
0
  6
CONTINUOUS
 62
7
 10
261.173004
 20
-19.185801
 11
265.326996
 21
-16.787901
  0
LINE
  8
0
  6
CONTINUOUS
 62
7
 10
264.364014
 20
-23.500000
 11
262.071014
 21
-23.500000
  0
LINE
  8
0
  6
CONTINUOUS
 62
7
 10
264.364014
 20
-22.000000
 11
262.071014
 21
-22.000000
  0
LINE
  8
0
  6
CONTINUOUS
 62
7
 10
269.928986
 20
-22.000000
 11
267.635986
 21
-22.000000
  0
LINE
  8
0
  6
CONTINUOUS
 62
7
 10
269.928986
 20
-23.500000
 11
267.635986
 21
-23.500000
  0
LINE
  8
0
  6
CONTINUOUS
 62
7
 10
260.500000
 20
-20.352100
 11
260.500000
 21
-25.147900
  0
LINE
  8
0
  6
CONTINUOUS
 62
7
 10
87.500000
 20
-110.550003
 11
86.500000
 21
-110.550003
  0
LINE
  8
0
  6
CONTINUOUS
 62
2
 10
103.500000
 20
-103.949997
 11
87.500000
 21
-103.949997
  0
LINE
  8
0
  6
CONTINUOUS
 62
7
 10
103.500000
 20
-103.250000
 11
87.500000
 21
-103.250000
  0
LINE
  8
0
  6
CONTINUOUS
 62
7
 10
86.500000
 20
-103.949997
 11
86.500000
 21
-110.550003
  0
LINE
  8
0
  6
CONTINUOUS
 62
7
 10
103.500000
 20
-111.250000
 11
87.500000
 21
-111.250000
  0
LINE
  8
0
  6
CONTINUOUS
 62
2
 10
103.500000
 20
-110.550003
 11
87.500000
 21
-110.550003
  0
LINE
  8
0
  6
CONTINUOUS
 62
7
 10
176.500000
 20
-113.250000
 11
105.500000
 21
-113.250000
  0
LINE
  8
0
  6
CONTINUOUS
 62
7
 10
176.500000
 20
-113.250000
 11
176.500000
 21
-101.250000
  0
LINE
  8
0
  6
CENTER
 62
2
 10
196.500000
 20
-107.250000
 11
174.654007
 21
-107.250000
  0
LINE
  8
0
  6
CONTINUOUS
 62
7
 10
195.500000
 20
-110.550003
 11
195.500000
 21
-103.949997
  0
LINE
  8
0
  6
CONTINUOUS
 62
7
 10
194.500000
 20
-110.550003
 11
195.500000
 21
-110.550003
  0
LINE
  8
0
  6
CONTINUOUS
 62
7
 10
194.500000
 20
-111.250000
 11
194.500000
 21
-103.250000
  0
LINE
  8
0
  6
CONTINUOUS
 62
7
 10
194.500000
 20
-103.949997
 11
195.500000
 21
-103.949997
  0
LINE
  8
0
  6
CONTINUOUS
 62
7
 10
178.500000
 20
-103.250000
 11
194.500000
 21
-103.250000
  0
LINE
  8
0
  6
CONTINUOUS
 62
2
 10
178.500000
 20
-103.949997
 11
194.500000
 21
-103.949997
  0
LINE
  8
0
  6
CONTINUOUS
 62
2
 10
178.500000
 20
-110.550003
 11
194.500000
 21
-110.550003
  0
LINE
  8
0
  6
CONTINUOUS
 62
7
 10
178.500000
 20
-111.250000
 11
194.500000
 21
-111.250000
  0
LINE
  8
0
  6
CONTINUOUS
 62
7
 10
176.500000
 20
-101.750000
 11
178.500000
 21
-101.750000
  0
LINE
  8
0
  6
CONTINUOUS
 62
7
 10
178.500000
 20
-112.750000
 11
178.500000
 21
-101.750000
  0
LINE
  8
0
  6
CONTINUOUS
 62
7
 10
176.500000
 20
-112.750000
 11
178.500000
 21
-112.750000
  0
LINE
  8
0
  6
CONTINUOUS
 62
7
 10
176.500000
 20
-107.922997
 11
178.500000
 21
-107.922997
  0
LINE
  8
0
  6
CONTINUOUS
 62
7
 10
176.500000
 20
-106.577003
 11
178.500000
 21
-106.577003
  0
LINE
  8
0
  6
CONTINUOUS
 62
7
 10
176.500000
 20
-112.077003
 11
178.500000
 21
-112.077003
  0
LINE
  8
0
  6
CONTINUOUS
 62
7
 10
176.500000
 20
-102.422997
 11
178.500000
 21
-102.422997
  0
LINE
  8
0
  6
CONTINUOUS
 62
7
 10
105.500000
 20
-113.250000
 11
105.500000
 21
-101.250000
  0
LINE
  8
0
  6
CONTINUOUS
 62
7
 10
105.500000
 20
-112.750000
 11
103.500000
 21
-112.750000
  0
LINE
  8
0
  6
CONTINUOUS
 62
7
 10
103.500000
 20
-101.750000
 11
103.500000
 21
-112.750000
  0
LINE
  8
0
  6
CONTINUOUS
 62
7
 10
105.500000
 20
-101.750000
 11
103.500000
 21
-101.750000
  0
LINE
  8
0
  6
CONTINUOUS
 62
7
 10
105.500000
 20
-106.577003
 11
103.500000
 21
-106.577003
  0
LINE
  8
0
  6
CONTINUOUS
 62
7
 10
105.500000
 20
-107.922997
 11
103.500000
 21
-107.922997
  0
LINE
  8
0
  6
CONTINUOUS
 62
7
 10
105.500000
 20
-102.422997
 11
103.500000
 21
-102.422997
  0
LINE
  8
0
  6
CONTINUOUS
 62
7
 10
105.500000
 20
-112.077003
 11
103.500000
 21
-112.077003
  0
LINE
  8
0
  6
CENTER
 62
2
 10
106.501999
 20
-107.250000
 11
85.500000
 21
-107.250000
  0
LINE
  8
0
  6
CONTINUOUS
 62
7
 10
87.500000
 20
-103.949997
 11
86.500000
 21
-103.949997
  0
LINE
  8
0
  6
CONTINUOUS
 62
7
 10
87.500000
 20
-103.250000
 11
87.500000
 21
-111.250000
  0
LINE
  8
0
  6
CENTER
 62
2
 10
196.500000
 20
-22.750000
 11
182.000000
 21
-22.750000
  0
LINE
  8
0
  6
CONTINUOUS
 62
7
 10
195.500000
 20
-26.049999
 11
195.500000
 21
-23.500000
  0
LINE
  8
0
  6
CONTINUOUS
 62
7
 10
194.500000
 20
-26.049999
 11
195.500000
 21
-26.049999
  0
LINE
  8
0
  6
CONTINUOUS
 62
7
 10
194.500000
 20
-26.750000
 11
194.500000
 21
-18.750000
  0
LINE
  8
0
  6
CONTINUOUS
 62
7
 10
194.500000
 20
-23.500000
 11
195.500000
 21
-23.500000
  0
LINE
  8
0
  6
CONTINUOUS
 62
7
 10
194.500000
 20
-22.000000
 11
195.500000
 21
-22.000000
  0
LINE
  8
0
  6
CONTINUOUS
 62
7
 10
195.500000
 20
-22.000000
 11
195.500000
 21
-19.450001
  0
LINE
  8
0
  6
CONTINUOUS
 62
7
 10
194.500000
 20
-19.450001
 11
195.500000
 21
-19.450001
  0
LINE
  8
0
  6
CONTINUOUS
 62
7
 10
184.850006
 20
-18.750000
 11
194.500000
 21
-18.750000
  0
LINE
  8
0
  6
CONTINUOUS
 62
2
 10
184.850006
 20
-19.450001
 11
194.500000
 21
-19.450001
  0
LINE
  8
0
  6
CONTINUOUS
 62
2
 10
194.000000
 20
-26.049999
 11
194.500000
 21
-26.049999
  0
LINE
  8
0
  6
CONTINUOUS
 62
7
 10
194.000000
 20
-26.750000
 11
194.500000
 21
-26.750000
  0
LINE
  8
0
  6
CONTINUOUS
 62
7
 10
88.000000
 20
-26.750000
 11
87.500000
 21
-26.750000
  0
LINE
  8
0
  6
CONTINUOUS
 62
2
 10
103.500000
 20
-19.450001
 11
87.500000
 21
-19.450001
  0
LINE
  8
0
  6
CONTINUOUS
 62
2
 10
88.000000
 20
-26.049999
 11
87.500000
 21
-26.049999
  0
LINE
  8
0
  6
CONTINUOUS
 62
7
 10
111.500000
 20
-17.250000
 11
111.500000
 21
-16.750000
  0
LINE
  8
0
  6
CONTINUOUS
 62
7
 10
111.500000
 20
-16.750000
 11
103.500000
 21
-16.750000
  0
LINE
  8
0
  6
CONTINUOUS
 62
7
 10
103.500000
 20
-16.750000
 11
103.500000
 21
-17.250000
  0
LINE
  8
0
  6
CONTINUOUS
 62
7
 10
103.000000
 20
-18.750000
 11
87.500000
 21
-18.750000
  0
LINE
  8
0
  6
CONTINUOUS
 62
7
 10
86.500000
 20
-19.450001
 11
86.500000
 21
-22.000000
  0
LINE
  8
0
  6
CONTINUOUS
 62
7
 10
87.500000
 20
-19.450001
 11
86.500000
 21
-19.450001
  0
LINE
  8
0
  6
CONTINUOUS
 62
7
 10
87.500000
 20
-18.750000
 11
87.500000
 21
-26.750000
  0
LINE
  8
0
  6
CONTINUOUS
 62
7
 10
87.500000
 20
-22.000000
 11
86.500000
 21
-22.000000
  0
LINE
  8
0
  6
CONTINUOUS
 62
7
 10
87.500000
 20
-23.500000
 11
86.500000
 21
-23.500000
  0
LINE
  8
0
  6
CONTINUOUS
 62
7
 10
86.500000
 20
-23.500000
 11
86.500000
 21
-26.049999
  0
LINE
  8
0
  6
CONTINUOUS
 62
7
 10
87.500000
 20
-26.049999
 11
86.500000
 21
-26.049999
  0
LINE
  8
0
  6
CONTINUOUS
 62
7
 10
105.500000
 20
-17.250000
 11
105.500000
 21
-16.750000
  0
LINE
  8
0
  6
CENTER
 62
2
 10
106.233002
 20
-22.750000
 11
85.500000
 21
-22.750000
  0
LINE
  8
0
  6
CONTINUOUS
 62
7
 10
176.500000
 20
42.250000
 11
178.500000
 21
42.250000
  0
LINE
  8
0
  6
CONTINUOUS
 62
7
 10
169.500000
 20
42.250000
 11
163.500000
 21
42.250000
  0
LINE
  8
0
  6
CONTINUOUS
 62
7
 10
169.500000
 20
43.750000
 11
170.500000
 21
43.750000
  0
LINE
  8
0
  6
CONTINUOUS
 62
7
 10
105.500000
 20
53.750000
 11
176.500000
 21
53.750000
  0
LINE
  8
0
  6
CONTINUOUS
 62
7
 10
105.500000
 20
53.750000
 11
105.500000
 21
41.750000
  0
LINE
  8
0
  6
CONTINUOUS
 62
7
 10
111.500000
 20
53.750000
 11
111.500000
 21
41.750000
  0
LINE
  8
0
  6
CENTER
 62
2
 10
85.500000
 20
47.750000
 11
123.500000
 21
47.750000
  0
LINE
  8
0
  6
CONTINUOUS
 62
7
 10
86.500000
 20
51.049999
 11
86.500000
 21
44.450001
  0
LINE
  8
0
  6
CONTINUOUS
 62
7
 10
87.500000
 20
51.049999
 11
86.500000
 21
51.049999
  0
LINE
  8
0
  6
CONTINUOUS
 62
7
 10
87.500000
 20
51.750000
 11
87.500000
 21
43.750000
  0
LINE
  8
0
  6
CONTINUOUS
 62
7
 10
87.500000
 20
44.450001
 11
86.500000
 21
44.450001
  0
LINE
  8
0
  6
CONTINUOUS
 62
7
 10
103.500000
 20
43.750000
 11
87.500000
 21
43.750000
  0
LINE
  8
0
  6
CONTINUOUS
 62
2
 10
103.500000
 20
44.450001
 11
87.500000
 21
44.450001
  0
LINE
  8
0
  6
CONTINUOUS
 62
2
 10
103.500000
 20
51.049999
 11
87.500000
 21
51.049999
  0
LINE
  8
0
  6
CONTINUOUS
 62
7
 10
103.500000
 20
51.750000
 11
87.500000
 21
51.750000
  0
LINE
  8
0
  6
CONTINUOUS
 62
7
 10
112.500000
 20
43.750000
 11
111.500000
 21
43.750000
  0
LINE
  8
0
  6
CONTINUOUS
 62
2
 10
112.500000
 20
44.450001
 11
111.500000
 21
44.450001
  0
LINE
  8
0
  6
CONTINUOUS
 62
2
 10
112.500000
 20
51.049999
 11
111.500000
 21
51.049999
  0
LINE
  8
0
  6
CONTINUOUS
 62
7
 10
112.500000
 20
51.750000
 11
111.500000
 21
51.750000
  0
LINE
  8
0
  6
CONTINUOUS
 62
7
 10
112.500000
 20
53.250000
 11
112.500000
 21
42.250000
  0
LINE
  8
0
  6
CONTINUOUS
 62
7
 10
112.500000
 20
53.250000
 11
118.500000
 21
53.250000
  0
LINE
  8
0
  6
CONTINUOUS
 62
7
 10
118.500000
 20
53.250000
 11
118.500000
 21
42.250000
  0
LINE
  8
0
  6
CONTINUOUS
 62
7
 10
122.500000
 20
48.750000
 11
118.500000
 21
48.750000
  0
LINE
  8
0
  6
CONTINUOUS
 62
7
 10
122.500000
 20
46.750000
 11
118.500000
 21
46.750000
  0
LINE
  8
0
  6
CONTINUOUS
 62
7
 10
112.500000
 20
42.250000
 11
118.500000
 21
42.250000
  0
LINE
  8
0
  6
CONTINUOUS
 62
7
 10
105.500000
 20
42.250000
 11
103.500000
 21
42.250000
  0
LINE
  8
0
  6
CONTINUOUS
 62
7
 10
103.500000
 20
53.250000
 11
103.500000
 21
42.250000
  0
LINE
  8
0
  6
CONTINUOUS
 62
7
 10
105.500000
 20
53.250000
 11
103.500000
 21
53.250000
  0
LINE
  8
0
  6
CONTINUOUS
 62
7
 10
105.500000
 20
48.423302
 11
103.500000
 21
48.423302
  0
LINE
  8
0
  6
CONTINUOUS
 62
7
 10
105.500000
 20
47.076698
 11
103.500000
 21
47.076698
  0
LINE
  8
0
  6
CONTINUOUS
 62
7
 10
105.500000
 20
52.576599
 11
103.500000
 21
52.576599
  0
LINE
  8
0
  6
CONTINUOUS
 62
7
 10
105.500000
 20
42.923302
 11
103.500000
 21
42.923302
  0
LINE
  8
0
  6
CONTINUOUS
 62
7
 10
163.500000
 20
53.250000
 11
163.500000
 21
41.250000
  0
LINE
  8
0
  6
CONTINUOUS
 62
7
 10
163.500000
 20
51.250000
 11
143.500000
 21
51.250000
  0
LINE
  8
0
  6
CONTINUOUS
 62
7
 10
143.500000
 20
51.250000
 11
143.500000
 21
41.250000
  0
LINE
  8
0
  6
CONTINUOUS
 62
7
 10
170.500000
 20
53.750000
 11
170.500000
 21
41.750000
  0
LINE
  8
0
  6
CONTINUOUS
 62
7
 10
176.500000
 20
53.750000
 11
176.500000
 21
41.750000
  0
LINE
  8
0
  6
CONTINUOUS
 62
7
 10
176.500000
 20
53.250000
 11
178.500000
 21
53.250000
  0
LINE
  8
0
  6
CONTINUOUS
 62
7
 10
178.500000
 20
42.250000
 11
178.500000
 21
53.250000
  0
LINE
  8
0
  6
CONTINUOUS
 62
7
 10
176.500000
 20
47.076599
 11
178.500000
 21
47.076599
  0
LINE
  8
0
  6
CONTINUOUS
 62
7
 10
176.500000
 20
48.423302
 11
178.500000
 21
48.423302
  0
LINE
  8
0
  6
CONTINUOUS
 62
7
 10
176.500000
 20
52.576698
 11
178.500000
 21
52.576698
  0
LINE
  8
0
  6
CENTER
 62
2
 10
162.500000
 20
47.750000
 11
196.500000
 21
47.750000
  0
LINE
  8
0
  6
CONTINUOUS
 62
7
 10
194.500000
 20
44.450001
 11
195.500000
 21
44.450001
  0
LINE
  8
0
  6
CONTINUOUS
 62
7
 10
194.500000
 20
43.750000
 11
194.500000
 21
51.750000
  0
LINE
  8
0
  6
CONTINUOUS
 62
7
 10
195.500000
 20
44.450001
 11
195.500000
 21
51.049999
  0
LINE
  8
0
  6
CONTINUOUS
 62
7
 10
194.500000
 20
51.049999
 11
195.500000
 21
51.049999
  0
LINE
  8
0
  6
CONTINUOUS
 62
2
 10
178.500000
 20
44.450001
 11
194.500000
 21
44.450001
  0
LINE
  8
0
  6
CONTINUOUS
 62
2
 10
178.500000
 20
51.049999
 11
194.500000
 21
51.049999
  0
LINE
  8
0
  6
CONTINUOUS
 62
7
 10
178.500000
 20
51.750000
 11
194.500000
 21
51.750000
  0
LINE
  8
0
  6
CONTINUOUS
 62
2
 10
169.500000
 20
44.450001
 11
170.500000
 21
44.450001
  0
LINE
  8
0
  6
CONTINUOUS
 62
7
 10
169.500000
 20
51.750000
 11
170.500000
 21
51.750000
  0
LINE
  8
0
  6
CONTINUOUS
 62
2
 10
169.500000
 20
51.049999
 11
170.500000
 21
51.049999
  0
LINE
  8
0
  6
CONTINUOUS
 62
7
 10
169.500000
 20
42.250000
 11
169.500000
 21
53.250000
  0
LINE
  8
0
  6
CONTINUOUS
 62
7
 10
169.500000
 20
53.250000
 11
163.500000
 21
53.250000
  0
LINE
  8
0
  6
CONTINUOUS
 62
7
 10
178.500000
 20
43.750000
 11
194.500000
 21
43.750000
  0
LINE
  8
0
  6
CONTINUOUS
 62
7
 10
176.500000
 20
42.923302
 11
178.500000
 21
42.923302
  0
LINE
  8
0
  6
CONTINUOUS
 62
7
 10
122.500000
 20
48.750000
 11
122.500000
 21
46.750000
  0
LINE
  8
0
  6
CONTINUOUS
 62
7
 10
163.500000
 20
41.750000
 11
194.000000
 21
41.750000
  0
LINE
  8
0
  6
CONTINUOUS
 62
7
 10
103.500000
 20
84.250000
 11
105.500000
 21
84.250000
  0
LINE
  8
0
  6
CONTINUOUS
 62
7
 10
176.500000
 20
84.250000
 11
178.500000
 21
84.250000
  0
LINE
  8
0
  6
CONTINUOUS
 62
7
 10
143.500000
 20
82.250000
 11
143.500000
 21
72.250000
  0
LINE
  8
0
  6
CONTINUOUS
 62
7
 10
143.500000
 20
82.250000
 11
163.500000
 21
82.250000
  0
LINE
  8
0
  6
CONTINUOUS
 62
7
 10
105.500000
 20
93.250000
 11
176.500000
 21
93.250000
  0
LINE
  8
0
  6
CONTINUOUS
 62
7
 10
122.500000
 20
77.250000
 11
122.500000
 21
79.250000
  0
LINE
  8
0
  6
CENTER
 62
2
 10
85.500000
 20
78.250000
 11
123.500000
 21
78.250000
  0
LINE
  8
0
  6
CONTINUOUS
 62
7
 10
113.500000
 20
84.250000
 11
168.500000
 21
84.250000
  0
LINE
  8
0
  6
CONTINUOUS
 62
7
 10
111.500000
 20
82.250000
 11
111.500000
 21
72.250000
  0
LINE
  8
0
  6
CONTINUOUS
 62
7
 10
105.500000
 20
93.250000
 11
105.500000
 21
72.250000
  0
LINE
  8
0
  6
CONTINUOUS
 62
7
 10
170.500000
 20
82.250000
 11
170.500000
 21
72.250000
  0
LINE
  8
0
  6
CONTINUOUS
 62
7
 10
176.500000
 20
93.250000
 11
176.500000
 21
72.250000
  0
LINE
  8
0
  6
CONTINUOUS
 62
7
 10
143.500000
 20
72.250000
 11
163.500000
 21
72.250000
  0
LINE
  8
0
  6
CONTINUOUS
 62
7
 10
170.500000
 20
72.250000
 11
184.850006
 21
72.250000
  0
LINE
  8
0
  6
CONTINUOUS
 62
7
 10
163.500000
 20
72.250000
 11
163.500000
 21
83.750000
  0
LINE
  8
0
  6
CONTINUOUS
 62
7
 10
169.500000
 20
72.750000
 11
169.500000
 21
83.750000
  0
LINE
  8
0
  6
CONTINUOUS
 62
7
 10
169.500000
 20
72.750000
 11
163.500000
 21
72.750000
  0
LINE
  8
0
  6
CONTINUOUS
 62
7
 10
178.500000
 20
72.250000
 11
178.500000
 21
84.250000
  0
LINE
  8
0
  6
CONTINUOUS
 62
7
 10
178.500000
 20
74.685799
 11
176.500000
 21
74.685799
  0
LINE
  8
0
  6
CONTINUOUS
 62
7
 10
178.500000
 20
75.852097
 11
176.500000
 21
75.852097
  0
LINE
  8
0
  6
CONTINUOUS
 62
7
 10
178.500000
 20
80.647903
 11
176.500000
 21
80.647903
  0
LINE
  8
0
  6
CONTINUOUS
 62
7
 10
178.500000
 20
81.814201
 11
176.500000
 21
81.814201
  0
LINE
  8
0
  6
CONTINUOUS
 62
7
 10
103.500000
 20
75.852097
 11
105.500000
 21
75.852097
  0
LINE
  8
0
  6
CONTINUOUS
 62
7
 10
103.500000
 20
84.250000
 11
103.500000
 21
72.250000
  0
LINE
  8
0
  6
CONTINUOUS
 62
7
 10
103.500000
 20
81.814201
 11
105.500000
 21
81.814201
  0
LINE
  8
0
  6
CONTINUOUS
 62
7
 10
103.500000
 20
74.685799
 11
105.500000
 21
74.685799
  0
LINE
  8
0
  6
CONTINUOUS
 62
7
 10
103.500000
 20
80.647903
 11
105.500000
 21
80.647903
  0
LINE
  8
0
  6
CONTINUOUS
 62
7
 10
103.500000
 20
72.250000
 11
111.500000
 21
72.250000
  0
LINE
  8
0
  6
CONTINUOUS
 62
7
 10
122.500000
 20
79.250000
 11
118.500000
 21
79.250000
  0
LINE
  8
0
  6
CONTINUOUS
 62
7
 10
122.500000
 20
77.250000
 11
118.500000
 21
77.250000
  0
LINE
  8
0
  6
CONTINUOUS
 62
7
 10
118.500000
 20
83.750000
 11
118.500000
 21
72.750000
  0
LINE
  8
0
  6
CONTINUOUS
 62
7
 10
111.500000
 20
72.750000
 11
122.150002
 21
72.750000
  0
LINE
  8
0
  6
CONTINUOUS
 62
7
 10
112.500000
 20
83.750000
 11
118.500000
 21
83.750000
  0
LINE
  8
0
  6
CONTINUOUS
 62
7
 10
112.500000
 20
83.750000
 11
112.500000
 21
72.750000
  0
LINE
  8
0
  6
CENTER
 62
2
 10
162.500000
 20
78.250000
 11
196.500000
 21
78.250000
  0
LINE
  8
0
  6
CONTINUOUS
 62
7
 10
195.500000
 20
74.949997
 11
195.500000
 21
77.500000
  0
LINE
  8
0
  6
CONTINUOUS
 62
7
 10
194.500000
 20
74.949997
 11
195.500000
 21
74.949997
  0
LINE
  8
0
  6
CONTINUOUS
 62
7
 10
194.500000
 20
74.250000
 11
194.500000
 21
82.250000
  0
LINE
  8
0
  6
CONTINUOUS
 62
7
 10
194.500000
 20
77.500000
 11
195.500000
 21
77.500000
  0
LINE
  8
0
  6
CONTINUOUS
 62
7
 10
194.500000
 20
79.000000
 11
195.500000
 21
79.000000
  0
LINE
  8
0
  6
CONTINUOUS
 62
7
 10
195.500000
 20
79.000000
 11
195.500000
 21
81.550003
  0
LINE
  8
0
  6
CONTINUOUS
 62
7
 10
194.500000
 20
81.550003
 11
195.500000
 21
81.550003
  0
LINE
  8
0
  6
CONTINUOUS
 62
7
 10
169.500000
 20
74.250000
 11
170.500000
 21
74.250000
  0
LINE
  8
0
  6
CONTINUOUS
 62
7
 10
169.500000
 20
82.250000
 11
170.500000
 21
82.250000
  0
LINE
  8
0
  6
CONTINUOUS
 62
2
 10
169.500000
 20
81.550003
 11
170.500000
 21
81.550003
  0
LINE
  8
0
  6
CONTINUOUS
 62
2
 10
169.500000
 20
74.949997
 11
170.500000
 21
74.949997
  0
LINE
  8
0
  6
CONTINUOUS
 62
7
 10
178.500000
 20
74.250000
 11
194.500000
 21
74.250000
  0
LINE
  8
0
  6
CONTINUOUS
 62
2
 10
178.500000
 20
74.949997
 11
194.500000
 21
74.949997
  0
LINE
  8
0
  6
CONTINUOUS
 62
2
 10
178.500000
 20
81.550003
 11
194.500000
 21
81.550003
  0
LINE
  8
0
  6
CONTINUOUS
 62
7
 10
178.500000
 20
82.250000
 11
194.500000
 21
82.250000
  0
LINE
  8
0
  6
CONTINUOUS
 62
7
 10
86.500000
 20
81.550003
 11
86.500000
 21
79.000000
  0
LINE
  8
0
  6
CONTINUOUS
 62
7
 10
87.500000
 20
81.550003
 11
86.500000
 21
81.550003
  0
LINE
  8
0
  6
CONTINUOUS
 62
7
 10
87.500000
 20
82.250000
 11
87.500000
 21
74.250000
  0
LINE
  8
0
  6
CONTINUOUS
 62
7
 10
87.500000
 20
79.000000
 11
86.500000
 21
79.000000
  0
LINE
  8
0
  6
CONTINUOUS
 62
7
 10
87.500000
 20
77.500000
 11
86.500000
 21
77.500000
  0
LINE
  8
0
  6
CONTINUOUS
 62
7
 10
86.500000
 20
77.500000
 11
86.500000
 21
74.949997
  0
LINE
  8
0
  6
CONTINUOUS
 62
7
 10
87.500000
 20
74.949997
 11
86.500000
 21
74.949997
  0
LINE
  8
0
  6
CONTINUOUS
 62
7
 10
112.500000
 20
82.250000
 11
111.500000
 21
82.250000
  0
LINE
  8
0
  6
CONTINUOUS
 62
7
 10
112.500000
 20
74.250000
 11
111.500000
 21
74.250000
  0
LINE
  8
0
  6
CONTINUOUS
 62
2
 10
112.500000
 20
74.949997
 11
111.500000
 21
74.949997
  0
LINE
  8
0
  6
CONTINUOUS
 62
2
 10
112.500000
 20
81.550003
 11
111.500000
 21
81.550003
  0
LINE
  8
0
  6
CONTINUOUS
 62
7
 10
103.500000
 20
74.250000
 11
87.500000
 21
74.250000
  0
LINE
  8
0
  6
CONTINUOUS
 62
2
 10
103.500000
 20
74.949997
 11
87.500000
 21
74.949997
  0
LINE
  8
0
  6
CONTINUOUS
 62
2
 10
103.500000
 20
81.550003
 11
87.500000
 21
81.550003
  0
LINE
  8
0
  6
CONTINUOUS
 62
7
 10
103.500000
 20
82.250000
 11
87.500000
 21
82.250000
  0
LINE
  8
0
  6
CONTINUOUS
 62
7
 10
122.150002
 20
79.250000
 11
122.150002
 21
83.750000
  0
LINE
  8
0
  6
CONTINUOUS
 62
7
 10
178.500000
 20
83.750000
 11
184.850006
 21
83.750000
  0
LINE
  8
0
  6
CONTINUOUS
 62
7
 10
184.850006
 20
82.250000
 11
184.850006
 21
83.750000
  0
LINE
  8
0
  6
CONTINUOUS
 62
7
 10
65.000000
 20
-36.250000
 11
55.000000
 21
-36.250000
  0
LINE
  8
0
  6
CONTINUOUS
 62
2
 10
65.000000
 20
-22.049999
 11
64.000000
 21
-22.049999
  0
LINE
  8
0
  6
CONTINUOUS
 62
2
 10
64.000000
 20
-18.600000
 11
64.000000
 21
-19.450001
  0
LINE
  8
0
  6
CONTINUOUS
 62
2
 10
64.000000
 20
-22.900000
 11
60.200001
 21
-22.900000
  0
LINE
  8
0
  6
CONTINUOUS
 62
2
 10
58.700001
 20
-20.100000
 11
58.700001
 21
-21.400000
  0
LINE
  8
0
  6
CONTINUOUS
 62
2
 10
64.000000
 20
-18.600000
 11
60.200001
 21
-18.600000
  0
LINE
  8
0
  6
CONTINUOUS
 62
2
 10
65.000000
 20
-19.450001
 11
64.000000
 21
-19.450001
  0
LINE
  8
0
  6
CONTINUOUS
 62
7
 10
65.000000
 20
-17.250000
 11
65.000000
 21
-36.250000
  0
LINE
  8
0
  6
CONTINUOUS
 62
7
 10
65.000000
 20
-17.250000
 11
57.500000
 21
-17.250000
  0
LINE
  8
0
  6
CONTINUOUS
 62
7
 10
57.500000
 20
-17.250000
 11
57.500000
 21
-29.750000
  0
LINE
  8
0
  6
CONTINUOUS
 62
7
 10
57.500000
 20
-29.750000
 11
55.000000
 21
-29.750000
  0
LINE
  8
0
  6
CONTINUOUS
 62
7
 10
56.500000
 20
-29.250000
 11
55.000000
 21
-29.250000
  0
LINE
  8
0
  6
CONTINUOUS
 62
7
 10
56.500000
 20
-18.250000
 11
56.500000
 21
-29.250000
  0
LINE
  8
0
  6
CONTINUOUS
 62
7
 10
56.500000
 20
-18.250000
 11
54.500000
 21
-18.250000
  0
LINE
  8
0
  6
CONTINUOUS
 62
2
 10
64.000000
 20
-22.049999
 11
64.000000
 21
-22.900000
  0
LINE
  8
0
  6
CENTER
 62
2
 10
67.000000
 20
-20.750000
 11
56.700001
 21
-20.750000
  0
LINE
  8
0
  6
CENTER
 62
2
 10
67.000000
 20
-26.750000
 11
56.700001
 21
-26.750000
  0
LINE
  8
0
  6
CONTINUOUS
 62
7
 10
217.000000
 20
-36.250000
 11
227.000000
 21
-36.250000
  0
LINE
  8
0
  6
CONTINUOUS
 62
2
 10
217.000000
 20
-22.049999
 11
218.000000
 21
-22.049999
  0
LINE
  8
0
  6
CONTINUOUS
 62
2
 10
218.000000
 20
-18.600000
 11
218.000000
 21
-19.450001
  0
LINE
  8
0
  6
CONTINUOUS
 62
2
 10
218.000000
 20
-22.900000
 11
221.800003
 21
-22.900000
  0
LINE
  8
0
  6
CONTINUOUS
 62
2
 10
223.300003
 20
-20.100000
 11
223.300003
 21
-21.400000
  0
LINE
  8
0
  6
CONTINUOUS
 62
2
 10
218.000000
 20
-18.600000
 11
221.800003
 21
-18.600000
  0
LINE
  8
0
  6
CONTINUOUS
 62
2
 10
217.000000
 20
-19.450001
 11
218.000000
 21
-19.450001
  0
LINE
  8
0
  6
CONTINUOUS
 62
7
 10
217.000000
 20
-17.250000
 11
217.000000
 21
-36.250000
  0
LINE
  8
0
  6
CONTINUOUS
 62
7
 10
217.000000
 20
-17.250000
 11
224.500000
 21
-17.250000
  0
LINE
  8
0
  6
CONTINUOUS
 62
7
 10
224.500000
 20
-17.250000
 11
224.500000
 21
-29.750000
  0
LINE
  8
0
  6
CONTINUOUS
 62
7
 10
224.500000
 20
-29.750000
 11
227.000000
 21
-29.750000
  0
LINE
  8
0
  6
CONTINUOUS
 62
7
 10
225.500000
 20
-29.250000
 11
227.000000
 21
-29.250000
  0
LINE
  8
0
  6
CONTINUOUS
 62
7
 10
225.500000
 20
-18.250000
 11
225.500000
 21
-29.250000
  0
LINE
  8
0
  6
CONTINUOUS
 62
7
 10
225.500000
 20
-18.250000
 11
227.500000
 21
-18.250000
  0
LINE
  8
0
  6
CONTINUOUS
 62
2
 10
218.000000
 20
-22.049999
 11
218.000000
 21
-22.900000
  0
LINE
  8
0
  6
CENTER
 62
2
 10
215.000000
 20
-20.750000
 11
225.300003
 21
-20.750000
  0
LINE
  8
0
  6
CENTER
 62
2
 10
215.000000
 20
-26.750000
 11
225.300003
 21
-26.750000
  0
LINE
  8
0
  6
CONTINUOUS
 62
7
 10
-178.000000
 20
-21.250000
 11
-163.000000
 21
-21.250000
  0
LINE
  8
0
  6
CONTINUOUS
 62
7
 10
-178.000000
 20
-28.750000
 11
-169.347000
 21
-28.750000
  0
LINE
  8
0
  6
CONTINUOUS
 62
7
 10
-178.000000
 20
-38.250000
 11
-102.000000
 21
-38.250000
  0
LINE
  8
0
  6
CONTINUOUS
 62
7
 10
-178.000000
 20
-21.250000
 11
-178.000000
 21
-38.250000
  0
LINE
  8
0
  6
CONTINUOUS
 62
7
 10
-167.199997
 20
-32.750000
 11
-163.000000
 21
-32.750000
  0
LINE
  8
0
  6
CONTINUOUS
 62
7
 10
-163.000000
 20
-36.250000
 11
-117.000000
 21
-36.250000
  0
LINE
  8
0
  6
CONTINUOUS
 62
2
 10
-163.000000
 20
-28.049999
 11
-117.000000
 21
-28.049999
  0
LINE
  8
0
  6
CONTINUOUS
 62
2
 10
-163.000000
 20
-25.450001
 11
-117.000000
 21
-25.450001
  0
LINE
  8
0
  6
CONTINUOUS
 62
2
 10
-163.000000
 20
-22.049999
 11
-117.000000
 21
-22.049999
  0
LINE
  8
0
  6
CONTINUOUS
 62
2
 10
-163.000000
 20
-19.450001
 11
-117.000000
 21
-19.450001
  0
LINE
  8
0
  6
CONTINUOUS
 62
7
 10
-163.500000
 20
-17.250000
 11
-117.000000
 21
-17.250000
  0
LINE
  8
0
  6
CONTINUOUS
 62
7
 10
-163.000000
 20
-17.250000
 11
-163.000000
 21
-36.250000
  0
LINE
  8
0
  6
DASHED
 62
2
 10
-167.000000
 20
-32.750000
 11
-167.000000
 21
-33.750000
  0
LINE
  8
0
  6
DASHED
 62
2
 10
-167.000000
 20
-33.750000
 11
-159.000000
 21
-33.750000
  0
LINE
  8
0
  6
DASHED
 62
2
 10
-165.500000
 20
-33.750000
 11
-165.500000
 21
-38.250000
  0
LINE
  8
0
  6
DASHED
 62
2
 10
-165.100006
 20
-33.750000
 11
-165.100006
 21
-38.250000
  0
LINE
  8
0
  6
CENTER
 62
2
 10
-163.000000
 20
-30.750000
 11
-163.000000
 21
-40.250000
  0
LINE
  8
0
  6
DASHED
 62
2
 10
-160.899994
 20
-33.750000
 11
-160.899994
 21
-38.250000
  0
LINE
  8
0
  6
DASHED
 62
2
 10
-160.500000
 20
-33.750000
 11
-160.500000
 21
-38.250000
  0
LINE
  8
0
  6
DASHED
 62
2
 10
-159.000000
 20
-32.750000
 11
-159.000000
 21
-33.750000
  0
LINE
  8
0
  6
CONTINUOUS
 62
7
 10
-153.500000
 20
-16.750000
 11
-153.500000
 21
-17.250000
  0
LINE
  8
0
  6
CONTINUOUS
 62
7
 10
-145.899994
 20
-16.250000
 11
-145.899994
 21
-17.250000
  0
LINE
  8
0
  6
CONTINUOUS
 62
7
 10
-145.899994
 20
-16.250000
 11
-119.099998
 21
-16.250000
  0
LINE
  8
0
  6
CONTINUOUS
 62
7
 10
-153.500000
 20
-16.750000
 11
-145.899994
 21
-16.750000
  0
LINE
  8
0
  6
CONTINUOUS
 62
7
 10
-111.500000
 20
-21.250000
 11
-102.000000
 21
-21.250000
  0
LINE
  8
0
  6
CONTINUOUS
 62
7
 10
-111.500000
 20
-16.750000
 11
-111.500000
 21
-28.250000
  0
LINE
  8
0
  6
CONTINUOUS
 62
7
 10
-119.099998
 20
-16.250000
 11
-119.099998
 21
-17.250000
  0
LINE
  8
0
  6
CONTINUOUS
 62
7
 10
-111.500000
 20
-16.750000
 11
-119.099998
 21
-16.750000
  0
LINE
  8
0
  6
CONTINUOUS
 62
7
 10
-102.000000
 20
-21.250000
 11
-102.000000
 21
-38.250000
  0
LINE
  8
0
  6
CONTINUOUS
 62
7
 10
-117.000000
 20
-17.250000
 11
-117.000000
 21
-36.250000
  0
LINE
  8
0
  6
CENTER
 62
2
 10
-142.500000
 20
73.750000
 11
-142.500000
 21
69.750000
  0
LINE
  8
0
  6
CENTER
 62
2
 10
-122.500000
 20
73.750000
 11
-122.500000
 21
69.750000
  0
LINE
  8
0
  6
CONTINUOUS
 62
7
 10
-117.000000
 20
-28.250000
 11
-111.500000
 21
-28.250000
  0
LINE
  8
0
  6
CONTINUOUS
 62
7
 10
-112.800003
 20
-32.750000
 11
-117.000000
 21
-32.750000
  0
LINE
  8
0
  6
CONTINUOUS
 62
7
 10
-110.653000
 20
-28.750000
 11
-102.000000
 21
-28.750000
  0
LINE
  8
0
  6
DASHED
 62
2
 10
-121.000000
 20
-32.750000
 11
-121.000000
 21
-33.750000
  0
LINE
  8
0
  6
DASHED
 62
2
 10
-121.000000
 20
-33.750000
 11
-113.000000
 21
-33.750000
  0
LINE
  8
0
  6
DASHED
 62
2
 10
-119.500000
 20
-33.750000
 11
-119.500000
 21
-38.250000
  0
LINE
  8
0
  6
DASHED
 62
2
 10
-119.099998
 20
-33.750000
 11
-119.099998
 21
-38.250000
  0
LINE
  8
0
  6
CENTER
 62
2
 10
-117.000000
 20
-30.750000
 11
-117.000000
 21
-40.250000
  0
LINE
  8
0
  6
DASHED
 62
2
 10
-114.900002
 20
-33.750000
 11
-114.900002
 21
-38.250000
  0
LINE
  8
0
  6
DASHED
 62
2
 10
-114.500000
 20
-33.750000
 11
-114.500000
 21
-38.250000
  0
LINE
  8
0
  6
DASHED
 62
2
 10
-113.000000
 20
-32.750000
 11
-113.000000
 21
-33.750000
  0
LINE
  8
0
  6
CONTINUOUS
 62
7
 10
-117.000000
 20
-1.250000
 11
-117.000000
 21
8.750000
  0
LINE
  8
0
  6
CONTINUOUS
 62
7
 10
-129.250000
 20
8.750000
 11
-129.250000
 21
7.250000
  0
LINE
  8
0
  6
CONTINUOUS
 62
7
 10
-163.000000
 20
-1.250000
 11
-163.000000
 21
8.750000
  0
LINE
  8
0
  6
CONTINUOUS
 62
7
 10
-163.000000
 20
6.250000
 11
-117.000000
 21
6.250000
  0
LINE
  8
0
  6
CONTINUOUS
 62
7
 10
-163.000000
 20
-1.250000
 11
-117.000000
 21
-1.250000
  0
LINE
  8
0
  6
CONTINUOUS
 62
7
 10
-135.750000
 20
8.750000
 11
-135.750000
 21
7.250000
  0
LINE
  8
0
  6
CONTINUOUS
 62
7
 10
-135.750000
 20
7.250000
 11
-129.250000
 21
7.250000
  0
LINE
  8
0
  6
CONTINUOUS
 62
7
 10
-163.000000
 20
-58.250000
 11
-163.000000
 21
-68.250000
  0
LINE
  8
0
  6
CONTINUOUS
 62
7
 10
-117.000000
 20
-58.250000
 11
-117.000000
 21
-68.250000
  0
LINE
  8
0
  6
CONTINUOUS
 62
7
 10
-163.000000
 20
-58.250000
 11
-117.000000
 21
-58.250000
  0
LINE
  8
0
  6
CONTINUOUS
 62
7
 10
-235.000000
 20
-21.250000
 11
-220.000000
 21
-21.250000
  0
LINE
  8
0
  6
CONTINUOUS
 62
7
 10
-235.000000
 20
-25.250000
 11
-235.000000
 21
-28.750000
  0
LINE
  8
0
  6
CONTINUOUS
 62
7
 10
-235.000000
 20
-21.250000
 11
-235.000000
 21
-22.250000
  0
LINE
  8
0
  6
CONTINUOUS
 62
7
 10
-243.500000
 20
-16.250000
 11
-236.500000
 21
-16.250000
  0
LINE
  8
0
  6
CONTINUOUS
 62
7
 10
-243.500000
 20
-28.250000
 11
-235.000000
 21
-28.250000
  0
LINE
  8
0
  6
CONTINUOUS
 62
7
 10
-236.199997
 20
-16.549999
 11
-218.800003
 21
-16.549999
  0
LINE
  8
0
  6
CONTINUOUS
 62
7
 10
-236.500000
 20
-16.250000
 11
-236.199997
 21
-16.549999
  0
LINE
  8
0
  6
CONTINUOUS
 62
7
 10
-220.000000
 20
-25.250000
 11
-220.000000
 21
-28.750000
  0
LINE
  8
0
  6
CONTINUOUS
 62
7
 10
-220.000000
 20
-21.250000
 11
-220.000000
 21
-22.250000
  0
LINE
  8
0
  6
CONTINUOUS
 62
7
 10
-211.500000
 20
-16.250000
 11
-211.500000
 21
-28.250000
  0
LINE
  8
0
  6
CONTINUOUS
 62
7
 10
-211.500000
 20
-16.250000
 11
-218.500000
 21
-16.250000
  0
LINE
  8
0
  6
CONTINUOUS
 62
7
 10
-211.500000
 20
-28.250000
 11
-220.000000
 21
-28.250000
  0
LINE
  8
0
  6
CONTINUOUS
 62
7
 10
-218.500000
 20
-16.250000
 11
-218.800003
 21
-16.549999
  0
LINE
  8
0
  6
CONTINUOUS
 62
7
 10
-243.500000
 20
-16.250000
 11
-243.500000
 21
-28.250000
  0
LINE
  8
0
  6
CONTINUOUS
 62
7
 10
-211.000000
 20
-28.750000
 11
-220.000000
 21
-28.750000
  0
LINE
  8
0
  6
CONTINUOUS
 62
7
 10
-211.000000
 20
-38.250000
 11
-244.000000
 21
-38.250000
  0
LINE
  8
0
  6
CONTINUOUS
 62
7
 10
-244.000000
 20
-28.750000
 11
-235.000000
 21
-28.750000
  0
LINE
  8
0
  6
CONTINUOUS
 62
7
 10
-211.000000
 20
-28.750000
 11
-211.000000
 21
-38.250000
  0
LINE
  8
0
  6
CONTINUOUS
 62
7
 10
-244.000000
 20
-16.750000
 11
-244.000000
 21
-38.250000
  0
LINE
  8
0
  6
CENTER
 62
2
 10
-227.500000
 20
-14.250000
 11
-227.500000
 21
-40.250000
  0
LINE
  8
0
  6
CENTER
 62
2
 10
-235.899994
 20
-30.250000
 11
-219.100006
 21
-30.250000
  0
LINE
  8
0
  6
CENTER
 62
2
 10
-237.500000
 20
-29.250000
 11
-237.500000
 21
-36.250000
  0
LINE
  8
0
  6
CENTER
 62
2
 10
-241.000000
 20
-32.750000
 11
-234.000000
 21
-32.750000
  0
LINE
  8
0
  6
CENTER
 62
2
 10
-239.500000
 20
-36.250000
 11
-239.500000
 21
-40.250000
  0
LINE
  8
0
  6
CENTER
 62
2
 10
-215.500000
 20
-36.250000
 11
-215.500000
 21
-40.250000
  0
LINE
  8
0
  6
CENTER
 62
2
 10
-215.000000
 20
-14.250000
 11
-215.000000
 21
-18.250000
  0
LINE
  8
0
  6
CENTER
 62
2
 10
-240.000000
 20
-14.250000
 11
-240.000000
 21
-18.250000
  0
LINE
  8
0
  6
CONTINUOUS
 62
7
 10
-256.000000
 20
-16.750000
 11
-256.000000
 21
-37.750000
  0
LINE
  8
0
  6
CONTINUOUS
 62
7
 10
-244.000000
 20
-37.750000
 11
-256.000000
 21
-37.750000
  0
LINE
  8
0
  6
CONTINUOUS
 62
7
 10
-243.500000
 20
-16.750000
 11
-256.000000
 21
-16.750000
  0
LINE
  8
0
  6
CENTER
 62
2
 10
-250.000000
 20
-15.750000
 11
-250.000000
 21
-29.750000
  0
LINE
  8
0
  6
CENTER
 62
2
 10
-243.000000
 20
-22.750000
 11
-257.000000
 21
-22.750000
  0
LINE
  8
0
  6
CONTINUOUS
 62
7
 10
-249.326996
 20
-28.712099
 11
-245.173004
 21
-26.314199
  0
LINE
  8
0
  6
CONTINUOUS
 62
7
 10
-254.826996
 20
-26.314199
 11
-250.673004
 21
-28.712099
  0
LINE
  8
0
  6
CONTINUOUS
 62
7
 10
-255.500000
 20
-20.352100
 11
-255.500000
 21
-25.147900
  0
LINE
  8
0
  6
CONTINUOUS
 62
7
 10
-250.673004
 20
-16.787901
 11
-254.826996
 21
-19.185801
  0
LINE
  8
0
  6
CONTINUOUS
 62
7
 10
-245.173004
 20
-19.185801
 11
-249.326996
 21
-16.787901
  0
LINE
  8
0
  6
CONTINUOUS
 62
7
 10
-248.363998
 20
-23.500000
 11
-246.070999
 21
-23.500000
  0
LINE
  8
0
  6
CONTINUOUS
 62
7
 10
-248.363998
 20
-22.000000
 11
-246.070999
 21
-22.000000
  0
LINE
  8
0
  6
CONTINUOUS
 62
7
 10
-253.929001
 20
-22.000000
 11
-251.636002
 21
-22.000000
  0
LINE
  8
0
  6
CONTINUOUS
 62
7
 10
-253.929001
 20
-23.500000
 11
-251.636002
 21
-23.500000
  0
LINE
  8
0
  6
CONTINUOUS
 62
7
 10
15.292900
 20
-23.457100
 11
16.707100
 21
-22.042900
  0
LINE
  8
0
  6
CONTINUOUS
 62
7
 10
-244.500000
 20
-20.352100
 11
-244.500000
 21
-25.147900
  0
LINE
  8
0
  6
CONTINUOUS
 62
7
 10
-201.000000
 20
-36.250000
 11
-211.000000
 21
-36.250000
  0
LINE
  8
0
  6
CONTINUOUS
 62
2
 10
-201.000000
 20
-22.049999
 11
-202.000000
 21
-22.049999
  0
LINE
  8
0
  6
CONTINUOUS
 62
2
 10
-202.000000
 20
-18.600000
 11
-202.000000
 21
-19.450001
  0
LINE
  8
0
  6
CONTINUOUS
 62
2
 10
-202.000000
 20
-22.900000
 11
-205.800003
 21
-22.900000
  0
LINE
  8
0
  6
CONTINUOUS
 62
2
 10
-207.300003
 20
-20.100000
 11
-207.300003
 21
-21.400000
  0
LINE
  8
0
  6
CONTINUOUS
 62
2
 10
-202.000000
 20
-18.600000
 11
-205.800003
 21
-18.600000
  0
LINE
  8
0
  6
CONTINUOUS
 62
2
 10
-201.000000
 20
-19.450001
 11
-202.000000
 21
-19.450001
  0
LINE
  8
0
  6
CONTINUOUS
 62
7
 10
-201.000000
 20
-17.250000
 11
-201.000000
 21
-36.250000
  0
LINE
  8
0
  6
CONTINUOUS
 62
7
 10
-201.000000
 20
-17.250000
 11
-208.500000
 21
-17.250000
  0
LINE
  8
0
  6
CONTINUOUS
 62
7
 10
-208.500000
 20
-17.250000
 11
-208.500000
 21
-29.750000
  0
LINE
  8
0
  6
CONTINUOUS
 62
7
 10
-208.500000
 20
-29.750000
 11
-211.000000
 21
-29.750000
  0
LINE
  8
0
  6
CONTINUOUS
 62
7
 10
-209.500000
 20
-29.250000
 11
-211.000000
 21
-29.250000
  0
LINE
  8
0
  6
CONTINUOUS
 62
7
 10
-209.500000
 20
-18.250000
 11
-209.500000
 21
-29.250000
  0
LINE
  8
0
  6
CONTINUOUS
 62
7
 10
-209.500000
 20
-18.250000
 11
-211.500000
 21
-18.250000
  0
LINE
  8
0
  6
CONTINUOUS
 62
2
 10
-202.000000
 20
-22.049999
 11
-202.000000
 21
-22.900000
  0
LINE
  8
0
  6
CENTER
 62
2
 10
-199.000000
 20
-20.750000
 11
-209.300003
 21
-20.750000
  0
LINE
  8
0
  6
CENTER
 62
2
 10
-199.000000
 20
-26.750000
 11
-209.300003
 21
-26.750000
  0
LINE
  8
0
  6
CONTINUOUS
 62
7
 10
-45.000000
 20
-21.250000
 11
-60.000000
 21
-21.250000
  0
LINE
  8
0
  6
CONTINUOUS
 62
7
 10
-45.000000
 20
-25.250000
 11
-45.000000
 21
-28.750000
  0
LINE
  8
0
  6
CONTINUOUS
 62
7
 10
-45.000000
 20
-21.250000
 11
-45.000000
 21
-22.250000
  0
LINE
  8
0
  6
CONTINUOUS
 62
7
 10
-36.500000
 20
-16.250000
 11
-43.500000
 21
-16.250000
  0
LINE
  8
0
  6
CONTINUOUS
 62
7
 10
-36.500000
 20
-28.250000
 11
-45.000000
 21
-28.250000
  0
LINE
  8
0
  6
CONTINUOUS
 62
7
 10
-43.799999
 20
-16.549999
 11
-61.200001
 21
-16.549999
  0
LINE
  8
0
  6
CONTINUOUS
 62
7
 10
-43.500000
 20
-16.250000
 11
-43.799999
 21
-16.549999
  0
LINE
  8
0
  6
CONTINUOUS
 62
7
 10
-60.000000
 20
-25.250000
 11
-60.000000
 21
-28.750000
  0
LINE
  8
0
  6
CONTINUOUS
 62
7
 10
-60.000000
 20
-21.250000
 11
-60.000000
 21
-22.250000
  0
LINE
  8
0
  6
CONTINUOUS
 62
7
 10
-68.500000
 20
-16.250000
 11
-68.500000
 21
-28.250000
  0
LINE
  8
0
  6
CONTINUOUS
 62
7
 10
-68.500000
 20
-16.250000
 11
-61.500000
 21
-16.250000
  0
LINE
  8
0
  6
CONTINUOUS
 62
7
 10
-68.500000
 20
-28.250000
 11
-60.000000
 21
-28.250000
  0
LINE
  8
0
  6
CONTINUOUS
 62
7
 10
-61.500000
 20
-16.250000
 11
-61.200001
 21
-16.549999
  0
LINE
  8
0
  6
CONTINUOUS
 62
7
 10
-36.500000
 20
-16.250000
 11
-36.500000
 21
-28.250000
  0
LINE
  8
0
  6
CONTINUOUS
 62
7
 10
-69.000000
 20
-28.750000
 11
-60.000000
 21
-28.750000
  0
LINE
  8
0
  6
CONTINUOUS
 62
7
 10
-69.000000
 20
-38.250000
 11
-36.000000
 21
-38.250000
  0
LINE
  8
0
  6
CONTINUOUS
 62
7
 10
-36.000000
 20
-28.750000
 11
-45.000000
 21
-28.750000
  0
LINE
  8
0
  6
CONTINUOUS
 62
7
 10
-69.000000
 20
-28.750000
 11
-69.000000
 21
-38.250000
  0
LINE
  8
0
  6
CONTINUOUS
 62
7
 10
-36.000000
 20
-16.750000
 11
-36.000000
 21
-38.250000
  0
LINE
  8
0
  6
CENTER
 62
2
 10
-52.500000
 20
-14.250000
 11
-52.500000
 21
-40.250000
  0
LINE
  8
0
  6
CENTER
 62
2
 10
-44.099998
 20
-30.250000
 11
-60.900002
 21
-30.250000
  0
LINE
  8
0
  6
CENTER
 62
2
 10
-42.500000
 20
-29.250000
 11
-42.500000
 21
-36.250000
  0
LINE
  8
0
  6
CENTER
 62
2
 10
-39.000000
 20
-32.750000
 11
-46.000000
 21
-32.750000
  0
LINE
  8
0
  6
CENTER
 62
2
 10
-40.500000
 20
-36.250000
 11
-40.500000
 21
-40.250000
  0
LINE
  8
0
  6
CENTER
 62
2
 10
-64.500000
 20
-36.250000
 11
-64.500000
 21
-40.250000
  0
LINE
  8
0
  6
CENTER
 62
2
 10
-65.000000
 20
-14.250000
 11
-65.000000
 21
-18.250000
  0
LINE
  8
0
  6
CENTER
 62
2
 10
-40.000000
 20
-14.250000
 11
-40.000000
 21
-18.250000
  0
LINE
  8
0
  6
CONTINUOUS
 62
7
 10
-24.000000
 20
-16.750000
 11
-24.000000
 21
-37.750000
  0
LINE
  8
0
  6
CONTINUOUS
 62
7
 10
-36.000000
 20
-37.750000
 11
-24.000000
 21
-37.750000
  0
LINE
  8
0
  6
CONTINUOUS
 62
7
 10
-36.500000
 20
-16.750000
 11
-24.000000
 21
-16.750000
  0
LINE
  8
0
  6
CENTER
 62
2
 10
-30.000000
 20
-15.750000
 11
-30.000000
 21
-29.750000
  0
LINE
  8
0
  6
CENTER
 62
2
 10
-37.000000
 20
-22.750000
 11
-23.000000
 21
-22.750000
  0
LINE
  8
0
  6
CONTINUOUS
 62
7
 10
-30.673300
 20
-28.712099
 11
-34.826599
 21
-26.314199
  0
LINE
  8
0
  6
CONTINUOUS
 62
7
 10
-25.173300
 20
-26.314199
 11
-29.326599
 21
-28.712099
  0
LINE
  8
0
  6
CONTINUOUS
 62
7
 10
-24.500000
 20
-20.352100
 11
-24.500000
 21
-25.147900
  0
LINE
  8
0
  6
CONTINUOUS
 62
7
 10
-29.326599
 20
-16.787901
 11
-25.173300
 21
-19.185801
  0
LINE
  8
0
  6
CONTINUOUS
 62
7
 10
-34.826599
 20
-19.185801
 11
-30.673300
 21
-16.787901
  0
LINE
  8
0
  6
CONTINUOUS
 62
7
 10
-31.636299
 20
-23.500000
 11
-33.929001
 21
-23.500000
  0
LINE
  8
0
  6
CONTINUOUS
 62
7
 10
-31.636299
 20
-22.000000
 11
-33.929001
 21
-22.000000
  0
LINE
  8
0
  6
CONTINUOUS
 62
7
 10
-26.070900
 20
-22.000000
 11
-28.363701
 21
-22.000000
  0
LINE
  8
0
  6
CONTINUOUS
 62
7
 10
-26.070900
 20
-23.500000
 11
-28.363701
 21
-23.500000
  0
LINE
  8
0
  6
CONTINUOUS
 62
7
 10
-35.500000
 20
-20.352100
 11
-35.500000
 21
-25.147900
  0
LINE
  8
0
  6
CONTINUOUS
 62
7
 10
-79.000000
 20
-36.250000
 11
-69.000000
 21
-36.250000
  0
LINE
  8
0
  6
CONTINUOUS
 62
2
 10
-79.000000
 20
-22.049999
 11
-78.000000
 21
-22.049999
  0
LINE
  8
0
  6
CONTINUOUS
 62
2
 10
-78.000000
 20
-18.600000
 11
-78.000000
 21
-19.450001
  0
LINE
  8
0
  6
CONTINUOUS
 62
2
 10
-78.000000
 20
-22.900000
 11
-74.199997
 21
-22.900000
  0
LINE
  8
0
  6
CONTINUOUS
 62
2
 10
-72.699997
 20
-20.100000
 11
-72.699997
 21
-21.400000
  0
LINE
  8
0
  6
CONTINUOUS
 62
2
 10
-78.000000
 20
-18.600000
 11
-74.199997
 21
-18.600000
  0
LINE
  8
0
  6
CONTINUOUS
 62
2
 10
-79.000000
 20
-19.450001
 11
-78.000000
 21
-19.450001
  0
LINE
  8
0
  6
CONTINUOUS
 62
7
 10
-79.000000
 20
-17.250000
 11
-79.000000
 21
-36.250000
  0
LINE
  8
0
  6
CONTINUOUS
 62
7
 10
-79.000000
 20
-17.250000
 11
-71.500000
 21
-17.250000
  0
LINE
  8
0
  6
CONTINUOUS
 62
7
 10
-71.500000
 20
-17.250000
 11
-71.500000
 21
-29.750000
  0
LINE
  8
0
  6
CONTINUOUS
 62
7
 10
-71.500000
 20
-29.750000
 11
-69.000000
 21
-29.750000
  0
LINE
  8
0
  6
CONTINUOUS
 62
7
 10
-70.500000
 20
-29.250000
 11
-69.000000
 21
-29.250000
  0
LINE
  8
0
  6
CONTINUOUS
 62
7
 10
-70.500000
 20
-18.250000
 11
-70.500000
 21
-29.250000
  0
LINE
  8
0
  6
CONTINUOUS
 62
7
 10
-70.500000
 20
-18.250000
 11
-68.500000
 21
-18.250000
  0
LINE
  8
0
  6
CONTINUOUS
 62
2
 10
-78.000000
 20
-22.049999
 11
-78.000000
 21
-22.900000
  0
LINE
  8
0
  6
CENTER
 62
2
 10
-81.000000
 20
-20.750000
 11
-70.699997
 21
-20.750000
  0
LINE
  8
0
  6
CENTER
 62
2
 10
-81.000000
 20
-26.750000
 11
-70.699997
 21
-26.750000
  0
LINE
  8
0
  6
CONTINUOUS
 62
7
 10
184.850006
 20
-21.250000
 11
194.000000
 21
-21.250000
  0
LINE
  8
0
  6
CONTINUOUS
 62
7
 10
88.000000
 20
-21.250000
 11
88.000000
 21
-38.250000
  0
LINE
  8
0
  6
CONTINUOUS
 62
7
 10
185.347000
 20
-28.750000
 11
194.000000
 21
-28.750000
  0
LINE
  8
0
  6
CONTINUOUS
 62
7
 10
122.150002
 20
-16.750000
 11
122.150002
 21
-17.250000
  0
LINE
  8
0
  6
CONTINUOUS
 62
7
 10
129.750000
 20
-16.250000
 11
129.750000
 21
-17.250000
  0
LINE
  8
0
  6
CONTINUOUS
 62
7
 10
129.750000
 20
-16.250000
 11
177.250000
 21
-16.250000
  0
LINE
  8
0
  6
CONTINUOUS
 62
7
 10
179.000000
 20
-28.250000
 11
184.850006
 21
-28.250000
  0
LINE
  8
0
  6
CONTINUOUS
 62
7
 10
122.150002
 20
-16.750000
 11
129.750000
 21
-16.750000
  0
LINE
  8
0
  6
CONTINUOUS
 62
7
 10
88.000000
 20
-21.250000
 11
103.000000
 21
-21.250000
  0
LINE
  8
0
  6
CONTINUOUS
 62
7
 10
177.250000
 20
-16.250000
 11
177.250000
 21
-17.250000
  0
LINE
  8
0
  6
CONTINUOUS
 62
7
 10
184.850006
 20
-16.750000
 11
177.250000
 21
-16.750000
  0
LINE
  8
0
  6
CONTINUOUS
 62
7
 10
88.000000
 20
-38.250000
 11
194.000000
 21
-38.250000
  0
LINE
  8
0
  6
CONTINUOUS
 62
7
 10
98.800003
 20
-32.750000
 11
103.000000
 21
-32.750000
  0
LINE
  8
0
  6
CONTINUOUS
 62
7
 10
183.199997
 20
-32.750000
 11
179.000000
 21
-32.750000
  0
LINE
  8
0
  6
CONTINUOUS
 62
7
 10
184.850006
 20
-16.750000
 11
184.850006
 21
-28.250000
  0
LINE
  8
0
  6
CENTER
 62
2
 10
133.500000
 20
-18.250000
 11
133.500000
 21
-14.250000
  0
LINE
  8
0
  6
CENTER
 62
2
 10
153.500000
 20
-18.250000
 11
153.500000
 21
-14.250000
  0
LINE
  8
0
  6
CENTER
 62
2
 10
173.500000
 20
-18.250000
 11
173.500000
 21
-14.250000
  0
LINE
  8
0
  6
CONTINUOUS
 62
7
 10
103.000000
 20
-17.250000
 11
103.000000
 21
-36.250000
  0
LINE
  8
0
  6
CONTINUOUS
 62
2
 10
103.000000
 20
-28.049999
 11
179.000000
 21
-28.049999
  0
LINE
  8
0
  6
CONTINUOUS
 62
2
 10
103.000000
 20
-25.450001
 11
179.000000
 21
-25.450001
  0
LINE
  8
0
  6
CONTINUOUS
 62
2
 10
103.000000
 20
-22.049999
 11
179.000000
 21
-22.049999
  0
LINE
  8
0
  6
CONTINUOUS
 62
2
 10
103.000000
 20
-19.450001
 11
179.000000
 21
-19.450001
  0
LINE
  8
0
  6
CONTINUOUS
 62
7
 10
103.000000
 20
-17.250000
 11
179.000000
 21
-17.250000
  0
LINE
  8
0
  6
CONTINUOUS
 62
7
 10
179.000000
 20
-17.250000
 11
179.000000
 21
-36.250000
  0
LINE
  8
0
  6
CONTINUOUS
 62
7
 10
103.000000
 20
-36.250000
 11
179.000000
 21
-36.250000
  0
LINE
  8
0
  6
DASHED
 62
2
 10
99.000000
 20
-32.750000
 11
99.000000
 21
-33.750000
  0
LINE
  8
0
  6
DASHED
 62
2
 10
99.000000
 20
-33.750000
 11
107.000000
 21
-33.750000
  0
LINE
  8
0
  6
DASHED
 62
2
 10
100.500000
 20
-33.750000
 11
100.500000
 21
-38.250000
  0
LINE
  8
0
  6
DASHED
 62
2
 10
100.900002
 20
-33.750000
 11
100.900002
 21
-38.250000
  0
LINE
  8
0
  6
CENTER
 62
2
 10
103.000000
 20
-30.750000
 11
103.000000
 21
-40.250000
  0
LINE
  8
0
  6
DASHED
 62
2
 10
105.099998
 20
-33.750000
 11
105.099998
 21
-38.250000
  0
LINE
  8
0
  6
DASHED
 62
2
 10
105.500000
 20
-33.750000
 11
105.500000
 21
-38.250000
  0
LINE
  8
0
  6
DASHED
 62
2
 10
107.000000
 20
-32.750000
 11
107.000000
 21
-33.750000
  0
LINE
  8
0
  6
DASHED
 62
2
 10
175.000000
 20
-32.750000
 11
175.000000
 21
-33.750000
  0
LINE
  8
0
  6
DASHED
 62
2
 10
175.000000
 20
-33.750000
 11
183.000000
 21
-33.750000
  0
LINE
  8
0
  6
DASHED
 62
2
 10
176.500000
 20
-33.750000
 11
176.500000
 21
-38.250000
  0
LINE
  8
0
  6
DASHED
 62
2
 10
176.899994
 20
-33.750000
 11
176.899994
 21
-38.250000
  0
LINE
  8
0
  6
CENTER
 62
2
 10
179.000000
 20
-30.750000
 11
179.000000
 21
-40.250000
  0
LINE
  8
0
  6
DASHED
 62
2
 10
181.100006
 20
-33.750000
 11
181.100006
 21
-38.250000
  0
LINE
  8
0
  6
DASHED
 62
2
 10
181.500000
 20
-33.750000
 11
181.500000
 21
-38.250000
  0
LINE
  8
0
  6
DASHED
 62
2
 10
183.000000
 20
-32.750000
 11
183.000000
 21
-33.750000
  0
LINE
  8
0
  6
CONTINUOUS
 62
7
 10
194.000000
 20
-21.250000
 11
194.000000
 21
-38.250000
  0
LINE
  8
0
  6
CONTINUOUS
 62
7
 10
88.000000
 20
-28.750000
 11
96.653297
 21
-28.750000
  0
LINE
  8
0
  6
CONTINUOUS
 62
7
 10
103.000000
 20
-58.250000
 11
179.000000
 21
-58.250000
  0
LINE
  8
0
  6
CONTINUOUS
 62
7
 10
103.000000
 20
74.250000
 11
103.000000
 21
72.750000
  0
LINE
  8
0
  6
CONTINUOUS
 62
7
 10
103.000000
 20
-58.250000
 11
103.000000
 21
-68.250000
  0
LINE
  8
0
  6
CONTINUOUS
 62
7
 10
179.000000
 20
-58.250000
 11
179.000000
 21
-68.250000
  0
LINE
  8
0
  6
CONTINUOUS
 62
7
 10
103.000000
 20
72.750000
 11
103.500000
 21
72.750000
  0
LINE
  8
0
  6
CONTINUOUS
 62
7
 10
156.750000
 20
7.250000
 11
156.750000
 21
8.750000
  0
LINE
  8
0
  6
CONTINUOUS
 62
7
 10
179.000000
 20
-1.250000
 11
179.000000
 21
8.750000
  0
LINE
  8
0
  6
CONTINUOUS
 62
7
 10
103.000000
 20
-1.250000
 11
103.000000
 21
8.750000
  0
LINE
  8
0
  6
CONTINUOUS
 62
7
 10
103.000000
 20
6.250000
 11
179.000000
 21
6.250000
  0
LINE
  8
0
  6
CONTINUOUS
 62
7
 10
103.000000
 20
-1.250000
 11
179.000000
 21
-1.250000
  0
LINE
  8
0
  6
CONTINUOUS
 62
7
 10
150.250000
 20
7.250000
 11
156.750000
 21
7.250000
  0
LINE
  8
0
  6
CONTINUOUS
 62
7
 10
150.250000
 20
7.250000
 11
150.250000
 21
8.750000
  0
LINE
  8
0
  6
CENTER
 62
2
 10
-172.000000
 20
-28.250000
 11
-172.000000
 21
-37.250000
  0
LINE
  8
0
  6
CENTER
 62
2
 10
-176.500000
 20
-32.750000
 11
-167.500000
 21
-32.750000
  0
LINE
  8
0
  6
CENTER
 62
2
 10
-108.000000
 20
-28.250000
 11
-108.000000
 21
-37.250000
  0
LINE
  8
0
  6
CENTER
 62
2
 10
-112.500000
 20
-32.750000
 11
-103.500000
 21
-32.750000
  0
LINE
  8
0
  6
CENTER
 62
2
 10
94.000000
 20
-28.250000
 11
94.000000
 21
-37.250000
  0
LINE
  8
0
  6
CENTER
 62
2
 10
89.500000
 20
-32.750000
 11
98.500000
 21
-32.750000
  0
LINE
  8
0
  6
CENTER
 62
2
 10
188.000000
 20
-28.250000
 11
188.000000
 21
-37.250000
  0
LINE
  8
0
  6
CENTER
 62
2
 10
183.500000
 20
-32.750000
 11
192.500000
 21
-32.750000
  0
LINE
  8
0
  6
CENTER
 62
2
 10
-142.500000
 20
-14.250000
 11
-142.500000
 21
-18.250000
  0
LINE
  8
0
  6
CENTER
 62
2
 10
-122.500000
 20
-14.250000
 11
-122.500000
 21
-18.250000
  0
LINE
  8
0
  6
CONTINUOUS
 62
7
 10
15.292900
 20
-22.042900
 11
16.707100
 21
-23.457100
  0
LINE
  8
0
  6
CONTINUOUS
 62
7
 10
-250.707001
 20
-22.042999
 11
-249.292999
 21
-23.457199
  0
LINE
  8
0
  6
CONTINUOUS
 62
7
 10
-250.707001
 20
-23.457001
 11
-249.292999
 21
-22.042801
  0
LINE
  8
0
  6
CONTINUOUS
 62
7
 10
-30.707100
 20
-22.042900
 11
-29.292900
 21
-23.457100
  0
LINE
  8
0
  6
CONTINUOUS
 62
7
 10
-30.707100
 20
-23.457100
 11
-29.292900
 21
-22.042900
  0
LINE
  8
0
  6
CONTINUOUS
 62
7
 10
265.292999
 20
-22.042801
 11
266.707001
 21
-23.457001
  0
LINE
  8
0
  6
CONTINUOUS
 62
7
 10
265.292999
 20
-23.457199
 11
266.707001
 21
-22.042999
  0
LINE
  8
0
  6
CONTINUOUS
 62
7
 10
0.424988
 20
195.500000
 11
0.424988
 21
-195.000000
  0
CIRCLE
  8
0
  6
CONTINUOUS
 62
2
 10
-122.500000
 20
37.750000
 40
1.500000
  0
CIRCLE
  8
0
  6
CONTINUOUS
 62
7
 10
-122.500000
 20
37.750000
 40
1.200000
  0
CIRCLE
  8
0
  6
CONTINUOUS
 62
2
 10
-122.500000
 20
12.750000
 40
1.500000
  0
CIRCLE
  8
0
  6
CONTINUOUS
 62
7
 10
-122.500000
 20
12.750000
 40
1.200000
  0
CIRCLE
  8
0
  6
CONTINUOUS
 62
7
 10
-163.000000
 20
37.250000
 40
4.000000
  0
CIRCLE
  8
0
  6
CONTINUOUS
 62
2
 10
-163.000000
 20
37.250000
 40
2.500000
  0
CIRCLE
  8
0
  6
CONTINUOUS
 62
7
 10
-163.000000
 20
37.250000
 40
2.100000
  0
CIRCLE
  8
0
  6
CONTINUOUS
 62
7
 10
-163.000000
 20
13.250000
 40
4.000000
  0
CIRCLE
  8
0
  6
CONTINUOUS
 62
2
 10
-163.000000
 20
13.250000
 40
2.500000
  0
CIRCLE
  8
0
  6
CONTINUOUS
 62
7
 10
-163.000000
 20
13.250000
 40
2.100000
  0
CIRCLE
  8
0
  6
CONTINUOUS
 62
2
 10
-163.000000
 20
-96.750000
 40
2.500000
  0
CIRCLE
  8
0
  6
CONTINUOUS
 62
7
 10
-163.000000
 20
-96.750000
 40
2.100000
  0
CIRCLE
  8
0
  6
CONTINUOUS
 62
2
 10
-163.000000
 20
-72.750000
 40
2.500000
  0
CIRCLE
  8
0
  6
CONTINUOUS
 62
7
 10
-163.000000
 20
-72.750000
 40
2.100000
  0
CIRCLE
  8
0
  6
CONTINUOUS
 62
7
 10
-117.000000
 20
-72.750000
 40
2.100000
  0
CIRCLE
  8
0
  6
CONTINUOUS
 62
2
 10
-117.000000
 20
-96.750000
 40
2.500000
  0
CIRCLE
  8
0
  6
CONTINUOUS
 62
7
 10
-117.000000
 20
-96.750000
 40
2.100000
  0
CIRCLE
  8
0
  6
CONTINUOUS
 62
2
 10
-117.000000
 20
-72.750000
 40
2.500000
  0
CIRCLE
  8
0
  6
CONTINUOUS
 62
7
 10
-110.000000
 20
-80.250000
 40
5.900000
  0
CIRCLE
  8
0
  6
CONTINUOUS
 62
7
 10
-170.000000
 20
-80.250000
 40
5.900000
  0
ARC
  8
0
  6
DASHED
 62
2
 10
-117.000000
 20
13.250000
 40
2.500000
 50
216.869995
 51
143.130005
  0
CIRCLE
  8
0
  6
DASHED
 62
2
 10
-117.000000
 20
13.250000
 40
2.100000
  0
CIRCLE
  8
0
  6
DASHED
 62
2
 10
-117.000000
 20
13.250000
 40
4.000000
  0
CIRCLE
  8
0
  6
DASHED
 62
2
 10
-117.000000
 20
37.250000
 40
4.000000
  0
CIRCLE
  8
0
  6
DASHED
 62
2
 10
-117.000000
 20
37.250000
 40
2.500000
  0
CIRCLE
  8
0
  6
DASHED
 62
2
 10
-117.000000
 20
37.250000
 40
2.100000
  0
CIRCLE
  8
0
  6
CONTINUOUS
 62
7
 10
-142.500000
 20
37.750000
 40
1.200000
  0
CIRCLE
  8
0
  6
CONTINUOUS
 62
2
 10
-142.500000
 20
37.750000
 40
1.500000
  0
CIRCLE
  8
0
  6
CONTINUOUS
 62
7
 10
-142.500000
 20
12.750000
 40
1.200000
  0
CIRCLE
  8
0
  6
CONTINUOUS
 62
2
 10
-142.500000
 20
12.750000
 40
1.500000
  0
CIRCLE
  8
0
  6
CONTINUOUS
 62
2
 10
153.500000
 20
37.750000
 40
1.500000
  0
CIRCLE
  8
0
  6
CONTINUOUS
 62
7
 10
153.500000
 20
37.750000
 40
1.200000
  0
CIRCLE
  8
0
  6
CONTINUOUS
 62
2
 10
153.500000
 20
12.750000
 40
1.500000
  0
CIRCLE
  8
0
  6
CONTINUOUS
 62
7
 10
153.500000
 20
12.750000
 40
1.200000
  0
CIRCLE
  8
0
  6
CONTINUOUS
 62
2
 10
173.500000
 20
37.750000
 40
1.500000
  0
CIRCLE
  8
0
  6
CONTINUOUS
 62
7
 10
173.500000
 20
37.750000
 40
1.200000
  0
CIRCLE
  8
0
  6
CONTINUOUS
 62
2
 10
173.500000
 20
12.750000
 40
1.500000
  0
CIRCLE
  8
0
  6
CONTINUOUS
 62
7
 10
173.500000
 20
12.750000
 40
1.200000
  0
CIRCLE
  8
0
  6
CONTINUOUS
 62
7
 10
103.000000
 20
37.250000
 40
4.000000
  0
CIRCLE
  8
0
  6
CONTINUOUS
 62
2
 10
103.000000
 20
37.250000
 40
2.500000
  0
CIRCLE
  8
0
  6
CONTINUOUS
 62
7
 10
103.000000
 20
37.250000
 40
2.100000
  0
CIRCLE
  8
0
  6
CONTINUOUS
 62
7
 10
103.000000
 20
13.250000
 40
4.000000
  0
CIRCLE
  8
0
  6
CONTINUOUS
 62
2
 10
103.000000
 20
13.250000
 40
2.500000
  0
CIRCLE
  8
0
  6
CONTINUOUS
 62
7
 10
103.000000
 20
13.250000
 40
2.100000
  0
CIRCLE
  8
0
  6
CONTINUOUS
 62
2
 10
103.000000
 20
-96.750000
 40
2.500000
  0
CIRCLE
  8
0
  6
CONTINUOUS
 62
7
 10
103.000000
 20
-96.750000
 40
2.100000
  0
CIRCLE
  8
0
  6
CONTINUOUS
 62
2
 10
103.000000
 20
-72.750000
 40
2.500000
  0
CIRCLE
  8
0
  6
CONTINUOUS
 62
7
 10
103.000000
 20
-72.750000
 40
2.100000
  0
CIRCLE
  8
0
  6
CONTINUOUS
 62
7
 10
179.000000
 20
-72.750000
 40
2.100000
  0
CIRCLE
  8
0
  6
CONTINUOUS
 62
2
 10
179.000000
 20
-96.750000
 40
2.500000
  0
CIRCLE
  8
0
  6
CONTINUOUS
 62
7
 10
179.000000
 20
-96.750000
 40
2.100000
  0
CIRCLE
  8
0
  6
CONTINUOUS
 62
2
 10
179.000000
 20
-72.750000
 40
2.500000
  0
CIRCLE
  8
0
  6
CONTINUOUS
 62
7
 10
186.000000
 20
-80.250000
 40
5.900000
  0
CIRCLE
  8
0
  6
CONTINUOUS
 62
7
 10
96.000000
 20
-80.250000
 40
5.900000
  0
CIRCLE
  8
0
  6
DASHED
 62
2
 10
179.000000
 20
13.250000
 40
2.500000
  0
CIRCLE
  8
0
  6
DASHED
 62
2
 10
179.000000
 20
13.250000
 40
2.100000
  0
CIRCLE
  8
0
  6
DASHED
 62
2
 10
179.000000
 20
13.250000
 40
4.000000
  0
CIRCLE
  8
0
  6
DASHED
 62
2
 10
179.000000
 20
37.250000
 40
4.000000
  0
CIRCLE
  8
0
  6
DASHED
 62
2
 10
179.000000
 20
37.250000
 40
2.500000
  0
CIRCLE
  8
0
  6
DASHED
 62
2
 10
179.000000
 20
37.250000
 40
2.100000
  0
CIRCLE
  8
0
  6
CONTINUOUS
 62
7
 10
133.500000
 20
37.750000
 40
1.200000
  0
CIRCLE
  8
0
  6
CONTINUOUS
 62
2
 10
133.500000
 20
37.750000
 40
1.500000
  0
CIRCLE
  8
0
  6
CONTINUOUS
 62
7
 10
133.500000
 20
12.750000
 40
1.200000
  0
CIRCLE
  8
0
  6
CONTINUOUS
 62
2
 10
133.500000
 20
12.750000
 40
1.500000
  0
ARC
  8
0
  6
CONTINUOUS
 62
7
 10
188.000000
 20
88.250000
 40
4.800000
 50
180.000000
 51
236.442993
  0
ARC
  8
0
  6
CONTINUOUS
 62
7
 10
94.000000
 20
88.250000
 40
4.800000
 50
303.557007
 51
0.000000
  0
ARC
  8
0
  6
CONTINUOUS
 62
7
 10
-167.500000
 20
82.250000
 40
2.000000
 50
90.000000
 51
180.000000
  0
ARC
  8
0
  6
CONTINUOUS
 62
7
 10
-112.500000
 20
82.250000
 40
2.000000
 50
0.000000
 51
90.000000
  0
ARC
  8
0
  6
CONTINUOUS
 62
7
 10
266.000000
 20
-22.750000
 40
6.000000
 50
83.556503
 51
96.443497
  0
CIRCLE
  8
0
  6
CONTINUOUS
 62
7
 10
38.500000
 20
-30.250000
 40
6.400000
  0
ARC
  8
0
  6
CONTINUOUS
 62
7
 10
46.799999
 20
-23.750000
 40
1.700010
 50
118.071999
 51
241.925995
  0
ARC
  8
0
  6
CONTINUOUS
 62
7
 10
30.200001
 20
-23.750000
 40
1.699990
 50
298.071014
 51
61.925098
  0
CIRCLE
  8
0
  6
CONTINUOUS
 62
2
 10
28.500000
 20
-32.750000
 40
1.500000
  0
CIRCLE
  8
0
  6
CONTINUOUS
 62
7
 10
28.500000
 20
-32.750000
 40
1.250000
  0
CIRCLE
  8
0
  6
CONTINUOUS
 62
7
 10
16.000000
 20
-22.750000
 40
4.000000
  0
CIRCLE
  8
0
  6
CONTINUOUS
 62
7
 10
16.000000
 20
-22.750000
 40
1.800000
  0
ARC
  8
0
  6
CONTINUOUS
 62
7
 10
16.000000
 20
-22.750000
 40
6.000000
 50
263.556000
 51
276.444000
  0
ARC
  8
0
  6
CONTINUOUS
 62
7
 10
16.000000
 20
-22.750000
 40
6.000000
 50
23.556499
 51
36.443501
  0
ARC
  8
0
  6
CONTINUOUS
 62
7
 10
16.000000
 20
-22.750000
 40
6.000000
 50
203.556000
 51
216.444000
  0
ARC
  8
0
  6
CONTINUOUS
 62
7
 10
16.000000
 20
-22.750000
 40
6.000000
 50
143.556000
 51
156.444000
  0
ARC
  8
0
  6
CONTINUOUS
 62
7
 10
16.000000
 20
-22.750000
 40
6.000000
 50
83.556503
 51
96.443604
  0
ARC
  8
0
  6
CONTINUOUS
 62
7
 10
16.000000
 20
-22.750000
 40
6.000000
 50
323.556000
 51
336.444000
  0
ARC
  8
0
  6
CONTINUOUS
 62
7
 10
266.000000
 20
-22.750000
 40
6.000000
 50
203.556000
 51
216.442993
  0
CIRCLE
  8
0
  6
CONTINUOUS
 62
7
 10
243.500000
 20
-30.250000
 40
6.400000
  0
ARC
  8
0
  6
CONTINUOUS
 62
7
 10
235.199997
 20
-23.750000
 40
1.700010
 50
298.074005
 51
61.928101
  0
ARC
  8
0
  6
CONTINUOUS
 62
7
 10
251.800003
 20
-23.750000
 40
1.699990
 50
118.074997
 51
241.929001
  0
CIRCLE
  8
0
  6
CONTINUOUS
 62
2
 10
253.500000
 20
-32.750000
 40
1.500000
  0
CIRCLE
  8
0
  6
CONTINUOUS
 62
7
 10
253.500000
 20
-32.750000
 40
1.250000
  0
CIRCLE
  8
0
  6
CONTINUOUS
 62
7
 10
266.000000
 20
-22.750000
 40
4.000000
  0
CIRCLE
  8
0
  6
CONTINUOUS
 62
7
 10
266.000000
 20
-22.750000
 40
1.800000
  0
ARC
  8
0
  6
CONTINUOUS
 62
7
 10
266.000000
 20
-22.750000
 40
6.000000
 50
263.556000
 51
276.442993
  0
ARC
  8
0
  6
CONTINUOUS
 62
7
 10
266.000000
 20
-22.750000
 40
6.000000
 50
143.557007
 51
156.444000
  0
ARC
  8
0
  6
CONTINUOUS
 62
7
 10
266.000000
 20
-22.750000
 40
6.000000
 50
323.556000
 51
336.444000
  0
ARC
  8
0
  6
CONTINUOUS
 62
7
 10
266.000000
 20
-22.750000
 40
6.000000
 50
23.556499
 51
36.443501
  0
ARC
  8
0
  6
CONTINUOUS
 62
7
 10
113.500000
 20
82.250000
 40
2.000000
 50
90.000000
 51
180.000000
  0
ARC
  8
0
  6
CONTINUOUS
 62
7
 10
168.500000
 20
82.250000
 40
2.000000
 50
0.000000
 51
90.000000
  0
ARC
  8
0
  6
CONTINUOUS
 62
2
 10
60.200001
 20
-20.100000
 40
1.500000
 50
90.000000
 51
180.000000
  0
ARC
  8
0
  6
CONTINUOUS
 62
2
 10
60.200001
 20
-21.400000
 40
1.500000
 50
180.000000
 51
270.000000
  0
ARC
  8
0
  6
CONTINUOUS
 62
2
 10
221.800003
 20
-21.400000
 40
1.500000
 50
270.000000
 51
0.000000
  0
ARC
  8
0
  6
CONTINUOUS
 62
2
 10
221.800003
 20
-20.100000
 40
1.500000
 50
0.000000
 51
90.000000
  0
ARC
  8
0
  6
CONTINUOUS
 62
7
 10
-108.000000
 20
-32.750000
 40
4.800000
 50
123.556999
 51
180.000000
  0
ARC
  8
0
  6
CONTINUOUS
 62
7
 10
-172.000000
 20
-32.750000
 40
4.800000
 50
0.000000
 51
56.442600
  0
CIRCLE
  8
0
  6
CONTINUOUS
 62
7
 10
-227.500000
 20
-30.250000
 40
6.400000
  0
ARC
  8
0
  6
CONTINUOUS
 62
7
 10
-219.199997
 20
-23.750000
 40
1.700010
 50
118.071999
 51
241.925995
  0
ARC
  8
0
  6
CONTINUOUS
 62
7
 10
-235.800003
 20
-23.750000
 40
1.699990
 50
298.071014
 51
61.924999
  0
CIRCLE
  8
0
  6
CONTINUOUS
 62
2
 10
-237.500000
 20
-32.750000
 40
1.500000
  0
CIRCLE
  8
0
  6
CONTINUOUS
 62
7
 10
-237.500000
 20
-32.750000
 40
1.250000
  0
CIRCLE
  8
0
  6
CONTINUOUS
 62
7
 10
-250.000000
 20
-22.750000
 40
4.000000
  0
CIRCLE
  8
0
  6
CONTINUOUS
 62
7
 10
-250.000000
 20
-22.750000
 40
1.800000
  0
ARC
  8
0
  6
CONTINUOUS
 62
7
 10
-250.000000
 20
-22.750000
 40
6.000000
 50
263.556000
 51
276.442993
  0
ARC
  8
0
  6
CONTINUOUS
 62
7
 10
-250.000000
 20
-22.750000
 40
6.000000
 50
23.556499
 51
36.443501
  0
ARC
  8
0
  6
CONTINUOUS
 62
7
 10
-250.000000
 20
-22.750000
 40
6.000000
 50
203.556000
 51
216.442993
  0
ARC
  8
0
  6
CONTINUOUS
 62
7
 10
-250.000000
 20
-22.750000
 40
6.000000
 50
143.557007
 51
156.444000
  0
ARC
  8
0
  6
CONTINUOUS
 62
7
 10
-250.000000
 20
-22.750000
 40
6.000000
 50
83.556503
 51
96.443497
  0
ARC
  8
0
  6
CONTINUOUS
 62
7
 10
-250.000000
 20
-22.750000
 40
6.000000
 50
323.556000
 51
336.444000
  0
ARC
  8
0
  6
CONTINUOUS
 62
2
 10
-205.800003
 20
-20.100000
 40
1.500000
 50
90.000000
 51
180.000000
  0
ARC
  8
0
  6
CONTINUOUS
 62
2
 10
-205.800003
 20
-21.400000
 40
1.500000
 50
180.000000
 51
270.000000
  0
ARC
  8
0
  6
CONTINUOUS
 62
7
 10
-30.000000
 20
-22.750000
 40
6.000000
 50
83.556503
 51
96.443604
  0
ARC
  8
0
  6
CONTINUOUS
 62
7
 10
-30.000000
 20
-22.750000
 40
6.000000
 50
203.556000
 51
216.444000
  0
CIRCLE
  8
0
  6
CONTINUOUS
 62
7
 10
-52.500000
 20
-30.250000
 40
6.400000
  0
ARC
  8
0
  6
CONTINUOUS
 62
7
 10
-60.799999
 20
-23.750000
 40
1.700010
 50
298.074005
 51
61.928101
  0
ARC
  8
0
  6
CONTINUOUS
 62
7
 10
-44.200001
 20
-23.750000
 40
1.699990
 50
118.074997
 51
241.929001
  0
CIRCLE
  8
0
  6
CONTINUOUS
 62
2
 10
-42.500000
 20
-32.750000
 40
1.500000
  0
CIRCLE
  8
0
  6
CONTINUOUS
 62
7
 10
-42.500000
 20
-32.750000
 40
1.250000
  0
CIRCLE
  8
0
  6
CONTINUOUS
 62
7
 10
-30.000000
 20
-22.750000
 40
4.000000
  0
CIRCLE
  8
0
  6
CONTINUOUS
 62
7
 10
-30.000000
 20
-22.750000
 40
1.800000
  0
ARC
  8
0
  6
CONTINUOUS
 62
7
 10
-30.000000
 20
-22.750000
 40
6.000000
 50
263.556000
 51
276.444000
  0
ARC
  8
0
  6
CONTINUOUS
 62
7
 10
-30.000000
 20
-22.750000
 40
6.000000
 50
143.556000
 51
156.444000
  0
ARC
  8
0
  6
CONTINUOUS
 62
7
 10
-30.000000
 20
-22.750000
 40
6.000000
 50
323.556000
 51
336.444000
  0
ARC
  8
0
  6
CONTINUOUS
 62
7
 10
-30.000000
 20
-22.750000
 40
6.000000
 50
23.556499
 51
36.443501
  0
ARC
  8
0
  6
CONTINUOUS
 62
2
 10
-74.199997
 20
-21.400000
 40
1.500000
 50
270.000000
 51
0.000000
  0
ARC
  8
0
  6
CONTINUOUS
 62
2
 10
-74.199997
 20
-20.100000
 40
1.500000
 50
0.000000
 51
90.000000
  0
ARC
  8
0
  6
CONTINUOUS
 62
7
 10
94.000000
 20
-32.750000
 40
4.800000
 50
0.000000
 51
56.442699
  0
ARC
  8
0
  6
CONTINUOUS
 62
7
 10
188.000000
 20
-32.750000
 40
4.800000
 50
123.556999
 51
180.000000
  0
CIRCLE
  8
0
  6
CONTINUOUS
 62
7
 10
-172.000000
 20
-32.750000
 40
2.100000
  0
CIRCLE
  8
0
  6
CONTINUOUS
 62
2
 10
-172.000000
 20
-32.750000
 40
2.500000
  0
CIRCLE
  8
0
  6
CONTINUOUS
 62
7
 10
-108.000000
 20
-32.750000
 40
2.100000
  0
CIRCLE
  8
0
  6
CONTINUOUS
 62
2
 10
-108.000000
 20
-32.750000
 40
2.500000
  0
CIRCLE
  8
0
  6
CONTINUOUS
 62
7
 10
94.000000
 20
-32.750000
 40
2.100000
  0
CIRCLE
  8
0
  6
CONTINUOUS
 62
2
 10
94.000000
 20
-32.750000
 40
2.500000
  0
CIRCLE
  8
0
  6
CONTINUOUS
 62
7
 10
188.000000
 20
-32.750000
 40
2.100000
  0
CIRCLE
  8
0
  6
CONTINUOUS
 62
2
 10
188.000000
 20
-32.750000
 40
2.500000
  0
TEXT
  8
0
 62
7
 10
202.930283
 20
183.925003
 40
6.300000
  1
Ver.1.0
 50
0.000000
 41
1.010330
 51
0.000000
  7
STANDARD
  0
TEXT
  8
0
 62
7
 10
172.714691
 20
-187.250000
 40
9.000000
  1
KOGANEI CORP.
 50
0.000000
 41
0.771524
 51
0.000000
  7
STANDARD
  0
TEXT
  8
0
 62
7
 10
-243.569717
 20
183.925003
 40
6.300000
  1
AP TABLE
 50
0.000000
 41
0.775607
 51
0.000000
  7
STANDARD
  0
TEXT
  8
0
 62
7
 10
12.274609
 20
158.925003
 40
6.300000
  1
MODEL:APTS-SD12-25-TPQZ-R***
 50
0.000000
 41
0.758336
 51
0.000000
  7
STANDARD
  0
TEXT
  8
0
 62
7
 10
-269.400391
 20
158.925003
 40
6.300000
  1
MODEL:APTS-SD12-15-TPQZ-R***
 50
0.000000
 41
0.768185
 51
0.000000
  7
STANDARD
  0
ENDSEC
  0
EOF
