  0
SECTION
  2
HEADER
  0
ENDSEC
  0
SECTION
  2
TABLES
  0
TABLE
  2
LTYPE
 70
     4
  0
LTYPE
  2
CONTINUOUS
 70
    64
  3
Solid line
 72
    65
 73
     0
 40
0.000000
  0
LTYPE
  2
DASHED
 70
    64
  3
__ __ __ __ __ __ __ __ __ __ __ __ __ __ __
 72
    65
 73
     2
 40
3.500000
 49
2.000000
 49
-1.500000
  0
LTYPE
  2
CENTER
 70
    64
  3
____ _ ____ _ ____ _ ____ _ ____ _ ____ _ ____
 72
    65
 73
     4
 40
17.500000
 49
13.000000
 49
-1.500000
 49
1.500000
 49
-1.500000
  0
LTYPE
  2
PHANTOM
 70
    64
  3
_____ _ _ _____ _ _ _____ _ _ _____ _ _ ____  
 72
    65
 73
     6
 40
15.500000
 49
8.000000
 49
-1.500000
 49
1.500000
 49
-1.500000
 49
1.500000
 49
-1.500000
  0
ENDTAB
  0
TABLE
  2
LAYER
 70
     1
  0
LAYER
  2
0
 70
     0
 62
     7
  6
CONTINUOUS
  0
ENDTAB
  0
TABLE
  2
STYLE
 70
     1
  0
STYLE
  2
STANDARD
 70
     0
 40
0.000000
 41
1.000000
 50
0.000000
 71
     0
 42
0.200000
  3
txt
  4
BIGFONT
  0
ENDTAB
  0
TABLE
  2
VIEW
 70
     0
  0
ENDTAB
  0
ENDSEC
  0
SECTION
  2
BLOCKS
  0
ENDSEC
  0
SECTION
  2
ENTITIES
  0
LINE
  8
0
  6
CONTINUOUS
 62
7
 10
-281.250000
 20
195.500000
 11
282.100006
 21
195.500000
  0
LINE
  8
0
  6
CONTINUOUS
 62
7
 10
-281.250000
 20
195.500000
 11
-281.250000
 21
-195.000000
  0
LINE
  8
0
  6
CONTINUOUS
 62
7
 10
282.100006
 20
195.500000
 11
282.100006
 21
-195.000000
  0
LINE
  8
0
  6
CONTINUOUS
 62
7
 10
-281.250000
 20
-195.000000
 11
282.100006
 21
-195.000000
  0
LINE
  8
0
  6
CONTINUOUS
 62
7
 10
162.100006
 20
-175.000000
 11
162.100006
 21
-195.000000
  0
LINE
  8
0
  6
CONTINUOUS
 62
7
 10
162.100006
 20
-175.000000
 11
282.100006
 21
-175.000000
  0
LINE
  8
0
  6
CONTINUOUS
 62
7
 10
162.100006
 20
175.500000
 11
282.100006
 21
175.500000
  0
LINE
  8
0
  6
CONTINUOUS
 62
7
 10
-281.250000
 20
175.500000
 11
-161.250000
 21
175.500000
  0
LINE
  8
0
  6
CONTINUOUS
 62
7
 10
162.100006
 20
195.500000
 11
162.100006
 21
175.500000
  0
LINE
  8
0
  6
CONTINUOUS
 62
7
 10
-161.250000
 20
195.500000
 11
-161.250000
 21
175.500000
  0
LINE
  8
0
  6
CONTINUOUS
 62
7
 10
-188.000000
 20
-107.000000
 11
-188.000000
 21
-66.000000
  0
LINE
  8
0
  6
CONTINUOUS
 62
7
 10
-92.000000
 20
-107.000000
 11
-92.000000
 21
-66.000000
  0
LINE
  8
0
  6
CONTINUOUS
 62
7
 10
-188.000000
 20
-66.000000
 11
-92.000000
 21
-66.000000
  0
LINE
  8
0
  6
CENTER
 62
2
 10
-190.000000
 20
-86.500000
 11
-90.000000
 21
-86.500000
  0
LINE
  8
0
  6
CONTINUOUS
 62
7
 10
-188.000000
 20
-34.000000
 11
-92.000000
 21
-34.000000
  0
LINE
  8
0
  6
CONTINUOUS
 62
7
 10
-188.000000
 20
-14.000000
 11
-168.500000
 21
-14.000000
  0
LINE
  8
0
  6
CONTINUOUS
 62
7
 10
-188.000000
 20
-14.000000
 11
-188.000000
 21
-34.000000
  0
LINE
  8
0
  6
CONTINUOUS
 62
7
 10
-92.000000
 20
-14.000000
 11
-92.000000
 21
-34.000000
  0
LINE
  8
0
  6
CONTINUOUS
 62
7
 10
-105.000000
 20
-14.000000
 11
-92.000000
 21
-14.000000
  0
LINE
  8
0
  6
CONTINUOUS
 62
7
 10
-92.000000
 20
-21.500000
 11
-111.500000
 21
-21.500000
  0
LINE
  8
0
  6
CONTINUOUS
 62
7
 10
-112.699997
 20
-8.799990
 11
-112.699997
 21
-4.999990
  0
LINE
  8
0
  6
CONTINUOUS
 62
7
 10
-147.300003
 20
-4.999990
 11
-112.699997
 21
-4.999990
  0
LINE
  8
0
  6
CONTINUOUS
 62
7
 10
-147.300003
 20
-8.799990
 11
-147.300003
 21
-4.999990
  0
LINE
  8
0
  6
CONTINUOUS
 62
7
 10
-105.000000
 20
-20.000000
 11
-105.000000
 21
-5.699990
  0
LINE
  8
0
  6
CONTINUOUS
 62
7
 10
-112.699997
 20
-5.699990
 11
-105.000000
 21
-5.699990
  0
LINE
  8
0
  6
CONTINUOUS
 62
7
 10
-155.000000
 20
-8.799990
 11
-155.000000
 21
-5.699990
  0
LINE
  8
0
  6
CONTINUOUS
 62
7
 10
-147.300003
 20
-5.699990
 11
-155.000000
 21
-5.699990
  0
LINE
  8
0
  6
CONTINUOUS
 62
7
 10
-111.500000
 20
-20.000000
 11
-105.000000
 21
-20.000000
  0
LINE
  8
0
  6
CONTINUOUS
 62
7
 10
-188.000000
 20
-107.000000
 11
-92.000000
 21
-107.000000
  0
LINE
  8
0
  6
CENTER
 62
2
 10
-172.500000
 20
-65.959999
 11
-172.500000
 21
-77.040001
  0
LINE
  8
0
  6
CENTER
 62
2
 10
-178.039993
 20
-71.500000
 11
-166.960007
 21
-71.500000
  0
LINE
  8
0
  6
CENTER
 62
2
 10
-180.500000
 20
-85.559998
 11
-180.500000
 21
-102.440002
  0
LINE
  8
0
  6
CENTER
 62
2
 10
-188.940002
 20
-94.000000
 11
-172.059998
 21
-94.000000
  0
LINE
  8
0
  6
CENTER
 62
2
 10
-172.500000
 20
-95.959999
 11
-172.500000
 21
-107.040001
  0
LINE
  8
0
  6
CENTER
 62
2
 10
-178.039993
 20
-101.500000
 11
-166.960007
 21
-101.500000
  0
LINE
  8
0
  6
CENTER
 62
2
 10
-107.500000
 20
-95.959999
 11
-107.500000
 21
-107.040001
  0
LINE
  8
0
  6
CENTER
 62
2
 10
-113.040001
 20
-101.500000
 11
-101.959999
 21
-101.500000
  0
LINE
  8
0
  6
CENTER
 62
2
 10
-107.500000
 20
-65.959999
 11
-107.500000
 21
-77.040001
  0
LINE
  8
0
  6
CENTER
 62
2
 10
-113.040001
 20
-71.500000
 11
-101.959999
 21
-71.500000
  0
LINE
  8
0
  6
CENTER
 62
2
 10
-99.500000
 20
-70.559998
 11
-99.500000
 21
-87.440002
  0
LINE
  8
0
  6
CENTER
 62
2
 10
-107.940002
 20
-79.000000
 11
-91.059998
 21
-79.000000
  0
LINE
  8
0
  6
CONTINUOUS
 62
7
 10
-185.500000
 20
-107.500000
 11
-177.500000
 21
-107.500000
  0
LINE
  8
0
  6
CONTINUOUS
 62
7
 10
-185.000000
 20
-110.500000
 11
-178.000000
 21
-110.500000
  0
LINE
  8
0
  6
CENTER
 62
2
 10
-181.500000
 20
-111.598999
 11
-181.500000
 21
-105.386002
  0
LINE
  8
0
  6
CONTINUOUS
 62
7
 10
-185.500000
 20
-107.500000
 11
-185.500000
 21
-107.000000
  0
LINE
  8
0
  6
CONTINUOUS
 62
7
 10
-177.500000
 20
-107.500000
 11
-177.500000
 21
-107.000000
  0
LINE
  8
0
  6
CONTINUOUS
 62
7
 10
-181.500000
 20
-107.500000
 11
-181.500000
 21
-110.500000
  0
LINE
  8
0
  6
CONTINUOUS
 62
7
 10
-158.735992
 20
-7.200000
 11
-155.000000
 21
-7.200000
  0
LINE
  8
0
  6
CONTINUOUS
 62
7
 10
-185.000000
 20
-107.500000
 11
-185.000000
 21
-110.500000
  0
LINE
  8
0
  6
CONTINUOUS
 62
7
 10
-178.000000
 20
-107.500000
 11
-178.000000
 21
-110.500000
  0
LINE
  8
0
  6
CONTINUOUS
 62
7
 10
-94.500000
 20
-107.500000
 11
-102.500000
 21
-107.500000
  0
LINE
  8
0
  6
CONTINUOUS
 62
7
 10
-95.000000
 20
-110.500000
 11
-102.000000
 21
-110.500000
  0
LINE
  8
0
  6
CENTER
 62
2
 10
-98.500000
 20
-111.598999
 11
-98.500000
 21
-105.386002
  0
LINE
  8
0
  6
CONTINUOUS
 62
7
 10
-94.500000
 20
-107.500000
 11
-94.500000
 21
-107.000000
  0
LINE
  8
0
  6
CONTINUOUS
 62
7
 10
-102.500000
 20
-107.500000
 11
-102.500000
 21
-107.000000
  0
LINE
  8
0
  6
CONTINUOUS
 62
7
 10
-98.500000
 20
-107.500000
 11
-98.500000
 21
-110.500000
  0
LINE
  8
0
  6
CONTINUOUS
 62
7
 10
-95.000000
 20
-107.500000
 11
-95.000000
 21
-110.500000
  0
LINE
  8
0
  6
CONTINUOUS
 62
7
 10
-102.000000
 20
-107.500000
 11
-102.000000
 21
-110.500000
  0
LINE
  8
0
  6
CONTINUOUS
 62
7
 10
-158.735992
 20
-7.200000
 11
-158.735992
 21
-8.799990
  0
LINE
  8
0
  6
CENTER
 62
2
 10
-190.000000
 20
37.500000
 11
-90.730301
 21
37.500000
  0
LINE
  8
0
  6
CONTINUOUS
 62
7
 10
-188.000000
 20
58.000000
 11
-188.000000
 21
17.000000
  0
LINE
  8
0
  6
CONTINUOUS
 62
7
 10
-92.000000
 20
58.000000
 11
-92.000000
 21
17.000000
  0
LINE
  8
0
  6
CONTINUOUS
 62
7
 10
-188.000000
 20
27.500000
 11
-155.000000
 21
27.500000
  0
LINE
  8
0
  6
CONTINUOUS
 62
7
 10
-188.000000
 20
47.500000
 11
-155.000000
 21
47.500000
  0
LINE
  8
0
  6
CONTINUOUS
 62
7
 10
-105.000000
 20
47.500000
 11
-92.000000
 21
47.500000
  0
LINE
  8
0
  6
CONTINUOUS
 62
7
 10
-105.000000
 20
27.500000
 11
-92.000000
 21
27.500000
  0
LINE
  8
0
  6
CONTINUOUS
 62
7
 10
-188.000000
 20
17.000000
 11
-92.000000
 21
17.000000
  0
LINE
  8
0
  6
CONTINUOUS
 62
7
 10
-147.300003
 20
17.500000
 11
-147.300003
 21
57.500000
  0
LINE
  8
0
  6
CONTINUOUS
 62
7
 10
-112.699997
 20
17.500000
 11
-112.699997
 21
57.500000
  0
LINE
  8
0
  6
CONTINUOUS
 62
7
 10
-105.000000
 20
17.900000
 11
-105.000000
 21
57.099998
  0
LINE
  8
0
  6
CONTINUOUS
 62
7
 10
-112.699997
 20
17.900000
 11
-105.000000
 21
17.900000
  0
LINE
  8
0
  6
CONTINUOUS
 62
7
 10
-147.300003
 20
17.900000
 11
-155.000000
 21
17.900000
  0
LINE
  8
0
  6
CONTINUOUS
 62
7
 10
-188.000000
 20
58.000000
 11
-92.000000
 21
58.000000
  0
LINE
  8
0
  6
CONTINUOUS
 62
7
 10
-188.000000
 20
104.000000
 11
-92.000000
 21
104.000000
  0
LINE
  8
0
  6
CONTINUOUS
 62
7
 10
-188.000000
 20
84.000000
 11
-155.000000
 21
84.000000
  0
LINE
  8
0
  6
CONTINUOUS
 62
7
 10
-188.000000
 20
84.000000
 11
-188.000000
 21
104.000000
  0
LINE
  8
0
  6
CONTINUOUS
 62
7
 10
-92.000000
 20
84.000000
 11
-92.000000
 21
104.000000
  0
LINE
  8
0
  6
CONTINUOUS
 62
7
 10
-105.000000
 20
84.000000
 11
-92.000000
 21
84.000000
  0
LINE
  8
0
  6
CONTINUOUS
 62
7
 10
-92.000000
 20
91.500000
 11
-188.000000
 21
91.500000
  0
LINE
  8
0
  6
CENTER
 62
2
 10
-151.500000
 20
99.000000
 11
-158.500000
 21
99.000000
  0
LINE
  8
0
  6
CENTER
 62
2
 10
-155.000000
 20
102.500000
 11
-155.000000
 21
95.500000
  0
LINE
  8
0
  6
CENTER
 62
2
 10
-128.500000
 20
82.000000
 11
-121.500000
 21
82.000000
  0
LINE
  8
0
  6
CENTER
 62
2
 10
-125.000000
 20
85.500000
 11
-125.000000
 21
78.500000
  0
LINE
  8
0
  6
CENTER
 62
2
 10
-131.500000
 20
82.000000
 11
-138.500000
 21
82.000000
  0
LINE
  8
0
  6
CENTER
 62
2
 10
-135.000000
 20
85.500000
 11
-135.000000
 21
78.500000
  0
LINE
  8
0
  6
CONTINUOUS
 62
7
 10
-112.699997
 20
57.099998
 11
-105.000000
 21
57.099998
  0
LINE
  8
0
  6
CONTINUOUS
 62
7
 10
-147.300003
 20
57.099998
 11
-155.000000
 21
57.099998
  0
LINE
  8
0
  6
CONTINUOUS
 62
7
 10
-112.699997
 20
90.000000
 11
-112.699997
 21
75.000000
  0
LINE
  8
0
  6
CONTINUOUS
 62
7
 10
-147.300003
 20
75.000000
 11
-112.699997
 21
75.000000
  0
LINE
  8
0
  6
CONTINUOUS
 62
7
 10
-155.000000
 20
90.000000
 11
-105.000000
 21
90.000000
  0
LINE
  8
0
  6
CONTINUOUS
 62
7
 10
-147.300003
 20
90.000000
 11
-147.300003
 21
75.000000
  0
LINE
  8
0
  6
CONTINUOUS
 62
7
 10
-155.000000
 20
90.000000
 11
-155.000000
 21
75.699997
  0
LINE
  8
0
  6
CONTINUOUS
 62
7
 10
-147.300003
 20
75.699997
 11
-155.000000
 21
75.699997
  0
LINE
  8
0
  6
CONTINUOUS
 62
7
 10
-105.000000
 20
90.000000
 11
-105.000000
 21
75.699997
  0
LINE
  8
0
  6
CONTINUOUS
 62
7
 10
-112.699997
 20
75.699997
 11
-105.000000
 21
75.699997
  0
LINE
  8
0
  6
CENTER
 62
2
 10
-161.500000
 20
99.000000
 11
-168.500000
 21
99.000000
  0
LINE
  8
0
  6
CENTER
 62
2
 10
-165.000000
 20
102.500000
 11
-165.000000
 21
95.500000
  0
LINE
  8
0
  6
CENTER
 62
2
 10
-128.500000
 20
99.000000
 11
-121.500000
 21
99.000000
  0
LINE
  8
0
  6
CENTER
 62
2
 10
-125.000000
 20
102.500000
 11
-125.000000
 21
95.500000
  0
LINE
  8
0
  6
CONTINUOUS
 62
7
 10
-147.300003
 20
17.500000
 11
-112.699997
 21
17.500000
  0
LINE
  8
0
  6
CONTINUOUS
 62
7
 10
-147.300003
 20
57.500000
 11
-112.699997
 21
57.500000
  0
LINE
  8
0
  6
CONTINUOUS
 62
7
 10
-95.000000
 20
99.520699
 11
-95.000000
 21
95.479301
  0
LINE
  8
0
  6
CONTINUOUS
 62
7
 10
-102.000000
 20
99.520699
 11
-98.500000
 21
101.541000
  0
LINE
  8
0
  6
CONTINUOUS
 62
7
 10
-98.500000
 20
93.458504
 11
-95.000000
 21
95.479202
  0
LINE
  8
0
  6
CONTINUOUS
 62
7
 10
-102.000000
 20
95.479301
 11
-98.500000
 21
93.458504
  0
LINE
  8
0
  6
CONTINUOUS
 62
7
 10
-96.317001
 20
100.280998
 11
-99.817001
 21
94.218903
  0
LINE
  8
0
  6
CONTINUOUS
 62
7
 10
-97.182999
 20
100.780998
 11
-100.682999
 21
94.718903
  0
LINE
  8
0
  6
CONTINUOUS
 62
7
 10
-98.500000
 20
101.541000
 11
-95.000000
 21
99.520699
  0
LINE
  8
0
  6
CONTINUOUS
 62
7
 10
-102.000000
 20
95.479301
 11
-102.000000
 21
99.520699
  0
LINE
  8
0
  6
CENTER
 62
2
 10
-98.500000
 20
104.040001
 11
-98.500000
 21
90.959999
  0
LINE
  8
0
  6
CENTER
 62
2
 10
-105.040001
 20
97.500000
 11
-91.959999
 21
97.500000
  0
LINE
  8
0
  6
CONTINUOUS
 62
7
 10
-178.000000
 20
99.520699
 11
-178.000000
 21
95.479301
  0
LINE
  8
0
  6
CONTINUOUS
 62
7
 10
-185.000000
 20
99.520699
 11
-181.500000
 21
101.541000
  0
LINE
  8
0
  6
CONTINUOUS
 62
7
 10
-181.500000
 20
93.458504
 11
-178.000000
 21
95.479301
  0
LINE
  8
0
  6
CONTINUOUS
 62
7
 10
-185.000000
 20
95.479301
 11
-181.500000
 21
93.458603
  0
LINE
  8
0
  6
CONTINUOUS
 62
7
 10
-179.317001
 20
100.280998
 11
-182.817001
 21
94.218903
  0
LINE
  8
0
  6
CONTINUOUS
 62
7
 10
-180.182999
 20
100.780998
 11
-183.682999
 21
94.718903
  0
LINE
  8
0
  6
CONTINUOUS
 62
7
 10
-181.500000
 20
101.541000
 11
-178.000000
 21
99.520699
  0
LINE
  8
0
  6
CONTINUOUS
 62
7
 10
-185.000000
 20
95.479301
 11
-185.000000
 21
99.520699
  0
LINE
  8
0
  6
CENTER
 62
2
 10
-181.500000
 20
104.040001
 11
-181.500000
 21
90.959999
  0
LINE
  8
0
  6
CENTER
 62
2
 10
-188.039993
 20
97.500000
 11
-174.960007
 21
97.500000
  0
LINE
  8
0
  6
CENTER
 62
2
 10
-172.500000
 20
59.790001
 11
-172.500000
 21
45.209999
  0
LINE
  8
0
  6
CENTER
 62
2
 10
-179.789993
 20
52.500000
 11
-165.210007
 21
52.500000
  0
LINE
  8
0
  6
CENTER
 62
2
 10
-172.500000
 20
29.790001
 11
-172.500000
 21
15.210000
  0
LINE
  8
0
  6
CENTER
 62
2
 10
-179.789993
 20
22.500000
 11
-165.210007
 21
22.500000
  0
LINE
  8
0
  6
CENTER
 62
2
 10
-142.500000
 20
57.040001
 11
-142.500000
 21
47.959999
  0
LINE
  8
0
  6
CENTER
 62
2
 10
-147.039993
 20
52.500000
 11
-137.960007
 21
52.500000
  0
LINE
  8
0
  6
CENTER
 62
2
 10
-117.500000
 20
57.040001
 11
-117.500000
 21
47.959999
  0
LINE
  8
0
  6
CENTER
 62
2
 10
-122.040001
 20
52.500000
 11
-112.959999
 21
52.500000
  0
LINE
  8
0
  6
CENTER
 62
2
 10
-142.500000
 20
27.040001
 11
-142.500000
 21
17.959999
  0
LINE
  8
0
  6
CENTER
 62
2
 10
-147.039993
 20
22.500000
 11
-137.960007
 21
22.500000
  0
LINE
  8
0
  6
CENTER
 62
2
 10
-117.500000
 20
27.040001
 11
-117.500000
 21
17.959999
  0
LINE
  8
0
  6
CENTER
 62
2
 10
-122.040001
 20
22.500000
 11
-112.959999
 21
22.500000
  0
LINE
  8
0
  6
CENTER
 62
2
 10
-107.500000
 20
29.790001
 11
-107.500000
 21
15.210000
  0
LINE
  8
0
  6
CENTER
 62
2
 10
-114.790001
 20
22.500000
 11
-100.209999
 21
22.500000
  0
LINE
  8
0
  6
CENTER
 62
2
 10
-107.500000
 20
45.209999
 11
-107.500000
 21
59.790001
  0
LINE
  8
0
  6
CENTER
 62
2
 10
-114.790001
 20
52.500000
 11
-100.209999
 21
52.500000
  0
LINE
  8
0
  6
CONTINUOUS
 62
7
 10
-155.000000
 20
17.900000
 11
-155.000000
 21
57.099998
  0
LINE
  8
0
  6
CONTINUOUS
 62
7
 10
-158.414993
 20
39.809399
 11
-155.000000
 21
39.809399
  0
LINE
  8
0
  6
CONTINUOUS
 62
7
 10
-158.414993
 20
38.654701
 11
-155.000000
 21
38.654701
  0
LINE
  8
0
  6
CONTINUOUS
 62
7
 10
-158.414993
 20
36.345299
 11
-155.000000
 21
36.345299
  0
LINE
  8
0
  6
CONTINUOUS
 62
7
 10
-158.414993
 20
35.190601
 11
-155.000000
 21
35.190601
  0
LINE
  8
0
  6
CONTINUOUS
 62
7
 10
-158.735992
 20
81.199997
 11
-155.000000
 21
81.199997
  0
LINE
  8
0
  6
CONTINUOUS
 62
7
 10
-158.735992
 20
79.199997
 11
-155.000000
 21
79.199997
  0
LINE
  8
0
  6
CONTINUOUS
 62
7
 10
-158.735992
 20
77.199997
 11
-155.000000
 21
77.199997
  0
LINE
  8
0
  6
CENTER
 62
2
 10
-118.500000
 20
99.000000
 11
-111.500000
 21
99.000000
  0
LINE
  8
0
  6
CENTER
 62
2
 10
-115.000000
 20
102.500000
 11
-115.000000
 21
95.500000
  0
LINE
  8
0
  6
CONTINUOUS
 62
7
 10
-178.000000
 20
58.500000
 11
-178.000000
 21
61.500000
  0
LINE
  8
0
  6
CONTINUOUS
 62
7
 10
-185.500000
 20
58.500000
 11
-177.500000
 21
58.500000
  0
LINE
  8
0
  6
CONTINUOUS
 62
7
 10
-185.000000
 20
61.500000
 11
-178.000000
 21
61.500000
  0
LINE
  8
0
  6
CENTER
 62
2
 10
-181.500000
 20
62.598999
 11
-181.500000
 21
56.385700
  0
LINE
  8
0
  6
CONTINUOUS
 62
7
 10
-185.500000
 20
58.500000
 11
-185.500000
 21
58.000000
  0
LINE
  8
0
  6
CONTINUOUS
 62
7
 10
-177.500000
 20
58.500000
 11
-177.500000
 21
58.000000
  0
LINE
  8
0
  6
CONTINUOUS
 62
7
 10
-181.500000
 20
58.500000
 11
-181.500000
 21
61.500000
  0
LINE
  8
0
  6
CONTINUOUS
 62
7
 10
-185.000000
 20
58.500000
 11
-185.000000
 21
61.500000
  0
LINE
  8
0
  6
CONTINUOUS
 62
7
 10
-98.500000
 20
58.500000
 11
-98.500000
 21
61.500000
  0
LINE
  8
0
  6
CONTINUOUS
 62
7
 10
-95.000000
 20
58.500000
 11
-95.000000
 21
61.500000
  0
LINE
  8
0
  6
CONTINUOUS
 62
7
 10
-102.000000
 20
58.500000
 11
-102.000000
 21
61.500000
  0
LINE
  8
0
  6
CONTINUOUS
 62
7
 10
-94.500000
 20
58.500000
 11
-102.500000
 21
58.500000
  0
LINE
  8
0
  6
CONTINUOUS
 62
7
 10
-95.000000
 20
61.500000
 11
-102.000000
 21
61.500000
  0
LINE
  8
0
  6
CENTER
 62
2
 10
-98.500000
 20
62.598999
 11
-98.500000
 21
56.385700
  0
LINE
  8
0
  6
CONTINUOUS
 62
7
 10
-94.500000
 20
58.500000
 11
-94.500000
 21
58.000000
  0
LINE
  8
0
  6
CONTINUOUS
 62
7
 10
-102.500000
 20
58.500000
 11
-102.500000
 21
58.000000
  0
LINE
  8
0
  6
CONTINUOUS
 62
7
 10
-158.414993
 20
39.809399
 11
-158.414993
 21
35.190601
  0
LINE
  8
0
  6
CONTINUOUS
 62
7
 10
-158.735992
 20
81.199997
 11
-158.735992
 21
77.199997
  0
LINE
  8
0
  6
CONTINUOUS
 62
7
 10
-147.300003
 20
48.000000
 11
-112.699997
 21
48.000000
  0
LINE
  8
0
  6
CONTINUOUS
 62
7
 10
-147.300003
 20
27.000000
 11
-112.699997
 21
27.000000
  0
LINE
  8
0
  6
CONTINUOUS
 62
7
 10
8.499970
 20
-21.500000
 11
19.000000
 21
-21.500000
  0
LINE
  8
0
  6
CONTINUOUS
 62
7
 10
49.500000
 20
-21.500000
 11
39.000000
 21
-21.500000
  0
LINE
  8
0
  6
CONTINUOUS
 62
7
 10
39.000000
 20
-14.000000
 11
39.000000
 21
-15.513400
  0
LINE
  8
0
  6
CONTINUOUS
 62
7
 10
39.000000
 20
-18.486601
 11
39.000000
 21
-21.500000
  0
LINE
  8
0
  6
CONTINUOUS
 62
7
 10
8.499970
 20
-34.000000
 11
49.500000
 21
-34.000000
  0
LINE
  8
0
  6
CONTINUOUS
 62
7
 10
19.000000
 20
-14.000000
 11
39.000000
 21
-14.000000
  0
LINE
  8
0
  6
CENTER
 62
2
 10
29.000000
 20
-3.499990
 11
29.000000
 21
-35.500000
  0
LINE
  8
0
  6
CONTINUOUS
 62
7
 10
37.000000
 20
-17.600000
 11
37.000000
 21
-16.400000
  0
LINE
  8
0
  6
CONTINUOUS
 62
7
 10
37.000000
 20
-16.400000
 11
37.906700
 21
-16.240101
  0
LINE
  8
0
  6
CONTINUOUS
 62
7
 10
37.000000
 20
-17.600000
 11
37.906700
 21
-17.759899
  0
LINE
  8
0
  6
CONTINUOUS
 62
7
 10
21.000000
 20
-17.600000
 11
21.000000
 21
-16.400000
  0
LINE
  8
0
  6
CONTINUOUS
 62
7
 10
21.000000
 20
-16.400000
 11
20.093201
 21
-16.240101
  0
LINE
  8
0
  6
CONTINUOUS
 62
7
 10
21.000000
 20
-17.600000
 11
20.093300
 21
-17.759800
  0
LINE
  8
0
  6
CONTINUOUS
 62
7
 10
8.999970
 20
-20.000000
 11
19.000000
 21
-20.000000
  0
LINE
  8
0
  6
CONTINUOUS
 62
7
 10
39.000000
 20
-20.000000
 11
49.000000
 21
-20.000000
  0
LINE
  8
0
  6
CONTINUOUS
 62
7
 10
19.099899
 20
-5.600000
 11
38.900002
 21
-5.600000
  0
LINE
  8
0
  6
CONTINUOUS
 62
7
 10
49.000000
 20
-20.500000
 11
49.000000
 21
-4.999990
  0
LINE
  8
0
  6
CONTINUOUS
 62
7
 10
39.500000
 20
-4.999990
 11
49.000000
 21
-4.999990
  0
LINE
  8
0
  6
CONTINUOUS
 62
7
 10
39.500000
 20
-4.999990
 11
38.900002
 21
-5.599990
  0
LINE
  8
0
  6
CONTINUOUS
 62
7
 10
8.999970
 20
-20.000000
 11
8.999970
 21
-4.999990
  0
LINE
  8
0
  6
CENTER
 62
2
 10
17.959999
 20
-24.000000
 11
40.040001
 21
-24.000000
  0
LINE
  8
0
  6
CONTINUOUS
 62
7
 10
4.999980
 20
-31.541500
 11
4.999980
 21
-23.458599
  0
LINE
  8
0
  6
CONTINUOUS
 62
7
 10
4.999980
 20
-31.541500
 11
8.500000
 21
-31.541500
  0
LINE
  8
0
  6
CONTINUOUS
 62
7
 10
4.999980
 20
-29.562901
 11
7.999980
 21
-29.562901
  0
LINE
  8
0
  6
CENTER
 62
2
 10
3.511670
 20
-27.500000
 11
9.459960
 21
-27.500000
  0
LINE
  8
0
  6
CONTINUOUS
 62
7
 10
4.999980
 20
-25.437201
 11
7.999980
 21
-25.437201
  0
LINE
  8
0
  6
CONTINUOUS
 62
7
 10
4.999980
 20
-23.458599
 11
8.500000
 21
-23.458599
  0
LINE
  8
0
  6
CONTINUOUS
 62
7
 10
7.999980
 20
-31.541500
 11
7.999980
 21
-23.458599
  0
LINE
  8
0
  6
CONTINUOUS
 62
7
 10
31.309401
 20
-9.199990
 11
30.154699
 21
-7.199990
  0
LINE
  8
0
  6
CONTINUOUS
 62
7
 10
27.845200
 20
-11.200000
 11
26.690500
 21
-9.199990
  0
LINE
  8
0
  6
CONTINUOUS
 62
7
 10
27.845301
 20
-11.200000
 11
30.154699
 21
-11.200000
  0
LINE
  8
0
  6
CONTINUOUS
 62
7
 10
27.845301
 20
-7.199990
 11
30.154699
 21
-7.199990
  0
LINE
  8
0
  6
CONTINUOUS
 62
7
 10
30.154699
 20
-11.200000
 11
31.309401
 21
-9.199970
  0
LINE
  8
0
  6
CONTINUOUS
 62
7
 10
26.690500
 20
-9.199960
 11
27.845200
 21
-7.199980
  0
LINE
  8
0
  6
CENTER
 62
2
 10
25.190599
 20
-9.199980
 11
32.809399
 21
-9.199980
  0
LINE
  8
0
  6
CONTINUOUS
 62
7
 10
18.500000
 20
-4.999980
 11
19.100000
 21
-5.599970
  0
LINE
  8
0
  6
CONTINUOUS
 62
7
 10
18.500000
 20
-4.999990
 11
8.999950
 21
-4.999990
  0
LINE
  8
0
  6
CONTINUOUS
 62
7
 10
19.000000
 20
-14.000000
 11
19.000000
 21
-15.513400
  0
LINE
  8
0
  6
CONTINUOUS
 62
7
 10
19.000000
 20
-18.486601
 11
19.000000
 21
-21.500000
  0
LINE
  8
0
  6
CONTINUOUS
 62
7
 10
8.499970
 20
-21.500000
 11
8.499970
 21
-34.000000
  0
LINE
  8
0
  6
CONTINUOUS
 62
7
 10
77.000000
 20
-107.000000
 11
203.000000
 21
-107.000000
  0
LINE
  8
0
  6
CONTINUOUS
 62
7
 10
77.000000
 20
-107.000000
 11
77.000000
 21
-66.000000
  0
LINE
  8
0
  6
CONTINUOUS
 62
7
 10
203.000000
 20
-107.000000
 11
203.000000
 21
-66.000000
  0
LINE
  8
0
  6
CONTINUOUS
 62
7
 10
77.000000
 20
-66.000000
 11
203.000000
 21
-66.000000
  0
LINE
  8
0
  6
CENTER
 62
2
 10
75.000000
 20
-86.500000
 11
205.000000
 21
-86.500000
  0
LINE
  8
0
  6
CENTER
 62
2
 10
75.000000
 20
37.500000
 11
205.000000
 21
37.500000
  0
LINE
  8
0
  6
CONTINUOUS
 62
7
 10
77.000000
 20
58.000000
 11
77.000000
 21
17.000000
  0
LINE
  8
0
  6
CONTINUOUS
 62
7
 10
203.000000
 20
58.000000
 11
203.000000
 21
17.000000
  0
LINE
  8
0
  6
CONTINUOUS
 62
7
 10
128.850006
 20
17.500000
 11
181.149994
 21
17.500000
  0
LINE
  8
0
  6
CONTINUOUS
 62
7
 10
128.850006
 20
57.500000
 11
181.149994
 21
57.500000
  0
LINE
  8
0
  6
CONTINUOUS
 62
7
 10
77.000000
 20
27.500000
 11
121.000000
 21
27.500000
  0
LINE
  8
0
  6
CONTINUOUS
 62
7
 10
77.000000
 20
47.500000
 11
121.000000
 21
47.500000
  0
LINE
  8
0
  6
CONTINUOUS
 62
7
 10
189.000000
 20
47.500000
 11
203.000000
 21
47.500000
  0
LINE
  8
0
  6
CONTINUOUS
 62
7
 10
189.000000
 20
27.500000
 11
203.000000
 21
27.500000
  0
LINE
  8
0
  6
CONTINUOUS
 62
7
 10
77.000000
 20
17.000000
 11
203.000000
 21
17.000000
  0
LINE
  8
0
  6
CONTINUOUS
 62
7
 10
77.000000
 20
58.000000
 11
203.000000
 21
58.000000
  0
LINE
  8
0
  6
CONTINUOUS
 62
7
 10
77.000000
 20
-34.000000
 11
203.000000
 21
-34.000000
  0
LINE
  8
0
  6
CONTINUOUS
 62
7
 10
77.000000
 20
-14.000000
 11
106.000000
 21
-14.000000
  0
LINE
  8
0
  6
CONTINUOUS
 62
7
 10
77.000000
 20
-14.000000
 11
77.000000
 21
-34.000000
  0
LINE
  8
0
  6
CONTINUOUS
 62
7
 10
203.000000
 20
-14.000000
 11
203.000000
 21
-34.000000
  0
LINE
  8
0
  6
CONTINUOUS
 62
7
 10
189.000000
 20
-14.000000
 11
203.000000
 21
-14.000000
  0
LINE
  8
0
  6
CONTINUOUS
 62
7
 10
203.000000
 20
-21.500000
 11
174.000000
 21
-21.500000
  0
LINE
  8
0
  6
CONTINUOUS
 62
7
 10
77.000000
 20
104.000000
 11
203.000000
 21
104.000000
  0
LINE
  8
0
  6
CONTINUOUS
 62
7
 10
77.000000
 20
84.000000
 11
121.000000
 21
84.000000
  0
LINE
  8
0
  6
CONTINUOUS
 62
7
 10
77.000000
 20
84.000000
 11
77.000000
 21
104.000000
  0
LINE
  8
0
  6
CONTINUOUS
 62
7
 10
203.000000
 20
84.000000
 11
203.000000
 21
104.000000
  0
LINE
  8
0
  6
CONTINUOUS
 62
7
 10
189.000000
 20
84.000000
 11
203.000000
 21
84.000000
  0
LINE
  8
0
  6
CONTINUOUS
 62
7
 10
203.000000
 20
91.500000
 11
77.000000
 21
91.500000
  0
LINE
  8
0
  6
CONTINUOUS
 62
7
 10
128.850006
 20
17.500000
 11
128.850006
 21
57.500000
  0
LINE
  8
0
  6
CONTINUOUS
 62
7
 10
181.149994
 20
17.500000
 11
181.149994
 21
57.500000
  0
LINE
  8
0
  6
CONTINUOUS
 62
7
 10
189.000000
 20
17.900000
 11
189.000000
 21
57.099998
  0
LINE
  8
0
  6
CONTINUOUS
 62
7
 10
121.000000
 20
17.900000
 11
121.000000
 21
57.099998
  0
LINE
  8
0
  6
CONTINUOUS
 62
7
 10
181.149994
 20
57.099998
 11
189.000000
 21
57.099998
  0
LINE
  8
0
  6
CONTINUOUS
 62
7
 10
181.149994
 20
17.900000
 11
189.000000
 21
17.900000
  0
LINE
  8
0
  6
CONTINUOUS
 62
7
 10
128.850006
 20
17.900000
 11
121.000000
 21
17.900000
  0
LINE
  8
0
  6
CONTINUOUS
 62
7
 10
128.850006
 20
57.099998
 11
121.000000
 21
57.099998
  0
LINE
  8
0
  6
CONTINUOUS
 62
7
 10
181.149994
 20
-20.000000
 11
181.149994
 21
-4.999990
  0
LINE
  8
0
  6
CONTINUOUS
 62
7
 10
128.850006
 20
-4.999990
 11
181.149994
 21
-4.999990
  0
LINE
  8
0
  6
CONTINUOUS
 62
7
 10
128.850006
 20
-8.800000
 11
128.850006
 21
-4.999990
  0
LINE
  8
0
  6
CONTINUOUS
 62
7
 10
189.000000
 20
-20.000000
 11
189.000000
 21
-5.700000
  0
LINE
  8
0
  6
CONTINUOUS
 62
7
 10
181.149994
 20
-5.700000
 11
189.000000
 21
-5.700000
  0
LINE
  8
0
  6
CONTINUOUS
 62
7
 10
121.000000
 20
-8.800000
 11
121.000000
 21
-5.700000
  0
LINE
  8
0
  6
CONTINUOUS
 62
7
 10
128.850006
 20
-5.700000
 11
121.000000
 21
-5.700000
  0
LINE
  8
0
  6
CONTINUOUS
 62
7
 10
174.000000
 20
-20.000000
 11
189.000000
 21
-20.000000
  0
LINE
  8
0
  6
CONTINUOUS
 62
7
 10
181.149994
 20
90.000000
 11
181.149994
 21
75.000000
  0
LINE
  8
0
  6
CONTINUOUS
 62
7
 10
128.850006
 20
75.000000
 11
181.149994
 21
75.000000
  0
LINE
  8
0
  6
CONTINUOUS
 62
7
 10
121.000000
 20
90.000000
 11
189.000000
 21
90.000000
  0
LINE
  8
0
  6
CONTINUOUS
 62
7
 10
128.850006
 20
90.000000
 11
128.850006
 21
75.000000
  0
LINE
  8
0
  6
CONTINUOUS
 62
7
 10
121.000000
 20
90.000000
 11
121.000000
 21
75.699997
  0
LINE
  8
0
  6
CONTINUOUS
 62
7
 10
128.850006
 20
75.699997
 11
121.000000
 21
75.699997
  0
LINE
  8
0
  6
CONTINUOUS
 62
7
 10
189.000000
 20
90.000000
 11
189.000000
 21
75.699997
  0
LINE
  8
0
  6
CONTINUOUS
 62
7
 10
181.149994
 20
75.699997
 11
189.000000
 21
75.699997
  0
LINE
  8
0
  6
CENTER
 62
2
 10
120.000000
 20
103.540001
 11
120.000000
 21
94.459999
  0
LINE
  8
0
  6
CENTER
 62
2
 10
115.459999
 20
99.000000
 11
124.540001
 21
99.000000
  0
LINE
  8
0
  6
CENTER
 62
2
 10
160.000000
 20
103.540001
 11
160.000000
 21
94.459999
  0
LINE
  8
0
  6
CENTER
 62
2
 10
155.460007
 20
99.000000
 11
164.539993
 21
99.000000
  0
LINE
  8
0
  6
CENTER
 62
2
 10
160.000000
 20
86.540001
 11
160.000000
 21
77.459999
  0
LINE
  8
0
  6
CENTER
 62
2
 10
155.460007
 20
82.000000
 11
164.539993
 21
82.000000
  0
LINE
  8
0
  6
CENTER
 62
2
 10
150.000000
 20
86.540001
 11
150.000000
 21
77.459999
  0
LINE
  8
0
  6
CENTER
 62
2
 10
145.460007
 20
82.000000
 11
154.539993
 21
82.000000
  0
LINE
  8
0
  6
CENTER
 62
2
 10
92.500000
 20
59.790001
 11
92.500000
 21
45.209999
  0
LINE
  8
0
  6
CENTER
 62
2
 10
85.209999
 20
52.500000
 11
99.790001
 21
52.500000
  0
LINE
  8
0
  6
CENTER
 62
2
 10
92.500000
 20
29.790001
 11
92.500000
 21
15.210000
  0
LINE
  8
0
  6
CENTER
 62
2
 10
85.209999
 20
22.500000
 11
99.790001
 21
22.500000
  0
LINE
  8
0
  6
CENTER
 62
2
 10
135.000000
 20
57.040001
 11
135.000000
 21
47.959999
  0
LINE
  8
0
  6
CENTER
 62
2
 10
130.460007
 20
52.500000
 11
139.539993
 21
52.500000
  0
LINE
  8
0
  6
CENTER
 62
2
 10
135.000000
 20
27.040001
 11
135.000000
 21
17.959999
  0
LINE
  8
0
  6
CENTER
 62
2
 10
130.460007
 20
22.500000
 11
139.539993
 21
22.500000
  0
LINE
  8
0
  6
CENTER
 62
2
 10
155.000000
 20
57.040001
 11
155.000000
 21
47.959999
  0
LINE
  8
0
  6
CENTER
 62
2
 10
150.460007
 20
52.500000
 11
159.539993
 21
52.500000
  0
LINE
  8
0
  6
CENTER
 62
2
 10
155.000000
 20
27.040001
 11
155.000000
 21
17.959999
  0
LINE
  8
0
  6
CENTER
 62
2
 10
150.460007
 20
22.500000
 11
159.539993
 21
22.500000
  0
LINE
  8
0
  6
CENTER
 62
2
 10
175.000000
 20
27.040001
 11
175.000000
 21
17.959999
  0
LINE
  8
0
  6
CENTER
 62
2
 10
170.460007
 20
22.500000
 11
179.539993
 21
22.500000
  0
LINE
  8
0
  6
CENTER
 62
2
 10
175.000000
 20
57.040001
 11
175.000000
 21
47.959999
  0
LINE
  8
0
  6
CENTER
 62
2
 10
170.460007
 20
52.500000
 11
179.539993
 21
52.500000
  0
LINE
  8
0
  6
CENTER
 62
2
 10
187.500000
 20
29.790001
 11
187.500000
 21
15.210000
  0
LINE
  8
0
  6
CENTER
 62
2
 10
180.210007
 20
22.500000
 11
194.789993
 21
22.500000
  0
LINE
  8
0
  6
CENTER
 62
2
 10
92.500000
 20
-65.959999
 11
92.500000
 21
-77.040001
  0
LINE
  8
0
  6
CENTER
 62
2
 10
86.959999
 20
-71.500000
 11
98.040001
 21
-71.500000
  0
LINE
  8
0
  6
CENTER
 62
2
 10
84.500000
 20
-85.559998
 11
84.500000
 21
-102.440002
  0
LINE
  8
0
  6
CENTER
 62
2
 10
76.059998
 20
-94.000000
 11
92.940002
 21
-94.000000
  0
LINE
  8
0
  6
CENTER
 62
2
 10
92.500000
 20
-95.959999
 11
92.500000
 21
-107.040001
  0
LINE
  8
0
  6
CENTER
 62
2
 10
86.959999
 20
-101.500000
 11
98.040001
 21
-101.500000
  0
LINE
  8
0
  6
CENTER
 62
2
 10
187.500000
 20
-95.959999
 11
187.500000
 21
-107.040001
  0
LINE
  8
0
  6
CENTER
 62
2
 10
181.960007
 20
-101.500000
 11
193.039993
 21
-101.500000
  0
LINE
  8
0
  6
CENTER
 62
2
 10
187.500000
 20
-65.959999
 11
187.500000
 21
-77.040001
  0
LINE
  8
0
  6
CENTER
 62
2
 10
181.960007
 20
-71.500000
 11
193.039993
 21
-71.500000
  0
LINE
  8
0
  6
CENTER
 62
2
 10
195.500000
 20
-70.559998
 11
195.500000
 21
-87.440002
  0
LINE
  8
0
  6
CENTER
 62
2
 10
187.059998
 20
-79.000000
 11
203.940002
 21
-79.000000
  0
LINE
  8
0
  6
CONTINUOUS
 62
7
 10
87.000000
 20
99.520699
 11
87.000000
 21
95.479301
  0
LINE
  8
0
  6
CONTINUOUS
 62
7
 10
80.000000
 20
99.520699
 11
83.500000
 21
101.541000
  0
LINE
  8
0
  6
CONTINUOUS
 62
7
 10
83.500000
 20
93.458504
 11
87.000000
 21
95.479301
  0
LINE
  8
0
  6
CONTINUOUS
 62
7
 10
80.000000
 20
95.479202
 11
83.499901
 21
93.458504
  0
LINE
  8
0
  6
CONTINUOUS
 62
7
 10
85.682999
 20
100.280998
 11
82.182999
 21
94.218903
  0
LINE
  8
0
  6
CONTINUOUS
 62
7
 10
84.816902
 20
100.780998
 11
81.316902
 21
94.718903
  0
LINE
  8
0
  6
CONTINUOUS
 62
7
 10
83.500000
 20
101.541000
 11
86.999901
 21
99.520699
  0
LINE
  8
0
  6
CONTINUOUS
 62
7
 10
80.000000
 20
95.479301
 11
80.000000
 21
99.520699
  0
LINE
  8
0
  6
CENTER
 62
2
 10
83.500000
 20
104.040001
 11
83.500000
 21
90.959999
  0
LINE
  8
0
  6
CENTER
 62
2
 10
76.959999
 20
97.500000
 11
90.040001
 21
97.500000
  0
LINE
  8
0
  6
CENTER
 62
2
 10
187.500000
 20
45.209999
 11
187.500000
 21
59.790001
  0
LINE
  8
0
  6
CENTER
 62
2
 10
180.210007
 20
52.500000
 11
194.789993
 21
52.500000
  0
LINE
  8
0
  6
CONTINUOUS
 62
7
 10
200.000000
 20
99.520699
 11
200.000000
 21
95.479301
  0
LINE
  8
0
  6
CONTINUOUS
 62
7
 10
193.000000
 20
99.520699
 11
196.500000
 21
101.541000
  0
LINE
  8
0
  6
CONTINUOUS
 62
7
 10
196.500000
 20
93.458504
 11
200.000000
 21
95.479301
  0
LINE
  8
0
  6
CONTINUOUS
 62
7
 10
193.000000
 20
95.479301
 11
196.500000
 21
93.458504
  0
LINE
  8
0
  6
CONTINUOUS
 62
7
 10
198.682999
 20
100.280998
 11
195.182999
 21
94.218903
  0
LINE
  8
0
  6
CONTINUOUS
 62
7
 10
197.817001
 20
100.780998
 11
194.317001
 21
94.718903
  0
LINE
  8
0
  6
CONTINUOUS
 62
7
 10
196.500000
 20
101.541000
 11
200.000000
 21
99.520699
  0
LINE
  8
0
  6
CONTINUOUS
 62
7
 10
193.000000
 20
95.479301
 11
193.000000
 21
99.520699
  0
LINE
  8
0
  6
CENTER
 62
2
 10
196.500000
 20
104.040001
 11
196.500000
 21
90.959999
  0
LINE
  8
0
  6
CENTER
 62
2
 10
189.960007
 20
97.500000
 11
203.039993
 21
97.500000
  0
LINE
  8
0
  6
CONTINUOUS
 62
7
 10
117.264000
 20
-7.200000
 11
121.000000
 21
-7.200000
  0
LINE
  8
0
  6
CONTINUOUS
 62
7
 10
117.264000
 20
81.199997
 11
121.000000
 21
81.199997
  0
LINE
  8
0
  6
CONTINUOUS
 62
7
 10
117.264000
 20
79.199997
 11
121.000000
 21
79.199997
  0
LINE
  8
0
  6
CONTINUOUS
 62
7
 10
117.264000
 20
77.199997
 11
121.000000
 21
77.199997
  0
LINE
  8
0
  6
CONTINUOUS
 62
7
 10
117.584999
 20
39.809399
 11
121.000000
 21
39.809399
  0
LINE
  8
0
  6
CONTINUOUS
 62
7
 10
117.584999
 20
38.654701
 11
121.000000
 21
38.654701
  0
LINE
  8
0
  6
CONTINUOUS
 62
7
 10
117.584999
 20
36.345299
 11
121.000000
 21
36.345299
  0
LINE
  8
0
  6
CONTINUOUS
 62
7
 10
117.584999
 20
35.190601
 11
121.000000
 21
35.190601
  0
LINE
  8
0
  6
CONTINUOUS
 62
7
 10
87.000000
 20
-107.500000
 11
87.000000
 21
-110.500000
  0
LINE
  8
0
  6
CONTINUOUS
 62
7
 10
80.000000
 20
-107.500000
 11
80.000000
 21
-110.500000
  0
LINE
  8
0
  6
CONTINUOUS
 62
7
 10
79.500000
 20
-107.500000
 11
87.500000
 21
-107.500000
  0
LINE
  8
0
  6
CONTINUOUS
 62
7
 10
80.000000
 20
-110.500000
 11
87.000000
 21
-110.500000
  0
LINE
  8
0
  6
CENTER
 62
2
 10
83.500000
 20
-111.598999
 11
83.500000
 21
-105.386002
  0
LINE
  8
0
  6
CONTINUOUS
 62
7
 10
79.500000
 20
-107.500000
 11
79.500000
 21
-107.000000
  0
LINE
  8
0
  6
CONTINUOUS
 62
7
 10
87.500000
 20
-107.500000
 11
87.500000
 21
-107.000000
  0
LINE
  8
0
  6
CONTINUOUS
 62
7
 10
83.500000
 20
-107.500000
 11
83.500000
 21
-110.500000
  0
LINE
  8
0
  6
CONTINUOUS
 62
7
 10
193.000000
 20
-107.500000
 11
193.000000
 21
-110.500000
  0
LINE
  8
0
  6
CONTINUOUS
 62
7
 10
200.000000
 20
-107.500000
 11
200.000000
 21
-110.500000
  0
LINE
  8
0
  6
CONTINUOUS
 62
7
 10
200.500000
 20
-107.500000
 11
192.500000
 21
-107.500000
  0
LINE
  8
0
  6
CONTINUOUS
 62
7
 10
200.000000
 20
-110.500000
 11
193.000000
 21
-110.500000
  0
LINE
  8
0
  6
CENTER
 62
2
 10
196.500000
 20
-111.598999
 11
196.500000
 21
-105.386002
  0
LINE
  8
0
  6
CONTINUOUS
 62
7
 10
200.500000
 20
-107.500000
 11
200.500000
 21
-107.000000
  0
LINE
  8
0
  6
CONTINUOUS
 62
7
 10
192.500000
 20
-107.500000
 11
192.500000
 21
-107.000000
  0
LINE
  8
0
  6
CONTINUOUS
 62
7
 10
196.500000
 20
-107.500000
 11
196.500000
 21
-110.500000
  0
LINE
  8
0
  6
CONTINUOUS
 62
7
 10
117.264000
 20
-7.200000
 11
117.264000
 21
-8.800000
  0
LINE
  8
0
  6
CONTINUOUS
 62
7
 10
117.264000
 20
81.199997
 11
117.264000
 21
77.199997
  0
LINE
  8
0
  6
CENTER
 62
2
 10
110.000000
 20
103.540001
 11
110.000000
 21
94.459999
  0
LINE
  8
0
  6
CENTER
 62
2
 10
105.459999
 20
99.000000
 11
114.540001
 21
99.000000
  0
LINE
  8
0
  6
CENTER
 62
2
 10
170.000000
 20
103.540001
 11
170.000000
 21
94.459999
  0
LINE
  8
0
  6
CENTER
 62
2
 10
165.460007
 20
99.000000
 11
174.539993
 21
99.000000
  0
LINE
  8
0
  6
CONTINUOUS
 62
7
 10
80.000000
 20
58.500000
 11
80.000000
 21
61.500000
  0
LINE
  8
0
  6
CONTINUOUS
 62
7
 10
87.000000
 20
58.500000
 11
87.000000
 21
61.500000
  0
LINE
  8
0
  6
CONTINUOUS
 62
7
 10
79.500000
 20
58.500000
 11
87.500000
 21
58.500000
  0
LINE
  8
0
  6
CONTINUOUS
 62
7
 10
80.000000
 20
61.500000
 11
87.000000
 21
61.500000
  0
LINE
  8
0
  6
CENTER
 62
2
 10
83.500000
 20
62.598999
 11
83.500000
 21
56.385700
  0
LINE
  8
0
  6
CONTINUOUS
 62
7
 10
79.500000
 20
58.500000
 11
79.500000
 21
58.000000
  0
LINE
  8
0
  6
CONTINUOUS
 62
7
 10
87.500000
 20
58.500000
 11
87.500000
 21
58.000000
  0
LINE
  8
0
  6
CONTINUOUS
 62
7
 10
83.500000
 20
58.500000
 11
83.500000
 21
61.500000
  0
LINE
  8
0
  6
CONTINUOUS
 62
7
 10
200.000000
 20
58.500000
 11
200.000000
 21
61.500000
  0
LINE
  8
0
  6
CONTINUOUS
 62
7
 10
193.000000
 20
58.500000
 11
193.000000
 21
61.500000
  0
LINE
  8
0
  6
CONTINUOUS
 62
7
 10
200.500000
 20
58.500000
 11
192.500000
 21
58.500000
  0
LINE
  8
0
  6
CONTINUOUS
 62
7
 10
200.000000
 20
61.500000
 11
193.000000
 21
61.500000
  0
LINE
  8
0
  6
CENTER
 62
2
 10
196.500000
 20
62.598999
 11
196.500000
 21
56.385700
  0
LINE
  8
0
  6
CONTINUOUS
 62
7
 10
200.500000
 20
58.500000
 11
200.500000
 21
58.000000
  0
LINE
  8
0
  6
CONTINUOUS
 62
7
 10
192.500000
 20
58.500000
 11
192.500000
 21
58.000000
  0
LINE
  8
0
  6
CONTINUOUS
 62
7
 10
196.500000
 20
58.500000
 11
196.500000
 21
61.500000
  0
LINE
  8
0
  6
CONTINUOUS
 62
7
 10
117.584999
 20
39.809399
 11
117.584999
 21
35.190601
  0
LINE
  8
0
  6
CONTINUOUS
 62
7
 10
128.850006
 20
48.000000
 11
181.149994
 21
48.000000
  0
LINE
  8
0
  6
CONTINUOUS
 62
7
 10
128.850006
 20
27.000000
 11
181.149994
 21
27.000000
  0
LINE
  8
0
  6
CONTINUOUS
 62
7
 10
49.500000
 20
-21.299999
 11
49.500000
 21
-34.000000
  0
LINE
  8
0
  6
CONTINUOUS
 62
7
 10
49.500000
 20
-27.799999
 11
59.500000
 21
-27.799999
  0
LINE
  8
0
  6
CONTINUOUS
 62
7
 10
52.000000
 20
-8.800000
 11
59.500000
 21
-8.800000
  0
LINE
  8
0
  6
CONTINUOUS
 62
7
 10
59.500000
 20
-8.800000
 11
59.500000
 21
-27.799999
  0
LINE
  8
0
  6
CONTINUOUS
 62
2
 10
59.500000
 20
-13.600000
 11
58.499901
 21
-13.600000
  0
LINE
  8
0
  6
CONTINUOUS
 62
2
 10
58.500000
 20
-10.150000
 11
58.500000
 21
-14.450000
  0
LINE
  8
0
  6
CONTINUOUS
 62
2
 10
59.500000
 20
-11.000000
 11
58.499901
 21
-11.000000
  0
LINE
  8
0
  6
CONTINUOUS
 62
2
 10
53.200001
 20
-11.650000
 11
53.200001
 21
-12.950000
  0
LINE
  8
0
  6
CONTINUOUS
 62
2
 10
54.700001
 20
-14.450000
 11
58.500000
 21
-14.450000
  0
LINE
  8
0
  6
CONTINUOUS
 62
2
 10
54.700001
 20
-10.150000
 11
58.500000
 21
-10.150000
  0
LINE
  8
0
  6
CENTER
 62
2
 10
51.200001
 20
-18.299999
 11
61.500000
 21
-18.299999
  0
LINE
  8
0
  6
CENTER
 62
2
 10
51.200001
 20
-12.300000
 11
61.500000
 21
-12.300000
  0
LINE
  8
0
  6
CONTINUOUS
 62
7
 10
51.099998
 20
-9.500000
 11
49.000000
 21
-9.500000
  0
LINE
  8
0
  6
CONTINUOUS
 62
7
 10
51.099998
 20
-9.500000
 11
51.099998
 21
-20.500000
  0
LINE
  8
0
  6
CONTINUOUS
 62
7
 10
52.000000
 20
-8.800000
 11
52.000000
 21
-21.299999
  0
LINE
  8
0
  6
CONTINUOUS
 62
7
 10
51.099998
 20
-20.500000
 11
49.000000
 21
-20.500000
  0
LINE
  8
0
  6
CONTINUOUS
 62
7
 10
49.500000
 20
-21.299999
 11
52.000000
 21
-21.299999
  0
LINE
  8
0
  6
CONTINUOUS
 62
2
 10
-111.500000
 20
-17.000000
 11
-168.500000
 21
-17.000000
  0
LINE
  8
0
  6
CONTINUOUS
 62
2
 10
-111.500000
 20
-19.600000
 11
-168.500000
 21
-19.600000
  0
LINE
  8
0
  6
CONTINUOUS
 62
2
 10
-111.500000
 20
-11.000000
 11
-168.500000
 21
-11.000000
  0
LINE
  8
0
  6
CONTINUOUS
 62
2
 10
-111.500000
 20
-13.600000
 11
-168.500000
 21
-13.600000
  0
LINE
  8
0
  6
CONTINUOUS
 62
7
 10
-111.500000
 20
-21.799999
 11
-121.891998
 21
-27.799999
  0
LINE
  8
0
  6
CONTINUOUS
 62
7
 10
-121.891998
 20
-27.799999
 11
-158.108002
 21
-27.799999
  0
LINE
  8
0
  6
CONTINUOUS
 62
7
 10
-168.500000
 20
-21.799999
 11
-158.108002
 21
-27.799999
  0
LINE
  8
0
  6
CONTINUOUS
 62
7
 10
-168.500000
 20
-8.799990
 11
-168.500000
 21
-21.799999
  0
LINE
  8
0
  6
CONTINUOUS
 62
7
 10
-111.500000
 20
-8.799990
 11
-168.500000
 21
-8.799990
  0
LINE
  8
0
  6
CONTINUOUS
 62
7
 10
-111.500000
 20
-8.799990
 11
-111.500000
 21
-21.799999
  0
LINE
  8
0
  6
CONTINUOUS
 62
7
 10
-168.500000
 20
-21.500000
 11
-188.000000
 21
-21.500000
  0
LINE
  8
0
  6
CONTINUOUS
 62
7
 10
-168.500000
 20
-56.000000
 11
-111.500000
 21
-56.000000
  0
LINE
  8
0
  6
CONTINUOUS
 62
7
 10
-168.500000
 20
-56.000000
 11
-168.500000
 21
-66.000000
  0
LINE
  8
0
  6
CONTINUOUS
 62
7
 10
-158.108002
 20
-56.000000
 11
-158.108002
 21
-66.000000
  0
LINE
  8
0
  6
CONTINUOUS
 62
7
 10
-121.891998
 20
-56.000000
 11
-121.891998
 21
-66.000000
  0
LINE
  8
0
  6
CONTINUOUS
 62
7
 10
-111.500000
 20
-56.000000
 11
-111.500000
 21
-66.000000
  0
LINE
  8
0
  6
CONTINUOUS
 62
7
 10
-168.500000
 20
17.000000
 11
-168.500000
 21
7.000010
  0
LINE
  8
0
  6
CONTINUOUS
 62
7
 10
-168.500000
 20
7.000010
 11
-111.500000
 21
7.000010
  0
LINE
  8
0
  6
CONTINUOUS
 62
7
 10
-168.500000
 20
14.500000
 11
-111.500000
 21
14.500000
  0
LINE
  8
0
  6
CONTINUOUS
 62
7
 10
-133.250000
 20
17.000000
 11
-133.250000
 21
15.400000
  0
LINE
  8
0
  6
CONTINUOUS
 62
7
 10
-126.750000
 20
15.400000
 11
-133.250000
 21
15.400000
  0
LINE
  8
0
  6
CONTINUOUS
 62
7
 10
-126.750000
 20
17.000000
 11
-126.750000
 21
15.400000
  0
LINE
  8
0
  6
CONTINUOUS
 62
7
 10
-111.500000
 20
17.000000
 11
-111.500000
 21
7.000010
  0
LINE
  8
0
  6
CONTINUOUS
 62
7
 10
-168.500000
 20
84.000000
 11
-168.500000
 21
78.800003
  0
LINE
  8
0
  6
CONTINUOUS
 62
7
 10
-168.500000
 20
78.800003
 11
-159.473007
 21
78.800003
  0
LINE
  8
0
  6
CONTINUOUS
 62
7
 10
271.500000
 20
-21.500000
 11
261.000000
 21
-21.500000
  0
LINE
  8
0
  6
CONTINUOUS
 62
7
 10
230.500000
 20
-21.500000
 11
241.000000
 21
-21.500000
  0
LINE
  8
0
  6
CONTINUOUS
 62
7
 10
241.000000
 20
-14.000000
 11
241.000000
 21
-15.513400
  0
LINE
  8
0
  6
CONTINUOUS
 62
7
 10
241.000000
 20
-18.486601
 11
241.000000
 21
-21.500000
  0
LINE
  8
0
  6
CONTINUOUS
 62
7
 10
271.500000
 20
-34.000000
 11
230.500000
 21
-34.000000
  0
LINE
  8
0
  6
CONTINUOUS
 62
7
 10
261.000000
 20
-14.000000
 11
241.000000
 21
-14.000000
  0
LINE
  8
0
  6
CENTER
 62
2
 10
251.000000
 20
-3.499990
 11
251.000000
 21
-35.500000
  0
LINE
  8
0
  6
CONTINUOUS
 62
7
 10
243.000000
 20
-17.600000
 11
243.000000
 21
-16.400000
  0
LINE
  8
0
  6
CONTINUOUS
 62
7
 10
243.000000
 20
-16.400000
 11
242.093002
 21
-16.240101
  0
LINE
  8
0
  6
CONTINUOUS
 62
7
 10
243.000000
 20
-17.600000
 11
242.093002
 21
-17.759899
  0
LINE
  8
0
  6
CONTINUOUS
 62
7
 10
259.000000
 20
-17.600000
 11
259.000000
 21
-16.400000
  0
LINE
  8
0
  6
CONTINUOUS
 62
7
 10
259.000000
 20
-16.400000
 11
259.907013
 21
-16.240101
  0
LINE
  8
0
  6
CONTINUOUS
 62
7
 10
259.000000
 20
-17.600000
 11
259.907013
 21
-17.759899
  0
LINE
  8
0
  6
CONTINUOUS
 62
7
 10
271.000000
 20
-20.000000
 11
261.000000
 21
-20.000000
  0
LINE
  8
0
  6
CONTINUOUS
 62
7
 10
241.000000
 20
-20.000000
 11
231.000000
 21
-20.000000
  0
LINE
  8
0
  6
CONTINUOUS
 62
7
 10
260.899994
 20
-5.600000
 11
241.100006
 21
-5.600000
  0
LINE
  8
0
  6
CONTINUOUS
 62
7
 10
231.000000
 20
-20.500000
 11
231.000000
 21
-4.999990
  0
LINE
  8
0
  6
CONTINUOUS
 62
7
 10
240.500000
 20
-4.999990
 11
231.000000
 21
-4.999990
  0
LINE
  8
0
  6
CONTINUOUS
 62
7
 10
240.500000
 20
-5.000020
 11
241.100006
 21
-5.600030
  0
LINE
  8
0
  6
CONTINUOUS
 62
7
 10
271.000000
 20
-20.000000
 11
271.000000
 21
-4.999990
  0
LINE
  8
0
  6
CENTER
 62
2
 10
262.040009
 20
-24.000000
 11
239.960007
 21
-24.000000
  0
LINE
  8
0
  6
CONTINUOUS
 62
7
 10
275.000000
 20
-31.541500
 11
275.000000
 21
-23.458599
  0
LINE
  8
0
  6
CONTINUOUS
 62
7
 10
275.000000
 20
-31.541500
 11
271.500000
 21
-31.541500
  0
LINE
  8
0
  6
CONTINUOUS
 62
7
 10
275.000000
 20
-29.562901
 11
272.000000
 21
-29.562901
  0
LINE
  8
0
  6
CENTER
 62
2
 10
276.488007
 20
-27.500000
 11
270.540009
 21
-27.500000
  0
LINE
  8
0
  6
CONTINUOUS
 62
7
 10
275.000000
 20
-25.437201
 11
272.000000
 21
-25.437201
  0
LINE
  8
0
  6
CONTINUOUS
 62
7
 10
275.000000
 20
-23.458599
 11
271.500000
 21
-23.458599
  0
LINE
  8
0
  6
CONTINUOUS
 62
7
 10
272.000000
 20
-31.541500
 11
272.000000
 21
-23.458599
  0
LINE
  8
0
  6
CONTINUOUS
 62
7
 10
248.690994
 20
-9.199960
 11
249.845001
 21
-7.199940
  0
LINE
  8
0
  6
CONTINUOUS
 62
7
 10
252.154999
 20
-11.200000
 11
253.309006
 21
-9.199960
  0
LINE
  8
0
  6
CONTINUOUS
 62
7
 10
252.154999
 20
-11.200000
 11
249.845001
 21
-11.200000
  0
LINE
  8
0
  6
CONTINUOUS
 62
7
 10
252.154999
 20
-7.199990
 11
249.845001
 21
-7.199990
  0
LINE
  8
0
  6
CONTINUOUS
 62
7
 10
249.845001
 20
-11.200000
 11
248.690994
 21
-9.200050
  0
LINE
  8
0
  6
CONTINUOUS
 62
7
 10
253.309006
 20
-9.199990
 11
252.154999
 21
-7.200000
  0
LINE
  8
0
  6
CENTER
 62
2
 10
254.809006
 20
-9.199980
 11
247.190994
 21
-9.199980
  0
LINE
  8
0
  6
CONTINUOUS
 62
7
 10
261.500000
 20
-4.999970
 11
260.899994
 21
-5.599960
  0
LINE
  8
0
  6
CONTINUOUS
 62
7
 10
261.500000
 20
-4.999990
 11
271.000000
 21
-4.999990
  0
LINE
  8
0
  6
CONTINUOUS
 62
7
 10
261.000000
 20
-14.000000
 11
261.000000
 21
-15.513400
  0
LINE
  8
0
  6
CONTINUOUS
 62
7
 10
261.000000
 20
-18.486601
 11
261.000000
 21
-21.500000
  0
LINE
  8
0
  6
CONTINUOUS
 62
7
 10
271.500000
 20
-21.500000
 11
271.500000
 21
-34.000000
  0
LINE
  8
0
  6
CONTINUOUS
 62
7
 10
230.500000
 20
-21.299999
 11
230.500000
 21
-34.000000
  0
LINE
  8
0
  6
CONTINUOUS
 62
7
 10
230.500000
 20
-27.799999
 11
220.500000
 21
-27.799999
  0
LINE
  8
0
  6
CONTINUOUS
 62
7
 10
228.000000
 20
-8.800000
 11
220.500000
 21
-8.800000
  0
LINE
  8
0
  6
CONTINUOUS
 62
7
 10
220.500000
 20
-8.800000
 11
220.500000
 21
-27.799999
  0
LINE
  8
0
  6
CONTINUOUS
 62
2
 10
220.500000
 20
-13.600000
 11
221.500000
 21
-13.600000
  0
LINE
  8
0
  6
CONTINUOUS
 62
2
 10
221.500000
 20
-10.150000
 11
221.500000
 21
-14.450000
  0
LINE
  8
0
  6
CONTINUOUS
 62
2
 10
220.500000
 20
-11.000000
 11
221.500000
 21
-11.000000
  0
LINE
  8
0
  6
CONTINUOUS
 62
2
 10
226.800003
 20
-11.650000
 11
226.800003
 21
-12.950000
  0
LINE
  8
0
  6
CONTINUOUS
 62
2
 10
225.300003
 20
-14.450000
 11
221.500000
 21
-14.450000
  0
LINE
  8
0
  6
CONTINUOUS
 62
2
 10
225.300003
 20
-10.150000
 11
221.500000
 21
-10.150000
  0
LINE
  8
0
  6
CENTER
 62
2
 10
228.800003
 20
-18.299999
 11
218.500000
 21
-18.299999
  0
LINE
  8
0
  6
CENTER
 62
2
 10
228.800003
 20
-12.300000
 11
218.500000
 21
-12.300000
  0
LINE
  8
0
  6
CONTINUOUS
 62
7
 10
228.899994
 20
-9.500000
 11
231.000000
 21
-9.500000
  0
LINE
  8
0
  6
CONTINUOUS
 62
7
 10
228.899994
 20
-9.500000
 11
228.899994
 21
-20.500000
  0
LINE
  8
0
  6
CONTINUOUS
 62
7
 10
228.000000
 20
-8.800000
 11
228.000000
 21
-21.299999
  0
LINE
  8
0
  6
CONTINUOUS
 62
7
 10
228.899994
 20
-20.500000
 11
231.000000
 21
-20.500000
  0
LINE
  8
0
  6
CONTINUOUS
 62
7
 10
230.500000
 20
-21.299999
 11
228.000000
 21
-21.299999
  0
LINE
  8
0
  6
CONTINUOUS
 62
7
 10
163.608002
 20
-27.799999
 11
116.391998
 21
-27.799999
  0
LINE
  8
0
  6
CONTINUOUS
 62
2
 10
174.000000
 20
-11.000000
 11
106.000000
 21
-11.000000
  0
LINE
  8
0
  6
CONTINUOUS
 62
2
 10
174.000000
 20
-13.600000
 11
106.000000
 21
-13.600000
  0
LINE
  8
0
  6
CONTINUOUS
 62
7
 10
106.000000
 20
-8.800000
 11
106.000000
 21
-21.799999
  0
LINE
  8
0
  6
CONTINUOUS
 62
7
 10
174.000000
 20
-8.800000
 11
106.000000
 21
-8.800000
  0
LINE
  8
0
  6
CONTINUOUS
 62
7
 10
174.000000
 20
-8.800000
 11
174.000000
 21
-21.799999
  0
LINE
  8
0
  6
CONTINUOUS
 62
7
 10
106.000000
 20
-21.799999
 11
116.391998
 21
-27.799999
  0
LINE
  8
0
  6
CONTINUOUS
 62
7
 10
174.000000
 20
-21.799999
 11
163.608002
 21
-27.799999
  0
LINE
  8
0
  6
CONTINUOUS
 62
2
 10
174.000000
 20
-17.000000
 11
106.000000
 21
-17.000000
  0
LINE
  8
0
  6
CONTINUOUS
 62
2
 10
174.000000
 20
-19.600000
 11
106.000000
 21
-19.600000
  0
LINE
  8
0
  6
CONTINUOUS
 62
7
 10
106.000000
 20
-21.500000
 11
77.000000
 21
-21.500000
  0
LINE
  8
0
  6
CONTINUOUS
 62
7
 10
106.000000
 20
14.500000
 11
174.000000
 21
14.500000
  0
LINE
  8
0
  6
CONTINUOUS
 62
7
 10
106.000000
 20
7.000000
 11
174.000000
 21
7.000000
  0
LINE
  8
0
  6
CONTINUOUS
 62
7
 10
158.250000
 20
17.000000
 11
158.250000
 21
15.400000
  0
LINE
  8
0
  6
CONTINUOUS
 62
7
 10
158.250000
 20
15.400000
 11
151.750000
 21
15.400000
  0
LINE
  8
0
  6
CONTINUOUS
 62
7
 10
151.750000
 20
16.900000
 11
151.750000
 21
16.868700
  0
LINE
  8
0
  6
CONTINUOUS
 62
7
 10
106.000000
 20
84.000000
 11
106.000000
 21
78.800003
  0
LINE
  8
0
  6
CONTINUOUS
 62
7
 10
106.000000
 20
17.000000
 11
106.000000
 21
7.000000
  0
LINE
  8
0
  6
CONTINUOUS
 62
7
 10
174.000000
 20
17.000000
 11
174.000000
 21
7.000000
  0
LINE
  8
0
  6
CONTINUOUS
 62
7
 10
151.750000
 20
17.000000
 11
151.750000
 21
15.400000
  0
LINE
  8
0
  6
CONTINUOUS
 62
7
 10
106.000000
 20
78.800003
 11
116.527000
 21
78.800003
  0
LINE
  8
0
  6
CONTINUOUS
 62
7
 10
106.000000
 20
-56.000000
 11
106.000000
 21
-66.000000
  0
LINE
  8
0
  6
CONTINUOUS
 62
7
 10
174.000000
 20
-56.000000
 11
174.000000
 21
-66.000000
  0
LINE
  8
0
  6
CONTINUOUS
 62
7
 10
116.391998
 20
-56.000000
 11
116.391998
 21
-66.000000
  0
LINE
  8
0
  6
CONTINUOUS
 62
7
 10
163.608002
 20
-56.000000
 11
163.608002
 21
-66.000000
  0
LINE
  8
0
  6
CONTINUOUS
 62
7
 10
106.000000
 20
-56.000000
 11
174.000000
 21
-56.000000
  0
LINE
  8
0
  6
CONTINUOUS
 62
7
 10
-266.500000
 20
-21.500000
 11
-256.000000
 21
-21.500000
  0
LINE
  8
0
  6
CONTINUOUS
 62
7
 10
-225.500000
 20
-21.500000
 11
-236.000000
 21
-21.500000
  0
LINE
  8
0
  6
CONTINUOUS
 62
7
 10
-236.000000
 20
-14.000000
 11
-236.000000
 21
-15.513400
  0
LINE
  8
0
  6
CONTINUOUS
 62
7
 10
-236.000000
 20
-18.486601
 11
-236.000000
 21
-21.500000
  0
LINE
  8
0
  6
CONTINUOUS
 62
7
 10
-266.500000
 20
-34.000000
 11
-225.500000
 21
-34.000000
  0
LINE
  8
0
  6
CONTINUOUS
 62
7
 10
-256.000000
 20
-14.000000
 11
-236.000000
 21
-14.000000
  0
LINE
  8
0
  6
CENTER
 62
2
 10
-246.000000
 20
-3.499990
 11
-246.000000
 21
-35.500000
  0
LINE
  8
0
  6
CONTINUOUS
 62
7
 10
-238.000000
 20
-17.600000
 11
-238.000000
 21
-16.400000
  0
LINE
  8
0
  6
CONTINUOUS
 62
7
 10
-238.000000
 20
-16.400000
 11
-237.093002
 21
-16.240101
  0
LINE
  8
0
  6
CONTINUOUS
 62
7
 10
-238.000000
 20
-17.600000
 11
-237.093002
 21
-17.759899
  0
LINE
  8
0
  6
CONTINUOUS
 62
7
 10
-254.000000
 20
-17.600000
 11
-254.000000
 21
-16.400000
  0
LINE
  8
0
  6
CONTINUOUS
 62
7
 10
-254.000000
 20
-16.400000
 11
-254.906998
 21
-16.240101
  0
LINE
  8
0
  6
CONTINUOUS
 62
7
 10
-254.000000
 20
-17.600000
 11
-254.906998
 21
-17.759899
  0
LINE
  8
0
  6
CONTINUOUS
 62
7
 10
-266.000000
 20
-20.000000
 11
-256.000000
 21
-20.000000
  0
LINE
  8
0
  6
CONTINUOUS
 62
7
 10
-236.000000
 20
-20.000000
 11
-226.000000
 21
-20.000000
  0
LINE
  8
0
  6
CONTINUOUS
 62
7
 10
-255.899994
 20
-5.600000
 11
-236.100006
 21
-5.600000
  0
LINE
  8
0
  6
CONTINUOUS
 62
7
 10
-226.000000
 20
-20.500000
 11
-226.000000
 21
-4.999990
  0
LINE
  8
0
  6
CONTINUOUS
 62
7
 10
-235.500000
 20
-4.999990
 11
-226.000000
 21
-4.999990
  0
LINE
  8
0
  6
CONTINUOUS
 62
7
 10
-235.500000
 20
-5.000010
 11
-236.100006
 21
-5.599990
  0
LINE
  8
0
  6
CONTINUOUS
 62
7
 10
-266.000000
 20
-20.000000
 11
-266.000000
 21
-4.999990
  0
LINE
  8
0
  6
CENTER
 62
2
 10
-257.040009
 20
-24.000000
 11
-234.960007
 21
-24.000000
  0
LINE
  8
0
  6
CONTINUOUS
 62
7
 10
-270.000000
 20
-31.541500
 11
-270.000000
 21
-23.458500
  0
LINE
  8
0
  6
CONTINUOUS
 62
7
 10
-270.000000
 20
-31.541500
 11
-266.500000
 21
-31.541500
  0
LINE
  8
0
  6
CONTINUOUS
 62
7
 10
-270.000000
 20
-29.562901
 11
-267.000000
 21
-29.562901
  0
LINE
  8
0
  6
CENTER
 62
2
 10
-271.488007
 20
-27.500000
 11
-265.540009
 21
-27.500000
  0
LINE
  8
0
  6
CONTINUOUS
 62
7
 10
-270.000000
 20
-25.437201
 11
-267.000000
 21
-25.437201
  0
LINE
  8
0
  6
CONTINUOUS
 62
7
 10
-270.000000
 20
-23.458500
 11
-266.500000
 21
-23.458500
  0
LINE
  8
0
  6
CONTINUOUS
 62
7
 10
-267.000000
 20
-31.541500
 11
-267.000000
 21
-23.458500
  0
LINE
  8
0
  6
CONTINUOUS
 62
7
 10
-243.690994
 20
-9.199960
 11
-244.845001
 21
-7.199950
  0
LINE
  8
0
  6
CONTINUOUS
 62
7
 10
-247.154999
 20
-11.200000
 11
-248.309006
 21
-9.199970
  0
LINE
  8
0
  6
CONTINUOUS
 62
7
 10
-247.154999
 20
-11.200000
 11
-244.845001
 21
-11.200000
  0
LINE
  8
0
  6
CONTINUOUS
 62
7
 10
-247.154999
 20
-7.199990
 11
-244.845001
 21
-7.199990
  0
LINE
  8
0
  6
CONTINUOUS
 62
7
 10
-244.845001
 20
-11.200000
 11
-243.690994
 21
-9.199990
  0
LINE
  8
0
  6
CONTINUOUS
 62
7
 10
-248.309006
 20
-9.199980
 11
-247.154999
 21
-7.199990
  0
LINE
  8
0
  6
CENTER
 62
2
 10
-249.809006
 20
-9.199980
 11
-242.190994
 21
-9.199980
  0
LINE
  8
0
  6
CONTINUOUS
 62
7
 10
-256.500000
 20
-5.000020
 11
-255.899994
 21
-5.600000
  0
LINE
  8
0
  6
CONTINUOUS
 62
7
 10
-256.500000
 20
-4.999990
 11
-266.000000
 21
-4.999990
  0
LINE
  8
0
  6
CONTINUOUS
 62
7
 10
-256.000000
 20
-14.000000
 11
-256.000000
 21
-15.513400
  0
LINE
  8
0
  6
CONTINUOUS
 62
7
 10
-256.000000
 20
-18.486601
 11
-256.000000
 21
-21.500000
  0
LINE
  8
0
  6
CONTINUOUS
 62
7
 10
-266.500000
 20
-21.500000
 11
-266.500000
 21
-34.000000
  0
LINE
  8
0
  6
CONTINUOUS
 62
7
 10
-225.500000
 20
-21.299999
 11
-225.500000
 21
-34.000000
  0
LINE
  8
0
  6
CONTINUOUS
 62
7
 10
-225.500000
 20
-27.799999
 11
-215.500000
 21
-27.799999
  0
LINE
  8
0
  6
CONTINUOUS
 62
7
 10
-223.000000
 20
-8.800000
 11
-215.500000
 21
-8.800000
  0
LINE
  8
0
  6
CONTINUOUS
 62
7
 10
-215.500000
 20
-8.800000
 11
-215.500000
 21
-27.799999
  0
LINE
  8
0
  6
CONTINUOUS
 62
2
 10
-215.500000
 20
-13.600000
 11
-216.500000
 21
-13.600000
  0
LINE
  8
0
  6
CONTINUOUS
 62
2
 10
-216.500000
 20
-10.150000
 11
-216.500000
 21
-14.450000
  0
LINE
  8
0
  6
CONTINUOUS
 62
2
 10
-215.500000
 20
-11.000000
 11
-216.500000
 21
-11.000000
  0
LINE
  8
0
  6
CONTINUOUS
 62
2
 10
-221.800003
 20
-11.650000
 11
-221.800003
 21
-12.950000
  0
LINE
  8
0
  6
CONTINUOUS
 62
2
 10
-220.300003
 20
-14.450000
 11
-216.500000
 21
-14.450000
  0
LINE
  8
0
  6
CONTINUOUS
 62
2
 10
-220.300003
 20
-10.150000
 11
-216.500000
 21
-10.150000
  0
LINE
  8
0
  6
CENTER
 62
2
 10
-223.800003
 20
-18.299999
 11
-213.500000
 21
-18.299999
  0
LINE
  8
0
  6
CENTER
 62
2
 10
-223.800003
 20
-12.300000
 11
-213.500000
 21
-12.300000
  0
LINE
  8
0
  6
CONTINUOUS
 62
7
 10
-223.899994
 20
-9.500000
 11
-226.000000
 21
-9.500000
  0
LINE
  8
0
  6
CONTINUOUS
 62
7
 10
-223.899994
 20
-9.500000
 11
-223.899994
 21
-20.500000
  0
LINE
  8
0
  6
CONTINUOUS
 62
7
 10
-223.000000
 20
-8.800000
 11
-223.000000
 21
-21.299999
  0
LINE
  8
0
  6
CONTINUOUS
 62
7
 10
-223.899994
 20
-20.500000
 11
-226.000000
 21
-20.500000
  0
LINE
  8
0
  6
CONTINUOUS
 62
7
 10
-225.500000
 20
-21.299999
 11
-223.000000
 21
-21.299999
  0
LINE
  8
0
  6
CONTINUOUS
 62
7
 10
-13.500000
 20
-21.500000
 11
-24.000000
 21
-21.500000
  0
LINE
  8
0
  6
CONTINUOUS
 62
7
 10
-54.500000
 20
-21.500000
 11
-44.000000
 21
-21.500000
  0
LINE
  8
0
  6
CONTINUOUS
 62
7
 10
-44.000000
 20
-14.000000
 11
-44.000000
 21
-15.513400
  0
LINE
  8
0
  6
CONTINUOUS
 62
7
 10
-44.000000
 20
-18.486601
 11
-44.000000
 21
-21.500000
  0
LINE
  8
0
  6
CONTINUOUS
 62
7
 10
-13.500000
 20
-34.000000
 11
-54.500000
 21
-34.000000
  0
LINE
  8
0
  6
CONTINUOUS
 62
7
 10
-24.000000
 20
-14.000000
 11
-44.000000
 21
-14.000000
  0
LINE
  8
0
  6
CENTER
 62
2
 10
-34.000000
 20
-3.499990
 11
-34.000000
 21
-35.500000
  0
LINE
  8
0
  6
CONTINUOUS
 62
7
 10
-42.000000
 20
-17.600000
 11
-42.000000
 21
-16.400000
  0
LINE
  8
0
  6
CONTINUOUS
 62
7
 10
-42.000000
 20
-16.400000
 11
-42.906700
 21
-16.240101
  0
LINE
  8
0
  6
CONTINUOUS
 62
7
 10
-42.000000
 20
-17.600000
 11
-42.906700
 21
-17.759899
  0
LINE
  8
0
  6
CONTINUOUS
 62
7
 10
-26.000000
 20
-17.600000
 11
-26.000000
 21
-16.400000
  0
LINE
  8
0
  6
CONTINUOUS
 62
7
 10
-26.000000
 20
-16.400000
 11
-25.093300
 21
-16.240101
  0
LINE
  8
0
  6
CONTINUOUS
 62
7
 10
-26.000000
 20
-17.600000
 11
-25.093300
 21
-17.759899
  0
LINE
  8
0
  6
CONTINUOUS
 62
7
 10
-14.000000
 20
-20.000000
 11
-24.000000
 21
-20.000000
  0
LINE
  8
0
  6
CONTINUOUS
 62
7
 10
-44.000000
 20
-20.000000
 11
-54.000000
 21
-20.000000
  0
LINE
  8
0
  6
CONTINUOUS
 62
7
 10
-24.100000
 20
-5.600000
 11
-43.900002
 21
-5.600000
  0
LINE
  8
0
  6
CONTINUOUS
 62
7
 10
-54.000000
 20
-20.500000
 11
-54.000000
 21
-4.999990
  0
LINE
  8
0
  6
CONTINUOUS
 62
7
 10
-44.500000
 20
-4.999990
 11
-54.000000
 21
-4.999990
  0
LINE
  8
0
  6
CONTINUOUS
 62
7
 10
-44.500000
 20
-4.999990
 11
-43.900002
 21
-5.600000
  0
LINE
  8
0
  6
CONTINUOUS
 62
7
 10
-14.000000
 20
-20.000000
 11
-14.000000
 21
-4.999990
  0
LINE
  8
0
  6
CENTER
 62
2
 10
-22.959999
 20
-24.000000
 11
-45.040001
 21
-24.000000
  0
LINE
  8
0
  6
CONTINUOUS
 62
7
 10
-10.000000
 20
-31.541500
 11
-10.000000
 21
-23.458500
  0
LINE
  8
0
  6
CONTINUOUS
 62
7
 10
-10.000000
 20
-31.541500
 11
-13.500000
 21
-31.541500
  0
LINE
  8
0
  6
CONTINUOUS
 62
7
 10
-10.000000
 20
-29.562901
 11
-13.000000
 21
-29.562901
  0
LINE
  8
0
  6
CENTER
 62
2
 10
-8.511720
 20
-27.500000
 11
-14.460000
 21
-27.500000
  0
LINE
  8
0
  6
CONTINUOUS
 62
7
 10
-10.000000
 20
-25.437201
 11
-13.000000
 21
-25.437201
  0
LINE
  8
0
  6
CONTINUOUS
 62
7
 10
-10.000000
 20
-23.458500
 11
-13.500000
 21
-23.458500
  0
LINE
  8
0
  6
CONTINUOUS
 62
7
 10
-13.000000
 20
-31.541500
 11
-13.000000
 21
-23.458500
  0
LINE
  8
0
  6
CONTINUOUS
 62
7
 10
-36.309399
 20
-9.199970
 11
-35.154701
 21
-7.199980
  0
LINE
  8
0
  6
CONTINUOUS
 62
7
 10
-32.845299
 20
-11.200000
 11
-31.690599
 21
-9.199990
  0
LINE
  8
0
  6
CONTINUOUS
 62
7
 10
-32.845299
 20
-11.200000
 11
-35.154701
 21
-11.200000
  0
LINE
  8
0
  6
CONTINUOUS
 62
7
 10
-32.845299
 20
-7.199990
 11
-35.154701
 21
-7.199990
  0
LINE
  8
0
  6
CONTINUOUS
 62
7
 10
-35.154701
 20
-11.200000
 11
-36.309399
 21
-9.199980
  0
LINE
  8
0
  6
CONTINUOUS
 62
7
 10
-31.690599
 20
-9.199970
 11
-32.845299
 21
-7.199990
  0
LINE
  8
0
  6
CENTER
 62
2
 10
-30.190599
 20
-9.199980
 11
-37.809399
 21
-9.199980
  0
LINE
  8
0
  6
CONTINUOUS
 62
7
 10
-23.500000
 20
-5.000010
 11
-24.100000
 21
-5.600000
  0
LINE
  8
0
  6
CONTINUOUS
 62
7
 10
-23.500000
 20
-4.999990
 11
-14.000000
 21
-4.999990
  0
LINE
  8
0
  6
CONTINUOUS
 62
7
 10
-24.000000
 20
-14.000000
 11
-24.000000
 21
-15.513400
  0
LINE
  8
0
  6
CONTINUOUS
 62
7
 10
-24.000000
 20
-18.486601
 11
-24.000000
 21
-21.500000
  0
LINE
  8
0
  6
CONTINUOUS
 62
7
 10
-13.500000
 20
-21.500000
 11
-13.500000
 21
-34.000000
  0
LINE
  8
0
  6
CONTINUOUS
 62
7
 10
-54.500000
 20
-21.299999
 11
-54.500000
 21
-34.000000
  0
LINE
  8
0
  6
CONTINUOUS
 62
7
 10
-54.500000
 20
-27.799999
 11
-64.500000
 21
-27.799999
  0
LINE
  8
0
  6
CONTINUOUS
 62
7
 10
-57.000000
 20
-8.800000
 11
-64.500000
 21
-8.800000
  0
LINE
  8
0
  6
CONTINUOUS
 62
7
 10
-64.500000
 20
-8.800000
 11
-64.500000
 21
-27.799999
  0
LINE
  8
0
  6
CONTINUOUS
 62
2
 10
-64.500000
 20
-13.600000
 11
-63.500000
 21
-13.600000
  0
LINE
  8
0
  6
CONTINUOUS
 62
2
 10
-63.500000
 20
-10.150000
 11
-63.500000
 21
-14.450000
  0
LINE
  8
0
  6
CONTINUOUS
 62
2
 10
-64.500000
 20
-11.000000
 11
-63.500000
 21
-11.000000
  0
LINE
  8
0
  6
CONTINUOUS
 62
2
 10
-58.200001
 20
-11.650000
 11
-58.200001
 21
-12.950000
  0
LINE
  8
0
  6
CONTINUOUS
 62
2
 10
-59.700001
 20
-14.450000
 11
-63.500000
 21
-14.450000
  0
LINE
  8
0
  6
CONTINUOUS
 62
2
 10
-59.700001
 20
-10.150000
 11
-63.500000
 21
-10.150000
  0
LINE
  8
0
  6
CENTER
 62
2
 10
-56.200001
 20
-18.299999
 11
-66.500000
 21
-18.299999
  0
LINE
  8
0
  6
CENTER
 62
2
 10
-56.200001
 20
-12.300000
 11
-66.500000
 21
-12.300000
  0
LINE
  8
0
  6
CONTINUOUS
 62
7
 10
-56.100101
 20
-9.500000
 11
-54.000000
 21
-9.500000
  0
LINE
  8
0
  6
CONTINUOUS
 62
7
 10
-56.100101
 20
-9.500000
 11
-56.100101
 21
-20.500000
  0
LINE
  8
0
  6
CONTINUOUS
 62
7
 10
-57.000000
 20
-8.800000
 11
-57.000000
 21
-21.299999
  0
LINE
  8
0
  6
CONTINUOUS
 62
7
 10
-56.100101
 20
-20.500000
 11
-54.000000
 21
-20.500000
  0
LINE
  8
0
  6
CONTINUOUS
 62
7
 10
-54.500000
 20
-21.299999
 11
-57.000000
 21
-21.299999
  0
LINE
  8
0
  6
CENTER
 62
2
 10
-231.000000
 20
-32.000000
 11
-231.000000
 21
-36.000000
  0
LINE
  8
0
  6
CENTER
 62
2
 10
-261.000000
 20
-32.000000
 11
-261.000000
 21
-36.000000
  0
LINE
  8
0
  6
CENTER
 62
2
 10
-261.000000
 20
-2.999990
 11
-261.000000
 21
-6.999990
  0
LINE
  8
0
  6
CENTER
 62
2
 10
-231.000000
 20
-2.999990
 11
-231.000000
 21
-6.999990
  0
LINE
  8
0
  6
CENTER
 62
2
 10
14.000000
 20
-32.000000
 11
14.000000
 21
-36.000000
  0
LINE
  8
0
  6
CENTER
 62
2
 10
14.000000
 20
-2.999990
 11
14.000000
 21
-6.999990
  0
LINE
  8
0
  6
CENTER
 62
2
 10
44.000000
 20
-2.999990
 11
44.000000
 21
-6.999990
  0
LINE
  8
0
  6
CENTER
 62
2
 10
44.000000
 20
-32.000000
 11
44.000000
 21
-36.000000
  0
LINE
  8
0
  6
CENTER
 62
2
 10
236.000000
 20
-32.000000
 11
236.000000
 21
-36.000000
  0
LINE
  8
0
  6
CENTER
 62
2
 10
236.000000
 20
-2.999990
 11
236.000000
 21
-6.999990
  0
LINE
  8
0
  6
CENTER
 62
2
 10
266.000000
 20
-2.999990
 11
266.000000
 21
-6.999990
  0
LINE
  8
0
  6
CENTER
 62
2
 10
266.000000
 20
-32.000000
 11
266.000000
 21
-36.000000
  0
LINE
  8
0
  6
CENTER
 62
2
 10
-49.000000
 20
-32.000000
 11
-49.000000
 21
-36.000000
  0
LINE
  8
0
  6
CENTER
 62
2
 10
-49.000000
 20
-2.999990
 11
-49.000000
 21
-6.999990
  0
LINE
  8
0
  6
CENTER
 62
2
 10
-19.000000
 20
-2.999990
 11
-19.000000
 21
-6.999990
  0
LINE
  8
0
  6
CENTER
 62
2
 10
-19.000000
 20
-32.000000
 11
-19.000000
 21
-36.000000
  0
LINE
  8
0
  6
CENTER
 62
2
 10
-142.500000
 20
-2.999990
 11
-142.500000
 21
-6.999990
  0
LINE
  8
0
  6
CENTER
 62
2
 10
-117.500000
 20
-2.999990
 11
-117.500000
 21
-6.999990
  0
LINE
  8
0
  6
CENTER
 62
2
 10
-142.500000
 20
77.000000
 11
-142.500000
 21
73.000000
  0
LINE
  8
0
  6
CENTER
 62
2
 10
-117.500000
 20
77.000000
 11
-117.500000
 21
73.000000
  0
LINE
  8
0
  6
CENTER
 62
2
 10
175.000000
 20
-2.999990
 11
175.000000
 21
-6.999990
  0
LINE
  8
0
  6
CENTER
 62
2
 10
135.000000
 20
-2.999990
 11
135.000000
 21
-6.999990
  0
LINE
  8
0
  6
CENTER
 62
2
 10
155.000000
 20
-2.999990
 11
155.000000
 21
-6.999990
  0
LINE
  8
0
  6
CENTER
 62
2
 10
135.000000
 20
77.000000
 11
135.000000
 21
73.000000
  0
LINE
  8
0
  6
CENTER
 62
2
 10
155.000000
 20
77.000000
 11
155.000000
 21
73.000000
  0
LINE
  8
0
  6
CENTER
 62
2
 10
175.000000
 20
77.000000
 11
175.000000
 21
73.000000
  0
LINE
  8
0
  6
CENTER
 62
2
 10
-181.500000
 20
-23.000000
 11
-181.500000
 21
-32.000000
  0
LINE
  8
0
  6
CENTER
 62
2
 10
-186.000000
 20
-27.500000
 11
-177.000000
 21
-27.500000
  0
LINE
  8
0
  6
CENTER
 62
2
 10
-98.500000
 20
-23.000000
 11
-98.500000
 21
-32.000000
  0
LINE
  8
0
  6
CENTER
 62
2
 10
-103.000000
 20
-27.500000
 11
-94.000000
 21
-27.500000
  0
LINE
  8
0
  6
CENTER
 62
2
 10
83.500000
 20
-23.000000
 11
83.500000
 21
-32.000000
  0
LINE
  8
0
  6
CENTER
 62
2
 10
79.000000
 20
-27.500000
 11
88.000000
 21
-27.500000
  0
LINE
  8
0
  6
CENTER
 62
2
 10
196.500000
 20
-23.000000
 11
196.500000
 21
-32.000000
  0
LINE
  8
0
  6
CENTER
 62
2
 10
192.000000
 20
-27.500000
 11
201.000000
 21
-27.500000
  0
LINE
  8
0
  6
CONTINUOUS
 62
7
 10
0.424988
 20
195.500000
 11
0.424988
 21
-195.000000
  0
CIRCLE
  8
0
  6
CONTINUOUS
 62
7
 10
-172.500000
 20
-101.500000
 40
2.500000
  0
CIRCLE
  8
0
  6
CONTINUOUS
 62
2
 10
-172.500000
 20
-101.500000
 40
3.000000
  0
CIRCLE
  8
0
  6
CONTINUOUS
 62
2
 10
-107.500000
 20
-101.500000
 40
3.000000
  0
CIRCLE
  8
0
  6
CONTINUOUS
 62
7
 10
-107.500000
 20
-101.500000
 40
2.500000
  0
CIRCLE
  8
0
  6
CONTINUOUS
 62
7
 10
-107.500000
 20
-71.500000
 40
2.500000
  0
CIRCLE
  8
0
  6
CONTINUOUS
 62
2
 10
-107.500000
 20
-71.500000
 40
3.000000
  0
CIRCLE
  8
0
  6
CONTINUOUS
 62
7
 10
-172.500000
 20
-71.500000
 40
2.500000
  0
CIRCLE
  8
0
  6
CONTINUOUS
 62
2
 10
-172.500000
 20
-71.500000
 40
3.000000
  0
CIRCLE
  8
0
  6
CONTINUOUS
 62
7
 10
-180.500000
 20
-94.000000
 40
5.900000
  0
CIRCLE
  8
0
  6
CONTINUOUS
 62
7
 10
-99.500000
 20
-79.000000
 40
5.900000
  0
ARC
  8
0
  6
CONTINUOUS
 62
7
 10
-156.500000
 20
-9.200000
 40
3.000000
 50
138.190002
 51
172.337997
  0
CIRCLE
  8
0
  6
CONTINUOUS
 62
2
 10
-117.500000
 20
52.500000
 40
2.000000
  0
CIRCLE
  8
0
  6
CONTINUOUS
 62
7
 10
-117.500000
 20
52.500000
 40
1.650000
  0
CIRCLE
  8
0
  6
CONTINUOUS
 62
2
 10
-142.500000
 20
52.500000
 40
2.000000
  0
CIRCLE
  8
0
  6
CONTINUOUS
 62
7
 10
-142.500000
 20
52.500000
 40
1.650000
  0
CIRCLE
  8
0
  6
CONTINUOUS
 62
2
 10
-117.500000
 20
22.500000
 40
2.000000
  0
CIRCLE
  8
0
  6
CONTINUOUS
 62
7
 10
-117.500000
 20
22.500000
 40
1.650000
  0
CIRCLE
  8
0
  6
CONTINUOUS
 62
2
 10
-142.500000
 20
22.500000
 40
2.000000
  0
CIRCLE
  8
0
  6
CONTINUOUS
 62
7
 10
-142.500000
 20
22.500000
 40
1.650000
  0
CIRCLE
  8
0
  6
CONTINUOUS
 62
7
 10
-172.500000
 20
22.500000
 40
4.750000
  0
CIRCLE
  8
0
  6
CONTINUOUS
 62
2
 10
-172.500000
 20
22.500000
 40
3.000000
  0
ARC
  8
0
  6
CONTINUOUS
 62
2
 10
-107.500000
 20
22.500000
 40
3.000000
 50
326.441986
 51
33.557598
  0
ARC
  8
0
  6
CONTINUOUS
 62
7
 10
-107.500000
 20
22.500000
 40
4.750000
 50
301.756989
 51
58.243198
  0
CIRCLE
  8
0
  6
CONTINUOUS
 62
2
 10
-172.500000
 20
52.500000
 40
3.000000
  0
CIRCLE
  8
0
  6
CONTINUOUS
 62
7
 10
-172.500000
 20
52.500000
 40
4.750000
  0
CIRCLE
  8
0
  6
CONTINUOUS
 62
7
 10
-155.000000
 20
99.000000
 40
1.650000
  0
CIRCLE
  8
0
  6
CONTINUOUS
 62
2
 10
-155.000000
 20
99.000000
 40
2.000000
  0
CIRCLE
  8
0
  6
CONTINUOUS
 62
2
 10
-125.000000
 20
82.000000
 40
2.000000
  0
CIRCLE
  8
0
  6
CONTINUOUS
 62
7
 10
-125.000000
 20
82.000000
 40
1.650000
  0
CIRCLE
  8
0
  6
CONTINUOUS
 62
2
 10
-135.000000
 20
82.000000
 40
2.000000
  0
CIRCLE
  8
0
  6
CONTINUOUS
 62
7
 10
-135.000000
 20
82.000000
 40
1.650000
  0
CIRCLE
  8
0
  6
CONTINUOUS
 62
7
 10
-165.000000
 20
99.000000
 40
1.650000
  0
CIRCLE
  8
0
  6
CONTINUOUS
 62
2
 10
-165.000000
 20
99.000000
 40
2.000000
  0
CIRCLE
  8
0
  6
CONTINUOUS
 62
2
 10
-125.000000
 20
99.000000
 40
2.000000
  0
CIRCLE
  8
0
  6
CONTINUOUS
 62
7
 10
-125.000000
 20
99.000000
 40
1.650000
  0
CIRCLE
  8
0
  6
CONTINUOUS
 62
7
 10
-98.500000
 20
97.500000
 40
4.000000
  0
CIRCLE
  8
0
  6
CONTINUOUS
 62
7
 10
-181.500000
 20
97.500000
 40
4.000000
  0
ARC
  8
0
  6
DASHED
 62
2
 10
-107.500000
 20
22.500000
 40
4.750000
 50
58.243198
 51
301.756989
  0
ARC
  8
0
  6
DASHED
 62
2
 10
-107.500000
 20
22.500000
 40
3.000000
 50
33.557598
 51
326.441986
  0
ARC
  8
0
  6
DASHED
 62
2
 10
-107.500000
 20
52.500000
 40
4.750000
 50
58.243301
 51
301.756989
  0
ARC
  8
0
  6
DASHED
 62
2
 10
-107.500000
 20
52.500000
 40
3.000000
 50
33.557598
 51
326.441986
  0
ARC
  8
0
  6
CONTINUOUS
 62
7
 10
-107.500000
 20
52.500000
 40
4.750000
 50
301.756989
 51
58.243301
  0
ARC
  8
0
  6
CONTINUOUS
 62
2
 10
-107.500000
 20
52.500000
 40
3.000000
 50
326.441986
 51
33.557598
  0
ARC
  8
0
  6
CONTINUOUS
 62
7
 10
-156.500000
 20
79.199997
 40
3.000000
 50
138.190002
 51
221.809998
  0
ARC
  8
0
  6
CONTINUOUS
 62
7
 10
-156.500000
 20
37.500000
 40
3.000000
 50
129.664001
 51
230.335999
  0
CIRCLE
  8
0
  6
CONTINUOUS
 62
2
 10
-115.000000
 20
99.000000
 40
2.000000
  0
CIRCLE
  8
0
  6
CONTINUOUS
 62
7
 10
-115.000000
 20
99.000000
 40
1.650000
  0
ARC
  8
0
  6
CONTINUOUS
 62
7
 10
39.200001
 20
-17.000000
 40
1.500010
 50
210.436005
 51
262.335999
  0
ARC
  8
0
  6
CONTINUOUS
 62
7
 10
39.200001
 20
-17.000000
 40
1.499990
 50
97.661598
 51
149.561996
  0
ARC
  8
0
  6
CONTINUOUS
 62
7
 10
18.799999
 20
-17.000000
 40
1.500010
 50
277.661011
 51
329.562012
  0
ARC
  8
0
  6
CONTINUOUS
 62
7
 10
18.799999
 20
-17.000000
 40
1.500000
 50
30.436399
 51
82.337303
  0
CIRCLE
  8
0
  6
CONTINUOUS
 62
7
 10
29.000000
 20
-24.000000
 40
8.500000
  0
CIRCLE
  8
0
  6
CONTINUOUS
 62
7
 10
29.000000
 20
-9.199980
 40
0.400000
  0
CIRCLE
  8
0
  6
CONTINUOUS
 62
7
 10
92.500000
 20
-101.500000
 40
2.500000
  0
CIRCLE
  8
0
  6
CONTINUOUS
 62
2
 10
92.500000
 20
-101.500000
 40
3.000000
  0
CIRCLE
  8
0
  6
CONTINUOUS
 62
2
 10
187.500000
 20
-101.500000
 40
3.000000
  0
CIRCLE
  8
0
  6
CONTINUOUS
 62
7
 10
187.500000
 20
-101.500000
 40
2.500000
  0
CIRCLE
  8
0
  6
CONTINUOUS
 62
7
 10
187.500000
 20
-71.500000
 40
2.500000
  0
CIRCLE
  8
0
  6
CONTINUOUS
 62
2
 10
187.500000
 20
-71.500000
 40
3.000000
  0
CIRCLE
  8
0
  6
CONTINUOUS
 62
7
 10
92.500000
 20
-71.500000
 40
2.500000
  0
CIRCLE
  8
0
  6
CONTINUOUS
 62
2
 10
92.500000
 20
-71.500000
 40
3.000000
  0
CIRCLE
  8
0
  6
CONTINUOUS
 62
7
 10
84.500000
 20
-94.000000
 40
5.900000
  0
CIRCLE
  8
0
  6
CONTINUOUS
 62
7
 10
195.500000
 20
-79.000000
 40
5.900000
  0
CIRCLE
  8
0
  6
CONTINUOUS
 62
2
 10
175.000000
 20
52.500000
 40
2.000000
  0
CIRCLE
  8
0
  6
CONTINUOUS
 62
7
 10
175.000000
 20
52.500000
 40
1.650000
  0
CIRCLE
  8
0
  6
CONTINUOUS
 62
2
 10
175.000000
 20
22.500000
 40
2.000000
  0
CIRCLE
  8
0
  6
CONTINUOUS
 62
7
 10
175.000000
 20
22.500000
 40
1.650000
  0
CIRCLE
  8
0
  6
CONTINUOUS
 62
7
 10
92.500000
 20
22.500000
 40
4.750000
  0
CIRCLE
  8
0
  6
CONTINUOUS
 62
2
 10
92.500000
 20
22.500000
 40
3.000000
  0
ARC
  8
0
  6
DASHED
 62
2
 10
187.500000
 20
22.500000
 40
3.000000
 50
60.000000
 51
300.000000
  0
ARC
  8
0
  6
DASHED
 62
2
 10
187.500000
 20
22.500000
 40
4.750000
 50
71.591698
 51
284.437012
  0
CIRCLE
  8
0
  6
CONTINUOUS
 62
2
 10
92.500000
 20
52.500000
 40
3.000000
  0
CIRCLE
  8
0
  6
CONTINUOUS
 62
7
 10
92.500000
 20
52.500000
 40
4.750000
  0
CIRCLE
  8
0
  6
CONTINUOUS
 62
2
 10
160.000000
 20
82.000000
 40
2.000000
  0
CIRCLE
  8
0
  6
CONTINUOUS
 62
7
 10
160.000000
 20
82.000000
 40
1.650000
  0
CIRCLE
  8
0
  6
CONTINUOUS
 62
2
 10
150.000000
 20
82.000000
 40
2.000000
  0
CIRCLE
  8
0
  6
CONTINUOUS
 62
7
 10
150.000000
 20
82.000000
 40
1.650000
  0
CIRCLE
  8
0
  6
CONTINUOUS
 62
2
 10
135.000000
 20
22.500000
 40
2.000000
  0
CIRCLE
  8
0
  6
CONTINUOUS
 62
7
 10
135.000000
 20
22.500000
 40
1.650000
  0
CIRCLE
  8
0
  6
CONTINUOUS
 62
2
 10
135.000000
 20
52.500000
 40
2.000000
  0
CIRCLE
  8
0
  6
CONTINUOUS
 62
7
 10
135.000000
 20
52.500000
 40
1.650000
  0
CIRCLE
  8
0
  6
CONTINUOUS
 62
2
 10
155.000000
 20
22.500000
 40
2.000000
  0
CIRCLE
  8
0
  6
CONTINUOUS
 62
7
 10
155.000000
 20
22.500000
 40
1.650000
  0
CIRCLE
  8
0
  6
CONTINUOUS
 62
2
 10
155.000000
 20
52.500000
 40
2.000000
  0
CIRCLE
  8
0
  6
CONTINUOUS
 62
7
 10
155.000000
 20
52.500000
 40
1.650000
  0
CIRCLE
  8
0
  6
CONTINUOUS
 62
7
 10
120.000000
 20
99.000000
 40
1.650000
  0
CIRCLE
  8
0
  6
CONTINUOUS
 62
2
 10
120.000000
 20
99.000000
 40
2.000000
  0
CIRCLE
  8
0
  6
CONTINUOUS
 62
2
 10
160.000000
 20
99.000000
 40
2.000000
  0
CIRCLE
  8
0
  6
CONTINUOUS
 62
7
 10
160.000000
 20
99.000000
 40
1.650000
  0
CIRCLE
  8
0
  6
CONTINUOUS
 62
7
 10
83.500000
 20
97.500000
 40
4.000000
  0
ARC
  8
0
  6
CONTINUOUS
 62
2
 10
187.500000
 20
22.500000
 40
3.000000
 50
300.000000
 51
60.000000
  0
ARC
  8
0
  6
CONTINUOUS
 62
7
 10
187.500000
 20
22.500000
 40
4.750000
 50
288.407990
 51
71.591698
  0
ARC
  8
0
  6
CONTINUOUS
 62
7
 10
187.500000
 20
52.500000
 40
4.750000
 50
288.407990
 51
71.591698
  0
ARC
  8
0
  6
CONTINUOUS
 62
2
 10
187.500000
 20
52.500000
 40
3.000000
 50
300.000000
 51
60.000000
  0
ARC
  8
0
  6
DASHED
 62
2
 10
187.500000
 20
52.500000
 40
3.000000
 50
60.000000
 51
300.000000
  0
ARC
  8
0
  6
DASHED
 62
2
 10
187.500000
 20
52.500000
 40
4.750000
 50
75.563004
 51
288.407990
  0
CIRCLE
  8
0
  6
CONTINUOUS
 62
7
 10
196.500000
 20
97.500000
 40
4.000000
  0
ARC
  8
0
  6
CONTINUOUS
 62
7
 10
119.500000
 20
-9.200000
 40
3.000000
 50
138.190002
 51
172.337997
  0
ARC
  8
0
  6
CONTINUOUS
 62
7
 10
119.500000
 20
79.199997
 40
3.000000
 50
138.190002
 51
221.809998
  0
ARC
  8
0
  6
CONTINUOUS
 62
7
 10
119.500000
 20
37.500000
 40
3.000000
 50
129.664001
 51
230.335999
  0
CIRCLE
  8
0
  6
CONTINUOUS
 62
7
 10
110.000000
 20
99.000000
 40
1.650000
  0
CIRCLE
  8
0
  6
CONTINUOUS
 62
2
 10
110.000000
 20
99.000000
 40
2.000000
  0
CIRCLE
  8
0
  6
CONTINUOUS
 62
2
 10
170.000000
 20
99.000000
 40
2.000000
  0
CIRCLE
  8
0
  6
CONTINUOUS
 62
7
 10
170.000000
 20
99.000000
 40
1.650000
  0
ARC
  8
0
  6
CONTINUOUS
 62
2
 10
54.700001
 20
-11.650000
 40
1.500000
 50
90.000000
 51
180.000000
  0
ARC
  8
0
  6
CONTINUOUS
 62
2
 10
54.700001
 20
-12.950000
 40
1.500000
 50
180.000000
 51
270.000000
  0
ARC
  8
0
  6
CONTINUOUS
 62
2
 10
225.300003
 20
-12.950000
 40
1.500000
 50
270.000000
 51
0.000000
  0
ARC
  8
0
  6
CONTINUOUS
 62
7
 10
240.800003
 20
-17.000000
 40
1.500010
 50
277.664001
 51
329.563995
  0
ARC
  8
0
  6
CONTINUOUS
 62
7
 10
240.800003
 20
-17.000000
 40
1.499990
 50
30.437799
 51
82.338402
  0
ARC
  8
0
  6
CONTINUOUS
 62
7
 10
261.200012
 20
-17.000000
 40
1.500010
 50
210.438004
 51
262.339996
  0
ARC
  8
0
  6
CONTINUOUS
 62
7
 10
261.200012
 20
-17.000000
 40
1.500000
 50
97.662697
 51
149.563004
  0
CIRCLE
  8
0
  6
CONTINUOUS
 62
7
 10
251.000000
 20
-24.000000
 40
8.500000
  0
CIRCLE
  8
0
  6
CONTINUOUS
 62
7
 10
251.000000
 20
-9.199980
 40
0.400000
  0
ARC
  8
0
  6
CONTINUOUS
 62
2
 10
225.300003
 20
-11.650000
 40
1.500000
 50
0.000000
 51
90.000000
  0
ARC
  8
0
  6
CONTINUOUS
 62
7
 10
-235.800003
 20
-17.000000
 40
1.500010
 50
210.436005
 51
262.335999
  0
ARC
  8
0
  6
CONTINUOUS
 62
7
 10
-235.800003
 20
-17.000000
 40
1.499990
 50
97.661598
 51
149.561996
  0
ARC
  8
0
  6
CONTINUOUS
 62
7
 10
-256.200012
 20
-17.000000
 40
1.500000
 50
277.660004
 51
329.561005
  0
ARC
  8
0
  6
CONTINUOUS
 62
7
 10
-256.200012
 20
-17.000000
 40
1.500000
 50
30.436399
 51
82.337303
  0
CIRCLE
  8
0
  6
CONTINUOUS
 62
7
 10
-246.000000
 20
-24.000000
 40
8.500000
  0
CIRCLE
  8
0
  6
CONTINUOUS
 62
7
 10
-246.000000
 20
-9.199980
 40
0.400000
  0
ARC
  8
0
  6
CONTINUOUS
 62
2
 10
-220.300003
 20
-11.650000
 40
1.500000
 50
90.000000
 51
180.000000
  0
ARC
  8
0
  6
CONTINUOUS
 62
2
 10
-220.300003
 20
-12.950000
 40
1.500000
 50
180.000000
 51
270.000000
  0
ARC
  8
0
  6
CONTINUOUS
 62
2
 10
-59.700001
 20
-12.950000
 40
1.500000
 50
270.000000
 51
0.000000
  0
ARC
  8
0
  6
CONTINUOUS
 62
7
 10
-44.200001
 20
-17.000000
 40
1.500010
 50
277.664001
 51
329.563995
  0
ARC
  8
0
  6
CONTINUOUS
 62
7
 10
-44.200001
 20
-17.000000
 40
1.499990
 50
30.437599
 51
82.338402
  0
ARC
  8
0
  6
CONTINUOUS
 62
7
 10
-23.799999
 20
-17.000000
 40
1.500010
 50
210.438004
 51
262.338989
  0
ARC
  8
0
  6
CONTINUOUS
 62
7
 10
-23.799999
 20
-17.000000
 40
1.500000
 50
97.662697
 51
149.563995
  0
CIRCLE
  8
0
  6
CONTINUOUS
 62
7
 10
-34.000000
 20
-24.000000
 40
8.500000
  0
CIRCLE
  8
0
  6
CONTINUOUS
 62
7
 10
-34.000000
 20
-9.199980
 40
0.400000
  0
ARC
  8
0
  6
CONTINUOUS
 62
2
 10
-59.700001
 20
-11.650000
 40
1.500000
 50
0.000000
 51
90.000000
  0
CIRCLE
  8
0
  6
CONTINUOUS
 62
7
 10
-181.500000
 20
-27.500000
 40
2.100000
  0
CIRCLE
  8
0
  6
CONTINUOUS
 62
2
 10
-181.500000
 20
-27.500000
 40
2.500000
  0
CIRCLE
  8
0
  6
CONTINUOUS
 62
7
 10
-98.500000
 20
-27.500000
 40
2.100000
  0
CIRCLE
  8
0
  6
CONTINUOUS
 62
2
 10
-98.500000
 20
-27.500000
 40
2.500000
  0
CIRCLE
  8
0
  6
CONTINUOUS
 62
7
 10
83.500000
 20
-27.500000
 40
2.100000
  0
CIRCLE
  8
0
  6
CONTINUOUS
 62
2
 10
83.500000
 20
-27.500000
 40
2.500000
  0
CIRCLE
  8
0
  6
CONTINUOUS
 62
7
 10
196.500000
 20
-27.500000
 40
2.100000
  0
CIRCLE
  8
0
  6
CONTINUOUS
 62
2
 10
196.500000
 20
-27.500000
 40
2.500000
  0
CIRCLE
  8
0
  6
CONTINUOUS
 62
7
 10
92.500000
 20
22.500000
 40
2.650000
  0
CIRCLE
  8
0
  6
CONTINUOUS
 62
7
 10
92.500000
 20
52.500000
 40
2.650000
  0
ARC
  8
0
  6
CONTINUOUS
 62
7
 10
187.500000
 20
52.500000
 40
2.650000
 50
304.473999
 51
55.525700
  0
ARC
  8
0
  6
DASHED
 62
2
 10
187.500000
 20
52.500000
 40
2.650000
 50
55.525700
 51
304.473999
  0
ARC
  8
0
  6
CONTINUOUS
 62
7
 10
187.500000
 20
22.500000
 40
2.650000
 50
304.473999
 51
55.525700
  0
ARC
  8
0
  6
DASHED
 62
2
 10
187.500000
 20
22.500000
 40
2.650000
 50
55.525700
 51
304.473999
  0
CIRCLE
  8
0
  6
CONTINUOUS
 62
7
 10
-172.500000
 20
22.500000
 40
2.650000
  0
CIRCLE
  8
0
  6
CONTINUOUS
 62
7
 10
-172.500000
 20
52.500000
 40
2.650000
  0
CIRCLE
  8
0
  6
DASHED
 62
2
 10
-107.500000
 20
52.500000
 40
2.650000
  0
CIRCLE
  8
0
  6
DASHED
 62
2
 10
-107.500000
 20
22.500000
 40
2.650000
  0
TEXT
  8
0
 62
7
 10
202.930283
 20
183.925003
 40
6.300000
  1
Ver.1.0
 50
0.000000
 41
1.010330
 51
0.000000
  7
STANDARD
  0
TEXT
  8
0
 62
7
 10
172.714691
 20
-187.250000
 40
9.000000
  1
KOGANEI CORP.
 50
0.000000
 41
0.771524
 51
0.000000
  7
STANDARD
  0
TEXT
  8
0
 62
7
 10
-243.569717
 20
183.925003
 40
6.300000
  1
AP TABLE
 50
0.000000
 41
0.775607
 51
0.000000
  7
STANDARD
  0
TEXT
  8
0
 62
7
 10
12.274609
 20
158.925003
 40
6.300000
  1
MODEL:APTS-SD16-30-TP
 50
0.000000
 41
0.781387
 51
0.000000
  7
STANDARD
  0
TEXT
  8
0
 62
7
 10
-269.400391
 20
158.925003
 40
6.300000
  1
MODEL:APTS-SD16-20-TP
 50
0.000000
 41
0.781387
 51
0.000000
  7
STANDARD
  0
ENDSEC
  0
EOF
