  0
SECTION
  2
HEADER
  0
ENDSEC
  0
SECTION
  2
TABLES
  0
TABLE
  2
LTYPE
 70
     4
  0
LTYPE
  2
CONTINUOUS
 70
    64
  3
Solid line
 72
    65
 73
     0
 40
0.000000
  0
LTYPE
  2
DASHED
 70
    64
  3
__ __ __ __ __ __ __ __ __ __ __ __ __ __ __
 72
    65
 73
     2
 40
3.500000
 49
2.000000
 49
-1.500000
  0
LTYPE
  2
CENTER
 70
    64
  3
____ _ ____ _ ____ _ ____ _ ____ _ ____ _ ____
 72
    65
 73
     4
 40
17.500000
 49
13.000000
 49
-1.500000
 49
1.500000
 49
-1.500000
  0
LTYPE
  2
PHANTOM
 70
    64
  3
_____ _ _ _____ _ _ _____ _ _ _____ _ _ ____  
 72
    65
 73
     6
 40
15.500000
 49
8.000000
 49
-1.500000
 49
1.500000
 49
-1.500000
 49
1.500000
 49
-1.500000
  0
ENDTAB
  0
TABLE
  2
LAYER
 70
     1
  0
LAYER
  2
0
 70
     0
 62
     7
  6
CONTINUOUS
  0
ENDTAB
  0
TABLE
  2
STYLE
 70
     1
  0
STYLE
  2
STANDARD
 70
     0
 40
0.000000
 41
1.000000
 50
0.000000
 71
     0
 42
0.200000
  3
txt
  4
BIGFONT
  0
ENDTAB
  0
TABLE
  2
VIEW
 70
     0
  0
ENDTAB
  0
ENDSEC
  0
SECTION
  2
BLOCKS
  0
ENDSEC
  0
SECTION
  2
ENTITIES
  0
LINE
  8
0
  6
CONTINUOUS
 62
7
 10
-281.250000
 20
195.500000
 11
282.100006
 21
195.500000
  0
LINE
  8
0
  6
CONTINUOUS
 62
7
 10
-281.250000
 20
195.500000
 11
-281.250000
 21
-195.000000
  0
LINE
  8
0
  6
CONTINUOUS
 62
7
 10
282.100006
 20
195.500000
 11
282.100006
 21
-195.000000
  0
LINE
  8
0
  6
CONTINUOUS
 62
7
 10
-281.250000
 20
-195.000000
 11
282.100006
 21
-195.000000
  0
LINE
  8
0
  6
CONTINUOUS
 62
7
 10
162.100006
 20
-175.000000
 11
162.100006
 21
-195.000000
  0
LINE
  8
0
  6
CONTINUOUS
 62
7
 10
162.100006
 20
-175.000000
 11
282.100006
 21
-175.000000
  0
LINE
  8
0
  6
CONTINUOUS
 62
7
 10
162.100006
 20
175.500000
 11
282.100006
 21
175.500000
  0
LINE
  8
0
  6
CONTINUOUS
 62
7
 10
-281.250000
 20
175.500000
 11
-161.250000
 21
175.500000
  0
LINE
  8
0
  6
CONTINUOUS
 62
7
 10
162.100006
 20
195.500000
 11
162.100006
 21
175.500000
  0
LINE
  8
0
  6
CONTINUOUS
 62
7
 10
-161.250000
 20
195.500000
 11
-161.250000
 21
175.500000
  0
LINE
  8
0
  6
CONTINUOUS
 62
7
 10
-188.000000
 20
-100.000000
 11
-188.000000
 21
-59.000000
  0
LINE
  8
0
  6
CONTINUOUS
 62
7
 10
-92.000000
 20
-100.000000
 11
-92.000000
 21
-59.000000
  0
LINE
  8
0
  6
CONTINUOUS
 62
7
 10
-188.000000
 20
-59.000000
 11
-92.000000
 21
-59.000000
  0
LINE
  8
0
  6
CENTER
 62
2
 10
-190.000000
 20
-79.500000
 11
-90.000000
 21
-79.500000
  0
LINE
  8
0
  6
CONTINUOUS
 62
7
 10
-188.000000
 20
-34.000000
 11
-92.000000
 21
-34.000000
  0
LINE
  8
0
  6
CONTINUOUS
 62
7
 10
-188.000000
 20
-14.000000
 11
-168.500000
 21
-14.000000
  0
LINE
  8
0
  6
CONTINUOUS
 62
7
 10
-188.000000
 20
-14.000000
 11
-188.000000
 21
-34.000000
  0
LINE
  8
0
  6
CONTINUOUS
 62
7
 10
-92.000000
 20
-14.000000
 11
-92.000000
 21
-34.000000
  0
LINE
  8
0
  6
CONTINUOUS
 62
7
 10
-105.000000
 20
-14.000000
 11
-92.000000
 21
-14.000000
  0
LINE
  8
0
  6
CONTINUOUS
 62
7
 10
-92.000000
 20
-21.500000
 11
-111.500000
 21
-21.500000
  0
LINE
  8
0
  6
CONTINUOUS
 62
7
 10
-112.699997
 20
-8.799990
 11
-112.699997
 21
-4.999990
  0
LINE
  8
0
  6
CONTINUOUS
 62
7
 10
-147.300003
 20
-4.999990
 11
-112.699997
 21
-4.999990
  0
LINE
  8
0
  6
CONTINUOUS
 62
7
 10
-147.300003
 20
-8.799990
 11
-147.300003
 21
-4.999990
  0
LINE
  8
0
  6
CONTINUOUS
 62
7
 10
-105.000000
 20
-20.000000
 11
-105.000000
 21
-5.699990
  0
LINE
  8
0
  6
CONTINUOUS
 62
7
 10
-112.699997
 20
-5.699990
 11
-105.000000
 21
-5.699990
  0
LINE
  8
0
  6
CONTINUOUS
 62
7
 10
-155.000000
 20
-8.799990
 11
-155.000000
 21
-5.699990
  0
LINE
  8
0
  6
CONTINUOUS
 62
7
 10
-147.300003
 20
-5.699990
 11
-155.000000
 21
-5.699990
  0
LINE
  8
0
  6
CONTINUOUS
 62
7
 10
-111.500000
 20
-20.000000
 11
-105.000000
 21
-20.000000
  0
LINE
  8
0
  6
CONTINUOUS
 62
7
 10
-188.000000
 20
-100.000000
 11
-92.000000
 21
-100.000000
  0
LINE
  8
0
  6
CENTER
 62
2
 10
-172.500000
 20
-58.959999
 11
-172.500000
 21
-70.040001
  0
LINE
  8
0
  6
CENTER
 62
2
 10
-178.039993
 20
-64.500000
 11
-166.960007
 21
-64.500000
  0
LINE
  8
0
  6
CENTER
 62
2
 10
-180.500000
 20
-78.559998
 11
-180.500000
 21
-95.440002
  0
LINE
  8
0
  6
CENTER
 62
2
 10
-188.940002
 20
-87.000000
 11
-172.059998
 21
-87.000000
  0
LINE
  8
0
  6
CENTER
 62
2
 10
-172.500000
 20
-88.959999
 11
-172.500000
 21
-100.040001
  0
LINE
  8
0
  6
CENTER
 62
2
 10
-178.039993
 20
-94.500000
 11
-166.960007
 21
-94.500000
  0
LINE
  8
0
  6
CENTER
 62
2
 10
-107.500000
 20
-88.959999
 11
-107.500000
 21
-100.040001
  0
LINE
  8
0
  6
CENTER
 62
2
 10
-113.040001
 20
-94.500000
 11
-101.959999
 21
-94.500000
  0
LINE
  8
0
  6
CENTER
 62
2
 10
-107.500000
 20
-58.959999
 11
-107.500000
 21
-70.040001
  0
LINE
  8
0
  6
CENTER
 62
2
 10
-113.040001
 20
-64.500000
 11
-101.959999
 21
-64.500000
  0
LINE
  8
0
  6
CENTER
 62
2
 10
-99.500000
 20
-63.560001
 11
-99.500000
 21
-80.440002
  0
LINE
  8
0
  6
CENTER
 62
2
 10
-107.940002
 20
-72.000000
 11
-91.059998
 21
-72.000000
  0
LINE
  8
0
  6
CONTINUOUS
 62
7
 10
-185.500000
 20
-100.500000
 11
-177.500000
 21
-100.500000
  0
LINE
  8
0
  6
CONTINUOUS
 62
7
 10
-185.000000
 20
-103.500000
 11
-178.000000
 21
-103.500000
  0
LINE
  8
0
  6
CENTER
 62
2
 10
-181.500000
 20
-104.598999
 11
-181.500000
 21
-98.385696
  0
LINE
  8
0
  6
CONTINUOUS
 62
7
 10
-185.500000
 20
-100.500000
 11
-185.500000
 21
-100.000000
  0
LINE
  8
0
  6
CONTINUOUS
 62
7
 10
-177.500000
 20
-100.500000
 11
-177.500000
 21
-100.000000
  0
LINE
  8
0
  6
CONTINUOUS
 62
7
 10
-181.500000
 20
-100.500000
 11
-181.500000
 21
-103.500000
  0
LINE
  8
0
  6
CONTINUOUS
 62
7
 10
-158.735992
 20
-7.200000
 11
-155.000000
 21
-7.200000
  0
LINE
  8
0
  6
CONTINUOUS
 62
7
 10
92.000000
 20
-102.000000
 11
92.000000
 21
-110.000000
  0
LINE
  8
0
  6
CONTINUOUS
 62
7
 10
-178.000000
 20
-100.500000
 11
-178.000000
 21
-103.500000
  0
LINE
  8
0
  6
CONTINUOUS
 62
7
 10
-158.735992
 20
-7.200000
 11
-158.735992
 21
-8.799990
  0
LINE
  8
0
  6
CENTER
 62
2
 10
-190.000000
 20
40.500000
 11
-90.730301
 21
40.500000
  0
LINE
  8
0
  6
CONTINUOUS
 62
7
 10
-188.000000
 20
61.000000
 11
-188.000000
 21
20.000000
  0
LINE
  8
0
  6
CONTINUOUS
 62
7
 10
-92.000000
 20
61.000000
 11
-92.000000
 21
20.000000
  0
LINE
  8
0
  6
CONTINUOUS
 62
7
 10
-188.000000
 20
30.500000
 11
-155.000000
 21
30.500000
  0
LINE
  8
0
  6
CONTINUOUS
 62
7
 10
-188.000000
 20
50.500000
 11
-155.000000
 21
50.500000
  0
LINE
  8
0
  6
CONTINUOUS
 62
7
 10
-105.000000
 20
50.500000
 11
-92.000000
 21
50.500000
  0
LINE
  8
0
  6
CONTINUOUS
 62
7
 10
-105.000000
 20
30.500000
 11
-92.000000
 21
30.500000
  0
LINE
  8
0
  6
CONTINUOUS
 62
7
 10
-188.000000
 20
20.000000
 11
-92.000000
 21
20.000000
  0
LINE
  8
0
  6
CONTINUOUS
 62
7
 10
-147.300003
 20
20.500000
 11
-147.300003
 21
60.500000
  0
LINE
  8
0
  6
CONTINUOUS
 62
7
 10
-112.699997
 20
20.500000
 11
-112.699997
 21
60.500000
  0
LINE
  8
0
  6
CONTINUOUS
 62
7
 10
-105.000000
 20
20.900000
 11
-105.000000
 21
60.099998
  0
LINE
  8
0
  6
CONTINUOUS
 62
7
 10
-112.699997
 20
20.900000
 11
-105.000000
 21
20.900000
  0
LINE
  8
0
  6
CONTINUOUS
 62
7
 10
-147.300003
 20
20.900000
 11
-155.000000
 21
20.900000
  0
LINE
  8
0
  6
CONTINUOUS
 62
7
 10
-188.000000
 20
115.000000
 11
-92.000000
 21
115.000000
  0
LINE
  8
0
  6
CONTINUOUS
 62
7
 10
-188.000000
 20
95.000000
 11
-185.000000
 21
95.000000
  0
LINE
  8
0
  6
CONTINUOUS
 62
7
 10
-188.000000
 20
95.000000
 11
-188.000000
 21
115.000000
  0
LINE
  8
0
  6
CONTINUOUS
 62
7
 10
-92.000000
 20
95.000000
 11
-92.000000
 21
115.000000
  0
LINE
  8
0
  6
CONTINUOUS
 62
7
 10
-95.000000
 20
95.000000
 11
-92.000000
 21
95.000000
  0
LINE
  8
0
  6
CONTINUOUS
 62
7
 10
-92.000000
 20
102.500000
 11
-104.500000
 21
102.500000
  0
LINE
  8
0
  6
CONTINUOUS
 62
7
 10
-112.699997
 20
60.099998
 11
-105.000000
 21
60.099998
  0
LINE
  8
0
  6
CONTINUOUS
 62
7
 10
-147.300003
 20
60.099998
 11
-155.000000
 21
60.099998
  0
LINE
  8
0
  6
CONTINUOUS
 62
7
 10
-112.699997
 20
91.000000
 11
-112.699997
 21
86.000000
  0
LINE
  8
0
  6
CONTINUOUS
 62
7
 10
-147.300003
 20
86.000000
 11
-112.699997
 21
86.000000
  0
LINE
  8
0
  6
CONTINUOUS
 62
7
 10
-155.000000
 20
101.000000
 11
-140.000000
 21
101.000000
  0
LINE
  8
0
  6
CONTINUOUS
 62
7
 10
-147.300003
 20
101.000000
 11
-147.300003
 21
86.000000
  0
LINE
  8
0
  6
CONTINUOUS
 62
7
 10
-155.000000
 20
101.000000
 11
-155.000000
 21
86.699997
  0
LINE
  8
0
  6
CONTINUOUS
 62
7
 10
-147.300003
 20
86.699997
 11
-155.000000
 21
86.699997
  0
LINE
  8
0
  6
CONTINUOUS
 62
7
 10
-105.000000
 20
91.226501
 11
-105.000000
 21
86.699997
  0
LINE
  8
0
  6
CONTINUOUS
 62
7
 10
-112.699997
 20
86.699997
 11
-105.000000
 21
86.699997
  0
LINE
  8
0
  6
CONTINUOUS
 62
7
 10
-147.300003
 20
20.500000
 11
-112.699997
 21
20.500000
  0
LINE
  8
0
  6
CONTINUOUS
 62
7
 10
-147.300003
 20
60.500000
 11
-112.699997
 21
60.500000
  0
LINE
  8
0
  6
CONTINUOUS
 62
7
 10
-95.000000
 20
110.521004
 11
-95.000000
 21
106.478996
  0
LINE
  8
0
  6
CONTINUOUS
 62
7
 10
-102.000000
 20
110.521004
 11
-98.500000
 21
112.541000
  0
LINE
  8
0
  6
CONTINUOUS
 62
7
 10
-98.500000
 20
104.459000
 11
-95.000000
 21
106.478996
  0
LINE
  8
0
  6
CONTINUOUS
 62
7
 10
-102.000000
 20
106.478996
 11
-98.500000
 21
104.459000
  0
LINE
  8
0
  6
CONTINUOUS
 62
7
 10
-96.317001
 20
111.280998
 11
-99.817001
 21
105.219002
  0
LINE
  8
0
  6
CONTINUOUS
 62
7
 10
-97.182999
 20
111.780998
 11
-100.682999
 21
105.719002
  0
LINE
  8
0
  6
CONTINUOUS
 62
7
 10
-98.500099
 20
112.541000
 11
-95.000099
 21
110.521004
  0
LINE
  8
0
  6
CONTINUOUS
 62
7
 10
-102.000000
 20
106.478996
 11
-102.000000
 21
110.521004
  0
LINE
  8
0
  6
CENTER
 62
2
 10
-98.500000
 20
115.040001
 11
-98.500000
 21
101.959999
  0
LINE
  8
0
  6
CENTER
 62
2
 10
-105.040001
 20
108.500000
 11
-91.959999
 21
108.500000
  0
LINE
  8
0
  6
CONTINUOUS
 62
7
 10
-178.000000
 20
110.521004
 11
-178.000000
 21
106.478996
  0
LINE
  8
0
  6
CONTINUOUS
 62
7
 10
-185.000000
 20
110.521004
 11
-181.500000
 21
112.541000
  0
LINE
  8
0
  6
CONTINUOUS
 62
7
 10
-181.500000
 20
104.459000
 11
-178.000000
 21
106.478996
  0
LINE
  8
0
  6
CONTINUOUS
 62
7
 10
-185.000000
 20
106.478996
 11
-181.500000
 21
104.459000
  0
LINE
  8
0
  6
CONTINUOUS
 62
7
 10
-179.317001
 20
111.280998
 11
-182.817001
 21
105.219002
  0
LINE
  8
0
  6
CONTINUOUS
 62
7
 10
-180.182999
 20
111.780998
 11
-183.682999
 21
105.719002
  0
LINE
  8
0
  6
CONTINUOUS
 62
7
 10
-181.500000
 20
112.541000
 11
-178.000000
 21
110.521004
  0
LINE
  8
0
  6
CONTINUOUS
 62
7
 10
-185.000000
 20
106.478996
 11
-185.000000
 21
110.521004
  0
LINE
  8
0
  6
CENTER
 62
2
 10
-181.500000
 20
115.040001
 11
-181.500000
 21
101.959999
  0
LINE
  8
0
  6
CENTER
 62
2
 10
-188.039993
 20
108.500000
 11
-174.960007
 21
108.500000
  0
LINE
  8
0
  6
CENTER
 62
2
 10
-172.500000
 20
62.790001
 11
-172.500000
 21
48.209999
  0
LINE
  8
0
  6
CENTER
 62
2
 10
-179.789993
 20
55.500000
 11
-165.210007
 21
55.500000
  0
LINE
  8
0
  6
CENTER
 62
2
 10
-172.500000
 20
32.790001
 11
-172.500000
 21
18.209999
  0
LINE
  8
0
  6
CENTER
 62
2
 10
-179.789993
 20
25.500000
 11
-165.210007
 21
25.500000
  0
LINE
  8
0
  6
CENTER
 62
2
 10
-142.500000
 20
60.040001
 11
-142.500000
 21
50.959999
  0
LINE
  8
0
  6
CENTER
 62
2
 10
-147.039993
 20
55.500000
 11
-137.960007
 21
55.500000
  0
LINE
  8
0
  6
CENTER
 62
2
 10
-117.500000
 20
60.040001
 11
-117.500000
 21
50.959999
  0
LINE
  8
0
  6
CENTER
 62
2
 10
-122.040001
 20
55.500000
 11
-112.959999
 21
55.500000
  0
LINE
  8
0
  6
CENTER
 62
2
 10
-142.500000
 20
30.040001
 11
-142.500000
 21
20.959999
  0
LINE
  8
0
  6
CENTER
 62
2
 10
-147.039993
 20
25.500000
 11
-137.960007
 21
25.500000
  0
LINE
  8
0
  6
CENTER
 62
2
 10
-117.500000
 20
30.040001
 11
-117.500000
 21
20.959999
  0
LINE
  8
0
  6
CENTER
 62
2
 10
-122.040001
 20
25.500000
 11
-112.959999
 21
25.500000
  0
LINE
  8
0
  6
CENTER
 62
2
 10
-107.500000
 20
32.790001
 11
-107.500000
 21
18.209999
  0
LINE
  8
0
  6
CENTER
 62
2
 10
-114.790001
 20
25.500000
 11
-100.209999
 21
25.500000
  0
LINE
  8
0
  6
CENTER
 62
2
 10
-107.500000
 20
48.209999
 11
-107.500000
 21
62.790001
  0
LINE
  8
0
  6
CENTER
 62
2
 10
-114.790001
 20
55.500000
 11
-100.209999
 21
55.500000
  0
LINE
  8
0
  6
CONTINUOUS
 62
7
 10
-155.000000
 20
20.900000
 11
-155.000000
 21
60.099998
  0
LINE
  8
0
  6
CONTINUOUS
 62
7
 10
-158.414993
 20
42.809399
 11
-155.000000
 21
42.809399
  0
LINE
  8
0
  6
CONTINUOUS
 62
7
 10
-158.414993
 20
41.654701
 11
-155.000000
 21
41.654701
  0
LINE
  8
0
  6
CONTINUOUS
 62
7
 10
-158.414993
 20
39.345299
 11
-155.000000
 21
39.345299
  0
LINE
  8
0
  6
CONTINUOUS
 62
7
 10
-158.414993
 20
38.190601
 11
-155.000000
 21
38.190601
  0
LINE
  8
0
  6
CONTINUOUS
 62
7
 10
-158.735992
 20
92.199997
 11
-155.000000
 21
92.199997
  0
LINE
  8
0
  6
CONTINUOUS
 62
7
 10
-158.735992
 20
90.199997
 11
-155.000000
 21
90.199997
  0
LINE
  8
0
  6
CONTINUOUS
 62
7
 10
-158.735992
 20
88.199997
 11
-155.000000
 21
88.199997
  0
LINE
  8
0
  6
CONTINUOUS
 62
7
 10
-178.000000
 20
61.500000
 11
-178.000000
 21
63.000000
  0
LINE
  8
0
  6
CONTINUOUS
 62
7
 10
-185.500000
 20
61.500000
 11
-177.500000
 21
61.500000
  0
LINE
  8
0
  6
CENTER
 62
2
 10
-181.500000
 20
65.598999
 11
-181.500000
 21
59.385700
  0
LINE
  8
0
  6
CONTINUOUS
 62
7
 10
-185.500000
 20
61.500000
 11
-185.500000
 21
61.000000
  0
LINE
  8
0
  6
CONTINUOUS
 62
7
 10
-177.500000
 20
61.500000
 11
-177.500000
 21
61.000000
  0
LINE
  8
0
  6
CONTINUOUS
 62
7
 10
-181.500000
 20
61.500000
 11
-181.500000
 21
63.000000
  0
LINE
  8
0
  6
CONTINUOUS
 62
7
 10
-98.500000
 20
61.500000
 11
-98.500000
 21
63.000000
  0
LINE
  8
0
  6
CONTINUOUS
 62
7
 10
-102.000000
 20
61.500000
 11
-102.000000
 21
63.000000
  0
LINE
  8
0
  6
CONTINUOUS
 62
7
 10
-94.500000
 20
61.500000
 11
-102.500000
 21
61.500000
  0
LINE
  8
0
  6
CENTER
 62
2
 10
-98.500000
 20
65.598999
 11
-98.500000
 21
59.385700
  0
LINE
  8
0
  6
CONTINUOUS
 62
7
 10
-94.500000
 20
61.500000
 11
-94.500000
 21
61.000000
  0
LINE
  8
0
  6
CONTINUOUS
 62
7
 10
-102.500000
 20
61.500000
 11
-102.500000
 21
61.000000
  0
LINE
  8
0
  6
CONTINUOUS
 62
7
 10
-158.414993
 20
42.809399
 11
-158.414993
 21
38.190601
  0
LINE
  8
0
  6
CONTINUOUS
 62
7
 10
-158.735992
 20
92.199997
 11
-158.735992
 21
88.199997
  0
LINE
  8
0
  6
CONTINUOUS
 62
7
 10
-147.300003
 20
51.000000
 11
-112.699997
 21
51.000000
  0
LINE
  8
0
  6
CONTINUOUS
 62
7
 10
-147.300003
 20
30.000000
 11
-112.699997
 21
30.000000
  0
LINE
  8
0
  6
CONTINUOUS
 62
7
 10
79.000000
 20
-100.000000
 11
205.000000
 21
-100.000000
  0
LINE
  8
0
  6
CONTINUOUS
 62
7
 10
79.000000
 20
-100.000000
 11
79.000000
 21
-59.000000
  0
LINE
  8
0
  6
CONTINUOUS
 62
7
 10
205.000000
 20
-100.000000
 11
205.000000
 21
-59.000000
  0
LINE
  8
0
  6
CONTINUOUS
 62
7
 10
79.000000
 20
-59.000000
 11
205.000000
 21
-59.000000
  0
LINE
  8
0
  6
CENTER
 62
2
 10
77.000000
 20
-79.500000
 11
207.000000
 21
-79.500000
  0
LINE
  8
0
  6
CENTER
 62
2
 10
77.000000
 20
40.500000
 11
207.000000
 21
40.500000
  0
LINE
  8
0
  6
CONTINUOUS
 62
7
 10
79.000000
 20
61.000000
 11
79.000000
 21
20.000000
  0
LINE
  8
0
  6
CONTINUOUS
 62
7
 10
205.000000
 20
61.000000
 11
205.000000
 21
20.000000
  0
LINE
  8
0
  6
CONTINUOUS
 62
7
 10
130.850006
 20
20.500000
 11
183.149994
 21
20.500000
  0
LINE
  8
0
  6
CONTINUOUS
 62
7
 10
130.850006
 20
60.500000
 11
183.149994
 21
60.500000
  0
LINE
  8
0
  6
CONTINUOUS
 62
7
 10
79.000000
 20
30.500000
 11
123.000000
 21
30.500000
  0
LINE
  8
0
  6
CONTINUOUS
 62
7
 10
79.000000
 20
50.500000
 11
123.000000
 21
50.500000
  0
LINE
  8
0
  6
CONTINUOUS
 62
7
 10
191.000000
 20
50.500000
 11
205.000000
 21
50.500000
  0
LINE
  8
0
  6
CONTINUOUS
 62
7
 10
191.000000
 20
30.500000
 11
205.000000
 21
30.500000
  0
LINE
  8
0
  6
CONTINUOUS
 62
7
 10
79.000000
 20
20.000000
 11
205.000000
 21
20.000000
  0
LINE
  8
0
  6
CONTINUOUS
 62
7
 10
79.000000
 20
61.000000
 11
147.000000
 21
61.000000
  0
LINE
  8
0
  6
CONTINUOUS
 62
7
 10
79.000000
 20
-34.000000
 11
205.000000
 21
-34.000000
  0
LINE
  8
0
  6
CONTINUOUS
 62
7
 10
79.000000
 20
-14.000000
 11
108.000000
 21
-14.000000
  0
LINE
  8
0
  6
CONTINUOUS
 62
7
 10
79.000000
 20
-14.000000
 11
79.000000
 21
-34.000000
  0
LINE
  8
0
  6
CONTINUOUS
 62
7
 10
205.000000
 20
-14.000000
 11
205.000000
 21
-34.000000
  0
LINE
  8
0
  6
CONTINUOUS
 62
7
 10
191.000000
 20
-14.000000
 11
205.000000
 21
-14.000000
  0
LINE
  8
0
  6
CONTINUOUS
 62
7
 10
205.000000
 20
-21.500000
 11
176.000000
 21
-21.500000
  0
LINE
  8
0
  6
CONTINUOUS
 62
7
 10
79.000000
 20
115.000000
 11
205.000000
 21
115.000000
  0
LINE
  8
0
  6
CONTINUOUS
 62
7
 10
79.000000
 20
95.000000
 11
92.000000
 21
95.000000
  0
LINE
  8
0
  6
CONTINUOUS
 62
7
 10
79.000000
 20
95.000000
 11
79.000000
 21
115.000000
  0
LINE
  8
0
  6
CONTINUOUS
 62
7
 10
205.000000
 20
95.000000
 11
205.000000
 21
115.000000
  0
LINE
  8
0
  6
CONTINUOUS
 62
7
 10
192.000000
 20
95.000000
 11
205.000000
 21
95.000000
  0
LINE
  8
0
  6
CONTINUOUS
 62
7
 10
205.000000
 20
102.500000
 11
182.500000
 21
102.500000
  0
LINE
  8
0
  6
CONTINUOUS
 62
7
 10
130.850006
 20
20.500000
 11
130.850006
 21
60.500000
  0
LINE
  8
0
  6
CONTINUOUS
 62
7
 10
183.149994
 20
20.500000
 11
183.149994
 21
60.500000
  0
LINE
  8
0
  6
CONTINUOUS
 62
7
 10
191.000000
 20
20.900000
 11
191.000000
 21
60.099998
  0
LINE
  8
0
  6
CONTINUOUS
 62
7
 10
123.000000
 20
20.900000
 11
123.000000
 21
60.099998
  0
LINE
  8
0
  6
CONTINUOUS
 62
7
 10
183.149994
 20
60.099998
 11
191.000000
 21
60.099998
  0
LINE
  8
0
  6
CONTINUOUS
 62
7
 10
183.149994
 20
20.900000
 11
191.000000
 21
20.900000
  0
LINE
  8
0
  6
CONTINUOUS
 62
7
 10
130.850006
 20
20.900000
 11
123.000000
 21
20.900000
  0
LINE
  8
0
  6
CONTINUOUS
 62
7
 10
130.850006
 20
60.099998
 11
123.000000
 21
60.099998
  0
LINE
  8
0
  6
CONTINUOUS
 62
7
 10
183.149994
 20
-20.000000
 11
183.149994
 21
-5.000000
  0
LINE
  8
0
  6
CONTINUOUS
 62
7
 10
130.850006
 20
-5.000000
 11
183.149994
 21
-5.000000
  0
LINE
  8
0
  6
CONTINUOUS
 62
7
 10
130.850006
 20
-8.799990
 11
130.850006
 21
-5.000000
  0
LINE
  8
0
  6
CONTINUOUS
 62
7
 10
191.000000
 20
-20.000000
 11
191.000000
 21
-5.700000
  0
LINE
  8
0
  6
CONTINUOUS
 62
7
 10
183.149994
 20
-5.700000
 11
191.000000
 21
-5.700000
  0
LINE
  8
0
  6
CONTINUOUS
 62
7
 10
123.000000
 20
-8.799990
 11
123.000000
 21
-5.700000
  0
LINE
  8
0
  6
CONTINUOUS
 62
7
 10
130.850006
 20
-5.700000
 11
123.000000
 21
-5.700000
  0
LINE
  8
0
  6
CONTINUOUS
 62
7
 10
176.000000
 20
-20.000000
 11
191.000000
 21
-20.000000
  0
LINE
  8
0
  6
CONTINUOUS
 62
7
 10
182.500000
 20
101.000000
 11
192.000000
 21
101.000000
  0
LINE
  8
0
  6
CONTINUOUS
 62
7
 10
183.149994
 20
93.000000
 11
183.149994
 21
86.000000
  0
LINE
  8
0
  6
CONTINUOUS
 62
7
 10
130.850006
 20
86.000000
 11
183.149994
 21
86.000000
  0
LINE
  8
0
  6
CONTINUOUS
 62
7
 10
123.000000
 20
101.000000
 11
147.000000
 21
101.000000
  0
LINE
  8
0
  6
CONTINUOUS
 62
7
 10
130.850006
 20
101.000000
 11
130.850006
 21
86.000000
  0
LINE
  8
0
  6
CONTINUOUS
 62
7
 10
123.000000
 20
101.000000
 11
123.000000
 21
86.699997
  0
LINE
  8
0
  6
CONTINUOUS
 62
7
 10
130.850006
 20
86.699997
 11
123.000000
 21
86.699997
  0
LINE
  8
0
  6
CONTINUOUS
 62
7
 10
191.000000
 20
93.000000
 11
191.000000
 21
86.699997
  0
LINE
  8
0
  6
CONTINUOUS
 62
7
 10
183.149994
 20
86.699997
 11
191.000000
 21
86.699997
  0
LINE
  8
0
  6
CENTER
 62
2
 10
94.500000
 20
62.790001
 11
94.500000
 21
48.209999
  0
LINE
  8
0
  6
CENTER
 62
2
 10
87.209999
 20
55.500000
 11
101.790001
 21
55.500000
  0
LINE
  8
0
  6
CENTER
 62
2
 10
94.500000
 20
32.790001
 11
94.500000
 21
18.209999
  0
LINE
  8
0
  6
CENTER
 62
2
 10
87.209999
 20
25.500000
 11
101.790001
 21
25.500000
  0
LINE
  8
0
  6
CENTER
 62
2
 10
137.000000
 20
60.040001
 11
137.000000
 21
50.959999
  0
LINE
  8
0
  6
CENTER
 62
2
 10
132.460007
 20
55.500000
 11
141.539993
 21
55.500000
  0
LINE
  8
0
  6
CENTER
 62
2
 10
137.000000
 20
30.040001
 11
137.000000
 21
20.959999
  0
LINE
  8
0
  6
CENTER
 62
2
 10
132.460007
 20
25.500000
 11
141.539993
 21
25.500000
  0
LINE
  8
0
  6
CENTER
 62
2
 10
157.000000
 20
60.040001
 11
157.000000
 21
50.959999
  0
LINE
  8
0
  6
CENTER
 62
2
 10
152.460007
 20
55.500000
 11
161.539993
 21
55.500000
  0
LINE
  8
0
  6
CENTER
 62
2
 10
157.000000
 20
30.040001
 11
157.000000
 21
20.959999
  0
LINE
  8
0
  6
CENTER
 62
2
 10
152.460007
 20
25.500000
 11
161.539993
 21
25.500000
  0
LINE
  8
0
  6
CENTER
 62
2
 10
177.000000
 20
30.040001
 11
177.000000
 21
20.959999
  0
LINE
  8
0
  6
CENTER
 62
2
 10
172.460007
 20
25.500000
 11
181.539993
 21
25.500000
  0
LINE
  8
0
  6
CENTER
 62
2
 10
177.000000
 20
60.040001
 11
177.000000
 21
50.959999
  0
LINE
  8
0
  6
CENTER
 62
2
 10
172.460007
 20
55.500000
 11
181.539993
 21
55.500000
  0
LINE
  8
0
  6
CENTER
 62
2
 10
189.500000
 20
32.790001
 11
189.500000
 21
18.209999
  0
LINE
  8
0
  6
CENTER
 62
2
 10
182.210007
 20
25.500000
 11
196.789993
 21
25.500000
  0
LINE
  8
0
  6
CENTER
 62
2
 10
94.500000
 20
-58.959999
 11
94.500000
 21
-70.040001
  0
LINE
  8
0
  6
CENTER
 62
2
 10
88.959999
 20
-64.500000
 11
100.040001
 21
-64.500000
  0
LINE
  8
0
  6
CENTER
 62
2
 10
86.500000
 20
-78.559998
 11
86.500000
 21
-95.440002
  0
LINE
  8
0
  6
CENTER
 62
2
 10
78.059998
 20
-87.000000
 11
94.940002
 21
-87.000000
  0
LINE
  8
0
  6
CENTER
 62
2
 10
94.500000
 20
-88.959999
 11
94.500000
 21
-100.040001
  0
LINE
  8
0
  6
CENTER
 62
2
 10
88.959999
 20
-94.500000
 11
100.040001
 21
-94.500000
  0
LINE
  8
0
  6
CENTER
 62
2
 10
189.500000
 20
-88.959999
 11
189.500000
 21
-100.040001
  0
LINE
  8
0
  6
CENTER
 62
2
 10
183.960007
 20
-94.500000
 11
195.039993
 21
-94.500000
  0
LINE
  8
0
  6
CENTER
 62
2
 10
189.500000
 20
-58.959999
 11
189.500000
 21
-70.040001
  0
LINE
  8
0
  6
CENTER
 62
2
 10
183.960007
 20
-64.500000
 11
195.039993
 21
-64.500000
  0
LINE
  8
0
  6
CENTER
 62
2
 10
197.500000
 20
-63.560001
 11
197.500000
 21
-80.440002
  0
LINE
  8
0
  6
CENTER
 62
2
 10
189.059998
 20
-72.000000
 11
205.940002
 21
-72.000000
  0
LINE
  8
0
  6
CONTINUOUS
 62
7
 10
89.000000
 20
110.521004
 11
89.000000
 21
106.478996
  0
LINE
  8
0
  6
CONTINUOUS
 62
7
 10
82.000000
 20
110.521004
 11
85.500000
 21
112.541000
  0
LINE
  8
0
  6
CONTINUOUS
 62
7
 10
85.500000
 20
104.459000
 11
89.000000
 21
106.478996
  0
LINE
  8
0
  6
CONTINUOUS
 62
7
 10
82.000000
 20
106.478996
 11
85.500000
 21
104.459000
  0
LINE
  8
0
  6
CONTINUOUS
 62
7
 10
87.682999
 20
111.280998
 11
84.182999
 21
105.219002
  0
LINE
  8
0
  6
CONTINUOUS
 62
7
 10
86.816902
 20
111.780998
 11
83.316902
 21
105.719002
  0
LINE
  8
0
  6
CONTINUOUS
 62
7
 10
85.500000
 20
112.541000
 11
89.000000
 21
110.521004
  0
LINE
  8
0
  6
CONTINUOUS
 62
7
 10
82.000000
 20
106.478996
 11
82.000000
 21
110.521004
  0
LINE
  8
0
  6
CENTER
 62
2
 10
85.500000
 20
115.040001
 11
85.500000
 21
101.959999
  0
LINE
  8
0
  6
CENTER
 62
2
 10
78.959999
 20
108.500000
 11
92.040001
 21
108.500000
  0
LINE
  8
0
  6
CENTER
 62
2
 10
189.500000
 20
48.209999
 11
189.500000
 21
62.790001
  0
LINE
  8
0
  6
CENTER
 62
2
 10
182.210007
 20
55.500000
 11
196.789993
 21
55.500000
  0
LINE
  8
0
  6
CONTINUOUS
 62
7
 10
202.000000
 20
110.521004
 11
202.000000
 21
106.478996
  0
LINE
  8
0
  6
CONTINUOUS
 62
7
 10
195.000000
 20
110.521004
 11
198.500000
 21
112.541000
  0
LINE
  8
0
  6
CONTINUOUS
 62
7
 10
198.500000
 20
104.459000
 11
202.000000
 21
106.478996
  0
LINE
  8
0
  6
CONTINUOUS
 62
7
 10
195.000000
 20
106.478996
 11
198.500000
 21
104.459000
  0
LINE
  8
0
  6
CONTINUOUS
 62
7
 10
200.682999
 20
111.280998
 11
197.182999
 21
105.219002
  0
LINE
  8
0
  6
CONTINUOUS
 62
7
 10
199.817001
 20
111.780998
 11
196.317001
 21
105.719002
  0
LINE
  8
0
  6
CONTINUOUS
 62
7
 10
198.500000
 20
112.541000
 11
202.000000
 21
110.521004
  0
LINE
  8
0
  6
CONTINUOUS
 62
7
 10
195.000000
 20
106.478996
 11
195.000000
 21
110.521004
  0
LINE
  8
0
  6
CENTER
 62
2
 10
198.500000
 20
115.040001
 11
198.500000
 21
101.959999
  0
LINE
  8
0
  6
CENTER
 62
2
 10
191.960007
 20
108.500000
 11
205.039993
 21
108.500000
  0
LINE
  8
0
  6
CONTINUOUS
 62
7
 10
119.264000
 20
-7.200010
 11
123.000000
 21
-7.200010
  0
LINE
  8
0
  6
CONTINUOUS
 62
7
 10
119.264000
 20
92.199997
 11
123.000000
 21
92.199997
  0
LINE
  8
0
  6
CONTINUOUS
 62
7
 10
119.264000
 20
90.199997
 11
123.000000
 21
90.199997
  0
LINE
  8
0
  6
CONTINUOUS
 62
7
 10
119.264000
 20
88.199997
 11
123.000000
 21
88.199997
  0
LINE
  8
0
  6
CONTINUOUS
 62
7
 10
119.584999
 20
42.809399
 11
123.000000
 21
42.809399
  0
LINE
  8
0
  6
CONTINUOUS
 62
7
 10
119.584999
 20
41.654701
 11
123.000000
 21
41.654701
  0
LINE
  8
0
  6
CONTINUOUS
 62
7
 10
119.584999
 20
39.345299
 11
123.000000
 21
39.345299
  0
LINE
  8
0
  6
CONTINUOUS
 62
7
 10
119.584999
 20
38.190601
 11
123.000000
 21
38.190601
  0
LINE
  8
0
  6
CONTINUOUS
 62
7
 10
89.000000
 20
-100.500000
 11
89.000000
 21
-103.500000
  0
LINE
  8
0
  6
CONTINUOUS
 62
7
 10
82.000000
 20
-100.500000
 11
82.000000
 21
-103.500000
  0
LINE
  8
0
  6
CONTINUOUS
 62
7
 10
81.500000
 20
-100.500000
 11
89.500000
 21
-100.500000
  0
LINE
  8
0
  6
CONTINUOUS
 62
7
 10
82.000000
 20
-103.500000
 11
89.000000
 21
-103.500000
  0
LINE
  8
0
  6
CENTER
 62
2
 10
85.500000
 20
-104.598999
 11
85.500000
 21
-98.385696
  0
LINE
  8
0
  6
CONTINUOUS
 62
7
 10
81.500000
 20
-100.500000
 11
81.500000
 21
-100.000000
  0
LINE
  8
0
  6
CONTINUOUS
 62
7
 10
89.500000
 20
-100.500000
 11
89.500000
 21
-100.000000
  0
LINE
  8
0
  6
CONTINUOUS
 62
7
 10
85.500000
 20
-100.500000
 11
85.500000
 21
-103.500000
  0
LINE
  8
0
  6
CONTINUOUS
 62
7
 10
195.000000
 20
-100.500000
 11
195.000000
 21
-103.500000
  0
LINE
  8
0
  6
CONTINUOUS
 62
7
 10
202.000000
 20
-100.500000
 11
202.000000
 21
-103.500000
  0
LINE
  8
0
  6
CONTINUOUS
 62
7
 10
202.500000
 20
-100.500000
 11
194.500000
 21
-100.500000
  0
LINE
  8
0
  6
CONTINUOUS
 62
7
 10
202.000000
 20
-103.500000
 11
195.000000
 21
-103.500000
  0
LINE
  8
0
  6
CENTER
 62
2
 10
198.500000
 20
-104.598999
 11
198.500000
 21
-98.385696
  0
LINE
  8
0
  6
CONTINUOUS
 62
7
 10
202.500000
 20
-100.500000
 11
202.500000
 21
-100.000000
  0
LINE
  8
0
  6
CONTINUOUS
 62
7
 10
194.500000
 20
-100.500000
 11
194.500000
 21
-100.000000
  0
LINE
  8
0
  6
CONTINUOUS
 62
7
 10
198.500000
 20
-100.500000
 11
198.500000
 21
-103.500000
  0
LINE
  8
0
  6
CONTINUOUS
 62
7
 10
119.264000
 20
-7.200010
 11
119.264000
 21
-8.799990
  0
LINE
  8
0
  6
CONTINUOUS
 62
7
 10
119.264000
 20
92.199997
 11
119.264000
 21
88.199997
  0
LINE
  8
0
  6
CONTINUOUS
 62
7
 10
82.000000
 20
61.500000
 11
82.000000
 21
64.500000
  0
LINE
  8
0
  6
CONTINUOUS
 62
7
 10
89.000000
 20
61.500000
 11
89.000000
 21
64.500000
  0
LINE
  8
0
  6
CONTINUOUS
 62
7
 10
81.500000
 20
61.500000
 11
89.500000
 21
61.500000
  0
LINE
  8
0
  6
CONTINUOUS
 62
7
 10
82.000000
 20
64.500000
 11
89.000000
 21
64.500000
  0
LINE
  8
0
  6
CENTER
 62
2
 10
85.500000
 20
65.598999
 11
85.500000
 21
59.385700
  0
LINE
  8
0
  6
CONTINUOUS
 62
7
 10
81.500000
 20
61.500000
 11
81.500000
 21
61.000000
  0
LINE
  8
0
  6
CONTINUOUS
 62
7
 10
89.500000
 20
61.500000
 11
89.500000
 21
61.000000
  0
LINE
  8
0
  6
CONTINUOUS
 62
7
 10
85.500000
 20
61.500000
 11
85.500000
 21
64.500000
  0
LINE
  8
0
  6
CONTINUOUS
 62
7
 10
202.000000
 20
61.500000
 11
202.000000
 21
64.500000
  0
LINE
  8
0
  6
CONTINUOUS
 62
7
 10
195.000000
 20
61.500000
 11
195.000000
 21
64.500000
  0
LINE
  8
0
  6
CONTINUOUS
 62
7
 10
202.500000
 20
61.500000
 11
194.500000
 21
61.500000
  0
LINE
  8
0
  6
CONTINUOUS
 62
7
 10
202.000000
 20
64.500000
 11
195.000000
 21
64.500000
  0
LINE
  8
0
  6
CENTER
 62
2
 10
198.500000
 20
65.598999
 11
198.500000
 21
59.385700
  0
LINE
  8
0
  6
CONTINUOUS
 62
7
 10
202.500000
 20
61.500000
 11
202.500000
 21
61.000000
  0
LINE
  8
0
  6
CONTINUOUS
 62
7
 10
194.500000
 20
61.500000
 11
194.500000
 21
61.000000
  0
LINE
  8
0
  6
CONTINUOUS
 62
7
 10
198.500000
 20
61.500000
 11
198.500000
 21
64.500000
  0
LINE
  8
0
  6
CONTINUOUS
 62
7
 10
119.584999
 20
42.809399
 11
119.584999
 21
38.190601
  0
LINE
  8
0
  6
CONTINUOUS
 62
7
 10
130.850006
 20
51.000000
 11
183.149994
 21
51.000000
  0
LINE
  8
0
  6
CONTINUOUS
 62
7
 10
130.850006
 20
30.000000
 11
183.149994
 21
30.000000
  0
LINE
  8
0
  6
CONTINUOUS
 62
7
 10
92.000000
 20
-110.000000
 11
101.500000
 21
-110.000000
  0
LINE
  8
0
  6
CENTER
 62
2
 10
87.826302
 20
-106.000000
 11
110.653999
 21
-106.000000
  0
LINE
  8
0
  6
CONTINUOUS
 62
7
 10
107.000000
 20
-111.000000
 11
101.500000
 21
-111.000000
  0
LINE
  8
0
  6
CONTINUOUS
 62
7
 10
101.500000
 20
-101.000000
 11
101.500000
 21
-111.000000
  0
LINE
  8
0
  6
CONTINUOUS
 62
7
 10
107.000000
 20
-100.000000
 11
107.000000
 21
-112.000000
  0
LINE
  8
0
  6
CONTINUOUS
 62
7
 10
101.500000
 20
-106.000000
 11
107.000000
 21
-106.000000
  0
LINE
  8
0
  6
CONTINUOUS
 62
2
 10
92.000000
 20
-109.375000
 11
101.500000
 21
-109.375000
  0
LINE
  8
0
  6
CONTINUOUS
 62
7
 10
107.000000
 20
-112.000000
 11
127.000000
 21
-112.000000
  0
LINE
  8
0
  6
CONTINUOUS
 62
7
 10
101.500000
 20
-102.000000
 11
92.000000
 21
-102.000000
  0
LINE
  8
0
  6
CONTINUOUS
 62
2
 10
101.500000
 20
-102.625000
 11
92.000000
 21
-102.625000
  0
LINE
  8
0
  6
CONTINUOUS
 62
7
 10
107.000000
 20
-101.000000
 11
101.500000
 21
-101.000000
  0
LINE
  8
0
  6
CONTINUOUS
 62
7
 10
127.000000
 20
-100.000000
 11
127.000000
 21
-112.000000
  0
LINE
  8
0
  6
CONTINUOUS
 62
7
 10
147.000000
 20
-100.000000
 11
147.000000
 21
-111.500000
  0
LINE
  8
0
  6
CONTINUOUS
 62
7
 10
147.000000
 20
-111.500000
 11
157.000000
 21
-111.500000
  0
LINE
  8
0
  6
CONTINUOUS
 62
7
 10
182.500000
 20
-102.000000
 11
192.000000
 21
-102.000000
  0
LINE
  8
0
  6
CONTINUOUS
 62
2
 10
182.500000
 20
-102.625000
 11
192.000000
 21
-102.625000
  0
LINE
  8
0
  6
CONTINUOUS
 62
7
 10
157.000000
 20
-100.000000
 11
157.000000
 21
-112.000000
  0
LINE
  8
0
  6
CONTINUOUS
 62
7
 10
177.000000
 20
-101.000000
 11
182.500000
 21
-101.000000
  0
LINE
  8
0
  6
CONTINUOUS
 62
7
 10
-94.500000
 20
-100.500000
 11
-102.500000
 21
-100.500000
  0
LINE
  8
0
  6
CONTINUOUS
 62
7
 10
-95.000000
 20
-103.500000
 11
-102.000000
 21
-103.500000
  0
LINE
  8
0
  6
CENTER
 62
2
 10
-98.500000
 20
-104.598999
 11
-98.500000
 21
-98.385696
  0
LINE
  8
0
  6
CONTINUOUS
 62
7
 10
-94.500000
 20
-100.500000
 11
-94.500000
 21
-100.000000
  0
LINE
  8
0
  6
CONTINUOUS
 62
7
 10
-102.500000
 20
-100.500000
 11
-102.500000
 21
-100.000000
  0
LINE
  8
0
  6
CONTINUOUS
 62
7
 10
-98.500000
 20
-100.500000
 11
-98.500000
 21
-103.500000
  0
LINE
  8
0
  6
CONTINUOUS
 62
7
 10
192.000000
 20
-102.000000
 11
192.000000
 21
-110.000000
  0
LINE
  8
0
  6
CONTINUOUS
 62
7
 10
-102.000000
 20
-100.500000
 11
-102.000000
 21
-103.500000
  0
LINE
  8
0
  6
CONTINUOUS
 62
7
 10
192.000000
 20
-110.000000
 11
182.500000
 21
-110.000000
  0
LINE
  8
0
  6
CENTER
 62
2
 10
196.173996
 20
-106.000000
 11
173.345993
 21
-106.000000
  0
LINE
  8
0
  6
CONTINUOUS
 62
7
 10
177.000000
 20
-111.000000
 11
182.500000
 21
-111.000000
  0
LINE
  8
0
  6
CONTINUOUS
 62
7
 10
182.500000
 20
-101.000000
 11
182.500000
 21
-111.000000
  0
LINE
  8
0
  6
CONTINUOUS
 62
7
 10
177.000000
 20
-100.000000
 11
177.000000
 21
-112.000000
  0
LINE
  8
0
  6
CONTINUOUS
 62
7
 10
182.500000
 20
-106.000000
 11
177.000000
 21
-106.000000
  0
LINE
  8
0
  6
CONTINUOUS
 62
2
 10
192.000000
 20
-109.375000
 11
182.500000
 21
-109.375000
  0
LINE
  8
0
  6
CONTINUOUS
 62
7
 10
177.000000
 20
-112.000000
 11
157.000000
 21
-112.000000
  0
LINE
  8
0
  6
CONTINUOUS
 62
7
 10
-170.000000
 20
-10.000000
 11
-170.000000
 21
-14.000000
  0
LINE
  8
0
  6
CONTINUOUS
 62
7
 10
-168.500000
 20
-10.000000
 11
-170.000000
 21
-10.000000
  0
LINE
  8
0
  6
CONTINUOUS
 62
7
 10
-185.000000
 20
-12.000000
 11
-175.500000
 21
-12.000000
  0
LINE
  8
0
  6
CONTINUOUS
 62
7
 10
-185.000000
 20
-14.000000
 11
-185.000000
 21
-12.000000
  0
LINE
  8
0
  6
CONTINUOUS
 62
2
 10
-185.000000
 20
-12.625000
 11
-175.500000
 21
-12.625000
  0
LINE
  8
0
  6
CONTINUOUS
 62
7
 10
-170.000000
 20
-10.226500
 11
-175.500000
 21
-10.226500
  0
LINE
  8
0
  6
CONTINUOUS
 62
7
 10
-175.500000
 20
-14.000000
 11
-175.500000
 21
-10.226500
  0
LINE
  8
0
  6
CONTINUOUS
 62
7
 10
-170.000000
 20
-13.113200
 11
-175.500000
 21
-13.113200
  0
LINE
  8
0
  6
CONTINUOUS
 62
7
 10
-104.500000
 20
-14.000000
 11
-104.500000
 21
-10.226500
  0
LINE
  8
0
  6
CONTINUOUS
 62
7
 10
-95.000000
 20
-12.000000
 11
-104.500000
 21
-12.000000
  0
LINE
  8
0
  6
CONTINUOUS
 62
7
 10
-95.000000
 20
-14.000000
 11
-95.000000
 21
-12.000000
  0
LINE
  8
0
  6
CONTINUOUS
 62
2
 10
-95.000000
 20
-12.625000
 11
-104.500000
 21
-12.625000
  0
LINE
  8
0
  6
CONTINUOUS
 62
7
 10
-105.000000
 20
-10.226500
 11
-104.500000
 21
-10.226500
  0
LINE
  8
0
  6
CONTINUOUS
 62
7
 10
-188.000000
 20
61.000000
 11
-140.000000
 21
61.000000
  0
LINE
  8
0
  6
CONTINUOUS
 62
7
 10
-95.000000
 20
63.000000
 11
-104.500000
 21
63.000000
  0
LINE
  8
0
  6
CONTINUOUS
 62
7
 10
-104.500000
 20
71.000000
 11
-95.000000
 21
71.000000
  0
LINE
  8
0
  6
CONTINUOUS
 62
7
 10
-104.500000
 20
72.000000
 11
-104.500000
 21
62.000000
  0
LINE
  8
0
  6
CONTINUOUS
 62
7
 10
-95.000000
 20
71.000000
 11
-95.000000
 21
61.500000
  0
LINE
  8
0
  6
CONTINUOUS
 62
2
 10
-95.000000
 20
63.625000
 11
-104.500000
 21
63.625000
  0
LINE
  8
0
  6
CONTINUOUS
 62
2
 10
-104.500000
 20
70.375000
 11
-95.000000
 21
70.375000
  0
LINE
  8
0
  6
CENTER
 62
2
 10
-90.826401
 20
67.000000
 11
-122.021004
 21
67.000000
  0
LINE
  8
0
  6
CONTINUOUS
 62
7
 10
-120.000000
 20
72.500000
 11
-120.000000
 21
60.500000
  0
LINE
  8
0
  6
CONTINUOUS
 62
7
 10
-140.000000
 20
72.500000
 11
-120.000000
 21
72.500000
  0
LINE
  8
0
  6
CONTINUOUS
 62
7
 10
-140.000000
 20
72.500000
 11
-140.000000
 21
60.500000
  0
LINE
  8
0
  6
CONTINUOUS
 62
7
 10
-110.000000
 20
73.000000
 11
-110.000000
 21
61.000000
  0
LINE
  8
0
  6
CONTINUOUS
 62
7
 10
-130.000000
 20
73.000000
 11
-110.000000
 21
73.000000
  0
LINE
  8
0
  6
CONTINUOUS
 62
7
 10
-118.000000
 20
73.000000
 11
-118.000000
 21
61.000000
  0
LINE
  8
0
  6
CONTINUOUS
 62
7
 10
-130.000000
 20
73.000000
 11
-130.000000
 21
72.500000
  0
LINE
  8
0
  6
CONTINUOUS
 62
7
 10
-104.500000
 20
67.000000
 11
-110.000000
 21
67.000000
  0
LINE
  8
0
  6
CONTINUOUS
 62
7
 10
-110.000000
 20
72.000000
 11
-104.500000
 21
72.000000
  0
LINE
  8
0
  6
CONTINUOUS
 62
7
 10
-110.000000
 20
62.000000
 11
-104.500000
 21
62.000000
  0
LINE
  8
0
  6
CENTER
 62
2
 10
-189.173996
 20
67.000000
 11
-157.979004
 21
67.000000
  0
LINE
  8
0
  6
CONTINUOUS
 62
7
 10
-150.000000
 20
73.000000
 11
-170.000000
 21
73.000000
  0
LINE
  8
0
  6
CONTINUOUS
 62
7
 10
-162.000000
 20
73.000000
 11
-162.000000
 21
61.000000
  0
LINE
  8
0
  6
CONTINUOUS
 62
7
 10
-150.000000
 20
73.000000
 11
-150.000000
 21
61.000000
  0
LINE
  8
0
  6
CONTINUOUS
 62
7
 10
-185.000000
 20
63.000000
 11
-175.500000
 21
63.000000
  0
LINE
  8
0
  6
CONTINUOUS
 62
7
 10
-175.500000
 20
71.000000
 11
-185.000000
 21
71.000000
  0
LINE
  8
0
  6
CONTINUOUS
 62
7
 10
-175.500000
 20
72.000000
 11
-175.500000
 21
62.000000
  0
LINE
  8
0
  6
CONTINUOUS
 62
7
 10
-185.000000
 20
71.000000
 11
-185.000000
 21
61.500000
  0
LINE
  8
0
  6
CONTINUOUS
 62
2
 10
-185.000000
 20
63.625000
 11
-175.500000
 21
63.625000
  0
LINE
  8
0
  6
CONTINUOUS
 62
2
 10
-175.500000
 20
70.375000
 11
-185.000000
 21
70.375000
  0
LINE
  8
0
  6
CONTINUOUS
 62
7
 10
-170.000000
 20
73.000000
 11
-170.000000
 21
61.000000
  0
LINE
  8
0
  6
CONTINUOUS
 62
7
 10
-175.500000
 20
67.000000
 11
-170.000000
 21
67.000000
  0
LINE
  8
0
  6
CONTINUOUS
 62
7
 10
-170.000000
 20
72.000000
 11
-175.500000
 21
72.000000
  0
LINE
  8
0
  6
CONTINUOUS
 62
7
 10
-170.000000
 20
62.000000
 11
-175.500000
 21
62.000000
  0
LINE
  8
0
  6
CONTINUOUS
 62
7
 10
-120.000000
 20
61.000000
 11
-92.000000
 21
61.000000
  0
LINE
  8
0
  6
CONTINUOUS
 62
7
 10
-120.000000
 20
101.500000
 11
-140.000000
 21
101.500000
  0
LINE
  8
0
  6
CONTINUOUS
 62
7
 10
-120.000000
 20
87.500000
 11
-140.000000
 21
87.500000
  0
LINE
  8
0
  6
CONTINUOUS
 62
7
 10
-140.000000
 20
87.500000
 11
-140.000000
 21
101.500000
  0
LINE
  8
0
  6
CONTINUOUS
 62
7
 10
-120.000000
 20
87.500000
 11
-120.000000
 21
101.500000
  0
LINE
  8
0
  6
CONTINUOUS
 62
7
 10
-170.000000
 20
91.000000
 11
-170.000000
 21
114.500000
  0
LINE
  8
0
  6
CONTINUOUS
 62
7
 10
-150.000000
 20
114.500000
 11
-170.000000
 21
114.500000
  0
LINE
  8
0
  6
CONTINUOUS
 62
7
 10
-162.000000
 20
91.000000
 11
-170.000000
 21
91.000000
  0
LINE
  8
0
  6
CONTINUOUS
 62
7
 10
-162.000000
 20
91.000000
 11
-162.000000
 21
100.000000
  0
LINE
  8
0
  6
CONTINUOUS
 62
7
 10
-150.000000
 20
103.000000
 11
-159.000000
 21
103.000000
  0
LINE
  8
0
  6
CONTINUOUS
 62
7
 10
-150.000000
 20
103.000000
 11
-150.000000
 21
114.500000
  0
LINE
  8
0
  6
CONTINUOUS
 62
7
 10
-185.000000
 20
93.000000
 11
-175.500000
 21
93.000000
  0
LINE
  8
0
  6
CONTINUOUS
 62
7
 10
-175.500000
 20
101.000000
 11
-185.000000
 21
101.000000
  0
LINE
  8
0
  6
CONTINUOUS
 62
7
 10
-185.000000
 20
101.000000
 11
-185.000000
 21
93.000000
  0
LINE
  8
0
  6
CENTER
 62
2
 10
-189.173996
 20
97.000000
 11
-157.979004
 21
97.000000
  0
LINE
  8
0
  6
CONTINUOUS
 62
7
 10
-110.000000
 20
91.000000
 11
-110.000000
 21
114.500000
  0
LINE
  8
0
  6
CONTINUOUS
 62
7
 10
-118.000000
 20
91.000000
 11
-110.000000
 21
91.000000
  0
LINE
  8
0
  6
CONTINUOUS
 62
7
 10
-118.000000
 20
91.000000
 11
-118.000000
 21
100.000000
  0
LINE
  8
0
  6
CONTINUOUS
 62
7
 10
-130.000000
 20
103.000000
 11
-121.000000
 21
103.000000
  0
LINE
  8
0
  6
CONTINUOUS
 62
7
 10
-130.000000
 20
114.500000
 11
-110.000000
 21
114.500000
  0
LINE
  8
0
  6
CONTINUOUS
 62
7
 10
-130.000000
 20
103.000000
 11
-130.000000
 21
114.500000
  0
LINE
  8
0
  6
CONTINUOUS
 62
7
 10
-95.000000
 20
93.000000
 11
-104.500000
 21
93.000000
  0
LINE
  8
0
  6
CONTINUOUS
 62
7
 10
-104.500000
 20
101.000000
 11
-95.000000
 21
101.000000
  0
LINE
  8
0
  6
CONTINUOUS
 62
7
 10
-95.000000
 20
101.000000
 11
-95.000000
 21
93.000000
  0
LINE
  8
0
  6
CONTINUOUS
 62
2
 10
-95.000000
 20
93.625000
 11
-104.500000
 21
93.625000
  0
LINE
  8
0
  6
CONTINUOUS
 62
2
 10
-104.500000
 20
100.375000
 11
-95.000000
 21
100.375000
  0
LINE
  8
0
  6
CENTER
 62
2
 10
-90.826401
 20
97.000000
 11
-122.021004
 21
97.000000
  0
LINE
  8
0
  6
CONTINUOUS
 62
7
 10
-110.000000
 20
102.773003
 11
-104.500000
 21
102.773003
  0
LINE
  8
0
  6
CONTINUOUS
 62
7
 10
-110.000000
 20
91.226501
 11
-104.500000
 21
91.226501
  0
LINE
  8
0
  6
CONTINUOUS
 62
7
 10
-104.500000
 20
102.773003
 11
-104.500000
 21
91.226501
  0
LINE
  8
0
  6
CONTINUOUS
 62
7
 10
-110.000000
 20
99.886703
 11
-104.500000
 21
99.886703
  0
LINE
  8
0
  6
CONTINUOUS
 62
7
 10
-110.000000
 20
94.113197
 11
-104.500000
 21
94.113197
  0
LINE
  8
0
  6
CONTINUOUS
 62
7
 10
-170.000000
 20
102.773003
 11
-175.500000
 21
102.773003
  0
LINE
  8
0
  6
CONTINUOUS
 62
7
 10
-170.000000
 20
91.226501
 11
-175.500000
 21
91.226501
  0
LINE
  8
0
  6
CONTINUOUS
 62
7
 10
-175.500000
 20
102.773003
 11
-175.500000
 21
91.226501
  0
LINE
  8
0
  6
CONTINUOUS
 62
7
 10
-170.000000
 20
99.886703
 11
-175.500000
 21
99.886703
  0
LINE
  8
0
  6
CONTINUOUS
 62
7
 10
-170.000000
 20
94.113197
 11
-175.500000
 21
94.113197
  0
LINE
  8
0
  6
CONTINUOUS
 62
2
 10
-185.000000
 20
93.625000
 11
-175.500000
 21
93.625000
  0
LINE
  8
0
  6
CONTINUOUS
 62
2
 10
-185.000000
 20
100.375000
 11
-175.500000
 21
100.375000
  0
LINE
  8
0
  6
CONTINUOUS
 62
7
 10
-175.500000
 20
102.500000
 11
-188.000000
 21
102.500000
  0
LINE
  8
0
  6
CONTINUOUS
 62
7
 10
-160.000000
 20
95.000000
 11
-155.000000
 21
95.000000
  0
LINE
  8
0
  6
CONTINUOUS
 62
7
 10
-119.342003
 20
102.500000
 11
-160.658005
 21
102.500000
  0
LINE
  8
0
  6
CONTINUOUS
 62
7
 10
-185.000000
 20
-100.500000
 11
-185.000000
 21
-110.000000
  0
LINE
  8
0
  6
CONTINUOUS
 62
7
 10
-185.000000
 20
-110.000000
 11
-175.500000
 21
-110.000000
  0
LINE
  8
0
  6
CENTER
 62
2
 10
-189.173996
 20
-106.000000
 11
-166.345993
 21
-106.000000
  0
LINE
  8
0
  6
CONTINUOUS
 62
7
 10
-175.500000
 20
-101.000000
 11
-175.500000
 21
-111.000000
  0
LINE
  8
0
  6
CONTINUOUS
 62
7
 10
-170.000000
 20
-100.000000
 11
-170.000000
 21
-112.000000
  0
LINE
  8
0
  6
CONTINUOUS
 62
7
 10
-175.500000
 20
-106.000000
 11
-170.000000
 21
-106.000000
  0
LINE
  8
0
  6
CONTINUOUS
 62
2
 10
-185.000000
 20
-109.375000
 11
-175.500000
 21
-109.375000
  0
LINE
  8
0
  6
CONTINUOUS
 62
7
 10
-175.500000
 20
-102.000000
 11
-178.000000
 21
-102.000000
  0
LINE
  8
0
  6
CONTINUOUS
 62
2
 10
-175.500000
 20
-102.625000
 11
-178.000000
 21
-102.625000
  0
LINE
  8
0
  6
CONTINUOUS
 62
7
 10
-170.000000
 20
-101.000000
 11
-175.500000
 21
-101.000000
  0
LINE
  8
0
  6
CONTINUOUS
 62
7
 10
-170.000000
 20
-111.000000
 11
-175.500000
 21
-111.000000
  0
LINE
  8
0
  6
CONTINUOUS
 62
7
 10
-170.000000
 20
-112.000000
 11
-150.000000
 21
-112.000000
  0
LINE
  8
0
  6
CONTINUOUS
 62
7
 10
-150.000000
 20
-100.000000
 11
-150.000000
 21
-112.000000
  0
LINE
  8
0
  6
CONTINUOUS
 62
7
 10
-140.000000
 20
-100.000000
 11
-140.000000
 21
-111.500000
  0
LINE
  8
0
  6
CONTINUOUS
 62
7
 10
-140.000000
 20
-111.500000
 11
-130.000000
 21
-111.500000
  0
LINE
  8
0
  6
CONTINUOUS
 62
7
 10
-130.000000
 20
-100.000000
 11
-130.000000
 21
-112.000000
  0
LINE
  8
0
  6
CONTINUOUS
 62
7
 10
-95.000000
 20
-100.500000
 11
-95.000000
 21
-110.000000
  0
LINE
  8
0
  6
CONTINUOUS
 62
7
 10
-95.000000
 20
-110.000000
 11
-104.500000
 21
-110.000000
  0
LINE
  8
0
  6
CENTER
 62
2
 10
-90.826401
 20
-106.000000
 11
-113.653999
 21
-106.000000
  0
LINE
  8
0
  6
CONTINUOUS
 62
7
 10
-110.000000
 20
-111.000000
 11
-104.500000
 21
-111.000000
  0
LINE
  8
0
  6
CONTINUOUS
 62
7
 10
-104.500000
 20
-101.000000
 11
-104.500000
 21
-111.000000
  0
LINE
  8
0
  6
CONTINUOUS
 62
7
 10
-110.000000
 20
-100.000000
 11
-110.000000
 21
-112.000000
  0
LINE
  8
0
  6
CONTINUOUS
 62
7
 10
-104.500000
 20
-106.000000
 11
-110.000000
 21
-106.000000
  0
LINE
  8
0
  6
CONTINUOUS
 62
2
 10
-95.000000
 20
-109.375000
 11
-104.500000
 21
-109.375000
  0
LINE
  8
0
  6
CONTINUOUS
 62
7
 10
-110.000000
 20
-112.000000
 11
-130.000000
 21
-112.000000
  0
LINE
  8
0
  6
CONTINUOUS
 62
7
 10
-104.500000
 20
-102.000000
 11
-102.000000
 21
-102.000000
  0
LINE
  8
0
  6
CONTINUOUS
 62
2
 10
-104.500000
 20
-102.625000
 11
-102.000000
 21
-102.625000
  0
LINE
  8
0
  6
CONTINUOUS
 62
7
 10
-110.000000
 20
-101.000000
 11
-104.500000
 21
-101.000000
  0
LINE
  8
0
  6
CONTINUOUS
 62
7
 10
107.000000
 20
-10.000000
 11
107.000000
 21
-14.000000
  0
LINE
  8
0
  6
CONTINUOUS
 62
7
 10
108.000000
 20
-10.000000
 11
107.000000
 21
-10.000000
  0
LINE
  8
0
  6
CONTINUOUS
 62
7
 10
92.000000
 20
-12.000000
 11
101.500000
 21
-12.000000
  0
LINE
  8
0
  6
CONTINUOUS
 62
7
 10
92.000000
 20
-14.000000
 11
92.000000
 21
-12.000000
  0
LINE
  8
0
  6
CONTINUOUS
 62
2
 10
92.000000
 20
-12.625000
 11
101.500000
 21
-12.625000
  0
LINE
  8
0
  6
CONTINUOUS
 62
7
 10
107.000000
 20
-10.226500
 11
101.500000
 21
-10.226500
  0
LINE
  8
0
  6
CONTINUOUS
 62
7
 10
101.500000
 20
-14.000000
 11
101.500000
 21
-10.226500
  0
LINE
  8
0
  6
CONTINUOUS
 62
7
 10
107.000000
 20
-13.113300
 11
101.500000
 21
-13.113300
  0
LINE
  8
0
  6
CONTINUOUS
 62
7
 10
192.000000
 20
-14.000000
 11
192.000000
 21
-12.000000
  0
LINE
  8
0
  6
CONTINUOUS
 62
2
 10
192.000000
 20
-12.625000
 11
191.000000
 21
-12.625000
  0
LINE
  8
0
  6
CONTINUOUS
 62
7
 10
192.000000
 20
-12.000000
 11
191.000000
 21
-12.000000
  0
LINE
  8
0
  6
CONTINUOUS
 62
7
 10
92.000000
 20
71.000000
 11
92.000000
 21
63.000000
  0
LINE
  8
0
  6
CONTINUOUS
 62
7
 10
92.000000
 20
63.000000
 11
101.500000
 21
63.000000
  0
LINE
  8
0
  6
CONTINUOUS
 62
2
 10
92.000000
 20
63.625000
 11
101.500000
 21
63.625000
  0
LINE
  8
0
  6
CONTINUOUS
 62
2
 10
101.500000
 20
70.375000
 11
92.000000
 21
70.375000
  0
LINE
  8
0
  6
CONTINUOUS
 62
7
 10
101.500000
 20
71.000000
 11
92.000000
 21
71.000000
  0
LINE
  8
0
  6
CONTINUOUS
 62
7
 10
127.000000
 20
73.000000
 11
127.000000
 21
61.000000
  0
LINE
  8
0
  6
CENTER
 62
2
 10
90.000000
 20
67.000000
 11
119.021004
 21
67.000000
  0
LINE
  8
0
  6
CONTINUOUS
 62
7
 10
127.000000
 20
73.000000
 11
107.000000
 21
73.000000
  0
LINE
  8
0
  6
CONTINUOUS
 62
7
 10
115.000000
 20
73.000000
 11
115.000000
 21
61.000000
  0
LINE
  8
0
  6
CONTINUOUS
 62
7
 10
101.500000
 20
72.000000
 11
101.500000
 21
62.000000
  0
LINE
  8
0
  6
CONTINUOUS
 62
7
 10
107.000000
 20
73.000000
 11
107.000000
 21
61.000000
  0
LINE
  8
0
  6
CONTINUOUS
 62
7
 10
101.500000
 20
67.000000
 11
107.000000
 21
67.000000
  0
LINE
  8
0
  6
CONTINUOUS
 62
7
 10
107.000000
 20
72.000000
 11
101.500000
 21
72.000000
  0
LINE
  8
0
  6
CONTINUOUS
 62
7
 10
107.000000
 20
62.000000
 11
101.500000
 21
62.000000
  0
LINE
  8
0
  6
CONTINUOUS
 62
7
 10
92.000000
 20
101.000000
 11
92.000000
 21
93.000000
  0
LINE
  8
0
  6
CONTINUOUS
 62
7
 10
127.000000
 20
114.500000
 11
107.000000
 21
114.500000
  0
LINE
  8
0
  6
CONTINUOUS
 62
7
 10
107.000000
 20
91.000000
 11
107.000000
 21
114.500000
  0
LINE
  8
0
  6
CONTINUOUS
 62
7
 10
115.000000
 20
91.000000
 11
115.000000
 21
100.000000
  0
LINE
  8
0
  6
CONTINUOUS
 62
7
 10
92.000000
 20
93.000000
 11
101.500000
 21
93.000000
  0
LINE
  8
0
  6
CONTINUOUS
 62
7
 10
101.500000
 20
101.000000
 11
92.000000
 21
101.000000
  0
LINE
  8
0
  6
CENTER
 62
2
 10
90.000000
 20
97.000000
 11
119.021004
 21
97.000000
  0
LINE
  8
0
  6
CONTINUOUS
 62
7
 10
101.500000
 20
102.773003
 11
101.500000
 21
91.226501
  0
LINE
  8
0
  6
CONTINUOUS
 62
7
 10
107.000000
 20
99.886703
 11
101.500000
 21
99.886703
  0
LINE
  8
0
  6
CONTINUOUS
 62
7
 10
107.000000
 20
94.113197
 11
101.500000
 21
94.113197
  0
LINE
  8
0
  6
CONTINUOUS
 62
2
 10
92.000000
 20
93.625000
 11
101.500000
 21
93.625000
  0
LINE
  8
0
  6
CONTINUOUS
 62
2
 10
92.000000
 20
100.375000
 11
101.500000
 21
100.375000
  0
LINE
  8
0
  6
CONTINUOUS
 62
7
 10
107.000000
 20
102.773003
 11
101.500000
 21
102.773003
  0
LINE
  8
0
  6
CONTINUOUS
 62
7
 10
107.000000
 20
91.226501
 11
101.500000
 21
91.226501
  0
LINE
  8
0
  6
CONTINUOUS
 62
7
 10
115.000000
 20
91.000000
 11
107.000000
 21
91.000000
  0
LINE
  8
0
  6
CONTINUOUS
 62
7
 10
127.000000
 20
103.000000
 11
127.000000
 21
114.500000
  0
LINE
  8
0
  6
CONTINUOUS
 62
7
 10
127.000000
 20
103.000000
 11
118.000000
 21
103.000000
  0
LINE
  8
0
  6
CONTINUOUS
 62
7
 10
117.000000
 20
95.000000
 11
123.000000
 21
95.000000
  0
LINE
  8
0
  6
CONTINUOUS
 62
7
 10
101.500000
 20
102.500000
 11
79.000000
 21
102.500000
  0
LINE
  8
0
  6
CONTINUOUS
 62
7
 10
192.000000
 20
71.000000
 11
192.000000
 21
63.000000
  0
LINE
  8
0
  6
CONTINUOUS
 62
2
 10
192.000000
 20
63.625000
 11
182.500000
 21
63.625000
  0
LINE
  8
0
  6
CONTINUOUS
 62
7
 10
192.000000
 20
63.000000
 11
182.500000
 21
63.000000
  0
LINE
  8
0
  6
CONTINUOUS
 62
2
 10
182.500000
 20
70.375000
 11
192.000000
 21
70.375000
  0
LINE
  8
0
  6
CONTINUOUS
 62
7
 10
182.500000
 20
71.000000
 11
192.000000
 21
71.000000
  0
LINE
  8
0
  6
CONTINUOUS
 62
7
 10
182.500000
 20
67.000000
 11
177.000000
 21
67.000000
  0
LINE
  8
0
  6
CONTINUOUS
 62
7
 10
182.500000
 20
72.000000
 11
182.500000
 21
62.000000
  0
LINE
  8
0
  6
CONTINUOUS
 62
7
 10
177.000000
 20
62.000000
 11
182.500000
 21
62.000000
  0
LINE
  8
0
  6
CONTINUOUS
 62
7
 10
177.000000
 20
72.000000
 11
182.500000
 21
72.000000
  0
LINE
  8
0
  6
CONTINUOUS
 62
7
 10
177.000000
 20
73.000000
 11
177.000000
 21
61.000000
  0
LINE
  8
0
  6
CENTER
 62
2
 10
196.173996
 20
67.000000
 11
164.979004
 21
67.000000
  0
LINE
  8
0
  6
CONTINUOUS
 62
7
 10
167.000000
 20
72.500000
 11
167.000000
 21
60.500000
  0
LINE
  8
0
  6
CONTINUOUS
 62
7
 10
147.000000
 20
72.500000
 11
167.000000
 21
72.500000
  0
LINE
  8
0
  6
CONTINUOUS
 62
7
 10
147.000000
 20
72.500000
 11
147.000000
 21
60.500000
  0
LINE
  8
0
  6
CONTINUOUS
 62
7
 10
157.000000
 20
73.000000
 11
177.000000
 21
73.000000
  0
LINE
  8
0
  6
CONTINUOUS
 62
7
 10
169.000000
 20
73.000000
 11
169.000000
 21
61.000000
  0
LINE
  8
0
  6
CONTINUOUS
 62
7
 10
157.000000
 20
73.000000
 11
157.000000
 21
72.500000
  0
LINE
  8
0
  6
CONTINUOUS
 62
7
 10
147.000000
 20
87.500000
 11
147.000000
 21
101.500000
  0
LINE
  8
0
  6
CONTINUOUS
 62
7
 10
167.000000
 20
87.500000
 11
147.000000
 21
87.500000
  0
LINE
  8
0
  6
CONTINUOUS
 62
7
 10
167.000000
 20
101.500000
 11
147.000000
 21
101.500000
  0
LINE
  8
0
  6
CONTINUOUS
 62
7
 10
167.000000
 20
87.500000
 11
167.000000
 21
101.500000
  0
LINE
  8
0
  6
CONTINUOUS
 62
7
 10
167.000000
 20
101.000000
 11
168.828003
 21
101.000000
  0
LINE
  8
0
  6
CENTER
 62
2
 10
196.173996
 20
97.000000
 11
164.979004
 21
97.000000
  0
LINE
  8
0
  6
CONTINUOUS
 62
7
 10
169.000000
 20
91.000000
 11
169.000000
 21
100.000000
  0
LINE
  8
0
  6
CONTINUOUS
 62
7
 10
169.000000
 20
91.000000
 11
177.000000
 21
91.000000
  0
LINE
  8
0
  6
CONTINUOUS
 62
7
 10
192.000000
 20
101.000000
 11
192.000000
 21
93.000000
  0
LINE
  8
0
  6
CONTINUOUS
 62
7
 10
157.000000
 20
103.000000
 11
166.000000
 21
103.000000
  0
LINE
  8
0
  6
CONTINUOUS
 62
7
 10
177.000000
 20
91.000000
 11
177.000000
 21
114.500000
  0
LINE
  8
0
  6
CONTINUOUS
 62
7
 10
192.000000
 20
93.000000
 11
182.500000
 21
93.000000
  0
LINE
  8
0
  6
CONTINUOUS
 62
2
 10
192.000000
 20
93.625000
 11
182.500000
 21
93.625000
  0
LINE
  8
0
  6
CONTINUOUS
 62
2
 10
182.500000
 20
100.375000
 11
192.000000
 21
100.375000
  0
LINE
  8
0
  6
CONTINUOUS
 62
7
 10
177.000000
 20
102.773003
 11
182.500000
 21
102.773003
  0
LINE
  8
0
  6
CONTINUOUS
 62
7
 10
177.000000
 20
91.226501
 11
182.500000
 21
91.226501
  0
LINE
  8
0
  6
CONTINUOUS
 62
7
 10
182.500000
 20
102.773003
 11
182.500000
 21
91.226501
  0
LINE
  8
0
  6
CONTINUOUS
 62
7
 10
177.000000
 20
99.886703
 11
182.500000
 21
99.886703
  0
LINE
  8
0
  6
CONTINUOUS
 62
7
 10
177.000000
 20
94.113197
 11
182.500000
 21
94.113197
  0
LINE
  8
0
  6
CONTINUOUS
 62
7
 10
157.000000
 20
114.500000
 11
177.000000
 21
114.500000
  0
LINE
  8
0
  6
CONTINUOUS
 62
7
 10
157.000000
 20
103.000000
 11
157.000000
 21
114.500000
  0
LINE
  8
0
  6
CONTINUOUS
 62
7
 10
167.000000
 20
61.000000
 11
205.000000
 21
61.000000
  0
LINE
  8
0
  6
CONTINUOUS
 62
7
 10
167.658005
 20
102.500000
 11
116.342003
 21
102.500000
  0
LINE
  8
0
  6
CONTINUOUS
 62
7
 10
20.500000
 20
-21.500000
 11
31.000000
 21
-21.500000
  0
LINE
  8
0
  6
CONTINUOUS
 62
7
 10
61.500000
 20
-21.500000
 11
51.000000
 21
-21.500000
  0
LINE
  8
0
  6
CONTINUOUS
 62
7
 10
51.000000
 20
-14.000000
 11
51.000000
 21
-15.513400
  0
LINE
  8
0
  6
CONTINUOUS
 62
7
 10
51.000000
 20
-18.486601
 11
51.000000
 21
-21.500000
  0
LINE
  8
0
  6
CONTINUOUS
 62
7
 10
20.500000
 20
-34.000000
 11
61.500000
 21
-34.000000
  0
LINE
  8
0
  6
CONTINUOUS
 62
7
 10
31.000000
 20
-14.000000
 11
51.000000
 21
-14.000000
  0
LINE
  8
0
  6
CENTER
 62
2
 10
41.000000
 20
-3.500000
 11
41.000000
 21
-35.500000
  0
LINE
  8
0
  6
CONTINUOUS
 62
7
 10
49.000000
 20
-17.600000
 11
49.000000
 21
-16.400000
  0
LINE
  8
0
  6
CONTINUOUS
 62
7
 10
49.000000
 20
-16.400000
 11
49.906700
 21
-16.240101
  0
LINE
  8
0
  6
CONTINUOUS
 62
7
 10
49.000000
 20
-17.600000
 11
49.906700
 21
-17.759899
  0
LINE
  8
0
  6
CONTINUOUS
 62
7
 10
33.000000
 20
-17.600000
 11
33.000000
 21
-16.400000
  0
LINE
  8
0
  6
CONTINUOUS
 62
7
 10
33.000000
 20
-16.400000
 11
32.093201
 21
-16.240101
  0
LINE
  8
0
  6
CONTINUOUS
 62
7
 10
33.000000
 20
-17.600000
 11
32.093300
 21
-17.759899
  0
LINE
  8
0
  6
CONTINUOUS
 62
7
 10
21.000000
 20
-20.000000
 11
31.000000
 21
-20.000000
  0
LINE
  8
0
  6
CONTINUOUS
 62
7
 10
51.000000
 20
-20.000000
 11
61.000000
 21
-20.000000
  0
LINE
  8
0
  6
CONTINUOUS
 62
7
 10
31.099899
 20
-5.600010
 11
50.900002
 21
-5.600010
  0
LINE
  8
0
  6
CONTINUOUS
 62
7
 10
61.000000
 20
-20.500000
 11
61.000000
 21
-5.000000
  0
LINE
  8
0
  6
CONTINUOUS
 62
7
 10
51.500000
 20
-5.000000
 11
61.000000
 21
-5.000000
  0
LINE
  8
0
  6
CONTINUOUS
 62
7
 10
51.500000
 20
-4.999980
 11
50.900002
 21
-5.599990
  0
LINE
  8
0
  6
CONTINUOUS
 62
7
 10
21.000000
 20
-20.000000
 11
21.000000
 21
-5.000000
  0
LINE
  8
0
  6
CENTER
 62
2
 10
29.959999
 20
-24.000000
 11
52.040001
 21
-24.000000
  0
LINE
  8
0
  6
CONTINUOUS
 62
7
 10
17.000000
 20
-31.541401
 11
17.000000
 21
-23.458599
  0
LINE
  8
0
  6
CONTINUOUS
 62
7
 10
17.000000
 20
-31.541401
 11
20.500000
 21
-31.541401
  0
LINE
  8
0
  6
CONTINUOUS
 62
7
 10
17.000000
 20
-29.562901
 11
20.000000
 21
-29.562901
  0
LINE
  8
0
  6
CENTER
 62
2
 10
15.511700
 20
-27.500000
 11
21.459999
 21
-27.500000
  0
LINE
  8
0
  6
CONTINUOUS
 62
7
 10
17.000000
 20
-25.437201
 11
20.000000
 21
-25.437201
  0
LINE
  8
0
  6
CONTINUOUS
 62
7
 10
17.000000
 20
-23.458599
 11
20.500000
 21
-23.458599
  0
LINE
  8
0
  6
CONTINUOUS
 62
7
 10
20.000000
 20
-31.541401
 11
20.000000
 21
-23.458599
  0
LINE
  8
0
  6
CONTINUOUS
 62
7
 10
43.309399
 20
-9.199950
 11
42.154701
 21
-7.199960
  0
LINE
  8
0
  6
CONTINUOUS
 62
7
 10
39.845299
 20
-11.200000
 11
38.690601
 21
-9.199990
  0
LINE
  8
0
  6
CONTINUOUS
 62
7
 10
39.845299
 20
-11.200000
 11
42.154701
 21
-11.200000
  0
LINE
  8
0
  6
CONTINUOUS
 62
7
 10
39.845299
 20
-7.199980
 11
42.154701
 21
-7.199980
  0
LINE
  8
0
  6
CONTINUOUS
 62
7
 10
42.154701
 20
-11.200000
 11
43.309399
 21
-9.200030
  0
LINE
  8
0
  6
CONTINUOUS
 62
7
 10
38.690498
 20
-9.199980
 11
39.845200
 21
-7.199990
  0
LINE
  8
0
  6
CENTER
 62
2
 10
37.190601
 20
-9.199980
 11
44.809399
 21
-9.199980
  0
LINE
  8
0
  6
CONTINUOUS
 62
7
 10
-221.500000
 20
-221.000000
 11
-220.899994
 21
-221.600006
  0
LINE
  8
0
  6
CONTINUOUS
 62
7
 10
30.500000
 20
-5.000000
 11
21.000000
 21
-5.000000
  0
LINE
  8
0
  6
CONTINUOUS
 62
7
 10
-221.000000
 20
-230.000000
 11
-221.000000
 21
-231.513000
  0
LINE
  8
0
  6
CONTINUOUS
 62
7
 10
-221.000000
 20
-234.487000
 11
-221.000000
 21
-237.500000
  0
LINE
  8
0
  6
CONTINUOUS
 62
7
 10
61.500000
 20
-21.299999
 11
61.500000
 21
-34.000000
  0
LINE
  8
0
  6
CONTINUOUS
 62
7
 10
20.500000
 20
-10.000000
 11
20.500000
 21
-34.000000
  0
LINE
  8
0
  6
CONTINUOUS
 62
7
 10
8.499950
 20
-33.500000
 11
20.500000
 21
-33.500000
  0
LINE
  8
0
  6
CENTER
 62
2
 10
20.799999
 20
-16.000000
 11
8.199940
 21
-16.000000
  0
LINE
  8
0
  6
CENTER
 62
2
 10
14.500000
 20
-22.299999
 11
14.500000
 21
-9.699980
  0
LINE
  8
0
  6
CONTINUOUS
 62
7
 10
14.500000
 20
-10.226500
 11
9.499960
 21
-13.113200
  0
LINE
  8
0
  6
CONTINUOUS
 62
7
 10
19.500000
 20
-18.886700
 11
14.500000
 21
-21.773500
  0
LINE
  8
0
  6
CONTINUOUS
 62
7
 10
19.500000
 20
-18.886700
 11
19.500000
 21
-13.113300
  0
LINE
  8
0
  6
CONTINUOUS
 62
7
 10
14.500000
 20
-21.773500
 11
9.499990
 21
-18.886801
  0
LINE
  8
0
  6
CONTINUOUS
 62
7
 10
19.500000
 20
-13.113200
 11
14.500000
 21
-10.226500
  0
LINE
  8
0
  6
CONTINUOUS
 62
7
 10
9.499970
 20
-18.886700
 11
9.499970
 21
-13.113300
  0
LINE
  8
0
  6
CONTINUOUS
 62
7
 10
8.499950
 20
-10.000000
 11
8.499950
 21
-33.500000
  0
LINE
  8
0
  6
CONTINUOUS
 62
7
 10
8.499950
 20
-10.000000
 11
20.500000
 21
-10.000000
  0
LINE
  8
0
  6
CONTINUOUS
 62
7
 10
14.500000
 20
-13.690600
 11
12.500000
 21
-14.845300
  0
LINE
  8
0
  6
CONTINUOUS
 62
7
 10
16.499901
 20
-17.154699
 11
14.500000
 21
-18.309401
  0
LINE
  8
0
  6
CONTINUOUS
 62
7
 10
12.500000
 20
-17.154699
 11
12.500000
 21
-14.845300
  0
LINE
  8
0
  6
CONTINUOUS
 62
7
 10
16.500000
 20
-17.154699
 11
16.500000
 21
-14.845300
  0
LINE
  8
0
  6
CONTINUOUS
 62
7
 10
14.500000
 20
-18.309401
 11
12.500000
 21
-17.154699
  0
LINE
  8
0
  6
CONTINUOUS
 62
7
 10
16.500000
 20
-14.845200
 11
14.500000
 21
-13.690600
  0
LINE
  8
0
  6
CONTINUOUS
 62
7
 10
8.999920
 20
-6.500000
 11
20.999901
 21
-6.500000
  0
LINE
  8
0
  6
CONTINUOUS
 62
7
 10
8.999920
 20
-10.000000
 11
8.999920
 21
-6.500000
  0
LINE
  8
0
  6
CENTER
 62
2
 10
26.000000
 20
-32.000000
 11
26.000000
 21
-36.000000
  0
LINE
  8
0
  6
CENTER
 62
2
 10
26.000000
 20
-3.000000
 11
26.000000
 21
-7.000000
  0
LINE
  8
0
  6
CENTER
 62
2
 10
56.000000
 20
-3.000000
 11
56.000000
 21
-7.000000
  0
LINE
  8
0
  6
CENTER
 62
2
 10
56.000000
 20
-32.000000
 11
56.000000
 21
-36.000000
  0
LINE
  8
0
  6
CENTER
 62
2
 10
-142.500000
 20
-2.999990
 11
-142.500000
 21
-6.999990
  0
LINE
  8
0
  6
CENTER
 62
2
 10
-117.500000
 20
-2.999990
 11
-117.500000
 21
-6.999990
  0
LINE
  8
0
  6
CENTER
 62
2
 10
-142.500000
 20
88.000000
 11
-142.500000
 21
84.000000
  0
LINE
  8
0
  6
CENTER
 62
2
 10
-117.500000
 20
88.000000
 11
-117.500000
 21
84.000000
  0
LINE
  8
0
  6
CENTER
 62
2
 10
137.000000
 20
-3.000000
 11
137.000000
 21
-7.000000
  0
LINE
  8
0
  6
CENTER
 62
2
 10
157.000000
 20
-3.000000
 11
157.000000
 21
-7.000000
  0
LINE
  8
0
  6
CENTER
 62
2
 10
177.000000
 20
-3.000000
 11
177.000000
 21
-7.000000
  0
LINE
  8
0
  6
CENTER
 62
2
 10
137.000000
 20
88.000000
 11
137.000000
 21
84.000000
  0
LINE
  8
0
  6
CENTER
 62
2
 10
157.000000
 20
88.000000
 11
157.000000
 21
84.000000
  0
LINE
  8
0
  6
CENTER
 62
2
 10
177.000000
 20
88.000000
 11
177.000000
 21
84.000000
  0
LINE
  8
0
  6
CONTINUOUS
 62
7
 10
64.000000
 20
-8.799990
 11
71.500000
 21
-8.799990
  0
LINE
  8
0
  6
CONTINUOUS
 62
7
 10
71.500000
 20
-8.799990
 11
71.500000
 21
-27.799999
  0
LINE
  8
0
  6
CONTINUOUS
 62
2
 10
71.500000
 20
-13.600000
 11
70.499901
 21
-13.600000
  0
LINE
  8
0
  6
CONTINUOUS
 62
2
 10
70.500000
 20
-10.150000
 11
70.500000
 21
-14.450000
  0
LINE
  8
0
  6
CONTINUOUS
 62
2
 10
71.500000
 20
-11.000000
 11
70.499901
 21
-11.000000
  0
LINE
  8
0
  6
CONTINUOUS
 62
2
 10
65.199997
 20
-11.650000
 11
65.199997
 21
-12.950000
  0
LINE
  8
0
  6
CONTINUOUS
 62
2
 10
66.699997
 20
-14.450000
 11
70.500000
 21
-14.450000
  0
LINE
  8
0
  6
CONTINUOUS
 62
2
 10
66.699997
 20
-10.150000
 11
70.500000
 21
-10.150000
  0
LINE
  8
0
  6
CENTER
 62
2
 10
63.200001
 20
-18.299999
 11
73.500000
 21
-18.299999
  0
LINE
  8
0
  6
CENTER
 62
2
 10
63.200001
 20
-12.300000
 11
73.500000
 21
-12.300000
  0
LINE
  8
0
  6
CONTINUOUS
 62
7
 10
63.099998
 20
-9.500000
 11
61.000000
 21
-9.500000
  0
LINE
  8
0
  6
CONTINUOUS
 62
7
 10
63.099998
 20
-9.500000
 11
63.099998
 21
-20.500000
  0
LINE
  8
0
  6
CONTINUOUS
 62
7
 10
64.000000
 20
-8.799990
 11
64.000000
 21
-21.299999
  0
LINE
  8
0
  6
CONTINUOUS
 62
7
 10
63.099998
 20
-20.500000
 11
61.000000
 21
-20.500000
  0
LINE
  8
0
  6
CONTINUOUS
 62
7
 10
61.500000
 20
-21.299999
 11
64.000000
 21
-21.299999
  0
LINE
  8
0
  6
CONTINUOUS
 62
7
 10
61.500000
 20
-27.799999
 11
71.500000
 21
-27.799999
  0
LINE
  8
0
  6
CONTINUOUS
 62
7
 10
263.500000
 20
-21.500000
 11
253.000000
 21
-21.500000
  0
LINE
  8
0
  6
CONTINUOUS
 62
7
 10
222.500000
 20
-21.500000
 11
233.000000
 21
-21.500000
  0
LINE
  8
0
  6
CONTINUOUS
 62
7
 10
233.000000
 20
-14.000000
 11
233.000000
 21
-15.513400
  0
LINE
  8
0
  6
CONTINUOUS
 62
7
 10
233.000000
 20
-18.486601
 11
233.000000
 21
-21.500000
  0
LINE
  8
0
  6
CONTINUOUS
 62
7
 10
263.500000
 20
-34.000000
 11
222.500000
 21
-34.000000
  0
LINE
  8
0
  6
CONTINUOUS
 62
7
 10
253.000000
 20
-14.000000
 11
233.000000
 21
-14.000000
  0
LINE
  8
0
  6
CENTER
 62
2
 10
243.000000
 20
-3.500000
 11
243.000000
 21
-35.500000
  0
LINE
  8
0
  6
CONTINUOUS
 62
7
 10
235.000000
 20
-17.600000
 11
235.000000
 21
-16.400000
  0
LINE
  8
0
  6
CONTINUOUS
 62
7
 10
235.000000
 20
-16.400000
 11
234.093002
 21
-16.240200
  0
LINE
  8
0
  6
CONTINUOUS
 62
7
 10
235.000000
 20
-17.600000
 11
234.093002
 21
-17.759899
  0
LINE
  8
0
  6
CONTINUOUS
 62
7
 10
251.000000
 20
-17.600000
 11
251.000000
 21
-16.400000
  0
LINE
  8
0
  6
CONTINUOUS
 62
7
 10
251.000000
 20
-16.400000
 11
251.906998
 21
-16.240101
  0
LINE
  8
0
  6
CONTINUOUS
 62
7
 10
251.000000
 20
-17.600000
 11
251.906998
 21
-17.759899
  0
LINE
  8
0
  6
CONTINUOUS
 62
7
 10
263.000000
 20
-20.000000
 11
253.000000
 21
-20.000000
  0
LINE
  8
0
  6
CONTINUOUS
 62
7
 10
233.000000
 20
-20.000000
 11
223.000000
 21
-20.000000
  0
LINE
  8
0
  6
CONTINUOUS
 62
7
 10
252.899994
 20
-5.600010
 11
233.100006
 21
-5.600010
  0
LINE
  8
0
  6
CONTINUOUS
 62
7
 10
223.000000
 20
-20.500000
 11
223.000000
 21
-5.000000
  0
LINE
  8
0
  6
CONTINUOUS
 62
7
 10
232.500000
 20
-5.000000
 11
223.000000
 21
-5.000000
  0
LINE
  8
0
  6
CONTINUOUS
 62
7
 10
232.500000
 20
-5.000030
 11
233.100006
 21
-5.600010
  0
LINE
  8
0
  6
CONTINUOUS
 62
7
 10
263.000000
 20
-20.000000
 11
263.000000
 21
-5.000000
  0
LINE
  8
0
  6
CENTER
 62
2
 10
254.039993
 20
-24.000000
 11
231.960007
 21
-24.000000
  0
LINE
  8
0
  6
CONTINUOUS
 62
7
 10
267.000000
 20
-31.541401
 11
267.000000
 21
-23.458599
  0
LINE
  8
0
  6
CONTINUOUS
 62
7
 10
267.000000
 20
-31.541401
 11
263.500000
 21
-31.541401
  0
LINE
  8
0
  6
CONTINUOUS
 62
7
 10
267.000000
 20
-29.562901
 11
264.000000
 21
-29.562901
  0
LINE
  8
0
  6
CENTER
 62
2
 10
268.488007
 20
-27.500000
 11
262.540009
 21
-27.500000
  0
LINE
  8
0
  6
CONTINUOUS
 62
7
 10
267.000000
 20
-25.437201
 11
264.000000
 21
-25.437201
  0
LINE
  8
0
  6
CONTINUOUS
 62
7
 10
267.000000
 20
-23.458599
 11
263.500000
 21
-23.458599
  0
LINE
  8
0
  6
CONTINUOUS
 62
7
 10
264.000000
 20
-31.541401
 11
264.000000
 21
-23.458599
  0
LINE
  8
0
  6
CONTINUOUS
 62
7
 10
240.690994
 20
-9.199960
 11
241.845001
 21
-7.199960
  0
LINE
  8
0
  6
CONTINUOUS
 62
7
 10
244.154999
 20
-11.199900
 11
245.309006
 21
-9.199930
  0
LINE
  8
0
  6
CONTINUOUS
 62
7
 10
244.154999
 20
-11.200000
 11
241.845001
 21
-11.200000
  0
LINE
  8
0
  6
CONTINUOUS
 62
7
 10
244.154999
 20
-7.199980
 11
241.845001
 21
-7.199980
  0
LINE
  8
0
  6
CONTINUOUS
 62
7
 10
241.845001
 20
-11.200000
 11
240.690994
 21
-9.200020
  0
LINE
  8
0
  6
CONTINUOUS
 62
7
 10
245.309006
 20
-9.200010
 11
244.154999
 21
-7.200020
  0
LINE
  8
0
  6
CENTER
 62
2
 10
246.809006
 20
-9.199980
 11
239.190994
 21
-9.199980
  0
LINE
  8
0
  6
CONTINUOUS
 62
7
 10
253.500000
 20
-4.999960
 11
252.899994
 21
-5.599970
  0
LINE
  8
0
  6
CONTINUOUS
 62
7
 10
253.500000
 20
-5.000000
 11
263.000000
 21
-5.000000
  0
LINE
  8
0
  6
CONTINUOUS
 62
7
 10
253.000000
 20
-14.000000
 11
253.000000
 21
-15.513400
  0
LINE
  8
0
  6
CONTINUOUS
 62
7
 10
253.000000
 20
-18.486601
 11
253.000000
 21
-21.500000
  0
LINE
  8
0
  6
CONTINUOUS
 62
7
 10
222.500000
 20
-21.299999
 11
222.500000
 21
-34.000000
  0
LINE
  8
0
  6
CONTINUOUS
 62
7
 10
263.500000
 20
-10.000000
 11
263.500000
 21
-34.000000
  0
LINE
  8
0
  6
CONTINUOUS
 62
7
 10
275.500000
 20
-33.500000
 11
263.500000
 21
-33.500000
  0
LINE
  8
0
  6
CENTER
 62
2
 10
263.200012
 20
-16.000000
 11
275.799988
 21
-16.000000
  0
LINE
  8
0
  6
CENTER
 62
2
 10
269.500000
 20
-22.299999
 11
269.500000
 21
-9.699980
  0
LINE
  8
0
  6
CONTINUOUS
 62
7
 10
269.500000
 20
-10.226500
 11
274.500000
 21
-13.113300
  0
LINE
  8
0
  6
CONTINUOUS
 62
7
 10
264.500000
 20
-18.886801
 11
269.500000
 21
-21.773500
  0
LINE
  8
0
  6
CONTINUOUS
 62
7
 10
264.500000
 20
-18.886700
 11
264.500000
 21
-13.113300
  0
LINE
  8
0
  6
CONTINUOUS
 62
7
 10
269.500000
 20
-21.773399
 11
274.500000
 21
-18.886700
  0
LINE
  8
0
  6
CONTINUOUS
 62
7
 10
264.500000
 20
-13.113200
 11
269.500000
 21
-10.226400
  0
LINE
  8
0
  6
CONTINUOUS
 62
7
 10
274.500000
 20
-18.886700
 11
274.500000
 21
-13.113300
  0
LINE
  8
0
  6
CONTINUOUS
 62
7
 10
275.500000
 20
-10.000000
 11
275.500000
 21
-33.500000
  0
LINE
  8
0
  6
CONTINUOUS
 62
7
 10
275.500000
 20
-10.000000
 11
263.500000
 21
-10.000000
  0
LINE
  8
0
  6
CONTINUOUS
 62
7
 10
269.500000
 20
-13.690600
 11
271.500000
 21
-14.845300
  0
LINE
  8
0
  6
CONTINUOUS
 62
7
 10
267.500000
 20
-17.154699
 11
269.500000
 21
-18.309401
  0
LINE
  8
0
  6
CONTINUOUS
 62
7
 10
271.500000
 20
-17.154699
 11
271.500000
 21
-14.845300
  0
LINE
  8
0
  6
CONTINUOUS
 62
7
 10
267.500000
 20
-17.154699
 11
267.500000
 21
-14.845300
  0
LINE
  8
0
  6
CONTINUOUS
 62
7
 10
269.500000
 20
-18.309299
 11
271.500000
 21
-17.154600
  0
LINE
  8
0
  6
CONTINUOUS
 62
7
 10
267.500000
 20
-14.845200
 11
269.500000
 21
-13.690600
  0
LINE
  8
0
  6
CONTINUOUS
 62
7
 10
275.000000
 20
-6.500000
 11
263.000000
 21
-6.500000
  0
LINE
  8
0
  6
CONTINUOUS
 62
7
 10
275.000000
 20
-10.000000
 11
275.000000
 21
-6.500000
  0
LINE
  8
0
  6
CENTER
 62
2
 10
258.000000
 20
-32.000000
 11
258.000000
 21
-36.000000
  0
LINE
  8
0
  6
CENTER
 62
2
 10
258.000000
 20
-3.000000
 11
258.000000
 21
-7.000000
  0
LINE
  8
0
  6
CENTER
 62
2
 10
228.000000
 20
-3.000000
 11
228.000000
 21
-7.000000
  0
LINE
  8
0
  6
CENTER
 62
2
 10
228.000000
 20
-32.000000
 11
228.000000
 21
-36.000000
  0
LINE
  8
0
  6
CONTINUOUS
 62
7
 10
220.000000
 20
-8.799990
 11
212.500000
 21
-8.799990
  0
LINE
  8
0
  6
CONTINUOUS
 62
7
 10
212.500000
 20
-8.799990
 11
212.500000
 21
-27.799999
  0
LINE
  8
0
  6
CONTINUOUS
 62
2
 10
212.500000
 20
-13.600000
 11
213.500000
 21
-13.600000
  0
LINE
  8
0
  6
CONTINUOUS
 62
2
 10
213.500000
 20
-10.150000
 11
213.500000
 21
-14.450000
  0
LINE
  8
0
  6
CONTINUOUS
 62
2
 10
212.500000
 20
-11.000000
 11
213.500000
 21
-11.000000
  0
LINE
  8
0
  6
CONTINUOUS
 62
2
 10
218.800003
 20
-11.650000
 11
218.800003
 21
-12.950000
  0
LINE
  8
0
  6
CONTINUOUS
 62
2
 10
217.300003
 20
-14.450000
 11
213.500000
 21
-14.450000
  0
LINE
  8
0
  6
CONTINUOUS
 62
2
 10
217.300003
 20
-10.150000
 11
213.500000
 21
-10.150000
  0
LINE
  8
0
  6
CENTER
 62
2
 10
220.800003
 20
-18.299999
 11
210.500000
 21
-18.299999
  0
LINE
  8
0
  6
CENTER
 62
2
 10
220.800003
 20
-12.300000
 11
210.500000
 21
-12.300000
  0
LINE
  8
0
  6
CONTINUOUS
 62
7
 10
220.899994
 20
-9.500000
 11
223.000000
 21
-9.500000
  0
LINE
  8
0
  6
CONTINUOUS
 62
7
 10
220.899994
 20
-9.500000
 11
220.899994
 21
-20.500000
  0
LINE
  8
0
  6
CONTINUOUS
 62
7
 10
220.000000
 20
-8.799990
 11
220.000000
 21
-21.299999
  0
LINE
  8
0
  6
CONTINUOUS
 62
7
 10
220.899994
 20
-20.500000
 11
223.000000
 21
-20.500000
  0
LINE
  8
0
  6
CONTINUOUS
 62
7
 10
222.500000
 20
-21.299999
 11
220.000000
 21
-21.299999
  0
LINE
  8
0
  6
CONTINUOUS
 62
7
 10
222.500000
 20
-27.799999
 11
212.500000
 21
-27.799999
  0
LINE
  8
0
  6
CONTINUOUS
 62
7
 10
-168.500000
 20
-8.799990
 11
-168.500000
 21
-21.799999
  0
LINE
  8
0
  6
CONTINUOUS
 62
7
 10
-168.500000
 20
-21.799999
 11
-158.108002
 21
-27.799999
  0
LINE
  8
0
  6
CONTINUOUS
 62
2
 10
-111.500000
 20
-17.000000
 11
-168.500000
 21
-17.000000
  0
LINE
  8
0
  6
CONTINUOUS
 62
2
 10
-111.500000
 20
-19.600000
 11
-168.500000
 21
-19.600000
  0
LINE
  8
0
  6
CONTINUOUS
 62
2
 10
-111.500000
 20
-11.000000
 11
-168.500000
 21
-11.000000
  0
LINE
  8
0
  6
CONTINUOUS
 62
2
 10
-111.500000
 20
-13.600000
 11
-168.500000
 21
-13.600000
  0
LINE
  8
0
  6
CONTINUOUS
 62
7
 10
-111.500000
 20
-8.799990
 11
-168.500000
 21
-8.799990
  0
LINE
  8
0
  6
CONTINUOUS
 62
7
 10
-111.500000
 20
-8.799990
 11
-111.500000
 21
-21.799999
  0
LINE
  8
0
  6
CONTINUOUS
 62
7
 10
-111.500000
 20
-21.799999
 11
-121.891998
 21
-27.799999
  0
LINE
  8
0
  6
CONTINUOUS
 62
7
 10
-121.891998
 20
-27.799999
 11
-158.108002
 21
-27.799999
  0
LINE
  8
0
  6
CONTINUOUS
 62
7
 10
-168.500000
 20
-21.500000
 11
-188.000000
 21
-21.500000
  0
LINE
  8
0
  6
CONTINUOUS
 62
7
 10
-168.500000
 20
-49.000000
 11
-111.500000
 21
-49.000000
  0
LINE
  8
0
  6
CONTINUOUS
 62
7
 10
-168.500000
 20
-49.000000
 11
-168.500000
 21
-59.000000
  0
LINE
  8
0
  6
CONTINUOUS
 62
7
 10
-158.108002
 20
-49.000000
 11
-158.108002
 21
-59.000000
  0
LINE
  8
0
  6
CONTINUOUS
 62
7
 10
-121.891998
 20
-49.000000
 11
-121.891998
 21
-59.000000
  0
LINE
  8
0
  6
CONTINUOUS
 62
7
 10
-111.500000
 20
-49.000000
 11
-111.500000
 21
-59.000000
  0
LINE
  8
0
  6
CONTINUOUS
 62
7
 10
-168.500000
 20
91.000000
 11
-168.500000
 21
89.800003
  0
LINE
  8
0
  6
CONTINUOUS
 62
7
 10
-168.500000
 20
89.800003
 11
-159.473007
 21
89.800003
  0
LINE
  8
0
  6
CONTINUOUS
 62
7
 10
-168.500000
 20
20.000000
 11
-168.500000
 21
10.000000
  0
LINE
  8
0
  6
CONTINUOUS
 62
7
 10
-111.500000
 20
20.000000
 11
-111.500000
 21
10.000000
  0
LINE
  8
0
  6
CONTINUOUS
 62
7
 10
-168.500000
 20
17.500000
 11
-111.500000
 21
17.500000
  0
LINE
  8
0
  6
CONTINUOUS
 62
7
 10
-168.500000
 20
10.000000
 11
-111.500000
 21
10.000000
  0
LINE
  8
0
  6
CONTINUOUS
 62
7
 10
-256.500000
 20
-21.500000
 11
-246.000000
 21
-21.500000
  0
LINE
  8
0
  6
CONTINUOUS
 62
7
 10
-215.500000
 20
-21.500000
 11
-226.000000
 21
-21.500000
  0
LINE
  8
0
  6
CONTINUOUS
 62
7
 10
-226.000000
 20
-14.000000
 11
-226.000000
 21
-15.513400
  0
LINE
  8
0
  6
CONTINUOUS
 62
7
 10
-226.000000
 20
-18.486601
 11
-226.000000
 21
-21.500000
  0
LINE
  8
0
  6
CONTINUOUS
 62
7
 10
-256.500000
 20
-34.000000
 11
-215.500000
 21
-34.000000
  0
LINE
  8
0
  6
CONTINUOUS
 62
7
 10
-246.000000
 20
-14.000000
 11
-226.000000
 21
-14.000000
  0
LINE
  8
0
  6
CENTER
 62
2
 10
-236.000000
 20
-3.499990
 11
-236.000000
 21
-35.500000
  0
LINE
  8
0
  6
CONTINUOUS
 62
7
 10
-228.000000
 20
-17.600000
 11
-228.000000
 21
-16.400000
  0
LINE
  8
0
  6
CONTINUOUS
 62
7
 10
-228.000000
 20
-16.400000
 11
-227.093002
 21
-16.240101
  0
LINE
  8
0
  6
CONTINUOUS
 62
7
 10
-228.000000
 20
-17.600000
 11
-227.093002
 21
-17.759899
  0
LINE
  8
0
  6
CONTINUOUS
 62
7
 10
-244.000000
 20
-17.600000
 11
-244.000000
 21
-16.400000
  0
LINE
  8
0
  6
CONTINUOUS
 62
7
 10
-244.000000
 20
-16.400000
 11
-244.906998
 21
-16.240101
  0
LINE
  8
0
  6
CONTINUOUS
 62
7
 10
-244.000000
 20
-17.600000
 11
-244.906998
 21
-17.759899
  0
LINE
  8
0
  6
CONTINUOUS
 62
7
 10
-256.000000
 20
-20.000000
 11
-246.000000
 21
-20.000000
  0
LINE
  8
0
  6
CONTINUOUS
 62
7
 10
-226.000000
 20
-20.000000
 11
-216.000000
 21
-20.000000
  0
LINE
  8
0
  6
CONTINUOUS
 62
7
 10
-245.899994
 20
-5.600000
 11
-226.100006
 21
-5.600000
  0
LINE
  8
0
  6
CONTINUOUS
 62
7
 10
-216.000000
 20
-20.500000
 11
-216.000000
 21
-4.999990
  0
LINE
  8
0
  6
CONTINUOUS
 62
7
 10
-225.500000
 20
-4.999990
 11
-216.000000
 21
-4.999990
  0
LINE
  8
0
  6
CONTINUOUS
 62
7
 10
-225.500000
 20
-5.000040
 11
-226.100006
 21
-5.600050
  0
LINE
  8
0
  6
CONTINUOUS
 62
7
 10
-256.000000
 20
-20.000000
 11
-256.000000
 21
-4.999990
  0
LINE
  8
0
  6
CENTER
 62
2
 10
-247.039993
 20
-24.000000
 11
-224.960007
 21
-24.000000
  0
LINE
  8
0
  6
CONTINUOUS
 62
7
 10
-260.000000
 20
-31.541500
 11
-260.000000
 21
-23.458500
  0
LINE
  8
0
  6
CONTINUOUS
 62
7
 10
-260.000000
 20
-31.541500
 11
-256.500000
 21
-31.541500
  0
LINE
  8
0
  6
CONTINUOUS
 62
7
 10
-260.000000
 20
-29.562901
 11
-257.000000
 21
-29.562901
  0
LINE
  8
0
  6
CENTER
 62
2
 10
-261.488007
 20
-27.500000
 11
-255.539993
 21
-27.500000
  0
LINE
  8
0
  6
CONTINUOUS
 62
7
 10
-260.000000
 20
-25.437201
 11
-257.000000
 21
-25.437201
  0
LINE
  8
0
  6
CONTINUOUS
 62
7
 10
-260.000000
 20
-23.458500
 11
-256.500000
 21
-23.458500
  0
LINE
  8
0
  6
CONTINUOUS
 62
7
 10
-257.000000
 20
-31.541500
 11
-257.000000
 21
-23.458500
  0
LINE
  8
0
  6
CONTINUOUS
 62
7
 10
-233.690994
 20
-9.199960
 11
-234.845001
 21
-7.199960
  0
LINE
  8
0
  6
CONTINUOUS
 62
7
 10
-237.154999
 20
-11.199900
 11
-238.309006
 21
-9.199960
  0
LINE
  8
0
  6
CONTINUOUS
 62
7
 10
-237.154999
 20
-11.200000
 11
-234.845001
 21
-11.200000
  0
LINE
  8
0
  6
CONTINUOUS
 62
7
 10
-237.154999
 20
-7.199990
 11
-234.845001
 21
-7.199990
  0
LINE
  8
0
  6
CONTINUOUS
 62
7
 10
-234.845001
 20
-11.200000
 11
-233.690994
 21
-9.200020
  0
LINE
  8
0
  6
CONTINUOUS
 62
7
 10
-238.309006
 20
-9.200010
 11
-237.154999
 21
-7.200030
  0
LINE
  8
0
  6
CENTER
 62
2
 10
-239.809006
 20
-9.199980
 11
-232.190994
 21
-9.199980
  0
LINE
  8
0
  6
CONTINUOUS
 62
7
 10
-246.500000
 20
-4.999960
 11
-245.899994
 21
-5.599970
  0
LINE
  8
0
  6
CONTINUOUS
 62
7
 10
-246.500000
 20
-4.999990
 11
-256.000000
 21
-4.999990
  0
LINE
  8
0
  6
CONTINUOUS
 62
7
 10
-246.000000
 20
-14.000000
 11
-246.000000
 21
-15.513400
  0
LINE
  8
0
  6
CONTINUOUS
 62
7
 10
-246.000000
 20
-18.486601
 11
-246.000000
 21
-21.500000
  0
LINE
  8
0
  6
CONTINUOUS
 62
7
 10
-215.500000
 20
-21.299999
 11
-215.500000
 21
-34.000000
  0
LINE
  8
0
  6
CONTINUOUS
 62
7
 10
-256.500000
 20
-10.000000
 11
-256.500000
 21
-34.000000
  0
LINE
  8
0
  6
CONTINUOUS
 62
7
 10
-268.500000
 20
-33.500000
 11
-256.500000
 21
-33.500000
  0
LINE
  8
0
  6
CENTER
 62
2
 10
-256.200012
 20
-16.000000
 11
-268.799988
 21
-16.000000
  0
LINE
  8
0
  6
CENTER
 62
2
 10
-262.500000
 20
-22.299999
 11
-262.500000
 21
-9.699990
  0
LINE
  8
0
  6
CONTINUOUS
 62
7
 10
-262.500000
 20
-10.226500
 11
-267.500000
 21
-13.113300
  0
LINE
  8
0
  6
CONTINUOUS
 62
7
 10
-257.500000
 20
-18.886801
 11
-262.500000
 21
-21.773600
  0
LINE
  8
0
  6
CONTINUOUS
 62
7
 10
-257.500000
 20
-18.886700
 11
-257.500000
 21
-13.113200
  0
LINE
  8
0
  6
CONTINUOUS
 62
7
 10
-262.500000
 20
-21.773500
 11
-267.500000
 21
-18.886700
  0
LINE
  8
0
  6
CONTINUOUS
 62
7
 10
-257.500000
 20
-13.113200
 11
-262.500000
 21
-10.226500
  0
LINE
  8
0
  6
CONTINUOUS
 62
7
 10
-267.500000
 20
-18.886700
 11
-267.500000
 21
-13.113200
  0
LINE
  8
0
  6
CONTINUOUS
 62
7
 10
-268.500000
 20
-10.000000
 11
-268.500000
 21
-33.500000
  0
LINE
  8
0
  6
CONTINUOUS
 62
7
 10
-268.500000
 20
-10.000000
 11
-256.500000
 21
-10.000000
  0
LINE
  8
0
  6
CONTINUOUS
 62
7
 10
-262.500000
 20
-13.690600
 11
-264.500000
 21
-14.845300
  0
LINE
  8
0
  6
CONTINUOUS
 62
7
 10
-260.500000
 20
-17.154699
 11
-262.500000
 21
-18.309401
  0
LINE
  8
0
  6
CONTINUOUS
 62
7
 10
-264.500000
 20
-17.154699
 11
-264.500000
 21
-14.845300
  0
LINE
  8
0
  6
CONTINUOUS
 62
7
 10
-260.500000
 20
-17.154699
 11
-260.500000
 21
-14.845300
  0
LINE
  8
0
  6
CONTINUOUS
 62
7
 10
-262.500000
 20
-18.309401
 11
-264.500000
 21
-17.154699
  0
LINE
  8
0
  6
CONTINUOUS
 62
7
 10
-260.500000
 20
-14.845300
 11
-262.500000
 21
-13.690600
  0
LINE
  8
0
  6
CONTINUOUS
 62
7
 10
-268.000000
 20
-6.499990
 11
-256.000000
 21
-6.499990
  0
LINE
  8
0
  6
CONTINUOUS
 62
7
 10
-268.000000
 20
-10.000000
 11
-268.000000
 21
-6.499990
  0
LINE
  8
0
  6
CENTER
 62
2
 10
-251.000000
 20
-32.000000
 11
-251.000000
 21
-36.000000
  0
LINE
  8
0
  6
CENTER
 62
2
 10
-251.000000
 20
-2.999990
 11
-251.000000
 21
-6.999990
  0
LINE
  8
0
  6
CENTER
 62
2
 10
-221.000000
 20
-2.999990
 11
-221.000000
 21
-6.999990
  0
LINE
  8
0
  6
CENTER
 62
2
 10
-221.000000
 20
-32.000000
 11
-221.000000
 21
-36.000000
  0
LINE
  8
0
  6
CONTINUOUS
 62
7
 10
-213.000000
 20
-8.800000
 11
-205.500000
 21
-8.800000
  0
LINE
  8
0
  6
CONTINUOUS
 62
7
 10
-205.500000
 20
-8.800000
 11
-205.500000
 21
-27.799999
  0
LINE
  8
0
  6
CONTINUOUS
 62
2
 10
-205.500000
 20
-13.600000
 11
-206.500000
 21
-13.600000
  0
LINE
  8
0
  6
CONTINUOUS
 62
2
 10
-206.500000
 20
-10.150000
 11
-206.500000
 21
-14.450000
  0
LINE
  8
0
  6
CONTINUOUS
 62
2
 10
-205.500000
 20
-11.000000
 11
-206.500000
 21
-11.000000
  0
LINE
  8
0
  6
CONTINUOUS
 62
2
 10
-211.800003
 20
-11.650000
 11
-211.800003
 21
-12.950000
  0
LINE
  8
0
  6
CONTINUOUS
 62
2
 10
-210.300003
 20
-14.450000
 11
-206.500000
 21
-14.450000
  0
LINE
  8
0
  6
CONTINUOUS
 62
2
 10
-210.300003
 20
-10.150000
 11
-206.500000
 21
-10.150000
  0
LINE
  8
0
  6
CENTER
 62
2
 10
-213.800003
 20
-18.299999
 11
-203.500000
 21
-18.299999
  0
LINE
  8
0
  6
CENTER
 62
2
 10
-213.800003
 20
-12.300000
 11
-203.500000
 21
-12.300000
  0
LINE
  8
0
  6
CONTINUOUS
 62
7
 10
-213.899994
 20
-9.500000
 11
-216.000000
 21
-9.500000
  0
LINE
  8
0
  6
CONTINUOUS
 62
7
 10
-213.899994
 20
-9.500000
 11
-213.899994
 21
-20.500000
  0
LINE
  8
0
  6
CONTINUOUS
 62
7
 10
-213.000000
 20
-8.800000
 11
-213.000000
 21
-21.299999
  0
LINE
  8
0
  6
CONTINUOUS
 62
7
 10
-213.899994
 20
-20.500000
 11
-216.000000
 21
-20.500000
  0
LINE
  8
0
  6
CONTINUOUS
 62
7
 10
-215.500000
 20
-21.299999
 11
-213.000000
 21
-21.299999
  0
LINE
  8
0
  6
CONTINUOUS
 62
7
 10
-215.500000
 20
-27.799999
 11
-205.500000
 21
-27.799999
  0
LINE
  8
0
  6
CONTINUOUS
 62
7
 10
-23.500000
 20
-21.500000
 11
-34.000000
 21
-21.500000
  0
LINE
  8
0
  6
CONTINUOUS
 62
7
 10
-64.500000
 20
-21.500000
 11
-54.000000
 21
-21.500000
  0
LINE
  8
0
  6
CONTINUOUS
 62
7
 10
-54.000000
 20
-14.000000
 11
-54.000000
 21
-15.513400
  0
LINE
  8
0
  6
CONTINUOUS
 62
7
 10
-54.000000
 20
-18.486601
 11
-54.000000
 21
-21.500000
  0
LINE
  8
0
  6
CONTINUOUS
 62
7
 10
-23.500000
 20
-34.000000
 11
-64.500000
 21
-34.000000
  0
LINE
  8
0
  6
CONTINUOUS
 62
7
 10
-34.000000
 20
-14.000000
 11
-54.000000
 21
-14.000000
  0
LINE
  8
0
  6
CENTER
 62
2
 10
-44.000000
 20
-3.499990
 11
-44.000000
 21
-35.500000
  0
LINE
  8
0
  6
CONTINUOUS
 62
7
 10
-52.000000
 20
-17.600000
 11
-52.000000
 21
-16.400000
  0
LINE
  8
0
  6
CONTINUOUS
 62
7
 10
-52.000000
 20
-16.400000
 11
-52.906700
 21
-16.240101
  0
LINE
  8
0
  6
CONTINUOUS
 62
7
 10
-52.000000
 20
-17.600000
 11
-52.906700
 21
-17.759899
  0
LINE
  8
0
  6
CONTINUOUS
 62
7
 10
-36.000000
 20
-17.600000
 11
-36.000000
 21
-16.400000
  0
LINE
  8
0
  6
CONTINUOUS
 62
7
 10
-36.000000
 20
-16.400000
 11
-35.093300
 21
-16.240101
  0
LINE
  8
0
  6
CONTINUOUS
 62
7
 10
-36.000000
 20
-17.600000
 11
-35.093300
 21
-17.759899
  0
LINE
  8
0
  6
CONTINUOUS
 62
7
 10
-24.000000
 20
-20.000000
 11
-34.000000
 21
-20.000000
  0
LINE
  8
0
  6
CONTINUOUS
 62
7
 10
-54.000000
 20
-20.000000
 11
-64.000000
 21
-20.000000
  0
LINE
  8
0
  6
CONTINUOUS
 62
7
 10
-34.099998
 20
-5.600000
 11
-53.900002
 21
-5.600000
  0
LINE
  8
0
  6
CONTINUOUS
 62
7
 10
-64.000000
 20
-20.500000
 11
-64.000000
 21
-4.999990
  0
LINE
  8
0
  6
CONTINUOUS
 62
7
 10
-54.500000
 20
-4.999990
 11
-64.000000
 21
-4.999990
  0
LINE
  8
0
  6
CONTINUOUS
 62
7
 10
-54.500099
 20
-5.000000
 11
-53.900101
 21
-5.600000
  0
LINE
  8
0
  6
CONTINUOUS
 62
7
 10
-24.000000
 20
-20.000000
 11
-24.000000
 21
-4.999990
  0
LINE
  8
0
  6
CENTER
 62
2
 10
-32.959999
 20
-24.000000
 11
-55.040001
 21
-24.000000
  0
LINE
  8
0
  6
CONTINUOUS
 62
7
 10
-20.000000
 20
-31.541500
 11
-20.000000
 21
-23.458500
  0
LINE
  8
0
  6
CONTINUOUS
 62
7
 10
-20.000000
 20
-31.541500
 11
-23.500000
 21
-31.541500
  0
LINE
  8
0
  6
CONTINUOUS
 62
7
 10
-20.000000
 20
-29.562901
 11
-23.000000
 21
-29.562901
  0
LINE
  8
0
  6
CENTER
 62
2
 10
-18.511700
 20
-27.500000
 11
-24.459999
 21
-27.500000
  0
LINE
  8
0
  6
CONTINUOUS
 62
7
 10
-20.000000
 20
-25.437201
 11
-23.000000
 21
-25.437201
  0
LINE
  8
0
  6
CONTINUOUS
 62
7
 10
-20.000000
 20
-23.458500
 11
-23.500000
 21
-23.458500
  0
LINE
  8
0
  6
CONTINUOUS
 62
7
 10
-23.000000
 20
-31.541500
 11
-23.000000
 21
-23.458500
  0
LINE
  8
0
  6
CONTINUOUS
 62
7
 10
-46.309399
 20
-9.199990
 11
-45.154701
 21
-7.199990
  0
LINE
  8
0
  6
CONTINUOUS
 62
7
 10
-42.845299
 20
-11.200000
 11
-41.690601
 21
-9.199990
  0
LINE
  8
0
  6
CONTINUOUS
 62
7
 10
-42.845299
 20
-11.200000
 11
-45.154701
 21
-11.200000
  0
LINE
  8
0
  6
CONTINUOUS
 62
7
 10
-42.845299
 20
-7.199990
 11
-45.154701
 21
-7.199990
  0
LINE
  8
0
  6
CONTINUOUS
 62
7
 10
-45.154701
 20
-11.200000
 11
-46.309399
 21
-9.199980
  0
LINE
  8
0
  6
CONTINUOUS
 62
7
 10
-41.690601
 20
-9.199970
 11
-42.845299
 21
-7.199980
  0
LINE
  8
0
  6
CENTER
 62
2
 10
-40.190601
 20
-9.199980
 11
-47.809399
 21
-9.199980
  0
LINE
  8
0
  6
CONTINUOUS
 62
7
 10
-33.500000
 20
-5.000000
 11
-34.099998
 21
-5.600000
  0
LINE
  8
0
  6
CONTINUOUS
 62
7
 10
-33.500000
 20
-4.999990
 11
-24.000000
 21
-4.999990
  0
LINE
  8
0
  6
CONTINUOUS
 62
7
 10
-34.000000
 20
-14.000000
 11
-34.000000
 21
-15.513400
  0
LINE
  8
0
  6
CONTINUOUS
 62
7
 10
-34.000000
 20
-18.486601
 11
-34.000000
 21
-21.500000
  0
LINE
  8
0
  6
CONTINUOUS
 62
7
 10
-64.500000
 20
-21.299999
 11
-64.500000
 21
-34.000000
  0
LINE
  8
0
  6
CONTINUOUS
 62
7
 10
-23.500000
 20
-10.000000
 11
-23.500000
 21
-34.000000
  0
LINE
  8
0
  6
CONTINUOUS
 62
7
 10
-11.500000
 20
-33.500000
 11
-23.500000
 21
-33.500000
  0
LINE
  8
0
  6
CENTER
 62
2
 10
-23.799999
 20
-16.000000
 11
-11.200000
 21
-16.000000
  0
LINE
  8
0
  6
CENTER
 62
2
 10
-17.500000
 20
-22.299999
 11
-17.500000
 21
-9.699990
  0
LINE
  8
0
  6
CONTINUOUS
 62
7
 10
-17.500000
 20
-10.226500
 11
-12.500000
 21
-13.113300
  0
LINE
  8
0
  6
CONTINUOUS
 62
7
 10
-22.500000
 20
-18.886801
 11
-17.500000
 21
-21.773500
  0
LINE
  8
0
  6
CONTINUOUS
 62
7
 10
-22.500000
 20
-18.886700
 11
-22.500000
 21
-13.113200
  0
LINE
  8
0
  6
CONTINUOUS
 62
7
 10
-17.500000
 20
-21.773500
 11
-12.500000
 21
-18.886801
  0
LINE
  8
0
  6
CONTINUOUS
 62
7
 10
-22.500000
 20
-13.113200
 11
-17.500000
 21
-10.226500
  0
LINE
  8
0
  6
CONTINUOUS
 62
7
 10
-12.500000
 20
-18.886700
 11
-12.500000
 21
-13.113200
  0
LINE
  8
0
  6
CONTINUOUS
 62
7
 10
-11.500000
 20
-10.000000
 11
-11.500000
 21
-33.500000
  0
LINE
  8
0
  6
CONTINUOUS
 62
7
 10
-11.500000
 20
-10.000000
 11
-23.500000
 21
-10.000000
  0
LINE
  8
0
  6
CONTINUOUS
 62
7
 10
-17.500000
 20
-13.690600
 11
-15.500000
 21
-14.845300
  0
LINE
  8
0
  6
CONTINUOUS
 62
7
 10
-19.500000
 20
-17.154699
 11
-17.500000
 21
-18.309401
  0
LINE
  8
0
  6
CONTINUOUS
 62
7
 10
-15.500000
 20
-17.154699
 11
-15.500000
 21
-14.845300
  0
LINE
  8
0
  6
CONTINUOUS
 62
7
 10
-19.500000
 20
-17.154699
 11
-19.500000
 21
-14.845300
  0
LINE
  8
0
  6
CONTINUOUS
 62
7
 10
-17.500000
 20
-18.309401
 11
-15.500000
 21
-17.154699
  0
LINE
  8
0
  6
CONTINUOUS
 62
7
 10
-19.500000
 20
-14.845300
 11
-17.500000
 21
-13.690600
  0
LINE
  8
0
  6
CONTINUOUS
 62
7
 10
-12.000000
 20
-6.499990
 11
-24.000000
 21
-6.499990
  0
LINE
  8
0
  6
CONTINUOUS
 62
7
 10
-12.000000
 20
-10.000000
 11
-12.000000
 21
-6.499990
  0
LINE
  8
0
  6
CENTER
 62
2
 10
-29.000000
 20
-32.000000
 11
-29.000000
 21
-36.000000
  0
LINE
  8
0
  6
CENTER
 62
2
 10
-29.000000
 20
-2.999990
 11
-29.000000
 21
-6.999990
  0
LINE
  8
0
  6
CENTER
 62
2
 10
-59.000000
 20
-2.999990
 11
-59.000000
 21
-6.999990
  0
LINE
  8
0
  6
CENTER
 62
2
 10
-59.000000
 20
-32.000000
 11
-59.000000
 21
-36.000000
  0
LINE
  8
0
  6
CONTINUOUS
 62
7
 10
-67.000000
 20
-8.800000
 11
-74.500000
 21
-8.800000
  0
LINE
  8
0
  6
CONTINUOUS
 62
7
 10
-74.500000
 20
-8.800000
 11
-74.500000
 21
-27.799999
  0
LINE
  8
0
  6
CONTINUOUS
 62
2
 10
-74.500000
 20
-13.600000
 11
-73.500000
 21
-13.600000
  0
LINE
  8
0
  6
CONTINUOUS
 62
2
 10
-73.500000
 20
-10.150000
 11
-73.500000
 21
-14.450000
  0
LINE
  8
0
  6
CONTINUOUS
 62
2
 10
-74.500000
 20
-11.000000
 11
-73.500000
 21
-11.000000
  0
LINE
  8
0
  6
CONTINUOUS
 62
2
 10
-68.199997
 20
-11.650000
 11
-68.199997
 21
-12.950000
  0
LINE
  8
0
  6
CONTINUOUS
 62
2
 10
-69.699997
 20
-14.450000
 11
-73.500000
 21
-14.450000
  0
LINE
  8
0
  6
CONTINUOUS
 62
2
 10
-69.699997
 20
-10.150000
 11
-73.500000
 21
-10.150000
  0
LINE
  8
0
  6
CENTER
 62
2
 10
-66.199997
 20
-18.299999
 11
-76.500000
 21
-18.299999
  0
LINE
  8
0
  6
CENTER
 62
2
 10
-66.199997
 20
-12.300000
 11
-76.500000
 21
-12.300000
  0
LINE
  8
0
  6
CONTINUOUS
 62
7
 10
-66.100098
 20
-9.500000
 11
-64.000099
 21
-9.500000
  0
LINE
  8
0
  6
CONTINUOUS
 62
7
 10
-66.100098
 20
-9.500000
 11
-66.100098
 21
-20.500000
  0
LINE
  8
0
  6
CONTINUOUS
 62
7
 10
-67.000000
 20
-8.800000
 11
-67.000000
 21
-21.299999
  0
LINE
  8
0
  6
CONTINUOUS
 62
7
 10
-66.100098
 20
-20.500000
 11
-64.000000
 21
-20.500000
  0
LINE
  8
0
  6
CONTINUOUS
 62
7
 10
-64.500000
 20
-21.299999
 11
-67.000000
 21
-21.299999
  0
LINE
  8
0
  6
CONTINUOUS
 62
7
 10
-64.500000
 20
-27.799999
 11
-74.500000
 21
-27.799999
  0
LINE
  8
0
  6
CONTINUOUS
 62
2
 10
176.000000
 20
-11.000000
 11
108.000000
 21
-11.000000
  0
LINE
  8
0
  6
CONTINUOUS
 62
2
 10
176.000000
 20
-13.600000
 11
108.000000
 21
-13.600000
  0
LINE
  8
0
  6
CONTINUOUS
 62
2
 10
176.000000
 20
-17.000000
 11
108.000000
 21
-17.000000
  0
LINE
  8
0
  6
CONTINUOUS
 62
2
 10
176.000000
 20
-19.600000
 11
108.000000
 21
-19.600000
  0
LINE
  8
0
  6
CONTINUOUS
 62
7
 10
108.000000
 20
-8.799990
 11
108.000000
 21
-21.799999
  0
LINE
  8
0
  6
CONTINUOUS
 62
7
 10
176.000000
 20
-8.799990
 11
108.000000
 21
-8.799990
  0
LINE
  8
0
  6
CONTINUOUS
 62
7
 10
108.000000
 20
-21.799900
 11
118.391998
 21
-27.799999
  0
LINE
  8
0
  6
CONTINUOUS
 62
7
 10
165.608002
 20
-27.799999
 11
118.391998
 21
-27.799999
  0
LINE
  8
0
  6
CONTINUOUS
 62
7
 10
176.000000
 20
-21.799900
 11
165.608002
 21
-27.799900
  0
LINE
  8
0
  6
CONTINUOUS
 62
7
 10
176.000000
 20
-8.799990
 11
176.000000
 21
-21.799999
  0
LINE
  8
0
  6
CONTINUOUS
 62
7
 10
108.000000
 20
-21.500000
 11
79.000000
 21
-21.500000
  0
LINE
  8
0
  6
CONTINUOUS
 62
7
 10
108.000000
 20
-49.000000
 11
176.000000
 21
-49.000000
  0
LINE
  8
0
  6
CONTINUOUS
 62
7
 10
108.000000
 20
-49.000000
 11
108.000000
 21
-59.000000
  0
LINE
  8
0
  6
CONTINUOUS
 62
7
 10
118.391998
 20
-49.000000
 11
118.391998
 21
-59.000000
  0
LINE
  8
0
  6
CONTINUOUS
 62
7
 10
165.608002
 20
-49.000000
 11
165.608002
 21
-59.000000
  0
LINE
  8
0
  6
CONTINUOUS
 62
7
 10
176.000000
 20
-49.000000
 11
176.000000
 21
-59.000000
  0
LINE
  8
0
  6
CONTINUOUS
 62
7
 10
108.000000
 20
91.000000
 11
108.000000
 21
89.800003
  0
LINE
  8
0
  6
CONTINUOUS
 62
7
 10
108.000000
 20
89.800003
 11
118.527000
 21
89.800003
  0
LINE
  8
0
  6
CONTINUOUS
 62
7
 10
108.000000
 20
17.500000
 11
176.000000
 21
17.500000
  0
LINE
  8
0
  6
CONTINUOUS
 62
7
 10
108.000000
 20
10.000000
 11
176.000000
 21
10.000000
  0
LINE
  8
0
  6
CONTINUOUS
 62
7
 10
160.250000
 20
20.000000
 11
160.250000
 21
18.400000
  0
LINE
  8
0
  6
CONTINUOUS
 62
7
 10
160.250000
 20
18.400000
 11
153.750000
 21
18.400000
  0
LINE
  8
0
  6
CONTINUOUS
 62
7
 10
108.000000
 20
20.000000
 11
108.000000
 21
10.000000
  0
LINE
  8
0
  6
CONTINUOUS
 62
7
 10
176.000000
 20
20.000000
 11
176.000000
 21
10.000000
  0
LINE
  8
0
  6
CONTINUOUS
 62
7
 10
153.750000
 20
20.000000
 11
153.750000
 21
18.400000
  0
LINE
  8
0
  6
CENTER
 62
2
 10
-181.500000
 20
-23.000000
 11
-181.500000
 21
-32.000000
  0
LINE
  8
0
  6
CENTER
 62
2
 10
-186.000000
 20
-27.500000
 11
-177.000000
 21
-27.500000
  0
LINE
  8
0
  6
CENTER
 62
2
 10
-98.500000
 20
-23.000000
 11
-98.500000
 21
-32.000000
  0
LINE
  8
0
  6
CENTER
 62
2
 10
-103.000000
 20
-27.500000
 11
-94.000000
 21
-27.500000
  0
LINE
  8
0
  6
CENTER
 62
2
 10
85.500000
 20
-23.000000
 11
85.500000
 21
-32.000000
  0
LINE
  8
0
  6
CENTER
 62
2
 10
81.000000
 20
-27.500000
 11
90.000000
 21
-27.500000
  0
LINE
  8
0
  6
CENTER
 62
2
 10
198.500000
 20
-23.000000
 11
198.500000
 21
-32.000000
  0
LINE
  8
0
  6
CENTER
 62
2
 10
194.000000
 20
-27.500000
 11
203.000000
 21
-27.500000
  0
LINE
  8
0
  6
CONTINUOUS
 62
7
 10
-161.500000
 20
101.000000
 11
-161.828003
 21
101.000000
  0
LINE
  8
0
  6
CONTINUOUS
 62
2
 10
-161.500000
 20
100.375000
 11
-161.977005
 21
100.375000
  0
LINE
  8
0
  6
CONTINUOUS
 62
7
 10
-161.500000
 20
101.000000
 11
-161.500000
 21
93.000000
  0
LINE
  8
0
  6
CONTINUOUS
 62
7
 10
-160.000000
 20
99.650002
 11
-160.000000
 21
94.349998
  0
LINE
  8
0
  6
CONTINUOUS
 62
2
 10
-161.500000
 20
93.625000
 11
-162.000000
 21
93.625000
  0
LINE
  8
0
  6
CONTINUOUS
 62
7
 10
-161.500000
 20
94.349998
 11
-160.000000
 21
94.349998
  0
LINE
  8
0
  6
CONTINUOUS
 62
7
 10
-161.500000
 20
93.000000
 11
-162.000000
 21
93.000000
  0
LINE
  8
0
  6
CONTINUOUS
 62
7
 10
-161.500000
 20
99.650002
 11
-160.000000
 21
99.650002
  0
LINE
  8
0
  6
CONTINUOUS
 62
7
 10
-161.500000
 20
64.349998
 11
-160.000000
 21
64.349998
  0
LINE
  8
0
  6
CONTINUOUS
 62
7
 10
-160.000000
 20
69.650002
 11
-160.000000
 21
64.349998
  0
LINE
  8
0
  6
CONTINUOUS
 62
2
 10
-161.500000
 20
63.625000
 11
-162.000000
 21
63.625000
  0
LINE
  8
0
  6
CONTINUOUS
 62
7
 10
-161.500000
 20
71.000000
 11
-162.000000
 21
71.000000
  0
LINE
  8
0
  6
CONTINUOUS
 62
7
 10
-161.500000
 20
71.000000
 11
-161.500000
 21
63.000000
  0
LINE
  8
0
  6
CONTINUOUS
 62
2
 10
-161.500000
 20
70.375000
 11
-161.977005
 21
70.375000
  0
LINE
  8
0
  6
CONTINUOUS
 62
7
 10
-161.500000
 20
63.000000
 11
-162.000000
 21
63.000000
  0
LINE
  8
0
  6
CONTINUOUS
 62
7
 10
-161.500000
 20
69.650002
 11
-160.000000
 21
69.650002
  0
LINE
  8
0
  6
CONTINUOUS
 62
7
 10
-118.500000
 20
101.000000
 11
-118.171997
 21
101.000000
  0
LINE
  8
0
  6
CONTINUOUS
 62
2
 10
-118.500000
 20
100.375000
 11
-118.024002
 21
100.375000
  0
LINE
  8
0
  6
CONTINUOUS
 62
7
 10
-118.500000
 20
101.000000
 11
-118.500000
 21
93.000000
  0
LINE
  8
0
  6
CONTINUOUS
 62
2
 10
-118.500000
 20
93.625000
 11
-118.000000
 21
93.625000
  0
LINE
  8
0
  6
CONTINUOUS
 62
7
 10
-118.500000
 20
94.349998
 11
-120.000000
 21
94.349998
  0
LINE
  8
0
  6
CONTINUOUS
 62
7
 10
-118.500000
 20
93.000000
 11
-118.000000
 21
93.000000
  0
LINE
  8
0
  6
CONTINUOUS
 62
7
 10
-118.500000
 20
99.650002
 11
-120.000000
 21
99.650002
  0
LINE
  8
0
  6
CONTINUOUS
 62
7
 10
-118.500000
 20
64.349998
 11
-120.000000
 21
64.349998
  0
LINE
  8
0
  6
CONTINUOUS
 62
2
 10
-118.500000
 20
63.625000
 11
-118.000000
 21
63.625000
  0
LINE
  8
0
  6
CONTINUOUS
 62
7
 10
-118.500000
 20
71.000000
 11
-118.000000
 21
71.000000
  0
LINE
  8
0
  6
CONTINUOUS
 62
7
 10
-118.500000
 20
71.000000
 11
-118.500000
 21
63.000000
  0
LINE
  8
0
  6
CONTINUOUS
 62
2
 10
-118.500000
 20
70.375000
 11
-118.024002
 21
70.375000
  0
LINE
  8
0
  6
CONTINUOUS
 62
7
 10
-118.500000
 20
63.000000
 11
-118.000000
 21
63.000000
  0
LINE
  8
0
  6
CONTINUOUS
 62
7
 10
-118.500000
 20
69.650002
 11
-120.000000
 21
69.650002
  0
LINE
  8
0
  6
CONTINUOUS
 62
7
 10
115.500000
 20
101.000000
 11
115.171997
 21
101.000000
  0
LINE
  8
0
  6
CONTINUOUS
 62
2
 10
115.500000
 20
100.375000
 11
115.023003
 21
100.375000
  0
LINE
  8
0
  6
CONTINUOUS
 62
7
 10
115.500000
 20
101.000000
 11
115.500000
 21
93.000000
  0
LINE
  8
0
  6
CONTINUOUS
 62
7
 10
117.000000
 20
99.650002
 11
117.000000
 21
94.349998
  0
LINE
  8
0
  6
CONTINUOUS
 62
2
 10
115.500000
 20
93.625000
 11
115.000000
 21
93.625000
  0
LINE
  8
0
  6
CONTINUOUS
 62
7
 10
115.500000
 20
94.349998
 11
117.000000
 21
94.349998
  0
LINE
  8
0
  6
CONTINUOUS
 62
7
 10
115.500000
 20
93.000000
 11
115.000000
 21
93.000000
  0
LINE
  8
0
  6
CONTINUOUS
 62
7
 10
115.500000
 20
99.650002
 11
117.000000
 21
99.650002
  0
LINE
  8
0
  6
CONTINUOUS
 62
7
 10
115.500000
 20
64.349998
 11
117.000000
 21
64.349998
  0
LINE
  8
0
  6
CONTINUOUS
 62
7
 10
117.000000
 20
69.650002
 11
117.000000
 21
64.349998
  0
LINE
  8
0
  6
CONTINUOUS
 62
2
 10
115.500000
 20
63.625000
 11
115.000000
 21
63.625000
  0
LINE
  8
0
  6
CONTINUOUS
 62
7
 10
115.500000
 20
71.000000
 11
115.000000
 21
71.000000
  0
LINE
  8
0
  6
CONTINUOUS
 62
7
 10
115.500000
 20
71.000000
 11
115.500000
 21
63.000000
  0
LINE
  8
0
  6
CONTINUOUS
 62
2
 10
115.500000
 20
70.375000
 11
115.023003
 21
70.375000
  0
LINE
  8
0
  6
CONTINUOUS
 62
7
 10
115.500000
 20
63.000000
 11
115.000000
 21
63.000000
  0
LINE
  8
0
  6
CONTINUOUS
 62
7
 10
115.500000
 20
69.650002
 11
117.000000
 21
69.650002
  0
LINE
  8
0
  6
CONTINUOUS
 62
7
 10
168.500000
 20
101.000000
 11
168.828003
 21
101.000000
  0
LINE
  8
0
  6
CONTINUOUS
 62
2
 10
168.500000
 20
100.375000
 11
168.975998
 21
100.375000
  0
LINE
  8
0
  6
CONTINUOUS
 62
7
 10
168.500000
 20
101.000000
 11
168.500000
 21
93.000000
  0
LINE
  8
0
  6
CONTINUOUS
 62
2
 10
168.500000
 20
93.625000
 11
169.000000
 21
93.625000
  0
LINE
  8
0
  6
CONTINUOUS
 62
7
 10
168.500000
 20
94.349998
 11
167.000000
 21
94.349998
  0
LINE
  8
0
  6
CONTINUOUS
 62
7
 10
168.500000
 20
93.000000
 11
169.000000
 21
93.000000
  0
LINE
  8
0
  6
CONTINUOUS
 62
7
 10
168.500000
 20
99.650002
 11
167.000000
 21
99.650002
  0
LINE
  8
0
  6
CONTINUOUS
 62
7
 10
168.500000
 20
64.349998
 11
167.000000
 21
64.349998
  0
LINE
  8
0
  6
CONTINUOUS
 62
2
 10
168.500000
 20
63.625000
 11
169.000000
 21
63.625000
  0
LINE
  8
0
  6
CONTINUOUS
 62
7
 10
168.500000
 20
71.000000
 11
169.000000
 21
71.000000
  0
LINE
  8
0
  6
CONTINUOUS
 62
7
 10
168.500000
 20
71.000000
 11
168.500000
 21
63.000000
  0
LINE
  8
0
  6
CONTINUOUS
 62
2
 10
168.500000
 20
70.375000
 11
168.975998
 21
70.375000
  0
LINE
  8
0
  6
CONTINUOUS
 62
7
 10
168.500000
 20
63.000000
 11
169.000000
 21
63.000000
  0
LINE
  8
0
  6
CONTINUOUS
 62
7
 10
168.500000
 20
69.650002
 11
167.000000
 21
69.650002
  0
LINE
  8
0
  6
CONTINUOUS
 62
7
 10
0.424988
 20
195.500000
 11
0.424988
 21
-195.000000
  0
CIRCLE
  8
0
  6
CONTINUOUS
 62
7
 10
-172.500000
 20
-94.500000
 40
2.500000
  0
CIRCLE
  8
0
  6
CONTINUOUS
 62
2
 10
-172.500000
 20
-94.500000
 40
3.000000
  0
CIRCLE
  8
0
  6
CONTINUOUS
 62
2
 10
-107.500000
 20
-94.500000
 40
3.000000
  0
CIRCLE
  8
0
  6
CONTINUOUS
 62
7
 10
-107.500000
 20
-94.500000
 40
2.500000
  0
CIRCLE
  8
0
  6
CONTINUOUS
 62
7
 10
-107.500000
 20
-64.500000
 40
2.500000
  0
CIRCLE
  8
0
  6
CONTINUOUS
 62
2
 10
-107.500000
 20
-64.500000
 40
3.000000
  0
CIRCLE
  8
0
  6
CONTINUOUS
 62
7
 10
-172.500000
 20
-64.500000
 40
2.500000
  0
CIRCLE
  8
0
  6
CONTINUOUS
 62
2
 10
-172.500000
 20
-64.500000
 40
3.000000
  0
CIRCLE
  8
0
  6
CONTINUOUS
 62
7
 10
-180.500000
 20
-87.000000
 40
5.900000
  0
CIRCLE
  8
0
  6
CONTINUOUS
 62
7
 10
-99.500000
 20
-72.000000
 40
5.900000
  0
ARC
  8
0
  6
CONTINUOUS
 62
7
 10
-156.500000
 20
-9.200000
 40
3.000000
 50
138.190002
 51
172.337997
  0
CIRCLE
  8
0
  6
CONTINUOUS
 62
2
 10
-117.500000
 20
55.500000
 40
2.000000
  0
CIRCLE
  8
0
  6
CONTINUOUS
 62
7
 10
-117.500000
 20
55.500000
 40
1.650000
  0
CIRCLE
  8
0
  6
CONTINUOUS
 62
2
 10
-142.500000
 20
55.500000
 40
2.000000
  0
CIRCLE
  8
0
  6
CONTINUOUS
 62
7
 10
-142.500000
 20
55.500000
 40
1.650000
  0
CIRCLE
  8
0
  6
CONTINUOUS
 62
2
 10
-117.500000
 20
25.500000
 40
2.000000
  0
CIRCLE
  8
0
  6
CONTINUOUS
 62
7
 10
-117.500000
 20
25.500000
 40
1.650000
  0
CIRCLE
  8
0
  6
CONTINUOUS
 62
2
 10
-142.500000
 20
25.500000
 40
2.000000
  0
CIRCLE
  8
0
  6
CONTINUOUS
 62
7
 10
-142.500000
 20
25.500000
 40
1.650000
  0
CIRCLE
  8
0
  6
CONTINUOUS
 62
7
 10
-172.500000
 20
25.500000
 40
4.750000
  0
CIRCLE
  8
0
  6
CONTINUOUS
 62
2
 10
-172.500000
 20
25.500000
 40
3.000000
  0
ARC
  8
0
  6
CONTINUOUS
 62
2
 10
-107.500000
 20
25.500000
 40
3.000000
 50
326.441986
 51
33.557598
  0
ARC
  8
0
  6
CONTINUOUS
 62
7
 10
-107.500000
 20
25.500000
 40
4.750000
 50
301.756989
 51
58.243198
  0
CIRCLE
  8
0
  6
CONTINUOUS
 62
2
 10
-172.500000
 20
55.500000
 40
3.000000
  0
CIRCLE
  8
0
  6
CONTINUOUS
 62
7
 10
-172.500000
 20
55.500000
 40
4.750000
  0
CIRCLE
  8
0
  6
CONTINUOUS
 62
7
 10
-98.500000
 20
108.500000
 40
4.000000
  0
CIRCLE
  8
0
  6
CONTINUOUS
 62
7
 10
-181.500000
 20
108.500000
 40
4.000000
  0
ARC
  8
0
  6
DASHED
 62
2
 10
-107.500000
 20
25.500000
 40
4.750000
 50
58.243198
 51
301.756989
  0
ARC
  8
0
  6
DASHED
 62
2
 10
-107.500000
 20
25.500000
 40
3.000000
 50
33.557598
 51
326.441986
  0
ARC
  8
0
  6
DASHED
 62
2
 10
-107.500000
 20
55.500000
 40
4.750000
 50
58.243301
 51
301.756989
  0
ARC
  8
0
  6
DASHED
 62
2
 10
-107.500000
 20
55.500000
 40
3.000000
 50
33.557598
 51
326.441986
  0
ARC
  8
0
  6
CONTINUOUS
 62
7
 10
-107.500000
 20
55.500000
 40
4.750000
 50
301.756989
 51
58.243301
  0
ARC
  8
0
  6
CONTINUOUS
 62
2
 10
-107.500000
 20
55.500000
 40
3.000000
 50
326.441986
 51
33.557598
  0
ARC
  8
0
  6
CONTINUOUS
 62
7
 10
-156.500000
 20
90.199997
 40
3.000000
 50
138.190002
 51
221.809998
  0
ARC
  8
0
  6
CONTINUOUS
 62
7
 10
-156.500000
 20
40.500000
 40
3.000000
 50
129.664001
 51
230.335999
  0
CIRCLE
  8
0
  6
CONTINUOUS
 62
7
 10
94.500000
 20
-94.500000
 40
2.500000
  0
CIRCLE
  8
0
  6
CONTINUOUS
 62
2
 10
94.500000
 20
-94.500000
 40
3.000000
  0
CIRCLE
  8
0
  6
CONTINUOUS
 62
2
 10
189.500000
 20
-94.500000
 40
3.000000
  0
CIRCLE
  8
0
  6
CONTINUOUS
 62
7
 10
189.500000
 20
-94.500000
 40
2.500000
  0
CIRCLE
  8
0
  6
CONTINUOUS
 62
7
 10
189.500000
 20
-64.500000
 40
2.500000
  0
CIRCLE
  8
0
  6
CONTINUOUS
 62
2
 10
189.500000
 20
-64.500000
 40
3.000000
  0
CIRCLE
  8
0
  6
CONTINUOUS
 62
7
 10
94.500000
 20
-64.500000
 40
2.500000
  0
CIRCLE
  8
0
  6
CONTINUOUS
 62
2
 10
94.500000
 20
-64.500000
 40
3.000000
  0
CIRCLE
  8
0
  6
CONTINUOUS
 62
7
 10
86.500000
 20
-87.000000
 40
5.900000
  0
CIRCLE
  8
0
  6
CONTINUOUS
 62
7
 10
197.500000
 20
-72.000000
 40
5.900000
  0
CIRCLE
  8
0
  6
CONTINUOUS
 62
2
 10
177.000000
 20
55.500000
 40
2.000000
  0
CIRCLE
  8
0
  6
CONTINUOUS
 62
7
 10
177.000000
 20
55.500000
 40
1.650000
  0
CIRCLE
  8
0
  6
CONTINUOUS
 62
2
 10
177.000000
 20
25.500000
 40
2.000000
  0
CIRCLE
  8
0
  6
CONTINUOUS
 62
7
 10
177.000000
 20
25.500000
 40
1.650000
  0
CIRCLE
  8
0
  6
CONTINUOUS
 62
7
 10
94.500000
 20
25.500000
 40
4.750000
  0
CIRCLE
  8
0
  6
CONTINUOUS
 62
2
 10
94.500000
 20
25.500000
 40
3.000000
  0
ARC
  8
0
  6
DASHED
 62
2
 10
189.500000
 20
25.500000
 40
3.000000
 50
60.000000
 51
300.000000
  0
ARC
  8
0
  6
DASHED
 62
2
 10
189.500000
 20
25.500000
 40
4.750000
 50
71.591698
 51
284.437012
  0
CIRCLE
  8
0
  6
CONTINUOUS
 62
2
 10
94.500000
 20
55.500000
 40
3.000000
  0
CIRCLE
  8
0
  6
CONTINUOUS
 62
7
 10
94.500000
 20
55.500000
 40
4.750000
  0
CIRCLE
  8
0
  6
CONTINUOUS
 62
2
 10
137.000000
 20
25.500000
 40
2.000000
  0
CIRCLE
  8
0
  6
CONTINUOUS
 62
7
 10
137.000000
 20
25.500000
 40
1.650000
  0
CIRCLE
  8
0
  6
CONTINUOUS
 62
2
 10
137.000000
 20
55.500000
 40
2.000000
  0
CIRCLE
  8
0
  6
CONTINUOUS
 62
7
 10
137.000000
 20
55.500000
 40
1.650000
  0
CIRCLE
  8
0
  6
CONTINUOUS
 62
2
 10
157.000000
 20
25.500000
 40
2.000000
  0
CIRCLE
  8
0
  6
CONTINUOUS
 62
7
 10
157.000000
 20
25.500000
 40
1.650000
  0
CIRCLE
  8
0
  6
CONTINUOUS
 62
2
 10
157.000000
 20
55.500000
 40
2.000000
  0
CIRCLE
  8
0
  6
CONTINUOUS
 62
7
 10
157.000000
 20
55.500000
 40
1.650000
  0
CIRCLE
  8
0
  6
CONTINUOUS
 62
7
 10
85.500000
 20
108.500000
 40
4.000000
  0
ARC
  8
0
  6
CONTINUOUS
 62
2
 10
189.500000
 20
25.500000
 40
3.000000
 50
300.000000
 51
60.000000
  0
ARC
  8
0
  6
CONTINUOUS
 62
7
 10
189.500000
 20
25.500000
 40
4.750000
 50
288.407990
 51
71.591698
  0
ARC
  8
0
  6
CONTINUOUS
 62
7
 10
189.500000
 20
55.500000
 40
4.750000
 50
288.407990
 51
71.591698
  0
ARC
  8
0
  6
CONTINUOUS
 62
2
 10
189.500000
 20
55.500000
 40
3.000000
 50
300.000000
 51
60.000000
  0
ARC
  8
0
  6
DASHED
 62
2
 10
189.500000
 20
55.500000
 40
3.000000
 50
60.000000
 51
300.000000
  0
ARC
  8
0
  6
DASHED
 62
2
 10
189.500000
 20
55.500000
 40
4.750000
 50
75.563004
 51
288.407990
  0
CIRCLE
  8
0
  6
CONTINUOUS
 62
7
 10
198.500000
 20
108.500000
 40
4.000000
  0
ARC
  8
0
  6
CONTINUOUS
 62
7
 10
121.500000
 20
-9.200000
 40
3.000000
 50
138.190002
 51
172.337997
  0
ARC
  8
0
  6
CONTINUOUS
 62
7
 10
121.500000
 20
90.199997
 40
3.000000
 50
138.190002
 51
221.809998
  0
ARC
  8
0
  6
CONTINUOUS
 62
7
 10
121.500000
 20
40.500000
 40
3.000000
 50
129.664001
 51
230.335999
  0
ARC
  8
0
  6
CONTINUOUS
 62
7
 10
-159.000000
 20
100.000000
 40
3.000000
 50
90.000000
 51
180.000000
  0
ARC
  8
0
  6
CONTINUOUS
 62
7
 10
-121.000000
 20
100.000000
 40
3.000000
 50
0.000000
 51
90.000000
  0
ARC
  8
0
  6
CONTINUOUS
 62
7
 10
118.000000
 20
100.000000
 40
3.000000
 50
90.000000
 51
180.000000
  0
ARC
  8
0
  6
CONTINUOUS
 62
7
 10
166.000000
 20
100.000000
 40
3.000000
 50
0.000000
 51
90.000000
  0
ARC
  8
0
  6
CONTINUOUS
 62
7
 10
51.200001
 20
-17.000000
 40
1.500010
 50
210.436005
 51
262.335999
  0
ARC
  8
0
  6
CONTINUOUS
 62
7
 10
51.200001
 20
-17.000000
 40
1.499990
 50
97.661598
 51
149.561996
  0
ARC
  8
0
  6
CONTINUOUS
 62
7
 10
30.799999
 20
-17.000000
 40
1.500010
 50
277.661011
 51
329.562012
  0
ARC
  8
0
  6
CONTINUOUS
 62
7
 10
30.799999
 20
-17.000000
 40
1.500000
 50
30.436399
 51
82.337303
  0
CIRCLE
  8
0
  6
CONTINUOUS
 62
7
 10
41.000000
 20
-24.000000
 40
8.500000
  0
CIRCLE
  8
0
  6
CONTINUOUS
 62
7
 10
41.000000
 20
-9.199980
 40
0.400000
  0
CIRCLE
  8
0
  6
CONTINUOUS
 62
7
 10
14.500000
 20
-16.000000
 40
4.000000
  0
ARC
  8
0
  6
CONTINUOUS
 62
2
 10
66.699997
 20
-11.650000
 40
1.500000
 50
90.000000
 51
180.000000
  0
ARC
  8
0
  6
CONTINUOUS
 62
2
 10
66.699997
 20
-12.950000
 40
1.500000
 50
180.000000
 51
270.000000
  0
ARC
  8
0
  6
CONTINUOUS
 62
2
 10
217.300003
 20
-12.950000
 40
1.500000
 50
270.000000
 51
0.000000
  0
ARC
  8
0
  6
CONTINUOUS
 62
7
 10
232.800003
 20
-17.000000
 40
1.500010
 50
277.664001
 51
329.563995
  0
ARC
  8
0
  6
CONTINUOUS
 62
7
 10
232.800003
 20
-17.000000
 40
1.499990
 50
30.437799
 51
82.338402
  0
ARC
  8
0
  6
CONTINUOUS
 62
7
 10
253.199997
 20
-17.000000
 40
1.500000
 50
210.438995
 51
262.338989
  0
ARC
  8
0
  6
CONTINUOUS
 62
7
 10
253.199997
 20
-17.000000
 40
1.500000
 50
97.662697
 51
149.563995
  0
CIRCLE
  8
0
  6
CONTINUOUS
 62
7
 10
243.000000
 20
-24.000000
 40
8.500000
  0
CIRCLE
  8
0
  6
CONTINUOUS
 62
7
 10
243.000000
 20
-9.199980
 40
0.400000
  0
CIRCLE
  8
0
  6
CONTINUOUS
 62
7
 10
269.500000
 20
-16.000000
 40
4.000000
  0
ARC
  8
0
  6
CONTINUOUS
 62
2
 10
217.300003
 20
-11.650000
 40
1.500000
 50
0.000000
 51
90.000000
  0
ARC
  8
0
  6
CONTINUOUS
 62
7
 10
-225.800003
 20
-17.000000
 40
1.500010
 50
210.436005
 51
262.335999
  0
ARC
  8
0
  6
CONTINUOUS
 62
7
 10
-225.800003
 20
-17.000000
 40
1.499990
 50
97.661598
 51
149.561996
  0
ARC
  8
0
  6
CONTINUOUS
 62
7
 10
-246.199997
 20
-17.000000
 40
1.500010
 50
277.661011
 51
329.561005
  0
ARC
  8
0
  6
CONTINUOUS
 62
7
 10
-246.199997
 20
-17.000000
 40
1.500000
 50
30.436399
 51
82.337303
  0
CIRCLE
  8
0
  6
CONTINUOUS
 62
7
 10
-236.000000
 20
-24.000000
 40
8.500000
  0
CIRCLE
  8
0
  6
CONTINUOUS
 62
7
 10
-236.000000
 20
-9.199980
 40
0.400000
  0
CIRCLE
  8
0
  6
CONTINUOUS
 62
7
 10
-262.500000
 20
-16.000000
 40
4.000000
  0
ARC
  8
0
  6
CONTINUOUS
 62
2
 10
-210.300003
 20
-11.650000
 40
1.500000
 50
90.000000
 51
180.000000
  0
ARC
  8
0
  6
CONTINUOUS
 62
2
 10
-210.300003
 20
-12.950000
 40
1.500000
 50
180.000000
 51
270.000000
  0
ARC
  8
0
  6
CONTINUOUS
 62
2
 10
-69.699997
 20
-12.950000
 40
1.500000
 50
270.000000
 51
0.000000
  0
ARC
  8
0
  6
CONTINUOUS
 62
7
 10
-54.200001
 20
-17.000000
 40
1.500010
 50
277.664001
 51
329.563995
  0
ARC
  8
0
  6
CONTINUOUS
 62
7
 10
-54.200001
 20
-17.000000
 40
1.499990
 50
30.437599
 51
82.338402
  0
ARC
  8
0
  6
CONTINUOUS
 62
7
 10
-33.799999
 20
-17.000000
 40
1.500010
 50
210.438004
 51
262.338989
  0
ARC
  8
0
  6
CONTINUOUS
 62
7
 10
-33.799999
 20
-17.000000
 40
1.500000
 50
97.662697
 51
149.563995
  0
CIRCLE
  8
0
  6
CONTINUOUS
 62
7
 10
-44.000000
 20
-24.000000
 40
8.500000
  0
CIRCLE
  8
0
  6
CONTINUOUS
 62
7
 10
-44.000000
 20
-9.199980
 40
0.400000
  0
CIRCLE
  8
0
  6
CONTINUOUS
 62
7
 10
-17.500000
 20
-16.000000
 40
4.000000
  0
ARC
  8
0
  6
CONTINUOUS
 62
2
 10
-69.699997
 20
-11.650000
 40
1.500000
 50
0.000000
 51
90.000000
  0
CIRCLE
  8
0
  6
CONTINUOUS
 62
2
 10
-181.500000
 20
-27.500000
 40
2.500000
  0
CIRCLE
  8
0
  6
CONTINUOUS
 62
7
 10
-181.500000
 20
-27.500000
 40
2.100000
  0
CIRCLE
  8
0
  6
CONTINUOUS
 62
2
 10
-98.500000
 20
-27.500000
 40
2.500000
  0
CIRCLE
  8
0
  6
CONTINUOUS
 62
7
 10
-98.500000
 20
-27.500000
 40
2.100000
  0
CIRCLE
  8
0
  6
CONTINUOUS
 62
2
 10
85.500000
 20
-27.500000
 40
2.500000
  0
CIRCLE
  8
0
  6
CONTINUOUS
 62
7
 10
85.500000
 20
-27.500000
 40
2.100000
  0
CIRCLE
  8
0
  6
CONTINUOUS
 62
2
 10
198.500000
 20
-27.500000
 40
2.500000
  0
CIRCLE
  8
0
  6
CONTINUOUS
 62
7
 10
198.500000
 20
-27.500000
 40
2.100000
  0
CIRCLE
  8
0
  6
CONTINUOUS
 62
7
 10
94.500000
 20
25.500000
 40
2.650000
  0
CIRCLE
  8
0
  6
CONTINUOUS
 62
7
 10
94.500000
 20
55.500000
 40
2.650000
  0
ARC
  8
0
  6
CONTINUOUS
 62
7
 10
189.500000
 20
55.500000
 40
2.650000
 50
304.473999
 51
55.525700
  0
ARC
  8
0
  6
DASHED
 62
2
 10
189.500000
 20
55.500000
 40
2.650000
 50
55.525700
 51
304.473999
  0
ARC
  8
0
  6
CONTINUOUS
 62
7
 10
189.500000
 20
25.500000
 40
2.650000
 50
304.473999
 51
55.525700
  0
ARC
  8
0
  6
DASHED
 62
2
 10
189.500000
 20
25.500000
 40
2.650000
 50
55.525700
 51
304.473999
  0
CIRCLE
  8
0
  6
CONTINUOUS
 62
7
 10
-172.500000
 20
25.500000
 40
2.650000
  0
CIRCLE
  8
0
  6
CONTINUOUS
 62
7
 10
-172.500000
 20
55.500000
 40
2.650000
  0
CIRCLE
  8
0
  6
DASHED
 62
2
 10
-107.500000
 20
55.500000
 40
2.650000
  0
CIRCLE
  8
0
  6
DASHED
 62
2
 10
-107.500000
 20
25.500000
 40
2.650000
  0
TEXT
  8
0
 62
7
 10
202.930283
 20
183.925003
 40
6.300000
  1
Ver.1.0
 50
0.000000
 41
1.010330
 51
0.000000
  7
STANDARD
  0
TEXT
  8
0
 62
7
 10
172.714691
 20
-187.250000
 40
9.000000
  1
KOGANEI CORP.
 50
0.000000
 41
0.771524
 51
0.000000
  7
STANDARD
  0
TEXT
  8
0
 62
7
 10
-243.569717
 20
183.925003
 40
6.300000
  1
AP TABLE
 50
0.000000
 41
0.775607
 51
0.000000
  7
STANDARD
  0
TEXT
  8
0
 62
7
 10
12.274609
 20
158.925003
 40
6.300000
  1
MODEL:APTS-SD16-30-TPQT-R***
 50
0.000000
 41
0.763229
 51
0.000000
  7
STANDARD
  0
TEXT
  8
0
 62
7
 10
-269.400391
 20
158.925003
 40
6.300000
  1
MODEL:APTS-SD16-20-TPQT-R***
 50
0.000000
 41
0.763229
 51
0.000000
  7
STANDARD
  0
ENDSEC
  0
EOF
