  0
SECTION
  2
HEADER
  0
ENDSEC
  0
SECTION
  2
TABLES
  0
TABLE
  2
LTYPE
 70
     4
  0
LTYPE
  2
CONTINUOUS
 70
    64
  3
Solid line
 72
    65
 73
     0
 40
0.000000
  0
LTYPE
  2
DASHED
 70
    64
  3
__ __ __ __ __ __ __ __ __ __ __ __ __ __ __
 72
    65
 73
     2
 40
3.500000
 49
2.000000
 49
-1.500000
  0
LTYPE
  2
CENTER
 70
    64
  3
____ _ ____ _ ____ _ ____ _ ____ _ ____ _ ____
 72
    65
 73
     4
 40
17.500000
 49
13.000000
 49
-1.500000
 49
1.500000
 49
-1.500000
  0
LTYPE
  2
PHANTOM
 70
    64
  3
_____ _ _ _____ _ _ _____ _ _ _____ _ _ ____  
 72
    65
 73
     6
 40
15.500000
 49
8.000000
 49
-1.500000
 49
1.500000
 49
-1.500000
 49
1.500000
 49
-1.500000
  0
ENDTAB
  0
TABLE
  2
LAYER
 70
     1
  0
LAYER
  2
0
 70
     0
 62
     7
  6
CONTINUOUS
  0
ENDTAB
  0
TABLE
  2
STYLE
 70
     1
  0
STYLE
  2
STANDARD
 70
     0
 40
0.000000
 41
1.000000
 50
0.000000
 71
     0
 42
0.200000
  3
txt
  4
BIGFONT
  0
ENDTAB
  0
TABLE
  2
VIEW
 70
     0
  0
ENDTAB
  0
ENDSEC
  0
SECTION
  2
BLOCKS
  0
ENDSEC
  0
SECTION
  2
ENTITIES
  0
LINE
  8
0
  6
CONTINUOUS
 62
7
 10
-281.250000
 20
195.500000
 11
282.100006
 21
195.500000
  0
LINE
  8
0
  6
CONTINUOUS
 62
7
 10
-281.250000
 20
195.500000
 11
-281.250000
 21
-195.000000
  0
LINE
  8
0
  6
CONTINUOUS
 62
7
 10
282.100006
 20
195.500000
 11
282.100006
 21
-195.000000
  0
LINE
  8
0
  6
CONTINUOUS
 62
7
 10
-281.250000
 20
-195.000000
 11
282.100006
 21
-195.000000
  0
LINE
  8
0
  6
CONTINUOUS
 62
7
 10
162.100006
 20
-175.000000
 11
162.100006
 21
-195.000000
  0
LINE
  8
0
  6
CONTINUOUS
 62
7
 10
162.100006
 20
-175.000000
 11
282.100006
 21
-175.000000
  0
LINE
  8
0
  6
CONTINUOUS
 62
7
 10
162.100006
 20
175.500000
 11
282.100006
 21
175.500000
  0
LINE
  8
0
  6
CONTINUOUS
 62
7
 10
-281.250000
 20
175.500000
 11
-161.250000
 21
175.500000
  0
LINE
  8
0
  6
CONTINUOUS
 62
7
 10
162.100006
 20
195.500000
 11
162.100006
 21
175.500000
  0
LINE
  8
0
  6
CONTINUOUS
 62
7
 10
-161.250000
 20
195.500000
 11
-161.250000
 21
175.500000
  0
LINE
  8
0
  6
CONTINUOUS
 62
7
 10
-188.000000
 20
-107.313004
 11
-188.000000
 21
-66.312500
  0
LINE
  8
0
  6
CONTINUOUS
 62
7
 10
-92.000000
 20
-107.313004
 11
-92.000000
 21
-66.312500
  0
LINE
  8
0
  6
CONTINUOUS
 62
7
 10
-188.000000
 20
-66.312500
 11
-92.000000
 21
-66.312500
  0
LINE
  8
0
  6
CENTER
 62
2
 10
-190.000000
 20
-86.812500
 11
-90.000000
 21
-86.812500
  0
LINE
  8
0
  6
CONTINUOUS
 62
7
 10
-188.000000
 20
-40.312500
 11
-92.000000
 21
-40.312500
  0
LINE
  8
0
  6
CONTINUOUS
 62
7
 10
-188.000000
 20
-20.312500
 11
-168.500000
 21
-20.312500
  0
LINE
  8
0
  6
CONTINUOUS
 62
7
 10
-188.000000
 20
-20.312500
 11
-188.000000
 21
-40.312500
  0
LINE
  8
0
  6
CONTINUOUS
 62
7
 10
-92.000000
 20
-20.312500
 11
-92.000000
 21
-40.312500
  0
LINE
  8
0
  6
CONTINUOUS
 62
7
 10
-105.000000
 20
-20.312500
 11
-92.000000
 21
-20.312500
  0
LINE
  8
0
  6
CONTINUOUS
 62
7
 10
-92.000000
 20
-27.812500
 11
-111.500000
 21
-27.812500
  0
LINE
  8
0
  6
CONTINUOUS
 62
7
 10
-112.699997
 20
-15.112500
 11
-112.699997
 21
-11.312500
  0
LINE
  8
0
  6
CONTINUOUS
 62
7
 10
-147.300003
 20
-11.312500
 11
-112.699997
 21
-11.312500
  0
LINE
  8
0
  6
CONTINUOUS
 62
7
 10
-111.500000
 20
-26.312500
 11
-105.000000
 21
-26.312500
  0
LINE
  8
0
  6
CONTINUOUS
 62
7
 10
-147.300003
 20
-15.112500
 11
-147.300003
 21
-11.312500
  0
LINE
  8
0
  6
CONTINUOUS
 62
7
 10
-105.000000
 20
-26.312500
 11
-105.000000
 21
-12.012500
  0
LINE
  8
0
  6
CONTINUOUS
 62
7
 10
-112.699997
 20
-12.012500
 11
-105.000000
 21
-12.012500
  0
LINE
  8
0
  6
CONTINUOUS
 62
7
 10
-155.000000
 20
-15.112500
 11
-155.000000
 21
-12.012500
  0
LINE
  8
0
  6
CONTINUOUS
 62
7
 10
-147.300003
 20
-12.012500
 11
-155.000000
 21
-12.012500
  0
LINE
  8
0
  6
CONTINUOUS
 62
7
 10
-188.000000
 20
-107.313004
 11
-92.000000
 21
-107.313004
  0
LINE
  8
0
  6
CENTER
 62
2
 10
-172.500000
 20
-66.272499
 11
-172.500000
 21
-77.352501
  0
LINE
  8
0
  6
CENTER
 62
2
 10
-178.039993
 20
-71.812500
 11
-166.960007
 21
-71.812500
  0
LINE
  8
0
  6
CENTER
 62
2
 10
-180.500000
 20
-85.872498
 11
-180.500000
 21
-102.751999
  0
LINE
  8
0
  6
CENTER
 62
2
 10
-188.940002
 20
-94.312500
 11
-172.059998
 21
-94.312500
  0
LINE
  8
0
  6
CENTER
 62
2
 10
-172.500000
 20
-96.272499
 11
-172.500000
 21
-107.351997
  0
LINE
  8
0
  6
CENTER
 62
2
 10
-178.039993
 20
-101.813004
 11
-166.960007
 21
-101.813004
  0
LINE
  8
0
  6
CENTER
 62
2
 10
-107.500000
 20
-96.272499
 11
-107.500000
 21
-107.351997
  0
LINE
  8
0
  6
CENTER
 62
2
 10
-113.040001
 20
-101.813004
 11
-101.959999
 21
-101.813004
  0
LINE
  8
0
  6
CENTER
 62
2
 10
-107.500000
 20
-66.272499
 11
-107.500000
 21
-77.352501
  0
LINE
  8
0
  6
CENTER
 62
2
 10
-113.040001
 20
-71.812500
 11
-101.959999
 21
-71.812500
  0
LINE
  8
0
  6
CENTER
 62
2
 10
-99.500000
 20
-70.872498
 11
-99.500000
 21
-87.752502
  0
LINE
  8
0
  6
CENTER
 62
2
 10
-107.940002
 20
-79.312500
 11
-91.059998
 21
-79.312500
  0
LINE
  8
0
  6
CONTINUOUS
 62
7
 10
-185.500000
 20
-107.813004
 11
-177.500000
 21
-107.813004
  0
LINE
  8
0
  6
CONTINUOUS
 62
7
 10
-185.000000
 20
-110.813004
 11
-178.000000
 21
-110.813004
  0
LINE
  8
0
  6
CENTER
 62
2
 10
-181.500000
 20
-111.911003
 11
-181.500000
 21
-105.697998
  0
LINE
  8
0
  6
CONTINUOUS
 62
7
 10
-185.500000
 20
-107.813004
 11
-185.500000
 21
-107.313004
  0
LINE
  8
0
  6
CONTINUOUS
 62
7
 10
-177.500000
 20
-107.813004
 11
-177.500000
 21
-107.313004
  0
LINE
  8
0
  6
CONTINUOUS
 62
7
 10
-181.500000
 20
-107.813004
 11
-181.500000
 21
-110.813004
  0
LINE
  8
0
  6
CONTINUOUS
 62
7
 10
-158.735992
 20
-13.512500
 11
-155.000000
 21
-13.512500
  0
LINE
  8
0
  6
CONTINUOUS
 62
7
 10
-185.000000
 20
-107.813004
 11
-185.000000
 21
-110.813004
  0
LINE
  8
0
  6
CONTINUOUS
 62
7
 10
-178.000000
 20
-107.813004
 11
-178.000000
 21
-121.311996
  0
LINE
  8
0
  6
CONTINUOUS
 62
7
 10
-158.735992
 20
-13.512500
 11
-158.735992
 21
-15.112500
  0
LINE
  8
0
  6
CENTER
 62
2
 10
-190.000000
 20
34.187500
 11
-90.730301
 21
34.187500
  0
LINE
  8
0
  6
CONTINUOUS
 62
7
 10
-188.000000
 20
54.687500
 11
-188.000000
 21
13.687500
  0
LINE
  8
0
  6
CONTINUOUS
 62
7
 10
-92.000000
 20
54.687500
 11
-92.000000
 21
13.687500
  0
LINE
  8
0
  6
CONTINUOUS
 62
7
 10
-188.000000
 20
24.187500
 11
-155.000000
 21
24.187500
  0
LINE
  8
0
  6
CONTINUOUS
 62
7
 10
-188.000000
 20
44.187500
 11
-155.000000
 21
44.187500
  0
LINE
  8
0
  6
CONTINUOUS
 62
7
 10
-105.000000
 20
44.187500
 11
-92.000000
 21
44.187500
  0
LINE
  8
0
  6
CONTINUOUS
 62
7
 10
-105.000000
 20
24.187500
 11
-92.000000
 21
24.187500
  0
LINE
  8
0
  6
CONTINUOUS
 62
7
 10
-188.000000
 20
13.687500
 11
-92.000000
 21
13.687500
  0
LINE
  8
0
  6
CONTINUOUS
 62
7
 10
-147.300003
 20
14.187500
 11
-147.300003
 21
54.187500
  0
LINE
  8
0
  6
CONTINUOUS
 62
7
 10
-112.699997
 20
14.187500
 11
-112.699997
 21
54.187500
  0
LINE
  8
0
  6
CONTINUOUS
 62
7
 10
-105.000000
 20
14.587500
 11
-105.000000
 21
53.787498
  0
LINE
  8
0
  6
CONTINUOUS
 62
7
 10
-112.699997
 20
14.587500
 11
-105.000000
 21
14.587500
  0
LINE
  8
0
  6
CONTINUOUS
 62
7
 10
-147.300003
 20
14.587500
 11
-155.000000
 21
14.587500
  0
LINE
  8
0
  6
CONTINUOUS
 62
7
 10
-188.000000
 20
113.688004
 11
-92.000000
 21
113.688004
  0
LINE
  8
0
  6
CONTINUOUS
 62
7
 10
-188.000000
 20
99.687500
 11
-188.000000
 21
113.688004
  0
LINE
  8
0
  6
CONTINUOUS
 62
7
 10
-92.000000
 20
99.687500
 11
-92.000000
 21
113.688004
  0
LINE
  8
0
  6
CONTINUOUS
 62
7
 10
-92.000000
 20
101.186996
 11
-102.000000
 21
101.186996
  0
LINE
  8
0
  6
CONTINUOUS
 62
7
 10
-112.699997
 20
53.787498
 11
-105.000000
 21
53.787498
  0
LINE
  8
0
  6
CONTINUOUS
 62
7
 10
-147.300003
 20
53.787498
 11
-155.000000
 21
53.787498
  0
LINE
  8
0
  6
CONTINUOUS
 62
7
 10
-112.699997
 20
89.687500
 11
-112.699997
 21
84.687500
  0
LINE
  8
0
  6
CONTINUOUS
 62
7
 10
-147.300003
 20
84.687500
 11
-112.699997
 21
84.687500
  0
LINE
  8
0
  6
CONTINUOUS
 62
7
 10
-155.000000
 20
99.687500
 11
-140.000000
 21
99.687500
  0
LINE
  8
0
  6
CONTINUOUS
 62
7
 10
-147.300003
 20
99.687500
 11
-147.300003
 21
84.687500
  0
LINE
  8
0
  6
CONTINUOUS
 62
7
 10
-155.000000
 20
99.687500
 11
-155.000000
 21
96.187500
  0
LINE
  8
0
  6
CONTINUOUS
 62
7
 10
-147.300003
 20
85.387497
 11
-155.000000
 21
85.387497
  0
LINE
  8
0
  6
CONTINUOUS
 62
7
 10
-112.699997
 20
85.387497
 11
-105.000000
 21
85.387497
  0
LINE
  8
0
  6
CONTINUOUS
 62
7
 10
-147.300003
 20
14.187500
 11
-112.699997
 21
14.187500
  0
LINE
  8
0
  6
CONTINUOUS
 62
7
 10
-147.300003
 20
54.187500
 11
-112.699997
 21
54.187500
  0
LINE
  8
0
  6
CONTINUOUS
 62
7
 10
-95.000000
 20
109.208000
 11
-95.000000
 21
105.167000
  0
LINE
  8
0
  6
CONTINUOUS
 62
7
 10
-102.000000
 20
109.208000
 11
-98.500000
 21
111.228996
  0
LINE
  8
0
  6
CONTINUOUS
 62
7
 10
-98.500000
 20
103.146004
 11
-95.000000
 21
105.167000
  0
LINE
  8
0
  6
CONTINUOUS
 62
7
 10
-102.000000
 20
105.167000
 11
-98.500000
 21
103.146004
  0
LINE
  8
0
  6
CONTINUOUS
 62
7
 10
-96.317001
 20
109.969002
 11
-99.817001
 21
103.905998
  0
LINE
  8
0
  6
CONTINUOUS
 62
7
 10
-97.182999
 20
110.469002
 11
-100.682999
 21
104.405998
  0
LINE
  8
0
  6
CONTINUOUS
 62
7
 10
-98.500000
 20
111.228996
 11
-95.000000
 21
109.208000
  0
LINE
  8
0
  6
CONTINUOUS
 62
7
 10
-102.000000
 20
105.167000
 11
-102.000000
 21
109.208000
  0
LINE
  8
0
  6
CENTER
 62
2
 10
-98.500000
 20
113.726997
 11
-98.500000
 21
100.647003
  0
LINE
  8
0
  6
CENTER
 62
2
 10
-105.040001
 20
107.188004
 11
-91.959999
 21
107.188004
  0
LINE
  8
0
  6
CONTINUOUS
 62
7
 10
-178.000000
 20
109.208000
 11
-178.000000
 21
105.167000
  0
LINE
  8
0
  6
CONTINUOUS
 62
7
 10
-185.000000
 20
109.208000
 11
-181.500000
 21
111.228996
  0
LINE
  8
0
  6
CONTINUOUS
 62
7
 10
-181.500000
 20
103.146004
 11
-178.000000
 21
105.167000
  0
LINE
  8
0
  6
CONTINUOUS
 62
7
 10
-185.000000
 20
105.167000
 11
-181.500000
 21
103.146004
  0
LINE
  8
0
  6
CONTINUOUS
 62
7
 10
-179.317001
 20
109.969002
 11
-182.817001
 21
103.905998
  0
LINE
  8
0
  6
CONTINUOUS
 62
7
 10
-180.182999
 20
110.469002
 11
-183.682999
 21
104.405998
  0
LINE
  8
0
  6
CONTINUOUS
 62
7
 10
-181.500000
 20
111.228996
 11
-178.000000
 21
109.208000
  0
LINE
  8
0
  6
CONTINUOUS
 62
7
 10
-185.000000
 20
105.167000
 11
-185.000000
 21
109.208000
  0
LINE
  8
0
  6
CENTER
 62
2
 10
-181.500000
 20
113.726997
 11
-181.500000
 21
100.647003
  0
LINE
  8
0
  6
CENTER
 62
2
 10
-188.039993
 20
107.188004
 11
-174.960007
 21
107.188004
  0
LINE
  8
0
  6
CENTER
 62
2
 10
-172.500000
 20
56.477501
 11
-172.500000
 21
41.897499
  0
LINE
  8
0
  6
CENTER
 62
2
 10
-179.789993
 20
49.187500
 11
-165.210007
 21
49.187500
  0
LINE
  8
0
  6
CENTER
 62
2
 10
-172.500000
 20
26.477501
 11
-172.500000
 21
11.897500
  0
LINE
  8
0
  6
CENTER
 62
2
 10
-179.789993
 20
19.187500
 11
-165.210007
 21
19.187500
  0
LINE
  8
0
  6
CENTER
 62
2
 10
-142.500000
 20
53.727501
 11
-142.500000
 21
44.647499
  0
LINE
  8
0
  6
CENTER
 62
2
 10
-147.039993
 20
49.187500
 11
-137.960007
 21
49.187500
  0
LINE
  8
0
  6
CENTER
 62
2
 10
-117.500000
 20
53.727501
 11
-117.500000
 21
44.647499
  0
LINE
  8
0
  6
CENTER
 62
2
 10
-122.040001
 20
49.187500
 11
-112.959999
 21
49.187500
  0
LINE
  8
0
  6
CENTER
 62
2
 10
-142.500000
 20
23.727501
 11
-142.500000
 21
14.647500
  0
LINE
  8
0
  6
CENTER
 62
2
 10
-147.039993
 20
19.187500
 11
-137.960007
 21
19.187500
  0
LINE
  8
0
  6
CENTER
 62
2
 10
-117.500000
 20
23.727501
 11
-117.500000
 21
14.647500
  0
LINE
  8
0
  6
CENTER
 62
2
 10
-122.040001
 20
19.187500
 11
-112.959999
 21
19.187500
  0
LINE
  8
0
  6
CENTER
 62
2
 10
-107.500000
 20
26.477501
 11
-107.500000
 21
11.897500
  0
LINE
  8
0
  6
CENTER
 62
2
 10
-114.790001
 20
19.187500
 11
-100.209999
 21
19.187500
  0
LINE
  8
0
  6
CENTER
 62
2
 10
-107.500000
 20
41.897499
 11
-107.500000
 21
56.477501
  0
LINE
  8
0
  6
CENTER
 62
2
 10
-114.790001
 20
49.187500
 11
-100.209999
 21
49.187500
  0
LINE
  8
0
  6
CONTINUOUS
 62
7
 10
-155.000000
 20
14.587500
 11
-155.000000
 21
53.787498
  0
LINE
  8
0
  6
CONTINUOUS
 62
7
 10
-158.414993
 20
36.496899
 11
-155.000000
 21
36.496899
  0
LINE
  8
0
  6
CONTINUOUS
 62
7
 10
-158.414993
 20
35.342201
 11
-155.000000
 21
35.342201
  0
LINE
  8
0
  6
CONTINUOUS
 62
7
 10
-158.414993
 20
33.032799
 11
-155.000000
 21
33.032799
  0
LINE
  8
0
  6
CONTINUOUS
 62
7
 10
-158.414993
 20
31.878099
 11
-155.000000
 21
31.878099
  0
LINE
  8
0
  6
CONTINUOUS
 62
7
 10
-158.735992
 20
90.887497
 11
-155.000000
 21
90.887497
  0
LINE
  8
0
  6
CONTINUOUS
 62
7
 10
-158.735992
 20
88.887497
 11
-155.000000
 21
88.887497
  0
LINE
  8
0
  6
CONTINUOUS
 62
7
 10
-158.735992
 20
86.887497
 11
-155.000000
 21
86.887497
  0
LINE
  8
0
  6
CONTINUOUS
 62
7
 10
-185.500000
 20
55.187500
 11
-177.500000
 21
55.187500
  0
LINE
  8
0
  6
CENTER
 62
2
 10
-181.500000
 20
59.286499
 11
-181.500000
 21
53.073200
  0
LINE
  8
0
  6
CONTINUOUS
 62
7
 10
-185.500000
 20
55.187500
 11
-185.500000
 21
54.687500
  0
LINE
  8
0
  6
CONTINUOUS
 62
7
 10
-177.500000
 20
55.187500
 11
-177.500000
 21
54.687500
  0
LINE
  8
0
  6
CONTINUOUS
 62
7
 10
-181.500000
 20
55.187500
 11
-181.500000
 21
57.187500
  0
LINE
  8
0
  6
CONTINUOUS
 62
7
 10
-185.000000
 20
55.187500
 11
-185.000000
 21
57.187500
  0
LINE
  8
0
  6
CONTINUOUS
 62
7
 10
-158.414993
 20
36.496899
 11
-158.414993
 21
31.878099
  0
LINE
  8
0
  6
CONTINUOUS
 62
7
 10
-158.735992
 20
90.887497
 11
-158.735992
 21
86.887497
  0
LINE
  8
0
  6
CONTINUOUS
 62
7
 10
-147.300003
 20
44.687500
 11
-112.699997
 21
44.687500
  0
LINE
  8
0
  6
CONTINUOUS
 62
7
 10
-147.300003
 20
23.687500
 11
-112.699997
 21
23.687500
  0
LINE
  8
0
  6
CONTINUOUS
 62
7
 10
78.500000
 20
-107.313004
 11
204.500000
 21
-107.313004
  0
LINE
  8
0
  6
CONTINUOUS
 62
7
 10
78.500000
 20
-107.313004
 11
78.500000
 21
-66.312500
  0
LINE
  8
0
  6
CONTINUOUS
 62
7
 10
204.500000
 20
-107.313004
 11
204.500000
 21
-66.312500
  0
LINE
  8
0
  6
CONTINUOUS
 62
7
 10
78.500000
 20
-66.312500
 11
204.500000
 21
-66.312500
  0
LINE
  8
0
  6
CENTER
 62
2
 10
76.500000
 20
-86.812500
 11
206.500000
 21
-86.812500
  0
LINE
  8
0
  6
CENTER
 62
2
 10
76.500000
 20
34.187500
 11
206.500000
 21
34.187500
  0
LINE
  8
0
  6
CONTINUOUS
 62
7
 10
78.500000
 20
54.687500
 11
78.500000
 21
13.687500
  0
LINE
  8
0
  6
CONTINUOUS
 62
7
 10
204.500000
 20
54.687500
 11
204.500000
 21
13.687500
  0
LINE
  8
0
  6
CONTINUOUS
 62
7
 10
130.350006
 20
14.187500
 11
182.649994
 21
14.187500
  0
LINE
  8
0
  6
CONTINUOUS
 62
7
 10
130.350006
 20
54.187500
 11
182.649994
 21
54.187500
  0
LINE
  8
0
  6
CONTINUOUS
 62
7
 10
78.500000
 20
24.187500
 11
122.500000
 21
24.187500
  0
LINE
  8
0
  6
CONTINUOUS
 62
7
 10
78.500000
 20
44.187500
 11
122.500000
 21
44.187500
  0
LINE
  8
0
  6
CONTINUOUS
 62
7
 10
190.500000
 20
44.187500
 11
204.500000
 21
44.187500
  0
LINE
  8
0
  6
CONTINUOUS
 62
7
 10
190.500000
 20
24.187500
 11
204.500000
 21
24.187500
  0
LINE
  8
0
  6
CONTINUOUS
 62
7
 10
78.500000
 20
13.687500
 11
204.500000
 21
13.687500
  0
LINE
  8
0
  6
CONTINUOUS
 62
7
 10
78.500000
 20
-40.312500
 11
204.500000
 21
-40.312500
  0
LINE
  8
0
  6
CONTINUOUS
 62
7
 10
78.500000
 20
-20.312500
 11
107.500000
 21
-20.312500
  0
LINE
  8
0
  6
CONTINUOUS
 62
7
 10
78.500000
 20
-20.312500
 11
78.500000
 21
-40.312500
  0
LINE
  8
0
  6
CONTINUOUS
 62
7
 10
204.500000
 20
-20.312500
 11
204.500000
 21
-40.312500
  0
LINE
  8
0
  6
CONTINUOUS
 62
7
 10
190.500000
 20
-20.312500
 11
204.500000
 21
-20.312500
  0
LINE
  8
0
  6
CONTINUOUS
 62
7
 10
204.500000
 20
-27.812500
 11
175.500000
 21
-27.812500
  0
LINE
  8
0
  6
CONTINUOUS
 62
7
 10
78.500000
 20
113.688004
 11
204.500000
 21
113.688004
  0
LINE
  8
0
  6
CONTINUOUS
 62
7
 10
78.500000
 20
99.187500
 11
78.500000
 21
113.688004
  0
LINE
  8
0
  6
CONTINUOUS
 62
7
 10
204.500000
 20
99.187500
 11
204.500000
 21
113.688004
  0
LINE
  8
0
  6
CONTINUOUS
 62
7
 10
204.500000
 20
101.188004
 11
184.500000
 21
101.188004
  0
LINE
  8
0
  6
CONTINUOUS
 62
7
 10
130.350006
 20
14.187500
 11
130.350006
 21
54.187500
  0
LINE
  8
0
  6
CONTINUOUS
 62
7
 10
182.649994
 20
14.187500
 11
182.649994
 21
54.187500
  0
LINE
  8
0
  6
CONTINUOUS
 62
7
 10
190.500000
 20
14.587500
 11
190.500000
 21
53.787498
  0
LINE
  8
0
  6
CONTINUOUS
 62
7
 10
122.500000
 20
14.587500
 11
122.500000
 21
53.787498
  0
LINE
  8
0
  6
CONTINUOUS
 62
7
 10
182.649994
 20
53.787498
 11
190.500000
 21
53.787498
  0
LINE
  8
0
  6
CONTINUOUS
 62
7
 10
182.649994
 20
14.587500
 11
190.500000
 21
14.587500
  0
LINE
  8
0
  6
CONTINUOUS
 62
7
 10
130.350006
 20
14.587500
 11
122.500000
 21
14.587500
  0
LINE
  8
0
  6
CONTINUOUS
 62
7
 10
130.350006
 20
53.787498
 11
122.500000
 21
53.787498
  0
LINE
  8
0
  6
CONTINUOUS
 62
7
 10
182.649994
 20
-26.312500
 11
182.649994
 21
-11.312500
  0
LINE
  8
0
  6
CONTINUOUS
 62
7
 10
130.350006
 20
-11.312500
 11
182.649994
 21
-11.312500
  0
LINE
  8
0
  6
CONTINUOUS
 62
7
 10
175.500000
 20
-26.312500
 11
190.500000
 21
-26.312500
  0
LINE
  8
0
  6
CONTINUOUS
 62
7
 10
130.350006
 20
-15.112500
 11
130.350006
 21
-11.312500
  0
LINE
  8
0
  6
CONTINUOUS
 62
7
 10
190.500000
 20
-26.312500
 11
190.500000
 21
-12.012500
  0
LINE
  8
0
  6
CONTINUOUS
 62
7
 10
182.649994
 20
-12.012500
 11
190.500000
 21
-12.012500
  0
LINE
  8
0
  6
CONTINUOUS
 62
7
 10
122.500000
 20
-15.112500
 11
122.500000
 21
-12.012500
  0
LINE
  8
0
  6
CONTINUOUS
 62
7
 10
130.350006
 20
-12.012500
 11
122.500000
 21
-12.012500
  0
LINE
  8
0
  6
CONTINUOUS
 62
7
 10
182.649994
 20
87.629997
 11
182.649994
 21
84.687500
  0
LINE
  8
0
  6
CONTINUOUS
 62
7
 10
130.350006
 20
84.687500
 11
182.649994
 21
84.687500
  0
LINE
  8
0
  6
CONTINUOUS
 62
7
 10
122.500000
 20
99.687500
 11
146.500000
 21
99.687500
  0
LINE
  8
0
  6
CONTINUOUS
 62
7
 10
130.350006
 20
99.687500
 11
130.350006
 21
84.687500
  0
LINE
  8
0
  6
CONTINUOUS
 62
7
 10
122.500000
 20
99.687500
 11
122.500000
 21
96.187500
  0
LINE
  8
0
  6
CONTINUOUS
 62
7
 10
130.350006
 20
85.387497
 11
122.500000
 21
85.387497
  0
LINE
  8
0
  6
CONTINUOUS
 62
7
 10
190.500000
 20
89.687500
 11
190.500000
 21
85.387497
  0
LINE
  8
0
  6
CONTINUOUS
 62
7
 10
182.649994
 20
85.387497
 11
190.500000
 21
85.387497
  0
LINE
  8
0
  6
CENTER
 62
2
 10
94.000000
 20
56.477501
 11
94.000000
 21
41.897499
  0
LINE
  8
0
  6
CENTER
 62
2
 10
86.709999
 20
49.187500
 11
101.290001
 21
49.187500
  0
LINE
  8
0
  6
CENTER
 62
2
 10
94.000000
 20
26.477501
 11
94.000000
 21
11.897500
  0
LINE
  8
0
  6
CENTER
 62
2
 10
86.709999
 20
19.187500
 11
101.290001
 21
19.187500
  0
LINE
  8
0
  6
CENTER
 62
2
 10
136.500000
 20
53.727501
 11
136.500000
 21
44.647499
  0
LINE
  8
0
  6
CENTER
 62
2
 10
131.960007
 20
49.187500
 11
141.039993
 21
49.187500
  0
LINE
  8
0
  6
CENTER
 62
2
 10
136.500000
 20
23.727501
 11
136.500000
 21
14.647500
  0
LINE
  8
0
  6
CENTER
 62
2
 10
131.960007
 20
19.187500
 11
141.039993
 21
19.187500
  0
LINE
  8
0
  6
CENTER
 62
2
 10
156.500000
 20
53.727501
 11
156.500000
 21
44.647499
  0
LINE
  8
0
  6
CENTER
 62
2
 10
151.960007
 20
49.187500
 11
161.039993
 21
49.187500
  0
LINE
  8
0
  6
CENTER
 62
2
 10
156.500000
 20
23.727501
 11
156.500000
 21
14.647500
  0
LINE
  8
0
  6
CENTER
 62
2
 10
151.960007
 20
19.187500
 11
161.039993
 21
19.187500
  0
LINE
  8
0
  6
CENTER
 62
2
 10
176.500000
 20
23.727501
 11
176.500000
 21
14.647500
  0
LINE
  8
0
  6
CENTER
 62
2
 10
171.960007
 20
19.187500
 11
181.039993
 21
19.187500
  0
LINE
  8
0
  6
CENTER
 62
2
 10
176.500000
 20
53.727501
 11
176.500000
 21
44.647499
  0
LINE
  8
0
  6
CENTER
 62
2
 10
171.960007
 20
49.187500
 11
181.039993
 21
49.187500
  0
LINE
  8
0
  6
CENTER
 62
2
 10
189.000000
 20
26.477501
 11
189.000000
 21
11.897500
  0
LINE
  8
0
  6
CENTER
 62
2
 10
181.710007
 20
19.187500
 11
196.289993
 21
19.187500
  0
LINE
  8
0
  6
CENTER
 62
2
 10
94.000000
 20
-66.272499
 11
94.000000
 21
-77.352501
  0
LINE
  8
0
  6
CENTER
 62
2
 10
88.459999
 20
-71.812500
 11
99.540001
 21
-71.812500
  0
LINE
  8
0
  6
CENTER
 62
2
 10
86.000000
 20
-85.872498
 11
86.000000
 21
-102.752998
  0
LINE
  8
0
  6
CENTER
 62
2
 10
77.559998
 20
-94.312500
 11
94.440002
 21
-94.312500
  0
LINE
  8
0
  6
CENTER
 62
2
 10
94.000000
 20
-96.272499
 11
94.000000
 21
-107.351997
  0
LINE
  8
0
  6
CENTER
 62
2
 10
88.459999
 20
-101.813004
 11
99.540001
 21
-101.813004
  0
LINE
  8
0
  6
CENTER
 62
2
 10
189.000000
 20
-96.272499
 11
189.000000
 21
-107.351997
  0
LINE
  8
0
  6
CENTER
 62
2
 10
183.460007
 20
-101.813004
 11
194.539993
 21
-101.813004
  0
LINE
  8
0
  6
CENTER
 62
2
 10
189.000000
 20
-66.272499
 11
189.000000
 21
-77.352501
  0
LINE
  8
0
  6
CENTER
 62
2
 10
183.460007
 20
-71.812500
 11
194.539993
 21
-71.812500
  0
LINE
  8
0
  6
CENTER
 62
2
 10
197.000000
 20
-70.872498
 11
197.000000
 21
-87.752502
  0
LINE
  8
0
  6
CENTER
 62
2
 10
188.559998
 20
-79.312500
 11
205.440002
 21
-79.312500
  0
LINE
  8
0
  6
CONTINUOUS
 62
7
 10
88.500000
 20
109.208000
 11
88.500000
 21
105.167000
  0
LINE
  8
0
  6
CONTINUOUS
 62
7
 10
81.500000
 20
109.208000
 11
85.000000
 21
111.228996
  0
LINE
  8
0
  6
CONTINUOUS
 62
7
 10
85.000000
 20
103.146004
 11
88.500000
 21
105.167000
  0
LINE
  8
0
  6
CONTINUOUS
 62
7
 10
81.500000
 20
105.167000
 11
84.999901
 21
103.146004
  0
LINE
  8
0
  6
CONTINUOUS
 62
7
 10
87.182999
 20
109.969002
 11
83.682999
 21
103.905998
  0
LINE
  8
0
  6
CONTINUOUS
 62
7
 10
86.316902
 20
110.469002
 11
82.816902
 21
104.405998
  0
LINE
  8
0
  6
CONTINUOUS
 62
7
 10
85.000000
 20
111.228996
 11
88.499901
 21
109.208000
  0
LINE
  8
0
  6
CONTINUOUS
 62
7
 10
81.500000
 20
105.167000
 11
81.500000
 21
109.208000
  0
LINE
  8
0
  6
CENTER
 62
2
 10
85.000000
 20
113.726997
 11
85.000000
 21
100.647003
  0
LINE
  8
0
  6
CENTER
 62
2
 10
78.459999
 20
107.188004
 11
91.540001
 21
107.188004
  0
LINE
  8
0
  6
CENTER
 62
2
 10
189.000000
 20
41.897499
 11
189.000000
 21
56.477501
  0
LINE
  8
0
  6
CENTER
 62
2
 10
181.710007
 20
49.187500
 11
196.289993
 21
49.187500
  0
LINE
  8
0
  6
CONTINUOUS
 62
7
 10
201.500000
 20
109.208000
 11
201.500000
 21
105.167000
  0
LINE
  8
0
  6
CONTINUOUS
 62
7
 10
194.500000
 20
109.208000
 11
198.000000
 21
111.228996
  0
LINE
  8
0
  6
CONTINUOUS
 62
7
 10
198.000000
 20
103.146004
 11
201.500000
 21
105.167000
  0
LINE
  8
0
  6
CONTINUOUS
 62
7
 10
194.500000
 20
105.167000
 11
198.000000
 21
103.146004
  0
LINE
  8
0
  6
CONTINUOUS
 62
7
 10
200.182999
 20
109.969002
 11
196.682999
 21
103.905998
  0
LINE
  8
0
  6
CONTINUOUS
 62
7
 10
199.317001
 20
110.469002
 11
195.817001
 21
104.405998
  0
LINE
  8
0
  6
CONTINUOUS
 62
7
 10
198.000000
 20
111.228996
 11
201.500000
 21
109.208000
  0
LINE
  8
0
  6
CONTINUOUS
 62
7
 10
194.500000
 20
105.167000
 11
194.500000
 21
109.208000
  0
LINE
  8
0
  6
CENTER
 62
2
 10
198.000000
 20
113.726997
 11
198.000000
 21
100.647003
  0
LINE
  8
0
  6
CENTER
 62
2
 10
191.460007
 20
107.188004
 11
204.539993
 21
107.188004
  0
LINE
  8
0
  6
CONTINUOUS
 62
7
 10
118.764000
 20
-13.512500
 11
122.500000
 21
-13.512500
  0
LINE
  8
0
  6
CONTINUOUS
 62
7
 10
118.764000
 20
90.887497
 11
122.500000
 21
90.887497
  0
LINE
  8
0
  6
CONTINUOUS
 62
7
 10
118.764000
 20
88.887497
 11
122.500000
 21
88.887497
  0
LINE
  8
0
  6
CONTINUOUS
 62
7
 10
118.764000
 20
86.887497
 11
122.500000
 21
86.887497
  0
LINE
  8
0
  6
CONTINUOUS
 62
7
 10
119.084999
 20
36.496899
 11
122.500000
 21
36.496899
  0
LINE
  8
0
  6
CONTINUOUS
 62
7
 10
119.084999
 20
35.342201
 11
122.500000
 21
35.342201
  0
LINE
  8
0
  6
CONTINUOUS
 62
7
 10
119.084999
 20
33.032799
 11
122.500000
 21
33.032799
  0
LINE
  8
0
  6
CONTINUOUS
 62
7
 10
119.084999
 20
31.878099
 11
122.500000
 21
31.878099
  0
LINE
  8
0
  6
CONTINUOUS
 62
7
 10
88.500000
 20
-107.813004
 11
88.500000
 21
-110.813004
  0
LINE
  8
0
  6
CONTINUOUS
 62
7
 10
81.500000
 20
-107.813004
 11
81.500000
 21
-110.813004
  0
LINE
  8
0
  6
CONTINUOUS
 62
7
 10
81.000000
 20
-107.813004
 11
89.000000
 21
-107.813004
  0
LINE
  8
0
  6
CONTINUOUS
 62
7
 10
81.500000
 20
-110.813004
 11
88.500000
 21
-110.813004
  0
LINE
  8
0
  6
CENTER
 62
2
 10
85.000000
 20
-111.911003
 11
85.000000
 21
-105.697998
  0
LINE
  8
0
  6
CONTINUOUS
 62
7
 10
81.000000
 20
-107.813004
 11
81.000000
 21
-107.313004
  0
LINE
  8
0
  6
CONTINUOUS
 62
7
 10
89.000000
 20
-107.813004
 11
89.000000
 21
-107.313004
  0
LINE
  8
0
  6
CONTINUOUS
 62
7
 10
85.000000
 20
-107.813004
 11
85.000000
 21
-110.813004
  0
LINE
  8
0
  6
CONTINUOUS
 62
7
 10
194.500000
 20
-107.813004
 11
194.500000
 21
-110.813004
  0
LINE
  8
0
  6
CONTINUOUS
 62
7
 10
201.500000
 20
-107.813004
 11
201.500000
 21
-110.813004
  0
LINE
  8
0
  6
CONTINUOUS
 62
7
 10
202.000000
 20
-107.813004
 11
194.000000
 21
-107.813004
  0
LINE
  8
0
  6
CONTINUOUS
 62
7
 10
201.500000
 20
-110.813004
 11
194.500000
 21
-110.813004
  0
LINE
  8
0
  6
CENTER
 62
2
 10
198.000000
 20
-111.911003
 11
198.000000
 21
-105.697998
  0
LINE
  8
0
  6
CONTINUOUS
 62
7
 10
202.000000
 20
-107.813004
 11
202.000000
 21
-107.313004
  0
LINE
  8
0
  6
CONTINUOUS
 62
7
 10
194.000000
 20
-107.813004
 11
194.000000
 21
-107.313004
  0
LINE
  8
0
  6
CONTINUOUS
 62
7
 10
198.000000
 20
-107.813004
 11
198.000000
 21
-110.813004
  0
LINE
  8
0
  6
CONTINUOUS
 62
7
 10
118.764000
 20
-13.512500
 11
118.764000
 21
-15.112500
  0
LINE
  8
0
  6
CONTINUOUS
 62
7
 10
118.764000
 20
90.887497
 11
118.764000
 21
86.887497
  0
LINE
  8
0
  6
CONTINUOUS
 62
7
 10
201.500000
 20
55.187500
 11
201.500000
 21
57.187500
  0
LINE
  8
0
  6
CONTINUOUS
 62
7
 10
194.500000
 20
55.187500
 11
194.500000
 21
57.187500
  0
LINE
  8
0
  6
CONTINUOUS
 62
7
 10
202.000000
 20
55.187500
 11
194.000000
 21
55.187500
  0
LINE
  8
0
  6
CENTER
 62
2
 10
198.000000
 20
59.286499
 11
198.000000
 21
53.073200
  0
LINE
  8
0
  6
CONTINUOUS
 62
7
 10
202.000000
 20
55.187500
 11
202.000000
 21
54.687500
  0
LINE
  8
0
  6
CONTINUOUS
 62
7
 10
194.000000
 20
55.187500
 11
194.000000
 21
54.687500
  0
LINE
  8
0
  6
CONTINUOUS
 62
7
 10
198.000000
 20
55.187500
 11
198.000000
 21
57.187500
  0
LINE
  8
0
  6
CONTINUOUS
 62
7
 10
119.084999
 20
36.496899
 11
119.084999
 21
31.878099
  0
LINE
  8
0
  6
CONTINUOUS
 62
7
 10
130.350006
 20
44.687500
 11
182.649994
 21
44.687500
  0
LINE
  8
0
  6
CONTINUOUS
 62
7
 10
130.350006
 20
23.687500
 11
182.649994
 21
23.687500
  0
LINE
  8
0
  6
CENTER
 62
2
 10
-170.653000
 20
-114.813004
 11
-204.998001
 21
-114.813004
  0
LINE
  8
0
  6
CONTINUOUS
 62
7
 10
-196.500000
 20
-119.311996
 11
-202.000000
 21
-119.311996
  0
LINE
  8
0
  6
CONTINUOUS
 62
7
 10
-196.500000
 20
-110.313004
 11
-202.000000
 21
-110.313004
  0
LINE
  8
0
  6
CONTINUOUS
 62
7
 10
-196.500000
 20
-119.811996
 11
-196.500000
 21
-109.813004
  0
LINE
  8
0
  6
CONTINUOUS
 62
2
 10
-178.000000
 20
-119.311996
 11
-196.500000
 21
-119.311996
  0
LINE
  8
0
  6
CONTINUOUS
 62
7
 10
-178.000000
 20
-119.811996
 11
-196.500000
 21
-119.811996
  0
LINE
  8
0
  6
CONTINUOUS
 62
2
 10
-185.000000
 20
-110.313004
 11
-196.500000
 21
-110.313004
  0
LINE
  8
0
  6
CONTINUOUS
 62
7
 10
-185.000000
 20
-109.813004
 11
-196.500000
 21
-109.813004
  0
LINE
  8
0
  6
CONTINUOUS
 62
7
 10
-202.000000
 20
-119.311996
 11
-202.000000
 21
-110.313004
  0
LINE
  8
0
  6
CONTINUOUS
 62
7
 10
-178.000000
 20
-121.311996
 11
-175.000000
 21
-121.311996
  0
LINE
  8
0
  6
CONTINUOUS
 62
7
 10
-178.000000
 20
-120.536003
 11
-175.000000
 21
-120.536003
  0
LINE
  8
0
  6
CONTINUOUS
 62
7
 10
-175.000000
 20
-107.313004
 11
-175.000000
 21
-122.313004
  0
LINE
  8
0
  6
CONTINUOUS
 62
7
 10
-178.000000
 20
-114.036003
 11
-175.000000
 21
-114.036003
  0
LINE
  8
0
  6
CONTINUOUS
 62
7
 10
-178.000000
 20
-115.588997
 11
-175.000000
 21
-115.588997
  0
LINE
  8
0
  6
CONTINUOUS
 62
7
 10
-178.000000
 20
-108.313004
 11
-175.000000
 21
-108.313004
  0
LINE
  8
0
  6
CONTINUOUS
 62
7
 10
-178.000000
 20
-109.088997
 11
-175.000000
 21
-109.088997
  0
LINE
  8
0
  6
CONTINUOUS
 62
7
 10
-140.000000
 20
-107.313004
 11
-140.000000
 21
-118.811996
  0
LINE
  8
0
  6
CONTINUOUS
 62
7
 10
-140.000000
 20
-118.811996
 11
-130.000000
 21
-118.811996
  0
LINE
  8
0
  6
CONTINUOUS
 62
7
 10
-150.000000
 20
-107.313004
 11
-150.000000
 21
-122.313004
  0
LINE
  8
0
  6
CONTINUOUS
 62
7
 10
-175.000000
 20
-122.313004
 11
-150.000000
 21
-122.313004
  0
LINE
  8
0
  6
CONTINUOUS
 62
7
 10
-102.000000
 20
-108.313004
 11
-105.000000
 21
-108.313004
  0
LINE
  8
0
  6
CONTINUOUS
 62
7
 10
-102.000000
 20
-109.088997
 11
-105.000000
 21
-109.088997
  0
LINE
  8
0
  6
CONTINUOUS
 62
7
 10
-105.000000
 20
-122.313004
 11
-130.000000
 21
-122.313004
  0
LINE
  8
0
  6
CONTINUOUS
 62
7
 10
-130.000000
 20
-107.313004
 11
-130.000000
 21
-122.313004
  0
LINE
  8
0
  6
CONTINUOUS
 62
7
 10
-94.500000
 20
-107.813004
 11
-102.500000
 21
-107.813004
  0
LINE
  8
0
  6
CONTINUOUS
 62
7
 10
-95.000000
 20
-110.813004
 11
-102.000000
 21
-110.813004
  0
LINE
  8
0
  6
CENTER
 62
2
 10
-98.500000
 20
-111.911003
 11
-98.500000
 21
-105.697998
  0
LINE
  8
0
  6
CONTINUOUS
 62
7
 10
-94.500000
 20
-107.813004
 11
-94.500000
 21
-107.313004
  0
LINE
  8
0
  6
CONTINUOUS
 62
7
 10
-102.500000
 20
-107.813004
 11
-102.500000
 21
-107.313004
  0
LINE
  8
0
  6
CONTINUOUS
 62
7
 10
-98.500000
 20
-107.813004
 11
-98.500000
 21
-110.813004
  0
LINE
  8
0
  6
CONTINUOUS
 62
7
 10
-95.000000
 20
-107.813004
 11
-95.000000
 21
-110.813004
  0
LINE
  8
0
  6
CONTINUOUS
 62
7
 10
-102.000000
 20
-107.813004
 11
-102.000000
 21
-121.311996
  0
LINE
  8
0
  6
CENTER
 62
2
 10
-109.348000
 20
-114.813004
 11
-75.002098
 21
-114.813004
  0
LINE
  8
0
  6
CONTINUOUS
 62
7
 10
-83.500000
 20
-119.311996
 11
-78.000000
 21
-119.311996
  0
LINE
  8
0
  6
CONTINUOUS
 62
7
 10
-83.500000
 20
-110.313004
 11
-78.000000
 21
-110.313004
  0
LINE
  8
0
  6
CONTINUOUS
 62
7
 10
-83.500000
 20
-119.811996
 11
-83.500000
 21
-109.813004
  0
LINE
  8
0
  6
CONTINUOUS
 62
2
 10
-102.000000
 20
-119.311996
 11
-83.500000
 21
-119.311996
  0
LINE
  8
0
  6
CONTINUOUS
 62
7
 10
-102.000000
 20
-119.811996
 11
-83.500000
 21
-119.811996
  0
LINE
  8
0
  6
CONTINUOUS
 62
2
 10
-95.000000
 20
-110.313004
 11
-83.500000
 21
-110.313004
  0
LINE
  8
0
  6
CONTINUOUS
 62
7
 10
-95.000000
 20
-109.813004
 11
-83.500000
 21
-109.813004
  0
LINE
  8
0
  6
CONTINUOUS
 62
7
 10
-78.000000
 20
-119.311996
 11
-78.000000
 21
-110.313004
  0
LINE
  8
0
  6
CONTINUOUS
 62
7
 10
-102.000000
 20
-121.311996
 11
-105.000000
 21
-121.311996
  0
LINE
  8
0
  6
CONTINUOUS
 62
7
 10
-102.000000
 20
-120.536003
 11
-105.000000
 21
-120.536003
  0
LINE
  8
0
  6
CONTINUOUS
 62
7
 10
-105.000000
 20
-107.313004
 11
-105.000000
 21
-122.313004
  0
LINE
  8
0
  6
CONTINUOUS
 62
7
 10
-102.000000
 20
-114.036003
 11
-105.000000
 21
-114.036003
  0
LINE
  8
0
  6
CONTINUOUS
 62
7
 10
-102.000000
 20
-115.588997
 11
-105.000000
 21
-115.588997
  0
LINE
  8
0
  6
CONTINUOUS
 62
7
 10
-196.500000
 20
-16.812500
 11
-202.000000
 21
-16.812500
  0
LINE
  8
0
  6
CONTINUOUS
 62
7
 10
-196.500000
 20
-16.312500
 11
-196.500000
 21
-26.312500
  0
LINE
  8
0
  6
CONTINUOUS
 62
2
 10
-178.000000
 20
-16.812500
 11
-196.500000
 21
-16.812500
  0
LINE
  8
0
  6
CONTINUOUS
 62
7
 10
-178.000000
 20
-16.312500
 11
-196.500000
 21
-16.312500
  0
LINE
  8
0
  6
CONTINUOUS
 62
7
 10
-202.000000
 20
-16.812500
 11
-202.000000
 21
-20.562500
  0
LINE
  8
0
  6
CONTINUOUS
 62
7
 10
-202.000000
 20
-22.062500
 11
-202.000000
 21
-25.812500
  0
LINE
  8
0
  6
CONTINUOUS
 62
7
 10
-201.000000
 20
-22.062500
 11
-202.000000
 21
-22.062500
  0
LINE
  8
0
  6
CONTINUOUS
 62
7
 10
-201.000000
 20
-20.562500
 11
-202.000000
 21
-20.562500
  0
LINE
  8
0
  6
CONTINUOUS
 62
7
 10
-201.000000
 20
-20.562500
 11
-201.000000
 21
-22.062500
  0
LINE
  8
0
  6
CENTER
 62
2
 10
-184.026993
 20
-21.312500
 11
-204.000000
 21
-21.312500
  0
LINE
  8
0
  6
CONTINUOUS
 62
7
 10
-196.500000
 20
-25.812500
 11
-202.000000
 21
-25.812500
  0
LINE
  8
0
  6
CONTINUOUS
 62
7
 10
-188.000000
 20
-26.312500
 11
-196.500000
 21
-26.312500
  0
LINE
  8
0
  6
CONTINUOUS
 62
7
 10
-202.000000
 20
-25.812500
 11
-202.000000
 21
-22.062500
  0
LINE
  8
0
  6
CONTINUOUS
 62
2
 10
-188.000000
 20
-25.812500
 11
-196.500000
 21
-25.812500
  0
LINE
  8
0
  6
CONTINUOUS
 62
7
 10
-175.000000
 20
-13.812500
 11
-175.000000
 21
-20.312500
  0
LINE
  8
0
  6
CONTINUOUS
 62
7
 10
-175.000000
 20
-13.812500
 11
-175.000000
 21
-20.312500
  0
LINE
  8
0
  6
CONTINUOUS
 62
7
 10
-168.000000
 20
-13.812500
 11
-175.000000
 21
-13.812500
  0
LINE
  8
0
  6
CONTINUOUS
 62
7
 10
-168.000000
 20
-13.812500
 11
-168.000000
 21
-15.112500
  0
LINE
  8
0
  6
CONTINUOUS
 62
7
 10
-160.000000
 20
-14.812500
 11
-167.000000
 21
-14.812500
  0
LINE
  8
0
  6
CONTINUOUS
 62
7
 10
-167.000000
 20
-14.812500
 11
-167.000000
 21
-15.112500
  0
LINE
  8
0
  6
CONTINUOUS
 62
7
 10
-178.000000
 20
-20.312500
 11
-178.000000
 21
-14.255100
  0
LINE
  8
0
  6
CONTINUOUS
 62
7
 10
-175.000000
 20
-17.111601
 11
-178.000000
 21
-17.111601
  0
LINE
  8
0
  6
CONTINUOUS
 62
7
 10
-175.000000
 20
-18.455900
 11
-178.000000
 21
-18.455900
  0
LINE
  8
0
  6
CONTINUOUS
 62
7
 10
-175.000000
 20
-14.255100
 11
-178.000000
 21
-14.255100
  0
LINE
  8
0
  6
CONTINUOUS
 62
7
 10
-160.000000
 20
-14.812500
 11
-160.000000
 21
-15.112500
  0
LINE
  8
0
  6
CONTINUOUS
 62
7
 10
-83.500000
 20
-16.812500
 11
-78.000000
 21
-16.812500
  0
LINE
  8
0
  6
CONTINUOUS
 62
7
 10
-83.500000
 20
-16.312500
 11
-83.500000
 21
-26.312500
  0
LINE
  8
0
  6
CONTINUOUS
 62
2
 10
-102.000000
 20
-16.812500
 11
-83.500000
 21
-16.812500
  0
LINE
  8
0
  6
CONTINUOUS
 62
7
 10
-102.000000
 20
-16.312500
 11
-83.500000
 21
-16.312500
  0
LINE
  8
0
  6
CONTINUOUS
 62
7
 10
-78.000000
 20
-16.812500
 11
-78.000000
 21
-20.562500
  0
LINE
  8
0
  6
CONTINUOUS
 62
7
 10
-78.000000
 20
-22.062500
 11
-78.000000
 21
-25.812500
  0
LINE
  8
0
  6
CONTINUOUS
 62
7
 10
-79.000000
 20
-22.062500
 11
-78.000000
 21
-22.062500
  0
LINE
  8
0
  6
CONTINUOUS
 62
7
 10
-79.000000
 20
-20.562500
 11
-78.000000
 21
-20.562500
  0
LINE
  8
0
  6
CONTINUOUS
 62
7
 10
-79.000000
 20
-20.562500
 11
-79.000000
 21
-22.062500
  0
LINE
  8
0
  6
CENTER
 62
2
 10
-95.972702
 20
-21.312500
 11
-76.000000
 21
-21.312500
  0
LINE
  8
0
  6
CONTINUOUS
 62
7
 10
-83.500000
 20
-25.812500
 11
-78.000000
 21
-25.812500
  0
LINE
  8
0
  6
CONTINUOUS
 62
7
 10
-92.000000
 20
-26.312500
 11
-83.500000
 21
-26.312500
  0
LINE
  8
0
  6
CONTINUOUS
 62
7
 10
-78.000000
 20
-25.812500
 11
-78.000000
 21
-22.062500
  0
LINE
  8
0
  6
CONTINUOUS
 62
2
 10
-92.000000
 20
-25.812500
 11
-83.500000
 21
-25.812500
  0
LINE
  8
0
  6
CONTINUOUS
 62
7
 10
-102.000000
 20
-20.312500
 11
-102.000000
 21
-14.255100
  0
LINE
  8
0
  6
CONTINUOUS
 62
7
 10
-105.000000
 20
-17.111601
 11
-102.000000
 21
-17.111601
  0
LINE
  8
0
  6
CONTINUOUS
 62
7
 10
-105.000000
 20
-18.455900
 11
-102.000000
 21
-18.455900
  0
LINE
  8
0
  6
CONTINUOUS
 62
7
 10
-105.000000
 20
-14.255100
 11
-102.000000
 21
-14.255100
  0
LINE
  8
0
  6
CONTINUOUS
 62
7
 10
-178.000000
 20
62.963699
 11
-175.000000
 21
62.963699
  0
LINE
  8
0
  6
CONTINUOUS
 62
7
 10
-188.000000
 20
54.687500
 11
-140.000000
 21
54.687500
  0
LINE
  8
0
  6
CENTER
 62
2
 10
126.564003
 20
94.687500
 11
72.500000
 21
94.687500
  0
LINE
  8
0
  6
CONTINUOUS
 62
7
 10
-196.500000
 20
57.687500
 11
-202.000000
 21
57.687500
  0
LINE
  8
0
  6
CONTINUOUS
 62
7
 10
-196.500000
 20
66.687500
 11
-202.000000
 21
66.687500
  0
LINE
  8
0
  6
CONTINUOUS
 62
7
 10
-196.500000
 20
57.187500
 11
-196.500000
 21
67.187500
  0
LINE
  8
0
  6
CONTINUOUS
 62
2
 10
-178.000000
 20
57.687500
 11
-196.500000
 21
57.687500
  0
LINE
  8
0
  6
CONTINUOUS
 62
7
 10
-178.000000
 20
57.187500
 11
-196.500000
 21
57.187500
  0
LINE
  8
0
  6
CONTINUOUS
 62
2
 10
-177.955994
 20
66.687500
 11
-196.500000
 21
66.687500
  0
LINE
  8
0
  6
CONTINUOUS
 62
7
 10
-178.000000
 20
67.187500
 11
-196.500000
 21
67.187500
  0
LINE
  8
0
  6
CONTINUOUS
 62
7
 10
-202.000000
 20
99.187500
 11
-202.000000
 21
95.437500
  0
LINE
  8
0
  6
CONTINUOUS
 62
7
 10
-202.000000
 20
93.937500
 11
-202.000000
 21
90.187500
  0
LINE
  8
0
  6
CONTINUOUS
 62
7
 10
-201.000000
 20
93.937500
 11
-202.000000
 21
93.937500
  0
LINE
  8
0
  6
CONTINUOUS
 62
7
 10
-201.000000
 20
95.437500
 11
-202.000000
 21
95.437500
  0
LINE
  8
0
  6
CONTINUOUS
 62
7
 10
-201.000000
 20
95.437500
 11
-201.000000
 21
93.937500
  0
LINE
  8
0
  6
CONTINUOUS
 62
7
 10
-178.000000
 20
61.411400
 11
-175.000000
 21
61.411400
  0
LINE
  8
0
  6
CONTINUOUS
 62
7
 10
-160.000000
 20
55.687500
 11
-167.000000
 21
55.687500
  0
LINE
  8
0
  6
CONTINUOUS
 62
7
 10
-160.000000
 20
68.687500
 11
-167.000000
 21
68.687500
  0
LINE
  8
0
  6
CONTINUOUS
 62
7
 10
-178.000000
 20
68.687500
 11
-178.000000
 21
55.187500
  0
LINE
  8
0
  6
CONTINUOUS
 62
7
 10
123.500000
 20
93.187500
 11
116.500000
 21
93.187500
  0
LINE
  8
0
  6
CONTINUOUS
 62
7
 10
123.500000
 20
96.187500
 11
116.500000
 21
96.187500
  0
LINE
  8
0
  6
CONTINUOUS
 62
7
 10
-160.000000
 20
55.687500
 11
-160.000000
 21
68.687500
  0
LINE
  8
0
  6
CONTINUOUS
 62
7
 10
-167.000000
 20
55.687500
 11
-167.000000
 21
68.687500
  0
LINE
  8
0
  6
CONTINUOUS
 62
7
 10
-167.000000
 20
67.187500
 11
-168.000000
 21
67.187500
  0
LINE
  8
0
  6
CONTINUOUS
 62
7
 10
123.500000
 20
93.187500
 11
123.500000
 21
96.187500
  0
LINE
  8
0
  6
CONTINUOUS
 62
7
 10
-167.000000
 20
57.187500
 11
-168.000000
 21
57.187500
  0
LINE
  8
0
  6
CONTINUOUS
 62
7
 10
-150.000000
 20
69.687500
 11
-150.000000
 21
54.687500
  0
LINE
  8
0
  6
CONTINUOUS
 62
7
 10
-175.000000
 20
69.687500
 11
-150.000000
 21
69.687500
  0
LINE
  8
0
  6
CONTINUOUS
 62
7
 10
-175.000000
 20
69.687500
 11
-175.000000
 21
54.687500
  0
LINE
  8
0
  6
CONTINUOUS
 62
7
 10
-168.000000
 20
69.687500
 11
-168.000000
 21
54.687500
  0
LINE
  8
0
  6
CONTINUOUS
 62
7
 10
-178.000000
 20
68.687500
 11
-175.000000
 21
68.687500
  0
LINE
  8
0
  6
CONTINUOUS
 62
7
 10
-178.000000
 20
67.911400
 11
-175.000000
 21
67.911400
  0
LINE
  8
0
  6
CONTINUOUS
 62
7
 10
-178.000000
 20
56.463699
 11
-175.000000
 21
56.463699
  0
LINE
  8
0
  6
CONTINUOUS
 62
7
 10
-178.000000
 20
55.687500
 11
-175.000000
 21
55.687500
  0
LINE
  8
0
  6
CONTINUOUS
 62
7
 10
-140.000000
 20
66.187500
 11
-140.000000
 21
54.187500
  0
LINE
  8
0
  6
CONTINUOUS
 62
7
 10
-140.000000
 20
66.187500
 11
-120.000000
 21
66.187500
  0
LINE
  8
0
  6
CONTINUOUS
 62
7
 10
-120.000000
 20
54.687500
 11
-92.000000
 21
54.687500
  0
LINE
  8
0
  6
CONTINUOUS
 62
7
 10
-102.000000
 20
67.911400
 11
-105.000000
 21
67.911400
  0
LINE
  8
0
  6
CONTINUOUS
 62
7
 10
-94.500000
 20
55.187500
 11
-102.500000
 21
55.187500
  0
LINE
  8
0
  6
CONTINUOUS
 62
7
 10
-94.500000
 20
55.187500
 11
-94.500000
 21
54.687500
  0
LINE
  8
0
  6
CONTINUOUS
 62
7
 10
-95.000000
 20
55.187500
 11
-95.000000
 21
57.187500
  0
LINE
  8
0
  6
CONTINUOUS
 62
7
 10
-102.000000
 20
56.463699
 11
-105.000000
 21
56.463699
  0
LINE
  8
0
  6
CENTER
 62
2
 10
-122.825996
 20
62.187500
 11
-76.000000
 21
62.187500
  0
LINE
  8
0
  6
CONTINUOUS
 62
7
 10
-83.500000
 20
57.687500
 11
-78.000000
 21
57.687500
  0
LINE
  8
0
  6
CONTINUOUS
 62
7
 10
-83.500000
 20
66.687500
 11
-78.000000
 21
66.687500
  0
LINE
  8
0
  6
CONTINUOUS
 62
7
 10
-83.500000
 20
57.187500
 11
-83.500000
 21
67.187500
  0
LINE
  8
0
  6
CONTINUOUS
 62
2
 10
-102.000000
 20
57.687500
 11
-83.500000
 21
57.687500
  0
LINE
  8
0
  6
CONTINUOUS
 62
7
 10
-102.000000
 20
57.187500
 11
-83.500000
 21
57.187500
  0
LINE
  8
0
  6
CONTINUOUS
 62
2
 10
-102.043999
 20
66.687500
 11
-83.500000
 21
66.687500
  0
LINE
  8
0
  6
CONTINUOUS
 62
7
 10
-102.000000
 20
67.187500
 11
-83.500000
 21
67.187500
  0
LINE
  8
0
  6
CONTINUOUS
 62
7
 10
-78.000000
 20
99.187500
 11
-78.000000
 21
95.437500
  0
LINE
  8
0
  6
CONTINUOUS
 62
7
 10
-78.000000
 20
93.937500
 11
-78.000000
 21
90.187500
  0
LINE
  8
0
  6
CONTINUOUS
 62
7
 10
-79.000000
 20
93.937500
 11
-78.000000
 21
93.937500
  0
LINE
  8
0
  6
CONTINUOUS
 62
7
 10
-79.000000
 20
95.437500
 11
-78.000000
 21
95.437500
  0
LINE
  8
0
  6
CONTINUOUS
 62
7
 10
-79.000000
 20
95.437500
 11
-79.000000
 21
93.937500
  0
LINE
  8
0
  6
CONTINUOUS
 62
7
 10
-102.000000
 20
55.687500
 11
-105.000000
 21
55.687500
  0
LINE
  8
0
  6
CENTER
 62
2
 10
-98.500000
 20
59.286499
 11
-98.500000
 21
53.073200
  0
LINE
  8
0
  6
CONTINUOUS
 62
7
 10
-102.500000
 20
55.187500
 11
-102.500000
 21
54.687500
  0
LINE
  8
0
  6
CONTINUOUS
 62
7
 10
-98.500000
 20
55.187500
 11
-98.500000
 21
57.187500
  0
LINE
  8
0
  6
CONTINUOUS
 62
7
 10
-102.000000
 20
62.963699
 11
-105.000000
 21
62.963699
  0
LINE
  8
0
  6
CONTINUOUS
 62
7
 10
-102.000000
 20
61.411400
 11
-105.000000
 21
61.411400
  0
LINE
  8
0
  6
CONTINUOUS
 62
7
 10
-120.000000
 20
55.687500
 11
-113.000000
 21
55.687500
  0
LINE
  8
0
  6
CONTINUOUS
 62
7
 10
-120.000000
 20
68.687500
 11
-113.000000
 21
68.687500
  0
LINE
  8
0
  6
CONTINUOUS
 62
7
 10
-102.000000
 20
68.687500
 11
-102.000000
 21
55.187500
  0
LINE
  8
0
  6
CONTINUOUS
 62
7
 10
-105.000000
 20
69.687500
 11
-105.000000
 21
54.687500
  0
LINE
  8
0
  6
CONTINUOUS
 62
7
 10
-102.000000
 20
68.687500
 11
-105.000000
 21
68.687500
  0
LINE
  8
0
  6
CONTINUOUS
 62
7
 10
-120.000000
 20
54.187500
 11
-120.000000
 21
68.687500
  0
LINE
  8
0
  6
CONTINUOUS
 62
7
 10
-113.000000
 20
55.687500
 11
-113.000000
 21
68.687500
  0
LINE
  8
0
  6
CONTINUOUS
 62
7
 10
-113.000000
 20
67.187500
 11
-112.000000
 21
67.187500
  0
LINE
  8
0
  6
CONTINUOUS
 62
7
 10
-112.000000
 20
69.687500
 11
-112.000000
 21
54.687500
  0
LINE
  8
0
  6
CONTINUOUS
 62
7
 10
-113.000000
 20
57.187500
 11
-112.000000
 21
57.187500
  0
LINE
  8
0
  6
CONTINUOUS
 62
7
 10
-130.000000
 20
69.687500
 11
-130.000000
 21
66.187500
  0
LINE
  8
0
  6
CONTINUOUS
 62
7
 10
-105.000000
 20
69.687500
 11
-130.000000
 21
69.687500
  0
LINE
  8
0
  6
CONTINUOUS
 62
7
 10
-175.000000
 20
87.187500
 11
-175.000000
 21
113.188004
  0
LINE
  8
0
  6
CONTINUOUS
 62
7
 10
-168.000000
 20
87.187500
 11
-175.000000
 21
87.187500
  0
LINE
  8
0
  6
CONTINUOUS
 62
7
 10
-168.000000
 20
87.187500
 11
-168.000000
 21
100.688004
  0
LINE
  8
0
  6
CONTINUOUS
 62
7
 10
-167.000000
 20
88.187500
 11
-167.000000
 21
101.186996
  0
LINE
  8
0
  6
CONTINUOUS
 62
7
 10
-167.000000
 20
99.687500
 11
-168.000000
 21
99.687500
  0
LINE
  8
0
  6
CENTER
 62
2
 10
-149.936005
 20
94.687500
 11
-204.000000
 21
94.687500
  0
LINE
  8
0
  6
CONTINUOUS
 62
7
 10
-196.500000
 20
90.187500
 11
-202.000000
 21
90.187500
  0
LINE
  8
0
  6
CONTINUOUS
 62
7
 10
-196.500000
 20
99.187500
 11
-202.000000
 21
99.187500
  0
LINE
  8
0
  6
CONTINUOUS
 62
7
 10
-196.500000
 20
89.687500
 11
-196.500000
 21
99.687500
  0
LINE
  8
0
  6
CONTINUOUS
 62
2
 10
-178.000000
 20
90.187500
 11
-196.500000
 21
90.187500
  0
LINE
  8
0
  6
CONTINUOUS
 62
7
 10
-178.000000
 20
89.687500
 11
-196.500000
 21
89.687500
  0
LINE
  8
0
  6
CONTINUOUS
 62
2
 10
-178.000000
 20
99.187500
 11
-196.500000
 21
99.187500
  0
LINE
  8
0
  6
CONTINUOUS
 62
7
 10
-178.000000
 20
99.687500
 11
-196.500000
 21
99.687500
  0
LINE
  8
0
  6
CONTINUOUS
 62
7
 10
-202.000000
 20
66.687500
 11
-202.000000
 21
57.687500
  0
LINE
  8
0
  6
CONTINUOUS
 62
7
 10
-178.000000
 20
101.745003
 11
-178.000000
 21
87.629997
  0
LINE
  8
0
  6
CONTINUOUS
 62
7
 10
-175.000000
 20
90.486603
 11
-178.000000
 21
90.486603
  0
LINE
  8
0
  6
CONTINUOUS
 62
7
 10
-175.000000
 20
91.830902
 11
-178.000000
 21
91.830902
  0
LINE
  8
0
  6
CONTINUOUS
 62
7
 10
-175.000000
 20
97.544098
 11
-178.000000
 21
97.544098
  0
LINE
  8
0
  6
CONTINUOUS
 62
7
 10
-175.000000
 20
101.745003
 11
-178.000000
 21
101.745003
  0
LINE
  8
0
  6
CONTINUOUS
 62
7
 10
-175.000000
 20
98.888397
 11
-178.000000
 21
98.888397
  0
LINE
  8
0
  6
CONTINUOUS
 62
7
 10
-175.000000
 20
87.629997
 11
-178.000000
 21
87.629997
  0
LINE
  8
0
  6
CONTINUOUS
 62
7
 10
-153.000000
 20
96.187500
 11
-160.000000
 21
96.187500
  0
LINE
  8
0
  6
CONTINUOUS
 62
7
 10
-153.000000
 20
93.187500
 11
-160.000000
 21
93.187500
  0
LINE
  8
0
  6
CONTINUOUS
 62
7
 10
-160.000000
 20
88.187500
 11
-160.000000
 21
101.186996
  0
LINE
  8
0
  6
CONTINUOUS
 62
7
 10
-167.000000
 20
89.687500
 11
-168.000000
 21
89.687500
  0
LINE
  8
0
  6
CONTINUOUS
 62
7
 10
-160.000000
 20
88.187500
 11
-167.000000
 21
88.187500
  0
LINE
  8
0
  6
CONTINUOUS
 62
7
 10
-150.000000
 20
113.188004
 11
-175.000000
 21
113.188004
  0
LINE
  8
0
  6
CONTINUOUS
 62
7
 10
-150.000000
 20
103.186996
 11
-150.000000
 21
113.188004
  0
LINE
  8
0
  6
CONTINUOUS
 62
7
 10
-150.000000
 20
103.186996
 11
-165.500000
 21
103.186996
  0
LINE
  8
0
  6
CONTINUOUS
 62
7
 10
-153.000000
 20
93.187500
 11
-153.000000
 21
96.187500
  0
LINE
  8
0
  6
CONTINUOUS
 62
7
 10
-140.000000
 20
86.187500
 11
-140.000000
 21
100.188004
  0
LINE
  8
0
  6
CONTINUOUS
 62
7
 10
-120.000000
 20
100.188004
 11
-140.000000
 21
100.188004
  0
LINE
  8
0
  6
CONTINUOUS
 62
7
 10
-120.000000
 20
86.187500
 11
-140.000000
 21
86.187500
  0
LINE
  8
0
  6
CONTINUOUS
 62
7
 10
-178.000000
 20
101.186996
 11
-188.000000
 21
101.186996
  0
LINE
  8
0
  6
CENTER
 62
2
 10
-123.377998
 20
94.687500
 11
-76.000000
 21
94.687500
  0
LINE
  8
0
  6
CONTINUOUS
 62
7
 10
-83.500000
 20
90.187500
 11
-78.000000
 21
90.187500
  0
LINE
  8
0
  6
CONTINUOUS
 62
7
 10
-83.500000
 20
99.187500
 11
-78.000000
 21
99.187500
  0
LINE
  8
0
  6
CONTINUOUS
 62
7
 10
-83.500000
 20
89.687500
 11
-83.500000
 21
99.687500
  0
LINE
  8
0
  6
CONTINUOUS
 62
2
 10
-102.000000
 20
90.187500
 11
-83.500000
 21
90.187500
  0
LINE
  8
0
  6
CONTINUOUS
 62
7
 10
-102.000000
 20
89.687500
 11
-83.500000
 21
89.687500
  0
LINE
  8
0
  6
CONTINUOUS
 62
2
 10
-102.000000
 20
99.187500
 11
-83.500000
 21
99.187500
  0
LINE
  8
0
  6
CONTINUOUS
 62
7
 10
-102.000000
 20
99.687500
 11
-83.500000
 21
99.687500
  0
LINE
  8
0
  6
CONTINUOUS
 62
7
 10
-78.000000
 20
66.687500
 11
-78.000000
 21
57.687500
  0
LINE
  8
0
  6
CONTINUOUS
 62
7
 10
-105.000000
 20
85.387497
 11
-105.000000
 21
113.188004
  0
LINE
  8
0
  6
CONTINUOUS
 62
7
 10
-112.000000
 20
87.187500
 11
-105.000000
 21
87.187500
  0
LINE
  8
0
  6
CONTINUOUS
 62
7
 10
-102.000000
 20
101.745003
 11
-102.000000
 21
87.629997
  0
LINE
  8
0
  6
CONTINUOUS
 62
7
 10
-105.000000
 20
90.486603
 11
-102.000000
 21
90.486603
  0
LINE
  8
0
  6
CONTINUOUS
 62
7
 10
-105.000000
 20
91.830902
 11
-102.000000
 21
91.830902
  0
LINE
  8
0
  6
CONTINUOUS
 62
7
 10
-105.000000
 20
97.544098
 11
-102.000000
 21
97.544098
  0
LINE
  8
0
  6
CONTINUOUS
 62
7
 10
-105.000000
 20
101.745003
 11
-102.000000
 21
101.745003
  0
LINE
  8
0
  6
CONTINUOUS
 62
7
 10
-105.000000
 20
98.888397
 11
-102.000000
 21
98.888397
  0
LINE
  8
0
  6
CONTINUOUS
 62
7
 10
-105.000000
 20
87.629997
 11
-102.000000
 21
87.629997
  0
LINE
  8
0
  6
CONTINUOUS
 62
7
 10
-130.000000
 20
113.188004
 11
-105.000000
 21
113.188004
  0
LINE
  8
0
  6
CONTINUOUS
 62
7
 10
-130.000000
 20
103.186996
 11
-130.000000
 21
113.188004
  0
LINE
  8
0
  6
CONTINUOUS
 62
7
 10
-130.000000
 20
103.186996
 11
-114.500000
 21
103.186996
  0
LINE
  8
0
  6
CONTINUOUS
 62
7
 10
-112.000000
 20
87.187500
 11
-112.000000
 21
100.688004
  0
LINE
  8
0
  6
CONTINUOUS
 62
7
 10
-113.000000
 20
89.687500
 11
-112.000000
 21
89.687500
  0
LINE
  8
0
  6
CONTINUOUS
 62
7
 10
-113.000000
 20
99.687500
 11
-112.000000
 21
99.687500
  0
LINE
  8
0
  6
CONTINUOUS
 62
7
 10
-113.000000
 20
88.187500
 11
-113.000000
 21
101.186996
  0
LINE
  8
0
  6
CONTINUOUS
 62
7
 10
-120.000000
 20
86.187500
 11
-120.000000
 21
101.186996
  0
LINE
  8
0
  6
CONTINUOUS
 62
7
 10
-120.000000
 20
88.187500
 11
-113.000000
 21
88.187500
  0
LINE
  8
0
  6
CONTINUOUS
 62
7
 10
-155.000000
 20
93.187500
 11
-155.000000
 21
85.387497
  0
LINE
  8
0
  6
CONTINUOUS
 62
7
 10
-112.000000
 20
101.186996
 11
-167.949997
 21
101.186996
  0
LINE
  8
0
  6
CONTINUOUS
 62
7
 10
208.500000
 20
-119.313004
 11
208.500000
 21
-110.313004
  0
LINE
  8
0
  6
CONTINUOUS
 62
7
 10
184.500000
 20
-109.813004
 11
194.500000
 21
-109.813004
  0
LINE
  8
0
  6
CONTINUOUS
 62
7
 10
146.500000
 20
-107.313004
 11
146.500000
 21
-118.813004
  0
LINE
  8
0
  6
CONTINUOUS
 62
7
 10
146.500000
 20
-118.813004
 11
156.500000
 21
-118.813004
  0
LINE
  8
0
  6
CONTINUOUS
 62
7
 10
184.500000
 20
-108.313004
 11
181.500000
 21
-108.313004
  0
LINE
  8
0
  6
CONTINUOUS
 62
7
 10
184.500000
 20
-109.088997
 11
181.500000
 21
-109.088997
  0
LINE
  8
0
  6
CONTINUOUS
 62
7
 10
181.500000
 20
-122.313004
 11
156.500000
 21
-122.313004
  0
LINE
  8
0
  6
CONTINUOUS
 62
7
 10
156.500000
 20
-107.313004
 11
156.500000
 21
-122.313004
  0
LINE
  8
0
  6
CENTER
 62
2
 10
177.151993
 20
-114.813004
 11
211.498001
 21
-114.813004
  0
LINE
  8
0
  6
CONTINUOUS
 62
7
 10
184.500000
 20
-121.313004
 11
181.500000
 21
-121.313004
  0
LINE
  8
0
  6
CONTINUOUS
 62
7
 10
184.500000
 20
-120.536003
 11
181.500000
 21
-120.536003
  0
LINE
  8
0
  6
CONTINUOUS
 62
7
 10
181.500000
 20
-107.313004
 11
181.500000
 21
-122.313004
  0
LINE
  8
0
  6
CONTINUOUS
 62
7
 10
184.500000
 20
-114.036003
 11
181.500000
 21
-114.036003
  0
LINE
  8
0
  6
CONTINUOUS
 62
7
 10
184.500000
 20
-115.588997
 11
181.500000
 21
-115.588997
  0
LINE
  8
0
  6
CONTINUOUS
 62
7
 10
184.500000
 20
-107.313004
 11
184.500000
 21
-121.313004
  0
LINE
  8
0
  6
CONTINUOUS
 62
7
 10
203.000000
 20
-119.313004
 11
208.500000
 21
-119.313004
  0
LINE
  8
0
  6
CONTINUOUS
 62
7
 10
203.000000
 20
-110.313004
 11
208.500000
 21
-110.313004
  0
LINE
  8
0
  6
CONTINUOUS
 62
7
 10
203.000000
 20
-119.813004
 11
203.000000
 21
-109.813004
  0
LINE
  8
0
  6
CONTINUOUS
 62
2
 10
184.500000
 20
-119.313004
 11
203.000000
 21
-119.313004
  0
LINE
  8
0
  6
CONTINUOUS
 62
7
 10
184.500000
 20
-119.813004
 11
203.000000
 21
-119.813004
  0
LINE
  8
0
  6
CONTINUOUS
 62
2
 10
184.500000
 20
-110.313004
 11
194.500000
 21
-110.313004
  0
LINE
  8
0
  6
CONTINUOUS
 62
7
 10
201.500000
 20
-109.813004
 11
203.000000
 21
-109.813004
  0
LINE
  8
0
  6
CONTINUOUS
 62
2
 10
201.500000
 20
-110.313004
 11
203.000000
 21
-110.313004
  0
LINE
  8
0
  6
CONTINUOUS
 62
7
 10
74.500000
 20
-119.313004
 11
74.500000
 21
-110.313004
  0
LINE
  8
0
  6
CONTINUOUS
 62
7
 10
98.500000
 20
-109.813004
 11
88.500000
 21
-109.813004
  0
LINE
  8
0
  6
CONTINUOUS
 62
7
 10
98.500000
 20
-108.313004
 11
101.500000
 21
-108.313004
  0
LINE
  8
0
  6
CONTINUOUS
 62
7
 10
98.500000
 20
-109.088997
 11
101.500000
 21
-109.088997
  0
LINE
  8
0
  6
CONTINUOUS
 62
7
 10
101.500000
 20
-122.313004
 11
126.500000
 21
-122.313004
  0
LINE
  8
0
  6
CONTINUOUS
 62
7
 10
126.500000
 20
-107.313004
 11
126.500000
 21
-122.313004
  0
LINE
  8
0
  6
CENTER
 62
2
 10
105.847000
 20
-114.813004
 11
71.502098
 21
-114.813004
  0
LINE
  8
0
  6
CONTINUOUS
 62
7
 10
98.500000
 20
-121.313004
 11
101.500000
 21
-121.313004
  0
LINE
  8
0
  6
CONTINUOUS
 62
7
 10
98.500000
 20
-120.536003
 11
101.500000
 21
-120.536003
  0
LINE
  8
0
  6
CONTINUOUS
 62
7
 10
101.500000
 20
-107.313004
 11
101.500000
 21
-122.313004
  0
LINE
  8
0
  6
CONTINUOUS
 62
7
 10
98.500000
 20
-114.036003
 11
101.500000
 21
-114.036003
  0
LINE
  8
0
  6
CONTINUOUS
 62
7
 10
98.500000
 20
-115.588997
 11
101.500000
 21
-115.588997
  0
LINE
  8
0
  6
CONTINUOUS
 62
7
 10
98.500000
 20
-107.313004
 11
98.500000
 21
-121.313004
  0
LINE
  8
0
  6
CONTINUOUS
 62
7
 10
80.000000
 20
-119.313004
 11
74.500000
 21
-119.313004
  0
LINE
  8
0
  6
CONTINUOUS
 62
7
 10
80.000000
 20
-110.313004
 11
74.500000
 21
-110.313004
  0
LINE
  8
0
  6
CONTINUOUS
 62
7
 10
80.000000
 20
-119.813004
 11
80.000000
 21
-109.813004
  0
LINE
  8
0
  6
CONTINUOUS
 62
2
 10
98.500000
 20
-119.313004
 11
80.000000
 21
-119.313004
  0
LINE
  8
0
  6
CONTINUOUS
 62
7
 10
98.500000
 20
-119.813004
 11
80.000000
 21
-119.813004
  0
LINE
  8
0
  6
CONTINUOUS
 62
2
 10
98.500000
 20
-110.313004
 11
88.500000
 21
-110.313004
  0
LINE
  8
0
  6
CONTINUOUS
 62
7
 10
81.500000
 20
-109.813004
 11
80.000000
 21
-109.813004
  0
LINE
  8
0
  6
CONTINUOUS
 62
2
 10
81.500000
 20
-110.313004
 11
80.000000
 21
-110.313004
  0
LINE
  8
0
  6
CONTINUOUS
 62
7
 10
80.000000
 20
-16.812500
 11
74.500000
 21
-16.812500
  0
LINE
  8
0
  6
CONTINUOUS
 62
7
 10
80.000000
 20
-16.312500
 11
80.000000
 21
-20.312500
  0
LINE
  8
0
  6
CONTINUOUS
 62
2
 10
98.500000
 20
-16.812500
 11
80.000000
 21
-16.812500
  0
LINE
  8
0
  6
CONTINUOUS
 62
7
 10
98.500000
 20
-16.312500
 11
80.000000
 21
-16.312500
  0
LINE
  8
0
  6
CONTINUOUS
 62
7
 10
74.500000
 20
-16.812500
 11
74.500000
 21
-20.562500
  0
LINE
  8
0
  6
CONTINUOUS
 62
7
 10
74.500000
 20
-22.062500
 11
74.500000
 21
-25.812500
  0
LINE
  8
0
  6
CONTINUOUS
 62
7
 10
75.500000
 20
-22.062500
 11
74.500000
 21
-22.062500
  0
LINE
  8
0
  6
CONTINUOUS
 62
7
 10
75.500000
 20
-20.562500
 11
74.500000
 21
-20.562500
  0
LINE
  8
0
  6
CONTINUOUS
 62
7
 10
75.500000
 20
-20.562500
 11
75.500000
 21
-22.062500
  0
LINE
  8
0
  6
CENTER
 62
2
 10
90.193604
 20
-21.312500
 11
72.500000
 21
-21.312500
  0
LINE
  8
0
  6
CONTINUOUS
 62
7
 10
78.500000
 20
-25.812500
 11
74.500000
 21
-25.812500
  0
LINE
  8
0
  6
CONTINUOUS
 62
7
 10
74.500000
 20
-25.812500
 11
74.500000
 21
-22.062500
  0
LINE
  8
0
  6
CONTINUOUS
 62
7
 10
101.500000
 20
-13.812500
 11
101.500000
 21
-20.312500
  0
LINE
  8
0
  6
CONTINUOUS
 62
7
 10
101.500000
 20
-13.812500
 11
101.500000
 21
-20.312500
  0
LINE
  8
0
  6
CONTINUOUS
 62
7
 10
108.500000
 20
-13.812500
 11
101.500000
 21
-13.812500
  0
LINE
  8
0
  6
CONTINUOUS
 62
7
 10
108.500000
 20
-13.812500
 11
108.500000
 21
-15.112500
  0
LINE
  8
0
  6
CONTINUOUS
 62
7
 10
116.500000
 20
-14.812500
 11
109.500000
 21
-14.812500
  0
LINE
  8
0
  6
CONTINUOUS
 62
7
 10
109.500000
 20
-14.812500
 11
109.500000
 21
-15.112500
  0
LINE
  8
0
  6
CONTINUOUS
 62
7
 10
98.500000
 20
-20.312500
 11
98.500000
 21
-14.255100
  0
LINE
  8
0
  6
CONTINUOUS
 62
7
 10
101.500000
 20
-17.111601
 11
98.500000
 21
-17.111601
  0
LINE
  8
0
  6
CONTINUOUS
 62
7
 10
101.500000
 20
-18.455900
 11
98.500000
 21
-18.455900
  0
LINE
  8
0
  6
CONTINUOUS
 62
7
 10
101.500000
 20
-14.255100
 11
98.500000
 21
-14.255100
  0
LINE
  8
0
  6
CONTINUOUS
 62
7
 10
116.500000
 20
-14.812500
 11
116.500000
 21
-15.112500
  0
LINE
  8
0
  6
CONTINUOUS
 62
7
 10
203.000000
 20
-16.812500
 11
208.500000
 21
-16.812500
  0
LINE
  8
0
  6
CONTINUOUS
 62
7
 10
208.500000
 20
-16.812500
 11
208.500000
 21
-20.562500
  0
LINE
  8
0
  6
CONTINUOUS
 62
7
 10
208.500000
 20
-22.062500
 11
208.500000
 21
-25.812500
  0
LINE
  8
0
  6
CONTINUOUS
 62
7
 10
207.500000
 20
-22.062500
 11
208.500000
 21
-22.062500
  0
LINE
  8
0
  6
CONTINUOUS
 62
7
 10
207.500000
 20
-20.562500
 11
208.500000
 21
-20.562500
  0
LINE
  8
0
  6
CONTINUOUS
 62
7
 10
207.500000
 20
-20.562500
 11
207.500000
 21
-22.062500
  0
LINE
  8
0
  6
CENTER
 62
2
 10
192.848007
 20
-21.312500
 11
210.500000
 21
-21.312500
  0
LINE
  8
0
  6
CONTINUOUS
 62
7
 10
204.500000
 20
-25.812500
 11
208.500000
 21
-25.812500
  0
LINE
  8
0
  6
CONTINUOUS
 62
7
 10
208.500000
 20
-25.812500
 11
208.500000
 21
-22.062500
  0
LINE
  8
0
  6
CONTINUOUS
 62
7
 10
203.000000
 20
-16.312500
 11
203.000000
 21
-20.312500
  0
LINE
  8
0
  6
CONTINUOUS
 62
2
 10
190.500000
 20
-16.812500
 11
203.000000
 21
-16.812500
  0
LINE
  8
0
  6
CONTINUOUS
 62
7
 10
190.500000
 20
-16.312500
 11
203.000000
 21
-16.312500
  0
LINE
  8
0
  6
CONTINUOUS
 62
7
 10
146.500000
 20
66.187500
 11
146.500000
 21
54.187500
  0
LINE
  8
0
  6
CONTINUOUS
 62
7
 10
146.500000
 20
66.187500
 11
166.500000
 21
66.187500
  0
LINE
  8
0
  6
CONTINUOUS
 62
7
 10
156.500000
 20
69.687500
 11
156.500000
 21
66.187500
  0
LINE
  8
0
  6
CONTINUOUS
 62
7
 10
181.500000
 20
69.687500
 11
156.500000
 21
69.687500
  0
LINE
  8
0
  6
CENTER
 62
2
 10
163.673996
 20
62.187500
 11
210.500000
 21
62.187500
  0
LINE
  8
0
  6
CONTINUOUS
 62
7
 10
203.000000
 20
57.687500
 11
208.500000
 21
57.687500
  0
LINE
  8
0
  6
CONTINUOUS
 62
7
 10
203.000000
 20
66.687500
 11
208.500000
 21
66.687500
  0
LINE
  8
0
  6
CONTINUOUS
 62
7
 10
203.000000
 20
57.187500
 11
203.000000
 21
67.187500
  0
LINE
  8
0
  6
CONTINUOUS
 62
2
 10
184.500000
 20
57.687500
 11
203.000000
 21
57.687500
  0
LINE
  8
0
  6
CONTINUOUS
 62
7
 10
184.500000
 20
57.187500
 11
203.000000
 21
57.187500
  0
LINE
  8
0
  6
CONTINUOUS
 62
2
 10
184.455994
 20
66.687500
 11
203.000000
 21
66.687500
  0
LINE
  8
0
  6
CONTINUOUS
 62
7
 10
184.500000
 20
67.187500
 11
203.000000
 21
67.187500
  0
LINE
  8
0
  6
CONTINUOUS
 62
7
 10
208.500000
 20
57.687500
 11
208.500000
 21
66.687500
  0
LINE
  8
0
  6
CONTINUOUS
 62
7
 10
184.500000
 20
67.911301
 11
181.500000
 21
67.911301
  0
LINE
  8
0
  6
CONTINUOUS
 62
7
 10
184.500000
 20
62.963699
 11
181.500000
 21
62.963699
  0
LINE
  8
0
  6
CONTINUOUS
 62
7
 10
184.500000
 20
61.411301
 11
181.500000
 21
61.411301
  0
LINE
  8
0
  6
CONTINUOUS
 62
7
 10
166.500000
 20
68.687500
 11
173.500000
 21
68.687500
  0
LINE
  8
0
  6
CONTINUOUS
 62
7
 10
184.500000
 20
68.687500
 11
184.500000
 21
55.687500
  0
LINE
  8
0
  6
CONTINUOUS
 62
7
 10
181.500000
 20
69.687500
 11
181.500000
 21
54.687500
  0
LINE
  8
0
  6
CONTINUOUS
 62
7
 10
184.500000
 20
68.687500
 11
181.500000
 21
68.687500
  0
LINE
  8
0
  6
CONTINUOUS
 62
7
 10
166.500000
 20
54.187500
 11
166.500000
 21
68.687500
  0
LINE
  8
0
  6
CONTINUOUS
 62
7
 10
173.500000
 20
55.687500
 11
173.500000
 21
68.687500
  0
LINE
  8
0
  6
CONTINUOUS
 62
7
 10
173.500000
 20
67.187500
 11
174.500000
 21
67.187500
  0
LINE
  8
0
  6
CONTINUOUS
 62
7
 10
174.500000
 20
69.687500
 11
174.500000
 21
54.687500
  0
LINE
  8
0
  6
CONTINUOUS
 62
7
 10
184.500000
 20
56.463699
 11
181.500000
 21
56.463699
  0
LINE
  8
0
  6
CONTINUOUS
 62
7
 10
184.500000
 20
55.687500
 11
181.500000
 21
55.687500
  0
LINE
  8
0
  6
CONTINUOUS
 62
7
 10
173.500000
 20
57.187500
 11
174.500000
 21
57.187500
  0
LINE
  8
0
  6
CONTINUOUS
 62
7
 10
166.500000
 20
55.687500
 11
173.500000
 21
55.687500
  0
LINE
  8
0
  6
CONTINUOUS
 62
7
 10
166.500000
 20
54.687500
 11
204.500000
 21
54.687500
  0
LINE
  8
0
  6
CONTINUOUS
 62
7
 10
126.500000
 20
69.687500
 11
126.500000
 21
54.687500
  0
LINE
  8
0
  6
CONTINUOUS
 62
7
 10
116.500000
 20
68.687500
 11
109.500000
 21
68.687500
  0
LINE
  8
0
  6
CONTINUOUS
 62
7
 10
116.500000
 20
55.687500
 11
116.500000
 21
68.687500
  0
LINE
  8
0
  6
CONTINUOUS
 62
7
 10
109.500000
 20
55.687500
 11
109.500000
 21
68.687500
  0
LINE
  8
0
  6
CONTINUOUS
 62
7
 10
109.500000
 20
67.187500
 11
108.500000
 21
67.187500
  0
LINE
  8
0
  6
CONTINUOUS
 62
7
 10
108.500000
 20
69.687500
 11
108.500000
 21
54.687500
  0
LINE
  8
0
  6
CONTINUOUS
 62
7
 10
109.500000
 20
57.187500
 11
108.500000
 21
57.187500
  0
LINE
  8
0
  6
CONTINUOUS
 62
7
 10
116.500000
 20
55.687500
 11
109.500000
 21
55.687500
  0
LINE
  8
0
  6
CONTINUOUS
 62
7
 10
146.500000
 20
54.687500
 11
78.500000
 21
54.687500
  0
LINE
  8
0
  6
CONTINUOUS
 62
7
 10
101.500000
 20
69.687500
 11
126.500000
 21
69.687500
  0
LINE
  8
0
  6
CONTINUOUS
 62
2
 10
98.500000
 20
57.687500
 11
80.000000
 21
57.687500
  0
LINE
  8
0
  6
CONTINUOUS
 62
7
 10
98.500000
 20
57.187500
 11
80.000000
 21
57.187500
  0
LINE
  8
0
  6
CONTINUOUS
 62
2
 10
98.544098
 20
66.687500
 11
80.000000
 21
66.687500
  0
LINE
  8
0
  6
CONTINUOUS
 62
7
 10
98.500000
 20
67.187500
 11
80.000000
 21
67.187500
  0
LINE
  8
0
  6
CONTINUOUS
 62
7
 10
98.500000
 20
67.911301
 11
101.500000
 21
67.911301
  0
LINE
  8
0
  6
CONTINUOUS
 62
7
 10
98.500000
 20
62.963699
 11
101.500000
 21
62.963699
  0
LINE
  8
0
  6
CONTINUOUS
 62
7
 10
98.500000
 20
61.411301
 11
101.500000
 21
61.411301
  0
LINE
  8
0
  6
CONTINUOUS
 62
7
 10
98.500000
 20
68.687500
 11
98.500000
 21
55.687500
  0
LINE
  8
0
  6
CONTINUOUS
 62
7
 10
101.500000
 20
69.687500
 11
101.500000
 21
54.687500
  0
LINE
  8
0
  6
CONTINUOUS
 62
7
 10
98.500000
 20
68.687500
 11
101.500000
 21
68.687500
  0
LINE
  8
0
  6
CONTINUOUS
 62
7
 10
98.500000
 20
56.463699
 11
101.500000
 21
56.463699
  0
LINE
  8
0
  6
CONTINUOUS
 62
7
 10
98.500000
 20
55.687500
 11
101.500000
 21
55.687500
  0
LINE
  8
0
  6
CONTINUOUS
 62
7
 10
81.500000
 20
55.187500
 11
81.500000
 21
57.187500
  0
LINE
  8
0
  6
CONTINUOUS
 62
7
 10
88.500000
 20
55.187500
 11
88.500000
 21
57.187500
  0
LINE
  8
0
  6
CONTINUOUS
 62
7
 10
81.000000
 20
55.187500
 11
89.000000
 21
55.187500
  0
LINE
  8
0
  6
CENTER
 62
2
 10
85.000000
 20
59.286499
 11
85.000000
 21
53.073200
  0
LINE
  8
0
  6
CONTINUOUS
 62
7
 10
81.000000
 20
55.187500
 11
81.000000
 21
54.687500
  0
LINE
  8
0
  6
CONTINUOUS
 62
7
 10
89.000000
 20
55.187500
 11
89.000000
 21
54.687500
  0
LINE
  8
0
  6
CONTINUOUS
 62
7
 10
85.000000
 20
55.187500
 11
85.000000
 21
57.187500
  0
LINE
  8
0
  6
CONTINUOUS
 62
7
 10
80.000000
 20
57.687500
 11
74.500000
 21
57.687500
  0
LINE
  8
0
  6
CONTINUOUS
 62
7
 10
80.000000
 20
66.687500
 11
74.500000
 21
66.687500
  0
LINE
  8
0
  6
CONTINUOUS
 62
7
 10
80.000000
 20
57.187500
 11
80.000000
 21
67.187500
  0
LINE
  8
0
  6
CONTINUOUS
 62
7
 10
74.500000
 20
57.687500
 11
74.500000
 21
66.687500
  0
LINE
  8
0
  6
CENTER
 62
2
 10
-149.936005
 20
62.187500
 11
-204.000000
 21
62.187500
  0
LINE
  8
0
  6
CONTINUOUS
 62
7
 10
-153.000000
 20
63.687500
 11
-160.000000
 21
63.687500
  0
LINE
  8
0
  6
CONTINUOUS
 62
7
 10
-153.000000
 20
60.687500
 11
-153.000000
 21
63.687500
  0
LINE
  8
0
  6
CONTINUOUS
 62
7
 10
-153.000000
 20
60.687500
 11
-160.000000
 21
60.687500
  0
LINE
  8
0
  6
CONTINUOUS
 62
7
 10
156.500000
 20
113.188004
 11
181.500000
 21
113.188004
  0
LINE
  8
0
  6
CONTINUOUS
 62
7
 10
207.500000
 20
93.937500
 11
207.500000
 21
95.437500
  0
LINE
  8
0
  6
CONTINUOUS
 62
7
 10
156.500000
 20
103.188004
 11
156.500000
 21
113.188004
  0
LINE
  8
0
  6
CONTINUOUS
 62
7
 10
156.500000
 20
103.188004
 11
172.000000
 21
103.188004
  0
LINE
  8
0
  6
CONTINUOUS
 62
7
 10
146.500000
 20
86.187500
 11
146.500000
 21
100.188004
  0
LINE
  8
0
  6
CONTINUOUS
 62
7
 10
166.500000
 20
86.187500
 11
146.500000
 21
86.187500
  0
LINE
  8
0
  6
CONTINUOUS
 62
7
 10
166.500000
 20
100.188004
 11
146.500000
 21
100.188004
  0
LINE
  8
0
  6
CONTINUOUS
 62
7
 10
166.500000
 20
86.187500
 11
166.500000
 21
101.186996
  0
LINE
  8
0
  6
CONTINUOUS
 62
7
 10
166.500000
 20
88.187500
 11
173.500000
 21
88.187500
  0
LINE
  8
0
  6
CONTINUOUS
 62
7
 10
173.500000
 20
89.687500
 11
174.500000
 21
89.687500
  0
LINE
  8
0
  6
CONTINUOUS
 62
7
 10
173.500000
 20
99.687500
 11
174.500000
 21
99.687500
  0
LINE
  8
0
  6
CONTINUOUS
 62
7
 10
173.500000
 20
88.187500
 11
173.500000
 21
101.186996
  0
LINE
  8
0
  6
CONTINUOUS
 62
7
 10
174.500000
 20
87.187500
 11
174.500000
 21
100.688004
  0
LINE
  8
0
  6
CONTINUOUS
 62
7
 10
174.500000
 20
87.187500
 11
181.500000
 21
87.187500
  0
LINE
  8
0
  6
CONTINUOUS
 62
7
 10
181.500000
 20
87.629997
 11
184.500000
 21
87.629997
  0
LINE
  8
0
  6
CENTER
 62
2
 10
163.121994
 20
94.687500
 11
210.500000
 21
94.687500
  0
LINE
  8
0
  6
CONTINUOUS
 62
2
 10
184.500000
 20
90.187500
 11
203.000000
 21
90.187500
  0
LINE
  8
0
  6
CONTINUOUS
 62
7
 10
184.500000
 20
89.687500
 11
203.000000
 21
89.687500
  0
LINE
  8
0
  6
CONTINUOUS
 62
2
 10
184.500000
 20
99.187500
 11
203.000000
 21
99.187500
  0
LINE
  8
0
  6
CONTINUOUS
 62
7
 10
184.500000
 20
99.687500
 11
203.000000
 21
99.687500
  0
LINE
  8
0
  6
CONTINUOUS
 62
7
 10
184.500000
 20
101.745003
 11
184.500000
 21
87.629997
  0
LINE
  8
0
  6
CONTINUOUS
 62
7
 10
181.500000
 20
90.486603
 11
184.500000
 21
90.486603
  0
LINE
  8
0
  6
CONTINUOUS
 62
7
 10
181.500000
 20
91.830902
 11
184.500000
 21
91.830902
  0
LINE
  8
0
  6
CONTINUOUS
 62
7
 10
181.500000
 20
97.544098
 11
184.500000
 21
97.544098
  0
LINE
  8
0
  6
CONTINUOUS
 62
7
 10
181.500000
 20
101.745003
 11
184.500000
 21
101.745003
  0
LINE
  8
0
  6
CONTINUOUS
 62
7
 10
181.500000
 20
98.888397
 11
184.500000
 21
98.888397
  0
LINE
  8
0
  6
CONTINUOUS
 62
7
 10
203.000000
 20
90.187500
 11
208.500000
 21
90.187500
  0
LINE
  8
0
  6
CONTINUOUS
 62
7
 10
203.000000
 20
99.187500
 11
208.500000
 21
99.187500
  0
LINE
  8
0
  6
CONTINUOUS
 62
7
 10
203.000000
 20
89.687500
 11
203.000000
 21
99.687500
  0
LINE
  8
0
  6
CONTINUOUS
 62
7
 10
208.500000
 20
90.187500
 11
208.500000
 21
93.937500
  0
LINE
  8
0
  6
CONTINUOUS
 62
7
 10
208.500000
 20
95.437500
 11
208.500000
 21
99.187500
  0
LINE
  8
0
  6
CONTINUOUS
 62
7
 10
207.500000
 20
95.437500
 11
208.500000
 21
95.437500
  0
LINE
  8
0
  6
CONTINUOUS
 62
7
 10
207.500000
 20
93.937500
 11
208.500000
 21
93.937500
  0
LINE
  8
0
  6
CONTINUOUS
 62
7
 10
181.500000
 20
87.187500
 11
181.500000
 21
113.188004
  0
LINE
  8
0
  6
CONTINUOUS
 62
7
 10
174.449005
 20
101.188004
 11
108.550003
 21
101.188004
  0
LINE
  8
0
  6
CONTINUOUS
 62
7
 10
116.500000
 20
88.187500
 11
116.500000
 21
101.186996
  0
LINE
  8
0
  6
CONTINUOUS
 62
7
 10
101.500000
 20
87.187500
 11
101.500000
 21
113.188004
  0
LINE
  8
0
  6
CONTINUOUS
 62
7
 10
116.500000
 20
88.187500
 11
109.500000
 21
88.187500
  0
LINE
  8
0
  6
CONTINUOUS
 62
7
 10
109.500000
 20
89.687500
 11
108.500000
 21
89.687500
  0
LINE
  8
0
  6
CONTINUOUS
 62
7
 10
109.500000
 20
99.687500
 11
108.500000
 21
99.687500
  0
LINE
  8
0
  6
CONTINUOUS
 62
7
 10
109.500000
 20
88.187500
 11
109.500000
 21
101.186996
  0
LINE
  8
0
  6
CONTINUOUS
 62
7
 10
108.500000
 20
87.187500
 11
108.500000
 21
100.688004
  0
LINE
  8
0
  6
CONTINUOUS
 62
7
 10
108.500000
 20
87.187500
 11
101.500000
 21
87.187500
  0
LINE
  8
0
  6
CONTINUOUS
 62
7
 10
101.500000
 20
87.629997
 11
98.500000
 21
87.629997
  0
LINE
  8
0
  6
CONTINUOUS
 62
2
 10
98.500000
 20
90.187500
 11
80.000000
 21
90.187500
  0
LINE
  8
0
  6
CONTINUOUS
 62
7
 10
98.500000
 20
89.687500
 11
80.000000
 21
89.687500
  0
LINE
  8
0
  6
CONTINUOUS
 62
2
 10
98.500000
 20
99.187500
 11
80.000000
 21
99.187500
  0
LINE
  8
0
  6
CONTINUOUS
 62
7
 10
98.500000
 20
99.687500
 11
80.000000
 21
99.687500
  0
LINE
  8
0
  6
CONTINUOUS
 62
7
 10
98.500000
 20
101.745003
 11
98.500000
 21
87.629997
  0
LINE
  8
0
  6
CONTINUOUS
 62
7
 10
101.500000
 20
90.486603
 11
98.500000
 21
90.486603
  0
LINE
  8
0
  6
CONTINUOUS
 62
7
 10
101.500000
 20
91.830902
 11
98.500000
 21
91.830902
  0
LINE
  8
0
  6
CONTINUOUS
 62
7
 10
101.500000
 20
97.544098
 11
98.500000
 21
97.544098
  0
LINE
  8
0
  6
CONTINUOUS
 62
7
 10
101.500000
 20
101.745003
 11
98.500000
 21
101.745003
  0
LINE
  8
0
  6
CONTINUOUS
 62
7
 10
101.500000
 20
98.888397
 11
98.500000
 21
98.888397
  0
LINE
  8
0
  6
CONTINUOUS
 62
7
 10
75.500000
 20
93.937500
 11
74.500000
 21
93.937500
  0
LINE
  8
0
  6
CONTINUOUS
 62
7
 10
75.500000
 20
93.937500
 11
75.500000
 21
95.437500
  0
LINE
  8
0
  6
CONTINUOUS
 62
7
 10
80.000000
 20
90.187500
 11
74.500000
 21
90.187500
  0
LINE
  8
0
  6
CONTINUOUS
 62
7
 10
80.000000
 20
99.187500
 11
74.500000
 21
99.187500
  0
LINE
  8
0
  6
CONTINUOUS
 62
7
 10
80.000000
 20
89.687500
 11
80.000000
 21
99.687500
  0
LINE
  8
0
  6
CONTINUOUS
 62
7
 10
74.500000
 20
90.187500
 11
74.500000
 21
93.937500
  0
LINE
  8
0
  6
CONTINUOUS
 62
7
 10
74.500000
 20
95.437500
 11
74.500000
 21
99.187500
  0
LINE
  8
0
  6
CONTINUOUS
 62
7
 10
75.500000
 20
95.437500
 11
74.500000
 21
95.437500
  0
LINE
  8
0
  6
CONTINUOUS
 62
7
 10
126.500000
 20
113.188004
 11
101.500000
 21
113.188004
  0
LINE
  8
0
  6
CONTINUOUS
 62
7
 10
126.500000
 20
103.188004
 11
111.000000
 21
103.188004
  0
LINE
  8
0
  6
CONTINUOUS
 62
7
 10
126.500000
 20
103.188004
 11
126.500000
 21
113.188004
  0
LINE
  8
0
  6
CENTER
 62
2
 10
126.564003
 20
62.187500
 11
72.500000
 21
62.187500
  0
LINE
  8
0
  6
CONTINUOUS
 62
7
 10
123.500000
 20
60.687500
 11
116.500000
 21
60.687500
  0
LINE
  8
0
  6
CONTINUOUS
 62
7
 10
123.500000
 20
63.687500
 11
116.500000
 21
63.687500
  0
LINE
  8
0
  6
CONTINUOUS
 62
7
 10
123.500000
 20
60.687500
 11
123.500000
 21
63.687500
  0
LINE
  8
0
  6
CONTINUOUS
 62
7
 10
98.500000
 20
101.188004
 11
78.500000
 21
101.188004
  0
LINE
  8
0
  6
CONTINUOUS
 62
7
 10
122.500000
 20
93.187500
 11
122.500000
 21
85.387497
  0
LINE
  8
0
  6
CENTER
 62
2
 10
-142.500000
 20
86.687500
 11
-142.500000
 21
82.687500
  0
LINE
  8
0
  6
CENTER
 62
2
 10
-117.500000
 20
86.687500
 11
-117.500000
 21
82.687500
  0
LINE
  8
0
  6
CENTER
 62
2
 10
-142.500000
 20
-9.312490
 11
-142.500000
 21
-13.312500
  0
LINE
  8
0
  6
CENTER
 62
2
 10
-117.500000
 20
-9.312490
 11
-117.500000
 21
-13.312500
  0
LINE
  8
0
  6
CENTER
 62
2
 10
136.500000
 20
86.687500
 11
136.500000
 21
82.687500
  0
LINE
  8
0
  6
CENTER
 62
2
 10
156.500000
 20
86.687500
 11
156.500000
 21
82.687500
  0
LINE
  8
0
  6
CENTER
 62
2
 10
176.500000
 20
86.687500
 11
176.500000
 21
82.687500
  0
LINE
  8
0
  6
CENTER
 62
2
 10
136.500000
 20
-9.312500
 11
136.500000
 21
-13.312500
  0
LINE
  8
0
  6
CENTER
 62
2
 10
156.500000
 20
-9.312500
 11
156.500000
 21
-13.312500
  0
LINE
  8
0
  6
CENTER
 62
2
 10
176.500000
 20
-9.312500
 11
176.500000
 21
-13.312500
  0
LINE
  8
0
  6
CONTINUOUS
 62
7
 10
19.000000
 20
-27.812500
 11
29.500000
 21
-27.812500
  0
LINE
  8
0
  6
CONTINUOUS
 62
7
 10
60.000000
 20
-27.812500
 11
49.500000
 21
-27.812500
  0
LINE
  8
0
  6
CONTINUOUS
 62
7
 10
49.500000
 20
-20.312500
 11
49.500000
 21
-21.825899
  0
LINE
  8
0
  6
CONTINUOUS
 62
7
 10
49.500000
 20
-24.799101
 11
49.500000
 21
-27.812500
  0
LINE
  8
0
  6
CONTINUOUS
 62
7
 10
19.000000
 20
-40.312500
 11
60.000000
 21
-40.312500
  0
LINE
  8
0
  6
CONTINUOUS
 62
7
 10
29.500000
 20
-20.312500
 11
49.500000
 21
-20.312500
  0
LINE
  8
0
  6
CENTER
 62
2
 10
39.500000
 20
-9.812500
 11
39.500000
 21
-41.812500
  0
LINE
  8
0
  6
CONTINUOUS
 62
7
 10
47.500000
 20
-23.912500
 11
47.500000
 21
-22.712500
  0
LINE
  8
0
  6
CONTINUOUS
 62
7
 10
47.500000
 20
-22.712500
 11
48.406700
 21
-22.552601
  0
LINE
  8
0
  6
CONTINUOUS
 62
7
 10
47.500000
 20
-23.912500
 11
48.406700
 21
-24.072399
  0
LINE
  8
0
  6
CONTINUOUS
 62
7
 10
31.500000
 20
-23.912500
 11
31.500000
 21
-22.712500
  0
LINE
  8
0
  6
CONTINUOUS
 62
7
 10
31.499901
 20
-22.712500
 11
30.593201
 21
-22.552601
  0
LINE
  8
0
  6
CONTINUOUS
 62
7
 10
31.500000
 20
-23.912500
 11
30.593201
 21
-24.072399
  0
LINE
  8
0
  6
CONTINUOUS
 62
7
 10
19.500000
 20
-26.312500
 11
29.500000
 21
-26.312500
  0
LINE
  8
0
  6
CONTINUOUS
 62
7
 10
49.500000
 20
-26.312500
 11
59.500000
 21
-26.312500
  0
LINE
  8
0
  6
CONTINUOUS
 62
7
 10
29.599899
 20
-11.912500
 11
49.400002
 21
-11.912500
  0
LINE
  8
0
  6
CONTINUOUS
 62
7
 10
59.500000
 20
-26.812500
 11
59.500000
 21
-11.312500
  0
LINE
  8
0
  6
CONTINUOUS
 62
7
 10
50.000000
 20
-11.312500
 11
59.500000
 21
-11.312500
  0
LINE
  8
0
  6
CONTINUOUS
 62
7
 10
50.000000
 20
-11.312500
 11
49.400002
 21
-11.912500
  0
LINE
  8
0
  6
CONTINUOUS
 62
7
 10
19.500000
 20
-26.312500
 11
19.500000
 21
-11.312500
  0
LINE
  8
0
  6
CENTER
 62
2
 10
28.459999
 20
-30.312500
 11
50.540001
 21
-30.312500
  0
LINE
  8
0
  6
CONTINUOUS
 62
7
 10
15.500000
 20
-37.853901
 11
15.500000
 21
-29.771099
  0
LINE
  8
0
  6
CONTINUOUS
 62
7
 10
15.500000
 20
-37.853901
 11
19.000000
 21
-37.853901
  0
LINE
  8
0
  6
CONTINUOUS
 62
7
 10
15.500000
 20
-35.875401
 11
18.500000
 21
-35.875401
  0
LINE
  8
0
  6
CENTER
 62
2
 10
14.011700
 20
-33.812500
 11
19.959999
 21
-33.812500
  0
LINE
  8
0
  6
CONTINUOUS
 62
7
 10
15.500000
 20
-31.749701
 11
18.500000
 21
-31.749701
  0
LINE
  8
0
  6
CONTINUOUS
 62
7
 10
15.500000
 20
-29.771099
 11
19.000000
 21
-29.771099
  0
LINE
  8
0
  6
CONTINUOUS
 62
7
 10
18.500000
 20
-37.853901
 11
18.500000
 21
-29.771099
  0
LINE
  8
0
  6
CONTINUOUS
 62
7
 10
41.809399
 20
-15.512500
 11
40.654701
 21
-13.512500
  0
LINE
  8
0
  6
CONTINUOUS
 62
7
 10
38.345299
 20
-17.512501
 11
37.190498
 21
-15.512500
  0
LINE
  8
0
  6
CONTINUOUS
 62
7
 10
38.345299
 20
-17.512501
 11
40.654701
 21
-17.512501
  0
LINE
  8
0
  6
CONTINUOUS
 62
7
 10
38.345299
 20
-13.512500
 11
40.654701
 21
-13.512500
  0
LINE
  8
0
  6
CONTINUOUS
 62
7
 10
40.654701
 20
-17.512501
 11
41.809399
 21
-15.512500
  0
LINE
  8
0
  6
CONTINUOUS
 62
7
 10
37.190498
 20
-15.512500
 11
38.345200
 21
-13.512500
  0
LINE
  8
0
  6
CENTER
 62
2
 10
35.690601
 20
-15.512500
 11
43.309399
 21
-15.512500
  0
LINE
  8
0
  6
CONTINUOUS
 62
7
 10
28.999901
 20
-11.312500
 11
29.599899
 21
-11.912500
  0
LINE
  8
0
  6
CONTINUOUS
 62
7
 10
29.000000
 20
-11.312500
 11
19.500000
 21
-11.312500
  0
LINE
  8
0
  6
CONTINUOUS
 62
7
 10
29.500000
 20
-20.312500
 11
29.500000
 21
-21.825899
  0
LINE
  8
0
  6
CONTINUOUS
 62
7
 10
29.500000
 20
-24.799101
 11
29.500000
 21
-27.812500
  0
LINE
  8
0
  6
CONTINUOUS
 62
7
 10
60.000000
 20
-27.612499
 11
60.000000
 21
-40.312500
  0
LINE
  8
0
  6
CONTINUOUS
 62
7
 10
19.000000
 20
-13.812500
 11
19.000000
 21
-40.312500
  0
LINE
  8
0
  6
CONTINUOUS
 62
7
 10
4.000000
 20
-39.812500
 11
19.000000
 21
-39.812500
  0
LINE
  8
0
  6
CONTINUOUS
 62
7
 10
7.499980
 20
-12.812500
 11
19.499901
 21
-12.812500
  0
LINE
  8
0
  6
CONTINUOUS
 62
7
 10
7.499980
 20
-13.812500
 11
7.499980
 21
-12.812500
  0
LINE
  8
0
  6
CONTINUOUS
 62
7
 10
4.000000
 20
-13.812500
 11
4.000000
 21
-39.812500
  0
LINE
  8
0
  6
CONTINUOUS
 62
7
 10
4.000000
 20
-13.812500
 11
19.000000
 21
-13.812500
  0
LINE
  8
0
  6
CONTINUOUS
 62
7
 10
16.443399
 20
-22.062500
 11
13.716600
 21
-22.062500
  0
LINE
  8
0
  6
CONTINUOUS
 62
7
 10
16.443399
 20
-20.562500
 11
13.716600
 21
-20.562500
  0
LINE
  8
0
  6
CONTINUOUS
 62
7
 10
9.283430
 20
-20.562500
 11
6.556630
 21
-20.562500
  0
LINE
  8
0
  6
CONTINUOUS
 62
7
 10
9.283430
 20
-22.062500
 11
6.556630
 21
-22.062500
  0
LINE
  8
0
  6
CONTINUOUS
 62
7
 10
12.276100
 20
-14.255000
 11
17.223801
 21
-17.111601
  0
LINE
  8
0
  6
CONTINUOUS
 62
7
 10
5.776090
 20
-17.111601
 11
10.723800
 21
-14.255000
  0
LINE
  8
0
  6
CONTINUOUS
 62
7
 10
10.723800
 20
-28.369900
 11
5.776110
 21
-25.513399
  0
LINE
  8
0
  6
CONTINUOUS
 62
7
 10
17.223801
 20
-25.513399
 11
12.276100
 21
-28.369900
  0
LINE
  8
0
  6
CONTINUOUS
 62
7
 10
4.999980
 20
-24.169100
 11
4.999980
 21
-18.455900
  0
LINE
  8
0
  6
CONTINUOUS
 62
7
 10
17.999901
 20
-18.455900
 11
17.999901
 21
-24.186800
  0
LINE
  8
0
  6
CENTER
 62
2
 10
20.539900
 20
-21.312500
 11
2.460020
 21
-21.312500
  0
LINE
  8
0
  6
CENTER
 62
2
 10
11.500000
 20
-12.272500
 11
11.500000
 21
-30.352501
  0
LINE
  8
0
  6
CENTER
 62
2
 10
24.500000
 20
-38.312500
 11
24.500000
 21
-42.312500
  0
LINE
  8
0
  6
CENTER
 62
2
 10
24.500000
 20
-9.312500
 11
24.500000
 21
-13.312500
  0
LINE
  8
0
  6
CENTER
 62
2
 10
54.500000
 20
-9.312500
 11
54.500000
 21
-13.312500
  0
LINE
  8
0
  6
CENTER
 62
2
 10
54.500000
 20
-38.312500
 11
54.500000
 21
-42.312500
  0
LINE
  8
0
  6
CONTINUOUS
 62
7
 10
60.000000
 20
-34.112499
 11
70.000000
 21
-34.112499
  0
LINE
  8
0
  6
CONTINUOUS
 62
7
 10
62.500000
 20
-15.112500
 11
70.000000
 21
-15.112500
  0
LINE
  8
0
  6
CONTINUOUS
 62
7
 10
70.000000
 20
-15.112500
 11
70.000000
 21
-34.112499
  0
LINE
  8
0
  6
CONTINUOUS
 62
2
 10
70.000000
 20
-19.912500
 11
68.999901
 21
-19.912500
  0
LINE
  8
0
  6
CONTINUOUS
 62
2
 10
69.000000
 20
-16.462500
 11
69.000000
 21
-20.762501
  0
LINE
  8
0
  6
CONTINUOUS
 62
2
 10
70.000000
 20
-17.312500
 11
68.999901
 21
-17.312500
  0
LINE
  8
0
  6
CONTINUOUS
 62
2
 10
65.199997
 20
-20.762501
 11
69.000000
 21
-20.762501
  0
LINE
  8
0
  6
CONTINUOUS
 62
2
 10
65.199997
 20
-16.462500
 11
69.000000
 21
-16.462500
  0
LINE
  8
0
  6
CENTER
 62
2
 10
61.700001
 20
-24.612499
 11
72.000000
 21
-24.612499
  0
LINE
  8
0
  6
CENTER
 62
2
 10
61.700001
 20
-18.612499
 11
72.000000
 21
-18.612499
  0
LINE
  8
0
  6
CONTINUOUS
 62
2
 10
63.700001
 20
-17.962500
 11
63.700001
 21
-19.262501
  0
LINE
  8
0
  6
CONTINUOUS
 62
7
 10
61.599998
 20
-15.812500
 11
59.500000
 21
-15.812500
  0
LINE
  8
0
  6
CONTINUOUS
 62
7
 10
61.599998
 20
-15.812500
 11
61.599998
 21
-26.812500
  0
LINE
  8
0
  6
CONTINUOUS
 62
7
 10
62.500000
 20
-15.112500
 11
62.500000
 21
-27.612499
  0
LINE
  8
0
  6
CONTINUOUS
 62
7
 10
61.599998
 20
-26.812500
 11
59.500000
 21
-26.812500
  0
LINE
  8
0
  6
CONTINUOUS
 62
7
 10
60.000000
 20
-27.612499
 11
62.500000
 21
-27.612499
  0
LINE
  8
0
  6
CONTINUOUS
 62
7
 10
264.000000
 20
-27.812500
 11
253.500000
 21
-27.812500
  0
LINE
  8
0
  6
CONTINUOUS
 62
7
 10
223.000000
 20
-27.812500
 11
233.500000
 21
-27.812500
  0
LINE
  8
0
  6
CONTINUOUS
 62
7
 10
233.500000
 20
-20.312500
 11
233.500000
 21
-21.825899
  0
LINE
  8
0
  6
CONTINUOUS
 62
7
 10
233.500000
 20
-24.799101
 11
233.500000
 21
-27.812500
  0
LINE
  8
0
  6
CONTINUOUS
 62
7
 10
264.000000
 20
-40.312500
 11
223.000000
 21
-40.312500
  0
LINE
  8
0
  6
CONTINUOUS
 62
7
 10
253.500000
 20
-20.312500
 11
233.500000
 21
-20.312500
  0
LINE
  8
0
  6
CENTER
 62
2
 10
243.500000
 20
-9.812500
 11
243.500000
 21
-41.812500
  0
LINE
  8
0
  6
CONTINUOUS
 62
7
 10
235.500000
 20
-23.912500
 11
235.500000
 21
-22.712500
  0
LINE
  8
0
  6
CONTINUOUS
 62
7
 10
235.500000
 20
-22.712500
 11
234.593002
 21
-22.552601
  0
LINE
  8
0
  6
CONTINUOUS
 62
7
 10
235.500000
 20
-23.912500
 11
234.593002
 21
-24.072300
  0
LINE
  8
0
  6
CONTINUOUS
 62
7
 10
251.500000
 20
-23.912500
 11
251.500000
 21
-22.712500
  0
LINE
  8
0
  6
CONTINUOUS
 62
7
 10
251.500000
 20
-22.712500
 11
252.406998
 21
-22.552601
  0
LINE
  8
0
  6
CONTINUOUS
 62
7
 10
251.500000
 20
-23.912500
 11
252.406998
 21
-24.072399
  0
LINE
  8
0
  6
CONTINUOUS
 62
7
 10
263.500000
 20
-26.312500
 11
253.500000
 21
-26.312500
  0
LINE
  8
0
  6
CONTINUOUS
 62
7
 10
233.500000
 20
-26.312500
 11
223.500000
 21
-26.312500
  0
LINE
  8
0
  6
CONTINUOUS
 62
7
 10
253.399994
 20
-11.912500
 11
233.600006
 21
-11.912500
  0
LINE
  8
0
  6
CONTINUOUS
 62
7
 10
223.500000
 20
-26.812500
 11
223.500000
 21
-11.312500
  0
LINE
  8
0
  6
CONTINUOUS
 62
7
 10
233.000000
 20
-11.312500
 11
223.500000
 21
-11.312500
  0
LINE
  8
0
  6
CONTINUOUS
 62
7
 10
233.000000
 20
-11.312500
 11
233.600006
 21
-11.912500
  0
LINE
  8
0
  6
CONTINUOUS
 62
7
 10
263.500000
 20
-26.312500
 11
263.500000
 21
-11.312500
  0
LINE
  8
0
  6
CENTER
 62
2
 10
254.539993
 20
-30.312500
 11
232.460007
 21
-30.312500
  0
LINE
  8
0
  6
CONTINUOUS
 62
7
 10
267.500000
 20
-37.853901
 11
267.500000
 21
-29.771099
  0
LINE
  8
0
  6
CONTINUOUS
 62
7
 10
267.500000
 20
-37.853901
 11
264.000000
 21
-37.853901
  0
LINE
  8
0
  6
CONTINUOUS
 62
7
 10
267.500000
 20
-35.875401
 11
264.500000
 21
-35.875401
  0
LINE
  8
0
  6
CENTER
 62
2
 10
268.988007
 20
-33.812500
 11
263.040009
 21
-33.812500
  0
LINE
  8
0
  6
CONTINUOUS
 62
7
 10
267.500000
 20
-31.749701
 11
264.500000
 21
-31.749701
  0
LINE
  8
0
  6
CONTINUOUS
 62
7
 10
267.500000
 20
-29.771099
 11
264.000000
 21
-29.771099
  0
LINE
  8
0
  6
CONTINUOUS
 62
7
 10
264.500000
 20
-37.853901
 11
264.500000
 21
-29.771099
  0
LINE
  8
0
  6
CONTINUOUS
 62
7
 10
241.190002
 20
-15.512400
 11
242.345001
 21
-13.512400
  0
LINE
  8
0
  6
CONTINUOUS
 62
7
 10
244.654999
 20
-17.512400
 11
245.809006
 21
-15.512400
  0
LINE
  8
0
  6
CONTINUOUS
 62
7
 10
244.654999
 20
-17.512501
 11
242.345001
 21
-17.512501
  0
LINE
  8
0
  6
CONTINUOUS
 62
7
 10
244.654999
 20
-13.512500
 11
242.345001
 21
-13.512500
  0
LINE
  8
0
  6
CONTINUOUS
 62
7
 10
242.345001
 20
-17.512501
 11
241.190994
 21
-15.512500
  0
LINE
  8
0
  6
CONTINUOUS
 62
7
 10
245.809006
 20
-15.512600
 11
244.654999
 21
-13.512600
  0
LINE
  8
0
  6
CENTER
 62
2
 10
247.309006
 20
-15.512500
 11
239.690994
 21
-15.512500
  0
LINE
  8
0
  6
CONTINUOUS
 62
7
 10
254.000000
 20
-11.312400
 11
253.399994
 21
-11.912400
  0
LINE
  8
0
  6
CONTINUOUS
 62
7
 10
254.000000
 20
-11.312500
 11
263.500000
 21
-11.312500
  0
LINE
  8
0
  6
CONTINUOUS
 62
7
 10
253.500000
 20
-20.312500
 11
253.500000
 21
-21.825899
  0
LINE
  8
0
  6
CONTINUOUS
 62
7
 10
253.500000
 20
-24.799101
 11
253.500000
 21
-27.812500
  0
LINE
  8
0
  6
CONTINUOUS
 62
7
 10
223.000000
 20
-27.612499
 11
223.000000
 21
-40.312500
  0
LINE
  8
0
  6
CONTINUOUS
 62
7
 10
264.000000
 20
-13.812500
 11
264.000000
 21
-40.312500
  0
LINE
  8
0
  6
CONTINUOUS
 62
7
 10
279.000000
 20
-39.812500
 11
264.000000
 21
-39.812500
  0
LINE
  8
0
  6
CONTINUOUS
 62
7
 10
275.500000
 20
-12.812500
 11
263.500000
 21
-12.812500
  0
LINE
  8
0
  6
CONTINUOUS
 62
7
 10
275.500000
 20
-13.812500
 11
275.500000
 21
-12.812500
  0
LINE
  8
0
  6
CONTINUOUS
 62
7
 10
279.000000
 20
-13.812500
 11
279.000000
 21
-39.812500
  0
LINE
  8
0
  6
CONTINUOUS
 62
7
 10
279.000000
 20
-13.812500
 11
264.000000
 21
-13.812500
  0
LINE
  8
0
  6
CONTINUOUS
 62
7
 10
266.557007
 20
-22.062500
 11
269.282990
 21
-22.062500
  0
LINE
  8
0
  6
CONTINUOUS
 62
7
 10
266.557007
 20
-20.562500
 11
269.282990
 21
-20.562500
  0
LINE
  8
0
  6
CONTINUOUS
 62
7
 10
273.717010
 20
-20.562500
 11
276.442993
 21
-20.562500
  0
LINE
  8
0
  6
CONTINUOUS
 62
7
 10
273.717010
 20
-22.062500
 11
276.442993
 21
-22.062500
  0
LINE
  8
0
  6
CONTINUOUS
 62
7
 10
270.723999
 20
-14.254900
 11
265.776001
 21
-17.111500
  0
LINE
  8
0
  6
CONTINUOUS
 62
7
 10
277.223999
 20
-17.111601
 11
272.276001
 21
-14.255100
  0
LINE
  8
0
  6
CONTINUOUS
 62
7
 10
272.276001
 20
-28.369900
 11
277.223999
 21
-25.513300
  0
LINE
  8
0
  6
CONTINUOUS
 62
7
 10
265.776001
 20
-25.513399
 11
270.723999
 21
-28.370001
  0
LINE
  8
0
  6
CONTINUOUS
 62
7
 10
278.000000
 20
-24.169100
 11
278.000000
 21
-18.455900
  0
LINE
  8
0
  6
CONTINUOUS
 62
7
 10
265.000000
 20
-18.455900
 11
265.000000
 21
-24.186800
  0
LINE
  8
0
  6
CENTER
 62
2
 10
262.459991
 20
-21.312500
 11
280.540009
 21
-21.312500
  0
LINE
  8
0
  6
CENTER
 62
2
 10
271.500000
 20
-12.272500
 11
271.500000
 21
-30.352501
  0
LINE
  8
0
  6
CENTER
 62
2
 10
258.500000
 20
-38.312500
 11
258.500000
 21
-42.312500
  0
LINE
  8
0
  6
CENTER
 62
2
 10
258.500000
 20
-9.312500
 11
258.500000
 21
-13.312500
  0
LINE
  8
0
  6
CENTER
 62
2
 10
228.500000
 20
-9.312500
 11
228.500000
 21
-13.312500
  0
LINE
  8
0
  6
CENTER
 62
2
 10
228.500000
 20
-38.312500
 11
228.500000
 21
-42.312500
  0
LINE
  8
0
  6
CONTINUOUS
 62
7
 10
223.000000
 20
-34.112499
 11
213.000000
 21
-34.112499
  0
LINE
  8
0
  6
CONTINUOUS
 62
7
 10
220.500000
 20
-15.112500
 11
213.000000
 21
-15.112500
  0
LINE
  8
0
  6
CONTINUOUS
 62
7
 10
213.000000
 20
-15.112500
 11
213.000000
 21
-34.112499
  0
LINE
  8
0
  6
CONTINUOUS
 62
2
 10
213.000000
 20
-19.912500
 11
214.000000
 21
-19.912500
  0
LINE
  8
0
  6
CONTINUOUS
 62
2
 10
214.000000
 20
-16.462500
 11
214.000000
 21
-20.762501
  0
LINE
  8
0
  6
CONTINUOUS
 62
2
 10
213.000000
 20
-17.312500
 11
214.000000
 21
-17.312500
  0
LINE
  8
0
  6
CONTINUOUS
 62
2
 10
217.800003
 20
-20.762501
 11
214.000000
 21
-20.762501
  0
LINE
  8
0
  6
CONTINUOUS
 62
2
 10
217.800003
 20
-16.462500
 11
214.000000
 21
-16.462500
  0
LINE
  8
0
  6
CENTER
 62
2
 10
221.300003
 20
-24.612499
 11
211.000000
 21
-24.612499
  0
LINE
  8
0
  6
CENTER
 62
2
 10
221.300003
 20
-18.612499
 11
211.000000
 21
-18.612499
  0
LINE
  8
0
  6
CONTINUOUS
 62
2
 10
219.300003
 20
-17.962500
 11
219.300003
 21
-19.262501
  0
LINE
  8
0
  6
CONTINUOUS
 62
7
 10
221.399994
 20
-15.812500
 11
223.500000
 21
-15.812500
  0
LINE
  8
0
  6
CONTINUOUS
 62
7
 10
221.399994
 20
-15.812500
 11
221.399994
 21
-26.812500
  0
LINE
  8
0
  6
CONTINUOUS
 62
7
 10
220.500000
 20
-15.112500
 11
220.500000
 21
-27.612499
  0
LINE
  8
0
  6
CONTINUOUS
 62
7
 10
221.399994
 20
-26.812500
 11
223.500000
 21
-26.812500
  0
LINE
  8
0
  6
CONTINUOUS
 62
7
 10
223.000000
 20
-27.612499
 11
220.500000
 21
-27.612499
  0
LINE
  8
0
  6
CONTINUOUS
 62
2
 10
-111.500000
 20
-23.312500
 11
-168.500000
 21
-23.312500
  0
LINE
  8
0
  6
CONTINUOUS
 62
2
 10
-111.500000
 20
-25.912500
 11
-168.500000
 21
-25.912500
  0
LINE
  8
0
  6
CONTINUOUS
 62
2
 10
-111.500000
 20
-17.312500
 11
-168.500000
 21
-17.312500
  0
LINE
  8
0
  6
CONTINUOUS
 62
2
 10
-111.500000
 20
-19.912500
 11
-168.500000
 21
-19.912500
  0
LINE
  8
0
  6
CONTINUOUS
 62
7
 10
-111.500000
 20
-28.112499
 11
-121.891998
 21
-34.112499
  0
LINE
  8
0
  6
CONTINUOUS
 62
7
 10
-121.891998
 20
-34.112499
 11
-158.108002
 21
-34.112499
  0
LINE
  8
0
  6
CONTINUOUS
 62
7
 10
-168.500000
 20
-28.112499
 11
-158.108002
 21
-34.112499
  0
LINE
  8
0
  6
CONTINUOUS
 62
7
 10
-168.500000
 20
-15.112500
 11
-168.500000
 21
-28.112499
  0
LINE
  8
0
  6
CONTINUOUS
 62
7
 10
-111.500000
 20
-15.112500
 11
-168.500000
 21
-15.112500
  0
LINE
  8
0
  6
CONTINUOUS
 62
7
 10
-111.500000
 20
-15.112500
 11
-111.500000
 21
-28.112499
  0
LINE
  8
0
  6
CONTINUOUS
 62
7
 10
-168.500000
 20
-27.812500
 11
-188.000000
 21
-27.812500
  0
LINE
  8
0
  6
CONTINUOUS
 62
7
 10
-168.500000
 20
-56.312500
 11
-111.500000
 21
-56.312500
  0
LINE
  8
0
  6
CONTINUOUS
 62
7
 10
-168.500000
 20
-56.312500
 11
-168.500000
 21
-66.312500
  0
LINE
  8
0
  6
CONTINUOUS
 62
7
 10
-158.108002
 20
-56.312500
 11
-158.108002
 21
-66.312500
  0
LINE
  8
0
  6
CONTINUOUS
 62
7
 10
-121.891998
 20
-56.312500
 11
-121.891998
 21
-66.312500
  0
LINE
  8
0
  6
CONTINUOUS
 62
7
 10
-111.500000
 20
-56.312500
 11
-111.500000
 21
-66.312500
  0
LINE
  8
0
  6
CONTINUOUS
 62
7
 10
-168.000000
 20
88.487503
 11
-167.000000
 21
88.487503
  0
LINE
  8
0
  6
CONTINUOUS
 62
7
 10
-160.000000
 20
88.487503
 11
-159.473007
 21
88.487503
  0
LINE
  8
0
  6
CONTINUOUS
 62
7
 10
-168.500000
 20
13.687500
 11
-168.500000
 21
3.687510
  0
LINE
  8
0
  6
CONTINUOUS
 62
7
 10
-168.500000
 20
3.687510
 11
-111.500000
 21
3.687510
  0
LINE
  8
0
  6
CONTINUOUS
 62
7
 10
-168.500000
 20
11.187500
 11
-111.500000
 21
11.187500
  0
LINE
  8
0
  6
CONTINUOUS
 62
7
 10
-133.250000
 20
13.687500
 11
-133.250000
 21
12.087500
  0
LINE
  8
0
  6
CONTINUOUS
 62
7
 10
-126.750000
 20
12.087500
 11
-133.250000
 21
12.087500
  0
LINE
  8
0
  6
CONTINUOUS
 62
7
 10
-126.750000
 20
13.687500
 11
-126.750000
 21
12.087500
  0
LINE
  8
0
  6
CONTINUOUS
 62
7
 10
-111.500000
 20
13.687500
 11
-111.500000
 21
3.687510
  0
LINE
  8
0
  6
CONTINUOUS
 62
2
 10
175.500000
 20
-17.312500
 11
107.500000
 21
-17.312500
  0
LINE
  8
0
  6
CONTINUOUS
 62
2
 10
175.500000
 20
-19.912500
 11
107.500000
 21
-19.912500
  0
LINE
  8
0
  6
CONTINUOUS
 62
2
 10
175.500000
 20
-23.312500
 11
107.500000
 21
-23.312500
  0
LINE
  8
0
  6
CONTINUOUS
 62
2
 10
175.500000
 20
-25.912500
 11
107.500000
 21
-25.912500
  0
LINE
  8
0
  6
CONTINUOUS
 62
7
 10
107.500000
 20
-28.112499
 11
117.891998
 21
-34.112499
  0
LINE
  8
0
  6
CONTINUOUS
 62
7
 10
165.108002
 20
-34.112499
 11
117.891998
 21
-34.112499
  0
LINE
  8
0
  6
CONTINUOUS
 62
7
 10
175.500000
 20
-28.112400
 11
165.108002
 21
-34.112400
  0
LINE
  8
0
  6
CONTINUOUS
 62
7
 10
175.500000
 20
-15.112500
 11
175.500000
 21
-28.112499
  0
LINE
  8
0
  6
CONTINUOUS
 62
7
 10
175.500000
 20
-15.112500
 11
107.500000
 21
-15.112500
  0
LINE
  8
0
  6
CONTINUOUS
 62
7
 10
107.500000
 20
-15.112500
 11
107.500000
 21
-28.112499
  0
LINE
  8
0
  6
CONTINUOUS
 62
7
 10
107.500000
 20
-56.312500
 11
107.500000
 21
-66.312500
  0
LINE
  8
0
  6
CONTINUOUS
 62
7
 10
117.891998
 20
-56.312500
 11
117.891998
 21
-66.312500
  0
LINE
  8
0
  6
CONTINUOUS
 62
7
 10
107.500000
 20
-56.312500
 11
175.500000
 21
-56.312500
  0
LINE
  8
0
  6
CONTINUOUS
 62
7
 10
165.108002
 20
-56.312500
 11
165.108002
 21
-66.312500
  0
LINE
  8
0
  6
CONTINUOUS
 62
7
 10
175.500000
 20
-56.312500
 11
175.500000
 21
-66.312500
  0
LINE
  8
0
  6
CONTINUOUS
 62
7
 10
107.500000
 20
11.187500
 11
175.500000
 21
11.187500
  0
LINE
  8
0
  6
CONTINUOUS
 62
7
 10
107.500000
 20
3.687500
 11
175.500000
 21
3.687500
  0
LINE
  8
0
  6
CONTINUOUS
 62
7
 10
159.750000
 20
12.087500
 11
153.250000
 21
12.087500
  0
LINE
  8
0
  6
CONTINUOUS
 62
7
 10
107.500000
 20
13.687500
 11
107.500000
 21
3.687500
  0
LINE
  8
0
  6
CONTINUOUS
 62
7
 10
153.250000
 20
13.687500
 11
153.250000
 21
12.087500
  0
LINE
  8
0
  6
CONTINUOUS
 62
7
 10
175.500000
 20
13.687500
 11
175.500000
 21
3.687500
  0
LINE
  8
0
  6
CONTINUOUS
 62
7
 10
159.750000
 20
13.687500
 11
159.750000
 21
12.087500
  0
LINE
  8
0
  6
CONTINUOUS
 62
7
 10
107.500000
 20
-27.812500
 11
78.500000
 21
-27.812500
  0
LINE
  8
0
  6
CONTINUOUS
 62
7
 10
108.500000
 20
88.487503
 11
109.500000
 21
88.487503
  0
LINE
  8
0
  6
CONTINUOUS
 62
7
 10
116.500000
 20
88.487503
 11
118.027000
 21
88.487503
  0
LINE
  8
0
  6
CENTER
 62
2
 10
-181.500000
 20
-29.312500
 11
-181.500000
 21
-38.312500
  0
LINE
  8
0
  6
CENTER
 62
2
 10
-186.000000
 20
-33.812500
 11
-177.000000
 21
-33.812500
  0
LINE
  8
0
  6
CENTER
 62
2
 10
-98.500000
 20
-29.312500
 11
-98.500000
 21
-38.312500
  0
LINE
  8
0
  6
CENTER
 62
2
 10
-103.000000
 20
-33.812500
 11
-94.000000
 21
-33.812500
  0
LINE
  8
0
  6
CONTINUOUS
 62
7
 10
-261.500000
 20
-27.812500
 11
-251.000000
 21
-27.812500
  0
LINE
  8
0
  6
CONTINUOUS
 62
7
 10
-220.500000
 20
-27.812500
 11
-231.000000
 21
-27.812500
  0
LINE
  8
0
  6
CONTINUOUS
 62
7
 10
-231.000000
 20
-20.312500
 11
-231.000000
 21
-21.825899
  0
LINE
  8
0
  6
CONTINUOUS
 62
7
 10
-231.000000
 20
-24.799101
 11
-231.000000
 21
-27.812500
  0
LINE
  8
0
  6
CONTINUOUS
 62
7
 10
-261.500000
 20
-40.312500
 11
-220.500000
 21
-40.312500
  0
LINE
  8
0
  6
CONTINUOUS
 62
7
 10
-251.000000
 20
-20.312500
 11
-231.000000
 21
-20.312500
  0
LINE
  8
0
  6
CENTER
 62
2
 10
-241.000000
 20
-9.812490
 11
-241.000000
 21
-41.812500
  0
LINE
  8
0
  6
CONTINUOUS
 62
7
 10
-233.000000
 20
-23.912500
 11
-233.000000
 21
-22.712500
  0
LINE
  8
0
  6
CONTINUOUS
 62
7
 10
-233.000000
 20
-22.712500
 11
-232.093002
 21
-22.552601
  0
LINE
  8
0
  6
CONTINUOUS
 62
7
 10
-233.000000
 20
-23.912500
 11
-232.093002
 21
-24.072300
  0
LINE
  8
0
  6
CONTINUOUS
 62
7
 10
-249.000000
 20
-23.912500
 11
-249.000000
 21
-22.712500
  0
LINE
  8
0
  6
CONTINUOUS
 62
7
 10
-249.000000
 20
-22.712500
 11
-249.906998
 21
-22.552601
  0
LINE
  8
0
  6
CONTINUOUS
 62
7
 10
-249.000000
 20
-23.912500
 11
-249.906998
 21
-24.072399
  0
LINE
  8
0
  6
CONTINUOUS
 62
7
 10
-261.000000
 20
-26.312500
 11
-251.000000
 21
-26.312500
  0
LINE
  8
0
  6
CONTINUOUS
 62
7
 10
-231.000000
 20
-26.312500
 11
-221.000000
 21
-26.312500
  0
LINE
  8
0
  6
CONTINUOUS
 62
7
 10
-250.899994
 20
-11.912500
 11
-231.100006
 21
-11.912500
  0
LINE
  8
0
  6
CONTINUOUS
 62
7
 10
-221.000000
 20
-26.812500
 11
-221.000000
 21
-11.312500
  0
LINE
  8
0
  6
CONTINUOUS
 62
7
 10
-230.500000
 20
-11.312500
 11
-221.000000
 21
-11.312500
  0
LINE
  8
0
  6
CONTINUOUS
 62
7
 10
-230.500000
 20
-11.312500
 11
-231.100006
 21
-11.912500
  0
LINE
  8
0
  6
CONTINUOUS
 62
7
 10
-261.000000
 20
-26.312500
 11
-261.000000
 21
-11.312500
  0
LINE
  8
0
  6
CENTER
 62
2
 10
-252.039993
 20
-30.312500
 11
-229.960007
 21
-30.312500
  0
LINE
  8
0
  6
CONTINUOUS
 62
7
 10
-265.000000
 20
-37.854000
 11
-265.000000
 21
-29.771000
  0
LINE
  8
0
  6
CONTINUOUS
 62
7
 10
-265.000000
 20
-37.854000
 11
-261.500000
 21
-37.854000
  0
LINE
  8
0
  6
CONTINUOUS
 62
7
 10
-265.000000
 20
-35.875401
 11
-262.000000
 21
-35.875401
  0
LINE
  8
0
  6
CENTER
 62
2
 10
-266.488007
 20
-33.812500
 11
-260.540009
 21
-33.812500
  0
LINE
  8
0
  6
CONTINUOUS
 62
7
 10
-265.000000
 20
-31.749701
 11
-262.000000
 21
-31.749701
  0
LINE
  8
0
  6
CONTINUOUS
 62
7
 10
-265.000000
 20
-29.771000
 11
-261.500000
 21
-29.771000
  0
LINE
  8
0
  6
CONTINUOUS
 62
7
 10
-262.000000
 20
-37.854000
 11
-262.000000
 21
-29.771000
  0
LINE
  8
0
  6
CONTINUOUS
 62
7
 10
-238.690994
 20
-15.512400
 11
-239.845001
 21
-13.512400
  0
LINE
  8
0
  6
CONTINUOUS
 62
7
 10
-242.154999
 20
-17.512501
 11
-243.309006
 21
-15.512500
  0
LINE
  8
0
  6
CONTINUOUS
 62
7
 10
-242.154999
 20
-17.512501
 11
-239.845001
 21
-17.512501
  0
LINE
  8
0
  6
CONTINUOUS
 62
7
 10
-242.154999
 20
-13.512500
 11
-239.845001
 21
-13.512500
  0
LINE
  8
0
  6
CONTINUOUS
 62
7
 10
-239.845001
 20
-17.512501
 11
-238.690994
 21
-15.512500
  0
LINE
  8
0
  6
CONTINUOUS
 62
7
 10
-243.309006
 20
-15.512500
 11
-242.154999
 21
-13.512500
  0
LINE
  8
0
  6
CENTER
 62
2
 10
-244.809006
 20
-15.512500
 11
-237.190994
 21
-15.512500
  0
LINE
  8
0
  6
CONTINUOUS
 62
7
 10
-251.500000
 20
-11.312500
 11
-250.899994
 21
-11.912400
  0
LINE
  8
0
  6
CONTINUOUS
 62
7
 10
-251.500000
 20
-11.312500
 11
-261.000000
 21
-11.312500
  0
LINE
  8
0
  6
CONTINUOUS
 62
7
 10
-251.000000
 20
-20.312500
 11
-251.000000
 21
-21.825899
  0
LINE
  8
0
  6
CONTINUOUS
 62
7
 10
-251.000000
 20
-24.799101
 11
-251.000000
 21
-27.812500
  0
LINE
  8
0
  6
CONTINUOUS
 62
7
 10
-220.500000
 20
-27.612499
 11
-220.500000
 21
-40.312500
  0
LINE
  8
0
  6
CONTINUOUS
 62
7
 10
-261.500000
 20
-13.812500
 11
-261.500000
 21
-40.312500
  0
LINE
  8
0
  6
CONTINUOUS
 62
7
 10
-276.500000
 20
-39.812500
 11
-261.500000
 21
-39.812500
  0
LINE
  8
0
  6
CONTINUOUS
 62
7
 10
-273.000000
 20
-12.812500
 11
-261.000000
 21
-12.812500
  0
LINE
  8
0
  6
CONTINUOUS
 62
7
 10
-273.000000
 20
-13.812500
 11
-273.000000
 21
-12.812500
  0
LINE
  8
0
  6
CONTINUOUS
 62
7
 10
-276.500000
 20
-13.812500
 11
-276.500000
 21
-39.812500
  0
LINE
  8
0
  6
CONTINUOUS
 62
7
 10
-276.500000
 20
-13.812500
 11
-261.500000
 21
-13.812500
  0
LINE
  8
0
  6
CONTINUOUS
 62
7
 10
-264.057007
 20
-22.062500
 11
-266.782990
 21
-22.062500
  0
LINE
  8
0
  6
CONTINUOUS
 62
7
 10
-264.057007
 20
-20.562500
 11
-266.782990
 21
-20.562500
  0
LINE
  8
0
  6
CONTINUOUS
 62
7
 10
-271.217010
 20
-20.562500
 11
-273.942993
 21
-20.562500
  0
LINE
  8
0
  6
CONTINUOUS
 62
7
 10
-271.217010
 20
-22.062500
 11
-273.942993
 21
-22.062500
  0
LINE
  8
0
  6
CONTINUOUS
 62
7
 10
-268.223999
 20
-14.255000
 11
-263.276001
 21
-17.111601
  0
LINE
  8
0
  6
CONTINUOUS
 62
7
 10
-274.723999
 20
-17.111601
 11
-269.776001
 21
-14.255100
  0
LINE
  8
0
  6
CONTINUOUS
 62
7
 10
-269.776001
 20
-28.369900
 11
-274.723999
 21
-25.513300
  0
LINE
  8
0
  6
CONTINUOUS
 62
7
 10
-263.276001
 20
-25.513399
 11
-268.223999
 21
-28.370001
  0
LINE
  8
0
  6
CONTINUOUS
 62
7
 10
-275.500000
 20
-24.169100
 11
-275.500000
 21
-18.455900
  0
LINE
  8
0
  6
CONTINUOUS
 62
7
 10
-262.500000
 20
-18.455900
 11
-262.500000
 21
-24.186800
  0
LINE
  8
0
  6
CENTER
 62
2
 10
-259.959991
 20
-21.312500
 11
-278.040009
 21
-21.312500
  0
LINE
  8
0
  6
CENTER
 62
2
 10
-269.000000
 20
-12.272500
 11
-269.000000
 21
-30.352501
  0
LINE
  8
0
  6
CENTER
 62
2
 10
-256.000000
 20
-38.312500
 11
-256.000000
 21
-42.312500
  0
LINE
  8
0
  6
CENTER
 62
2
 10
-256.000000
 20
-9.312490
 11
-256.000000
 21
-13.312500
  0
LINE
  8
0
  6
CENTER
 62
2
 10
-226.000000
 20
-9.312490
 11
-226.000000
 21
-13.312500
  0
LINE
  8
0
  6
CENTER
 62
2
 10
-226.000000
 20
-38.312500
 11
-226.000000
 21
-42.312500
  0
LINE
  8
0
  6
CONTINUOUS
 62
7
 10
-220.500000
 20
-34.112499
 11
-210.500000
 21
-34.112499
  0
LINE
  8
0
  6
CONTINUOUS
 62
7
 10
-218.000000
 20
-15.112500
 11
-210.500000
 21
-15.112500
  0
LINE
  8
0
  6
CONTINUOUS
 62
7
 10
-210.500000
 20
-15.112500
 11
-210.500000
 21
-34.112499
  0
LINE
  8
0
  6
CONTINUOUS
 62
2
 10
-210.500000
 20
-19.912500
 11
-211.500000
 21
-19.912500
  0
LINE
  8
0
  6
CONTINUOUS
 62
2
 10
-211.500000
 20
-16.462500
 11
-211.500000
 21
-20.762501
  0
LINE
  8
0
  6
CONTINUOUS
 62
2
 10
-210.500000
 20
-17.312500
 11
-211.500000
 21
-17.312500
  0
LINE
  8
0
  6
CONTINUOUS
 62
2
 10
-215.300003
 20
-20.762501
 11
-211.500000
 21
-20.762501
  0
LINE
  8
0
  6
CONTINUOUS
 62
2
 10
-215.300003
 20
-16.462500
 11
-211.500000
 21
-16.462500
  0
LINE
  8
0
  6
CENTER
 62
2
 10
-218.800003
 20
-24.612499
 11
-208.500000
 21
-24.612499
  0
LINE
  8
0
  6
CENTER
 62
2
 10
-218.800003
 20
-18.612499
 11
-208.500000
 21
-18.612499
  0
LINE
  8
0
  6
CONTINUOUS
 62
2
 10
-216.800003
 20
-17.962500
 11
-216.800003
 21
-19.262501
  0
LINE
  8
0
  6
CONTINUOUS
 62
7
 10
-218.899994
 20
-15.812500
 11
-221.000000
 21
-15.812500
  0
LINE
  8
0
  6
CONTINUOUS
 62
7
 10
-218.899994
 20
-15.812500
 11
-218.899994
 21
-26.812500
  0
LINE
  8
0
  6
CONTINUOUS
 62
7
 10
-218.000000
 20
-15.112500
 11
-218.000000
 21
-27.612499
  0
LINE
  8
0
  6
CONTINUOUS
 62
7
 10
-218.899994
 20
-26.812500
 11
-221.000000
 21
-26.812500
  0
LINE
  8
0
  6
CONTINUOUS
 62
7
 10
-220.500000
 20
-27.612499
 11
-218.000000
 21
-27.612499
  0
LINE
  8
0
  6
CONTINUOUS
 62
7
 10
-18.500000
 20
-27.812500
 11
-29.000000
 21
-27.812500
  0
LINE
  8
0
  6
CONTINUOUS
 62
7
 10
-59.500000
 20
-27.812500
 11
-49.000000
 21
-27.812500
  0
LINE
  8
0
  6
CONTINUOUS
 62
7
 10
-49.000000
 20
-20.312500
 11
-49.000000
 21
-21.825899
  0
LINE
  8
0
  6
CONTINUOUS
 62
7
 10
-49.000000
 20
-24.799101
 11
-49.000000
 21
-27.812500
  0
LINE
  8
0
  6
CONTINUOUS
 62
7
 10
-18.500000
 20
-40.312500
 11
-59.500000
 21
-40.312500
  0
LINE
  8
0
  6
CONTINUOUS
 62
7
 10
-29.000000
 20
-20.312500
 11
-49.000000
 21
-20.312500
  0
LINE
  8
0
  6
CENTER
 62
2
 10
-39.000000
 20
-9.812490
 11
-39.000000
 21
-41.812500
  0
LINE
  8
0
  6
CONTINUOUS
 62
7
 10
-47.000000
 20
-23.912500
 11
-47.000000
 21
-22.712500
  0
LINE
  8
0
  6
CONTINUOUS
 62
7
 10
-47.000000
 20
-22.712500
 11
-47.906700
 21
-22.552601
  0
LINE
  8
0
  6
CONTINUOUS
 62
7
 10
-47.000000
 20
-23.912500
 11
-47.906700
 21
-24.072399
  0
LINE
  8
0
  6
CONTINUOUS
 62
7
 10
-31.000000
 20
-23.912500
 11
-31.000000
 21
-22.712500
  0
LINE
  8
0
  6
CONTINUOUS
 62
7
 10
-31.000000
 20
-22.712500
 11
-30.093300
 21
-22.552601
  0
LINE
  8
0
  6
CONTINUOUS
 62
7
 10
-31.000000
 20
-23.912500
 11
-30.093300
 21
-24.072399
  0
LINE
  8
0
  6
CONTINUOUS
 62
7
 10
-19.000000
 20
-26.312500
 11
-29.000000
 21
-26.312500
  0
LINE
  8
0
  6
CONTINUOUS
 62
7
 10
-49.000000
 20
-26.312500
 11
-59.000000
 21
-26.312500
  0
LINE
  8
0
  6
CONTINUOUS
 62
7
 10
-29.100000
 20
-11.912500
 11
-48.900002
 21
-11.912500
  0
LINE
  8
0
  6
CONTINUOUS
 62
7
 10
-59.000000
 20
-26.812500
 11
-59.000000
 21
-11.312500
  0
LINE
  8
0
  6
CONTINUOUS
 62
7
 10
-49.500000
 20
-11.312500
 11
-59.000000
 21
-11.312500
  0
LINE
  8
0
  6
CONTINUOUS
 62
7
 10
-49.500000
 20
-11.312500
 11
-48.900101
 21
-11.912500
  0
LINE
  8
0
  6
CONTINUOUS
 62
7
 10
-19.000000
 20
-26.312500
 11
-19.000000
 21
-11.312500
  0
LINE
  8
0
  6
CENTER
 62
2
 10
-27.959999
 20
-30.312500
 11
-50.040001
 21
-30.312500
  0
LINE
  8
0
  6
CONTINUOUS
 62
7
 10
-15.000000
 20
-37.854000
 11
-15.000000
 21
-29.771000
  0
LINE
  8
0
  6
CONTINUOUS
 62
7
 10
-15.000000
 20
-37.854000
 11
-18.500000
 21
-37.854000
  0
LINE
  8
0
  6
CONTINUOUS
 62
7
 10
-15.000000
 20
-35.875401
 11
-18.000000
 21
-35.875401
  0
LINE
  8
0
  6
CENTER
 62
2
 10
-13.511700
 20
-33.812500
 11
-19.459999
 21
-33.812500
  0
LINE
  8
0
  6
CONTINUOUS
 62
7
 10
-15.000000
 20
-31.749701
 11
-18.000000
 21
-31.749701
  0
LINE
  8
0
  6
CONTINUOUS
 62
7
 10
-15.000000
 20
-29.771000
 11
-18.500000
 21
-29.771000
  0
LINE
  8
0
  6
CONTINUOUS
 62
7
 10
-18.000000
 20
-37.854000
 11
-18.000000
 21
-29.771000
  0
LINE
  8
0
  6
CONTINUOUS
 62
7
 10
-41.309399
 20
-15.512500
 11
-40.154701
 21
-13.512500
  0
LINE
  8
0
  6
CONTINUOUS
 62
7
 10
-37.845299
 20
-17.512501
 11
-36.690601
 21
-15.512500
  0
LINE
  8
0
  6
CONTINUOUS
 62
7
 10
-37.845299
 20
-17.512501
 11
-40.154701
 21
-17.512501
  0
LINE
  8
0
  6
CONTINUOUS
 62
7
 10
-37.845299
 20
-13.512500
 11
-40.154701
 21
-13.512500
  0
LINE
  8
0
  6
CONTINUOUS
 62
7
 10
-40.154701
 20
-17.512501
 11
-41.309399
 21
-15.512500
  0
LINE
  8
0
  6
CONTINUOUS
 62
7
 10
-36.690601
 20
-15.512500
 11
-37.845299
 21
-13.512500
  0
LINE
  8
0
  6
CENTER
 62
2
 10
-35.190601
 20
-15.512500
 11
-42.809399
 21
-15.512500
  0
LINE
  8
0
  6
CONTINUOUS
 62
7
 10
-28.500000
 20
-11.312500
 11
-29.100000
 21
-11.912500
  0
LINE
  8
0
  6
CONTINUOUS
 62
7
 10
-28.500000
 20
-11.312500
 11
-19.000000
 21
-11.312500
  0
LINE
  8
0
  6
CONTINUOUS
 62
7
 10
-29.000000
 20
-20.312500
 11
-29.000000
 21
-21.825899
  0
LINE
  8
0
  6
CONTINUOUS
 62
7
 10
-29.000000
 20
-24.799101
 11
-29.000000
 21
-27.812500
  0
LINE
  8
0
  6
CONTINUOUS
 62
7
 10
-59.500000
 20
-27.612499
 11
-59.500000
 21
-40.312500
  0
LINE
  8
0
  6
CONTINUOUS
 62
7
 10
-18.500000
 20
-13.812500
 11
-18.500000
 21
-40.312500
  0
LINE
  8
0
  6
CONTINUOUS
 62
7
 10
-3.500060
 20
-39.812500
 11
-18.500000
 21
-39.812500
  0
LINE
  8
0
  6
CONTINUOUS
 62
7
 10
-7.000030
 20
-12.812500
 11
-19.000000
 21
-12.812500
  0
LINE
  8
0
  6
CONTINUOUS
 62
7
 10
-7.000030
 20
-13.812500
 11
-7.000030
 21
-12.812500
  0
LINE
  8
0
  6
CONTINUOUS
 62
7
 10
-3.500060
 20
-13.812500
 11
-3.500060
 21
-39.812500
  0
LINE
  8
0
  6
CONTINUOUS
 62
7
 10
-3.500060
 20
-13.812500
 11
-18.500000
 21
-13.812500
  0
LINE
  8
0
  6
CONTINUOUS
 62
7
 10
-15.943500
 20
-22.062500
 11
-13.216600
 21
-22.062500
  0
LINE
  8
0
  6
CONTINUOUS
 62
7
 10
-15.943500
 20
-20.562500
 11
-13.216600
 21
-20.562500
  0
LINE
  8
0
  6
CONTINUOUS
 62
7
 10
-8.783480
 20
-20.562500
 11
-6.056670
 21
-20.562500
  0
LINE
  8
0
  6
CONTINUOUS
 62
7
 10
-8.783480
 20
-22.062500
 11
-6.056670
 21
-22.062500
  0
LINE
  8
0
  6
CONTINUOUS
 62
7
 10
-11.776200
 20
-14.255100
 11
-16.723900
 21
-17.111601
  0
LINE
  8
0
  6
CONTINUOUS
 62
7
 10
-5.276170
 20
-17.111601
 11
-10.223900
 21
-14.255100
  0
LINE
  8
0
  6
CONTINUOUS
 62
7
 10
-10.223900
 20
-28.370001
 11
-5.276160
 21
-25.513399
  0
LINE
  8
0
  6
CONTINUOUS
 62
7
 10
-16.723900
 20
-25.513399
 11
-11.776200
 21
-28.369900
  0
LINE
  8
0
  6
CONTINUOUS
 62
7
 10
-4.500030
 20
-24.169100
 11
-4.500030
 21
-18.455900
  0
LINE
  8
0
  6
CONTINUOUS
 62
7
 10
-17.500000
 20
-18.455900
 11
-17.500000
 21
-24.186800
  0
LINE
  8
0
  6
CENTER
 62
2
 10
-20.040001
 20
-21.312500
 11
-1.960050
 21
-21.312500
  0
LINE
  8
0
  6
CENTER
 62
2
 10
-11.000000
 20
-12.272500
 11
-11.000000
 21
-30.352501
  0
LINE
  8
0
  6
CENTER
 62
2
 10
-24.000000
 20
-38.312500
 11
-24.000000
 21
-42.312500
  0
LINE
  8
0
  6
CENTER
 62
2
 10
-24.000000
 20
-9.312490
 11
-24.000000
 21
-13.312500
  0
LINE
  8
0
  6
CENTER
 62
2
 10
-54.000000
 20
-9.312490
 11
-54.000000
 21
-13.312500
  0
LINE
  8
0
  6
CENTER
 62
2
 10
-54.000000
 20
-38.312500
 11
-54.000000
 21
-42.312500
  0
LINE
  8
0
  6
CONTINUOUS
 62
7
 10
-59.500000
 20
-34.112499
 11
-69.500000
 21
-34.112499
  0
LINE
  8
0
  6
CONTINUOUS
 62
7
 10
-62.000000
 20
-15.112500
 11
-69.500000
 21
-15.112500
  0
LINE
  8
0
  6
CONTINUOUS
 62
7
 10
-69.500000
 20
-15.112500
 11
-69.500000
 21
-34.112499
  0
LINE
  8
0
  6
CONTINUOUS
 62
2
 10
-69.500000
 20
-19.912500
 11
-68.500000
 21
-19.912500
  0
LINE
  8
0
  6
CONTINUOUS
 62
2
 10
-68.500000
 20
-16.462500
 11
-68.500000
 21
-20.762501
  0
LINE
  8
0
  6
CONTINUOUS
 62
2
 10
-69.500000
 20
-17.312500
 11
-68.500000
 21
-17.312500
  0
LINE
  8
0
  6
CONTINUOUS
 62
2
 10
-64.699997
 20
-20.762501
 11
-68.500000
 21
-20.762501
  0
LINE
  8
0
  6
CONTINUOUS
 62
2
 10
-64.699997
 20
-16.462500
 11
-68.500000
 21
-16.462500
  0
LINE
  8
0
  6
CENTER
 62
2
 10
-61.200001
 20
-24.612499
 11
-71.500000
 21
-24.612499
  0
LINE
  8
0
  6
CENTER
 62
2
 10
-61.200001
 20
-18.612499
 11
-71.500000
 21
-18.612499
  0
LINE
  8
0
  6
CONTINUOUS
 62
2
 10
-63.200001
 20
-17.962500
 11
-63.200001
 21
-19.262501
  0
LINE
  8
0
  6
CONTINUOUS
 62
7
 10
-61.100101
 20
-15.812500
 11
-59.000099
 21
-15.812500
  0
LINE
  8
0
  6
CONTINUOUS
 62
7
 10
-61.100101
 20
-15.812500
 11
-61.100101
 21
-26.812500
  0
LINE
  8
0
  6
CONTINUOUS
 62
7
 10
-62.000000
 20
-15.112500
 11
-62.000000
 21
-27.612499
  0
LINE
  8
0
  6
CONTINUOUS
 62
7
 10
-61.100101
 20
-26.812500
 11
-59.000000
 21
-26.812500
  0
LINE
  8
0
  6
CONTINUOUS
 62
7
 10
-59.500000
 20
-27.612499
 11
-62.000000
 21
-27.612499
  0
LINE
  8
0
  6
CENTER
 62
2
 10
85.000000
 20
-29.312500
 11
85.000000
 21
-38.312500
  0
LINE
  8
0
  6
CENTER
 62
2
 10
80.500000
 20
-33.812500
 11
89.500000
 21
-33.812500
  0
LINE
  8
0
  6
CENTER
 62
2
 10
198.000000
 20
-29.312500
 11
198.000000
 21
-38.312500
  0
LINE
  8
0
  6
CENTER
 62
2
 10
193.500000
 20
-33.812500
 11
202.500000
 21
-33.812500
  0
LINE
  8
0
  6
CONTINUOUS
 62
7
 10
10.580800
 20
-22.231800
 11
12.419300
 21
-20.393299
  0
LINE
  8
0
  6
CONTINUOUS
 62
7
 10
10.580700
 20
-20.393299
 11
12.419200
 21
-22.231800
  0
LINE
  8
0
  6
CONTINUOUS
 62
7
 10
-269.919006
 20
-20.393299
 11
-268.080994
 21
-22.231800
  0
LINE
  8
0
  6
CONTINUOUS
 62
7
 10
-269.919006
 20
-22.231701
 11
-268.080994
 21
-20.393299
  0
LINE
  8
0
  6
CONTINUOUS
 62
7
 10
-11.919300
 20
-20.393299
 11
-10.080800
 21
-22.231701
  0
LINE
  8
0
  6
CONTINUOUS
 62
7
 10
-11.919200
 20
-22.231800
 11
-10.080800
 21
-20.393299
  0
LINE
  8
0
  6
CONTINUOUS
 62
7
 10
270.580994
 20
-20.393200
 11
272.419006
 21
-22.231701
  0
LINE
  8
0
  6
CONTINUOUS
 62
7
 10
270.580994
 20
-22.231899
 11
272.419006
 21
-20.393400
  0
LINE
  8
0
  6
CONTINUOUS
 62
7
 10
0.424988
 20
195.500000
 11
0.424988
 21
-195.000000
  0
CIRCLE
  8
0
  6
CONTINUOUS
 62
7
 10
-172.500000
 20
-101.813004
 40
2.500000
  0
CIRCLE
  8
0
  6
CONTINUOUS
 62
2
 10
-172.500000
 20
-101.813004
 40
3.000000
  0
CIRCLE
  8
0
  6
CONTINUOUS
 62
2
 10
-107.500000
 20
-101.813004
 40
3.000000
  0
CIRCLE
  8
0
  6
CONTINUOUS
 62
7
 10
-107.500000
 20
-101.813004
 40
2.500000
  0
CIRCLE
  8
0
  6
CONTINUOUS
 62
7
 10
-107.500000
 20
-71.812500
 40
2.500000
  0
CIRCLE
  8
0
  6
CONTINUOUS
 62
2
 10
-107.500000
 20
-71.812500
 40
3.000000
  0
CIRCLE
  8
0
  6
CONTINUOUS
 62
7
 10
-172.500000
 20
-71.812500
 40
2.500000
  0
CIRCLE
  8
0
  6
CONTINUOUS
 62
2
 10
-172.500000
 20
-71.812500
 40
3.000000
  0
CIRCLE
  8
0
  6
CONTINUOUS
 62
7
 10
-180.500000
 20
-94.312500
 40
5.900000
  0
CIRCLE
  8
0
  6
CONTINUOUS
 62
7
 10
-99.500000
 20
-79.312500
 40
5.900000
  0
ARC
  8
0
  6
CONTINUOUS
 62
7
 10
-156.500000
 20
-15.512500
 40
3.000000
 50
138.190002
 51
172.337997
  0
CIRCLE
  8
0
  6
CONTINUOUS
 62
2
 10
-117.500000
 20
49.187500
 40
2.000000
  0
CIRCLE
  8
0
  6
CONTINUOUS
 62
7
 10
-117.500000
 20
49.187500
 40
1.650000
  0
CIRCLE
  8
0
  6
CONTINUOUS
 62
2
 10
-142.500000
 20
49.187500
 40
2.000000
  0
CIRCLE
  8
0
  6
CONTINUOUS
 62
7
 10
-142.500000
 20
49.187500
 40
1.650000
  0
CIRCLE
  8
0
  6
CONTINUOUS
 62
2
 10
-117.500000
 20
19.187500
 40
2.000000
  0
CIRCLE
  8
0
  6
CONTINUOUS
 62
7
 10
-117.500000
 20
19.187500
 40
1.650000
  0
CIRCLE
  8
0
  6
CONTINUOUS
 62
2
 10
-142.500000
 20
19.187500
 40
2.000000
  0
CIRCLE
  8
0
  6
CONTINUOUS
 62
7
 10
-142.500000
 20
19.187500
 40
1.650000
  0
CIRCLE
  8
0
  6
CONTINUOUS
 62
7
 10
-172.500000
 20
19.187500
 40
4.750000
  0
CIRCLE
  8
0
  6
CONTINUOUS
 62
2
 10
-172.500000
 20
19.187500
 40
3.000000
  0
ARC
  8
0
  6
CONTINUOUS
 62
2
 10
-107.500000
 20
19.187500
 40
3.000000
 50
326.441986
 51
33.557598
  0
ARC
  8
0
  6
CONTINUOUS
 62
7
 10
-107.500000
 20
19.187500
 40
4.750000
 50
301.756989
 51
58.243198
  0
CIRCLE
  8
0
  6
CONTINUOUS
 62
2
 10
-172.500000
 20
49.187500
 40
3.000000
  0
CIRCLE
  8
0
  6
CONTINUOUS
 62
7
 10
-172.500000
 20
49.187500
 40
4.750000
  0
CIRCLE
  8
0
  6
CONTINUOUS
 62
7
 10
-98.500000
 20
107.188004
 40
4.000000
  0
CIRCLE
  8
0
  6
CONTINUOUS
 62
7
 10
-181.500000
 20
107.188004
 40
4.000000
  0
ARC
  8
0
  6
DASHED
 62
2
 10
-107.500000
 20
19.187500
 40
4.750000
 50
58.243198
 51
301.756989
  0
ARC
  8
0
  6
DASHED
 62
2
 10
-107.500000
 20
19.187500
 40
3.000000
 50
33.557598
 51
326.441986
  0
ARC
  8
0
  6
DASHED
 62
2
 10
-107.500000
 20
49.187500
 40
4.750000
 50
58.243301
 51
301.756989
  0
ARC
  8
0
  6
DASHED
 62
2
 10
-107.500000
 20
49.187500
 40
3.000000
 50
33.557598
 51
326.441986
  0
ARC
  8
0
  6
CONTINUOUS
 62
7
 10
-107.500000
 20
49.187500
 40
4.750000
 50
301.756989
 51
58.243301
  0
ARC
  8
0
  6
CONTINUOUS
 62
2
 10
-107.500000
 20
49.187500
 40
3.000000
 50
326.441986
 51
33.557598
  0
ARC
  8
0
  6
CONTINUOUS
 62
7
 10
-156.500000
 20
88.887497
 40
3.000000
 50
138.190002
 51
221.809998
  0
ARC
  8
0
  6
CONTINUOUS
 62
7
 10
-156.500000
 20
34.187500
 40
3.000000
 50
129.664001
 51
230.335999
  0
CIRCLE
  8
0
  6
CONTINUOUS
 62
7
 10
94.000000
 20
-101.813004
 40
2.500000
  0
CIRCLE
  8
0
  6
CONTINUOUS
 62
2
 10
94.000000
 20
-101.813004
 40
3.000000
  0
CIRCLE
  8
0
  6
CONTINUOUS
 62
2
 10
189.000000
 20
-101.813004
 40
3.000000
  0
CIRCLE
  8
0
  6
CONTINUOUS
 62
7
 10
189.000000
 20
-101.813004
 40
2.500000
  0
CIRCLE
  8
0
  6
CONTINUOUS
 62
7
 10
189.000000
 20
-71.812500
 40
2.500000
  0
CIRCLE
  8
0
  6
CONTINUOUS
 62
2
 10
189.000000
 20
-71.812500
 40
3.000000
  0
CIRCLE
  8
0
  6
CONTINUOUS
 62
7
 10
94.000000
 20
-71.812500
 40
2.500000
  0
CIRCLE
  8
0
  6
CONTINUOUS
 62
2
 10
94.000000
 20
-71.812500
 40
3.000000
  0
CIRCLE
  8
0
  6
CONTINUOUS
 62
7
 10
86.000000
 20
-94.312500
 40
5.900000
  0
CIRCLE
  8
0
  6
CONTINUOUS
 62
7
 10
197.000000
 20
-79.312500
 40
5.900000
  0
CIRCLE
  8
0
  6
CONTINUOUS
 62
2
 10
176.500000
 20
49.187500
 40
2.000000
  0
CIRCLE
  8
0
  6
CONTINUOUS
 62
7
 10
176.500000
 20
49.187500
 40
1.650000
  0
CIRCLE
  8
0
  6
CONTINUOUS
 62
2
 10
176.500000
 20
19.187500
 40
2.000000
  0
CIRCLE
  8
0
  6
CONTINUOUS
 62
7
 10
176.500000
 20
19.187500
 40
1.650000
  0
CIRCLE
  8
0
  6
CONTINUOUS
 62
7
 10
94.000000
 20
19.187500
 40
4.750000
  0
CIRCLE
  8
0
  6
CONTINUOUS
 62
2
 10
94.000000
 20
19.187500
 40
3.000000
  0
ARC
  8
0
  6
DASHED
 62
2
 10
189.000000
 20
19.187500
 40
3.000000
 50
60.000000
 51
300.000000
  0
ARC
  8
0
  6
DASHED
 62
2
 10
189.000000
 20
19.187500
 40
4.750000
 50
71.591698
 51
284.437012
  0
CIRCLE
  8
0
  6
CONTINUOUS
 62
2
 10
94.000000
 20
49.187500
 40
3.000000
  0
CIRCLE
  8
0
  6
CONTINUOUS
 62
7
 10
94.000000
 20
49.187500
 40
4.750000
  0
CIRCLE
  8
0
  6
CONTINUOUS
 62
2
 10
136.500000
 20
19.187500
 40
2.000000
  0
CIRCLE
  8
0
  6
CONTINUOUS
 62
7
 10
136.500000
 20
19.187500
 40
1.650000
  0
CIRCLE
  8
0
  6
CONTINUOUS
 62
2
 10
136.500000
 20
49.187500
 40
2.000000
  0
CIRCLE
  8
0
  6
CONTINUOUS
 62
7
 10
136.500000
 20
49.187500
 40
1.650000
  0
CIRCLE
  8
0
  6
CONTINUOUS
 62
2
 10
156.500000
 20
19.187500
 40
2.000000
  0
CIRCLE
  8
0
  6
CONTINUOUS
 62
7
 10
156.500000
 20
19.187500
 40
1.650000
  0
CIRCLE
  8
0
  6
CONTINUOUS
 62
2
 10
156.500000
 20
49.187500
 40
2.000000
  0
CIRCLE
  8
0
  6
CONTINUOUS
 62
7
 10
156.500000
 20
49.187500
 40
1.650000
  0
CIRCLE
  8
0
  6
CONTINUOUS
 62
7
 10
85.000000
 20
107.188004
 40
4.000000
  0
ARC
  8
0
  6
CONTINUOUS
 62
2
 10
189.000000
 20
19.187500
 40
3.000000
 50
300.000000
 51
60.000000
  0
ARC
  8
0
  6
CONTINUOUS
 62
7
 10
189.000000
 20
19.187500
 40
4.750000
 50
288.407990
 51
71.591698
  0
ARC
  8
0
  6
CONTINUOUS
 62
7
 10
189.000000
 20
49.187500
 40
4.750000
 50
288.407990
 51
71.591698
  0
ARC
  8
0
  6
CONTINUOUS
 62
2
 10
189.000000
 20
49.187500
 40
3.000000
 50
300.000000
 51
60.000000
  0
ARC
  8
0
  6
DASHED
 62
2
 10
189.000000
 20
49.187500
 40
3.000000
 50
60.000000
 51
300.000000
  0
ARC
  8
0
  6
DASHED
 62
2
 10
189.000000
 20
49.187500
 40
4.750000
 50
75.563004
 51
288.407990
  0
CIRCLE
  8
0
  6
CONTINUOUS
 62
7
 10
198.000000
 20
107.188004
 40
4.000000
  0
ARC
  8
0
  6
CONTINUOUS
 62
7
 10
121.000000
 20
-15.512500
 40
3.000000
 50
138.190002
 51
172.337997
  0
ARC
  8
0
  6
CONTINUOUS
 62
7
 10
121.000000
 20
88.887497
 40
3.000000
 50
138.190002
 51
221.809998
  0
ARC
  8
0
  6
CONTINUOUS
 62
7
 10
121.000000
 20
34.187500
 40
3.000000
 50
129.664001
 51
230.335999
  0
ARC
  8
0
  6
CONTINUOUS
 62
7
 10
-165.500000
 20
100.688004
 40
2.500000
 50
90.000000
 51
180.000000
  0
ARC
  8
0
  6
CONTINUOUS
 62
7
 10
-114.500000
 20
100.688004
 40
2.500000
 50
0.000000
 51
90.000000
  0
ARC
  8
0
  6
CONTINUOUS
 62
7
 10
172.000000
 20
100.688004
 40
2.500000
 50
0.000000
 51
90.000000
  0
ARC
  8
0
  6
CONTINUOUS
 62
7
 10
111.000000
 20
100.688004
 40
2.500000
 50
90.000000
 51
180.000000
  0
ARC
  8
0
  6
CONTINUOUS
 62
2
 10
65.199997
 20
-19.262501
 40
1.500000
 50
180.000000
 51
270.000000
  0
ARC
  8
0
  6
CONTINUOUS
 62
7
 10
49.700001
 20
-23.312500
 40
1.500010
 50
210.436005
 51
262.335999
  0
ARC
  8
0
  6
CONTINUOUS
 62
7
 10
49.700001
 20
-23.312500
 40
1.499990
 50
97.661598
 51
149.561996
  0
ARC
  8
0
  6
CONTINUOUS
 62
7
 10
29.299999
 20
-23.312500
 40
1.500010
 50
277.661011
 51
329.562012
  0
ARC
  8
0
  6
CONTINUOUS
 62
7
 10
29.299999
 20
-23.312500
 40
1.500000
 50
30.436399
 51
82.337303
  0
CIRCLE
  8
0
  6
CONTINUOUS
 62
7
 10
39.500000
 20
-30.312500
 40
8.500000
  0
CIRCLE
  8
0
  6
CONTINUOUS
 62
7
 10
39.500000
 20
-15.512500
 40
0.400000
  0
ARC
  8
0
  6
CONTINUOUS
 62
7
 10
11.500000
 20
-21.312500
 40
7.100000
 50
323.723999
 51
336.276001
  0
ARC
  8
0
  6
CONTINUOUS
 62
7
 10
11.500000
 20
-21.312500
 40
7.100000
 50
23.724199
 51
36.275799
  0
ARC
  8
0
  6
CONTINUOUS
 62
7
 10
11.500000
 20
-21.312500
 40
7.100000
 50
263.723999
 51
276.276001
  0
CIRCLE
  8
0
  6
CONTINUOUS
 62
7
 10
11.500000
 20
-21.312500
 40
5.000000
  0
CIRCLE
  8
0
  6
CONTINUOUS
 62
7
 10
11.500000
 20
-21.312500
 40
2.340000
  0
ARC
  8
0
  6
CONTINUOUS
 62
7
 10
11.500000
 20
-21.312500
 40
7.100000
 50
83.724197
 51
96.275803
  0
ARC
  8
0
  6
CONTINUOUS
 62
7
 10
11.500000
 20
-21.312500
 40
7.100000
 50
143.723999
 51
156.276001
  0
ARC
  8
0
  6
CONTINUOUS
 62
7
 10
11.500000
 20
-21.312500
 40
7.100000
 50
203.723999
 51
216.276001
  0
ARC
  8
0
  6
CONTINUOUS
 62
2
 10
65.199997
 20
-17.962500
 40
1.500000
 50
90.000000
 51
180.000000
  0
ARC
  8
0
  6
CONTINUOUS
 62
2
 10
217.800003
 20
-19.262501
 40
1.500000
 50
270.000000
 51
0.000000
  0
ARC
  8
0
  6
CONTINUOUS
 62
7
 10
233.300003
 20
-23.312500
 40
1.500010
 50
277.664001
 51
329.563995
  0
ARC
  8
0
  6
CONTINUOUS
 62
7
 10
233.300003
 20
-23.312500
 40
1.499990
 50
30.437799
 51
82.338402
  0
ARC
  8
0
  6
CONTINUOUS
 62
7
 10
253.699997
 20
-23.312500
 40
1.500000
 50
210.438995
 51
262.338989
  0
ARC
  8
0
  6
CONTINUOUS
 62
7
 10
253.699997
 20
-23.312500
 40
1.500000
 50
97.662697
 51
149.563995
  0
CIRCLE
  8
0
  6
CONTINUOUS
 62
7
 10
243.500000
 20
-30.312500
 40
8.500000
  0
CIRCLE
  8
0
  6
CONTINUOUS
 62
7
 10
243.500000
 20
-15.512500
 40
0.400000
  0
ARC
  8
0
  6
CONTINUOUS
 62
7
 10
271.500000
 20
-21.312500
 40
7.100000
 50
203.723999
 51
216.276001
  0
ARC
  8
0
  6
CONTINUOUS
 62
7
 10
271.500000
 20
-21.312500
 40
7.100010
 50
143.723999
 51
156.276001
  0
ARC
  8
0
  6
CONTINUOUS
 62
7
 10
271.500000
 20
-21.312500
 40
7.100000
 50
263.723999
 51
276.276001
  0
CIRCLE
  8
0
  6
CONTINUOUS
 62
7
 10
271.500000
 20
-21.312500
 40
5.000000
  0
CIRCLE
  8
0
  6
CONTINUOUS
 62
7
 10
271.500000
 20
-21.312500
 40
2.340000
  0
ARC
  8
0
  6
CONTINUOUS
 62
7
 10
271.500000
 20
-21.312500
 40
7.100000
 50
83.724297
 51
96.275703
  0
ARC
  8
0
  6
CONTINUOUS
 62
7
 10
271.500000
 20
-21.312500
 40
7.100000
 50
23.724199
 51
36.275799
  0
ARC
  8
0
  6
CONTINUOUS
 62
7
 10
271.500000
 20
-21.312500
 40
7.100010
 50
323.723999
 51
336.276001
  0
ARC
  8
0
  6
CONTINUOUS
 62
2
 10
217.800003
 20
-17.962500
 40
1.500000
 50
0.000000
 51
90.000000
  0
CIRCLE
  8
0
  6
CONTINUOUS
 62
2
 10
-181.500000
 20
-33.812500
 40
2.500000
  0
CIRCLE
  8
0
  6
CONTINUOUS
 62
7
 10
-181.500000
 20
-33.812500
 40
2.100000
  0
CIRCLE
  8
0
  6
CONTINUOUS
 62
2
 10
-98.500000
 20
-33.812500
 40
2.500000
  0
CIRCLE
  8
0
  6
CONTINUOUS
 62
7
 10
-98.500000
 20
-33.812500
 40
2.100000
  0
ARC
  8
0
  6
CONTINUOUS
 62
2
 10
-215.300003
 20
-19.262501
 40
1.500000
 50
180.000000
 51
270.000000
  0
ARC
  8
0
  6
CONTINUOUS
 62
7
 10
-230.800003
 20
-23.312500
 40
1.500010
 50
210.436005
 51
262.335999
  0
ARC
  8
0
  6
CONTINUOUS
 62
7
 10
-230.800003
 20
-23.312500
 40
1.499990
 50
97.661598
 51
149.561996
  0
ARC
  8
0
  6
CONTINUOUS
 62
7
 10
-251.199997
 20
-23.312500
 40
1.500010
 50
277.661011
 51
329.561005
  0
ARC
  8
0
  6
CONTINUOUS
 62
7
 10
-251.199997
 20
-23.312500
 40
1.500000
 50
30.436399
 51
82.337303
  0
CIRCLE
  8
0
  6
CONTINUOUS
 62
7
 10
-241.000000
 20
-30.312500
 40
8.500000
  0
CIRCLE
  8
0
  6
CONTINUOUS
 62
7
 10
-241.000000
 20
-15.512500
 40
0.400000
  0
ARC
  8
0
  6
CONTINUOUS
 62
7
 10
-269.000000
 20
-21.312500
 40
7.100010
 50
323.723999
 51
336.276001
  0
ARC
  8
0
  6
CONTINUOUS
 62
7
 10
-269.000000
 20
-21.312500
 40
7.100000
 50
23.724199
 51
36.275799
  0
ARC
  8
0
  6
CONTINUOUS
 62
7
 10
-269.000000
 20
-21.312500
 40
7.100000
 50
263.723999
 51
276.276001
  0
CIRCLE
  8
0
  6
CONTINUOUS
 62
7
 10
-269.000000
 20
-21.312500
 40
5.000000
  0
CIRCLE
  8
0
  6
CONTINUOUS
 62
7
 10
-269.000000
 20
-21.312500
 40
2.340000
  0
ARC
  8
0
  6
CONTINUOUS
 62
7
 10
-269.000000
 20
-21.312500
 40
7.100000
 50
83.724297
 51
96.275703
  0
ARC
  8
0
  6
CONTINUOUS
 62
7
 10
-269.000000
 20
-21.312500
 40
7.100010
 50
143.723999
 51
156.276001
  0
ARC
  8
0
  6
CONTINUOUS
 62
7
 10
-269.000000
 20
-21.312500
 40
7.100000
 50
203.723999
 51
216.276001
  0
ARC
  8
0
  6
CONTINUOUS
 62
2
 10
-215.300003
 20
-17.962500
 40
1.500000
 50
90.000000
 51
180.000000
  0
ARC
  8
0
  6
CONTINUOUS
 62
2
 10
-64.699997
 20
-19.262501
 40
1.500000
 50
270.000000
 51
0.000000
  0
ARC
  8
0
  6
CONTINUOUS
 62
7
 10
-49.200001
 20
-23.312500
 40
1.500010
 50
277.664001
 51
329.563995
  0
ARC
  8
0
  6
CONTINUOUS
 62
7
 10
-49.200001
 20
-23.312500
 40
1.499990
 50
30.437599
 51
82.338402
  0
ARC
  8
0
  6
CONTINUOUS
 62
7
 10
-28.799999
 20
-23.312500
 40
1.500010
 50
210.438004
 51
262.338989
  0
ARC
  8
0
  6
CONTINUOUS
 62
7
 10
-28.799999
 20
-23.312500
 40
1.500000
 50
97.662697
 51
149.563995
  0
CIRCLE
  8
0
  6
CONTINUOUS
 62
7
 10
-39.000000
 20
-30.312500
 40
8.500000
  0
CIRCLE
  8
0
  6
CONTINUOUS
 62
7
 10
-39.000000
 20
-15.512500
 40
0.400000
  0
ARC
  8
0
  6
CONTINUOUS
 62
7
 10
-11.000000
 20
-21.312500
 40
7.100000
 50
203.723999
 51
216.276001
  0
ARC
  8
0
  6
CONTINUOUS
 62
7
 10
-11.000000
 20
-21.312500
 40
7.100000
 50
143.723999
 51
156.276001
  0
ARC
  8
0
  6
CONTINUOUS
 62
7
 10
-11.000000
 20
-21.312500
 40
7.100000
 50
263.723999
 51
276.276001
  0
CIRCLE
  8
0
  6
CONTINUOUS
 62
7
 10
-11.000000
 20
-21.312500
 40
5.000000
  0
CIRCLE
  8
0
  6
CONTINUOUS
 62
7
 10
-11.000000
 20
-21.312500
 40
2.340000
  0
ARC
  8
0
  6
CONTINUOUS
 62
7
 10
-11.000000
 20
-21.312500
 40
7.100000
 50
83.724197
 51
96.275803
  0
ARC
  8
0
  6
CONTINUOUS
 62
7
 10
-11.000000
 20
-21.312500
 40
7.100000
 50
23.724199
 51
36.275799
  0
ARC
  8
0
  6
CONTINUOUS
 62
7
 10
-11.000000
 20
-21.312500
 40
7.100000
 50
323.723999
 51
336.276001
  0
ARC
  8
0
  6
CONTINUOUS
 62
2
 10
-64.699997
 20
-17.962500
 40
1.500000
 50
0.000000
 51
90.000000
  0
CIRCLE
  8
0
  6
CONTINUOUS
 62
2
 10
85.000000
 20
-33.812500
 40
2.500000
  0
CIRCLE
  8
0
  6
CONTINUOUS
 62
7
 10
85.000000
 20
-33.812500
 40
2.100000
  0
CIRCLE
  8
0
  6
CONTINUOUS
 62
2
 10
198.000000
 20
-33.812500
 40
2.500000
  0
CIRCLE
  8
0
  6
CONTINUOUS
 62
7
 10
198.000000
 20
-33.812500
 40
2.100000
  0
CIRCLE
  8
0
  6
CONTINUOUS
 62
7
 10
94.000000
 20
19.187500
 40
2.650000
  0
CIRCLE
  8
0
  6
CONTINUOUS
 62
7
 10
94.000000
 20
49.187500
 40
2.650000
  0
ARC
  8
0
  6
CONTINUOUS
 62
7
 10
189.000000
 20
49.187500
 40
2.650000
 50
304.473999
 51
55.525700
  0
ARC
  8
0
  6
DASHED
 62
2
 10
189.000000
 20
49.187500
 40
2.650000
 50
55.525700
 51
304.473999
  0
ARC
  8
0
  6
CONTINUOUS
 62
7
 10
189.000000
 20
19.187500
 40
2.650000
 50
304.473999
 51
55.525700
  0
ARC
  8
0
  6
DASHED
 62
2
 10
189.000000
 20
19.187500
 40
2.650000
 50
55.525700
 51
304.473999
  0
CIRCLE
  8
0
  6
CONTINUOUS
 62
7
 10
-172.500000
 20
19.187500
 40
2.650000
  0
CIRCLE
  8
0
  6
CONTINUOUS
 62
7
 10
-172.500000
 20
49.187500
 40
2.650000
  0
CIRCLE
  8
0
  6
DASHED
 62
2
 10
-107.500000
 20
49.187500
 40
2.650000
  0
CIRCLE
  8
0
  6
DASHED
 62
2
 10
-107.500000
 20
19.187500
 40
2.650000
  0
TEXT
  8
0
 62
7
 10
202.930283
 20
183.925003
 40
6.300000
  1
Ver.1.0
 50
0.000000
 41
1.010330
 51
0.000000
  7
STANDARD
  0
TEXT
  8
0
 62
7
 10
172.714691
 20
-187.250000
 40
9.000000
  1
KOGANEI CORP.
 50
0.000000
 41
0.771524
 51
0.000000
  7
STANDARD
  0
TEXT
  8
0
 62
7
 10
-243.569717
 20
183.925003
 40
6.300000
  1
AP TABLE
 50
0.000000
 41
0.775607
 51
0.000000
  7
STANDARD
  0
TEXT
  8
0
 62
7
 10
12.274609
 20
158.925003
 40
6.300000
  1
MODEL:APTS-SD16-30-TPQZ-R***
 50
0.000000
 41
0.763229
 51
0.000000
  7
STANDARD
  0
TEXT
  8
0
 62
7
 10
-269.400391
 20
158.925003
 40
6.300000
  1
MODEL:APTS-SD16-20-TPQZ-R***
 50
0.000000
 41
0.763229
 51
0.000000
  7
STANDARD
  0
ENDSEC
  0
EOF
