  0
SECTION
  2
HEADER
  0
ENDSEC
  0
SECTION
  2
TABLES
  0
TABLE
  2
LTYPE
 70
     4
  0
LTYPE
  2
CONTINUOUS
 70
    64
  3
Solid line
 72
    65
 73
     0
 40
0.000000
  0
LTYPE
  2
DASHED
 70
    64
  3
__ __ __ __ __ __ __ __ __ __ __ __ __ __ __
 72
    65
 73
     2
 40
3.500000
 49
2.000000
 49
-1.500000
  0
LTYPE
  2
CENTER
 70
    64
  3
____ _ ____ _ ____ _ ____ _ ____ _ ____ _ ____
 72
    65
 73
     4
 40
17.500000
 49
13.000000
 49
-1.500000
 49
1.500000
 49
-1.500000
  0
LTYPE
  2
PHANTOM
 70
    64
  3
_____ _ _ _____ _ _ _____ _ _ _____ _ _ ____  
 72
    65
 73
     6
 40
15.500000
 49
8.000000
 49
-1.500000
 49
1.500000
 49
-1.500000
 49
1.500000
 49
-1.500000
  0
ENDTAB
  0
TABLE
  2
LAYER
 70
     1
  0
LAYER
  2
0
 70
     0
 62
     7
  6
CONTINUOUS
  0
ENDTAB
  0
TABLE
  2
STYLE
 70
     1
  0
STYLE
  2
STANDARD
 70
     0
 40
0.000000
 41
1.000000
 50
0.000000
 71
     0
 42
0.200000
  3
txt
  4
BIGFONT
  0
ENDTAB
  0
TABLE
  2
VIEW
 70
     0
  0
ENDTAB
  0
ENDSEC
  0
SECTION
  2
BLOCKS
  0
ENDSEC
  0
SECTION
  2
ENTITIES
  0
LINE
  8
0
  6
CONTINUOUS
 62
7
 10
-281.250000
 20
195.500000
 11
282.100006
 21
195.500000
  0
LINE
  8
0
  6
CONTINUOUS
 62
7
 10
-281.250000
 20
195.500000
 11
-281.250000
 21
-195.000000
  0
LINE
  8
0
  6
CONTINUOUS
 62
7
 10
282.100006
 20
195.500000
 11
282.100006
 21
-195.000000
  0
LINE
  8
0
  6
CONTINUOUS
 62
7
 10
-281.250000
 20
-195.000000
 11
282.100006
 21
-195.000000
  0
LINE
  8
0
  6
CONTINUOUS
 62
7
 10
162.100006
 20
-175.000000
 11
162.100006
 21
-195.000000
  0
LINE
  8
0
  6
CONTINUOUS
 62
7
 10
162.100006
 20
-175.000000
 11
282.100006
 21
-175.000000
  0
LINE
  8
0
  6
CONTINUOUS
 62
7
 10
162.100006
 20
175.500000
 11
282.100006
 21
175.500000
  0
LINE
  8
0
  6
CONTINUOUS
 62
7
 10
-281.250000
 20
175.500000
 11
-161.250000
 21
175.500000
  0
LINE
  8
0
  6
CONTINUOUS
 62
7
 10
162.100006
 20
195.500000
 11
162.100006
 21
175.500000
  0
LINE
  8
0
  6
CONTINUOUS
 62
7
 10
-161.250000
 20
195.500000
 11
-161.250000
 21
175.500000
  0
LINE
  8
0
  6
CONTINUOUS
 62
7
 10
-133.100006
 20
-44.000000
 11
-152.899994
 21
-44.000000
  0
LINE
  8
0
  6
CONTINUOUS
 62
7
 10
-127.500000
 20
-43.700001
 11
-133.100006
 21
-43.700001
  0
LINE
  8
0
  6
CONTINUOUS
 62
7
 10
-127.500000
 20
-36.200001
 11
-129.000000
 21
-36.200001
  0
LINE
  8
0
  6
CONTINUOUS
 62
7
 10
-127.500000
 20
-43.700001
 11
-127.500000
 21
-36.200001
  0
LINE
  8
0
  6
CONTINUOUS
 62
7
 10
-152.899994
 20
-43.700001
 11
-158.500000
 21
-43.700001
  0
LINE
  8
0
  6
CONTINUOUS
 62
7
 10
-158.500000
 20
-43.500000
 11
-158.500000
 21
-43.700001
  0
LINE
  8
0
  6
CONTINUOUS
 62
7
 10
-118.000000
 20
-39.500000
 11
-127.500000
 21
-39.500000
  0
LINE
  8
0
  6
CONTINUOUS
 62
7
 10
-167.000000
 20
-39.500000
 11
-178.000000
 21
-39.500000
  0
LINE
  8
0
  6
CONTINUOUS
 62
7
 10
-178.000000
 20
-39.500000
 11
-178.000000
 21
-25.000000
  0
LINE
  8
0
  6
CONTINUOUS
 62
7
 10
-118.000000
 20
-39.500000
 11
-118.000000
 21
-25.000000
  0
LINE
  8
0
  6
CONTINUOUS
 62
7
 10
-118.000000
 20
-25.000000
 11
-178.000000
 21
-25.000000
  0
LINE
  8
0
  6
CONTINUOUS
 62
7
 10
-178.000000
 20
-34.799999
 11
-169.847000
 21
-34.799999
  0
LINE
  8
0
  6
CONTINUOUS
 62
7
 10
-133.100006
 20
-44.000000
 11
-133.100006
 21
-43.500000
  0
LINE
  8
0
  6
CONTINUOUS
 62
7
 10
-152.899994
 20
-44.000000
 11
-152.899994
 21
-43.500000
  0
LINE
  8
0
  6
CONTINUOUS
 62
7
 10
-128.248993
 20
-31.500000
 11
-129.000000
 21
-31.500000
  0
LINE
  8
0
  6
CONTINUOUS
 62
7
 10
-118.000000
 20
-34.799999
 11
-126.153000
 21
-34.799999
  0
LINE
  8
0
  6
CONTINUOUS
 62
7
 10
-167.751007
 20
-31.500000
 11
-167.000000
 21
-31.500000
  0
LINE
  8
0
  6
DASHED
 62
2
 10
-135.000000
 20
-31.500000
 11
-135.000000
 21
-30.000000
  0
LINE
  8
0
  6
DASHED
 62
2
 10
-133.750000
 20
-30.000000
 11
-133.750000
 21
-25.000000
  0
LINE
  8
0
  6
DASHED
 62
2
 10
-130.250000
 20
-30.000000
 11
-130.250000
 21
-25.000000
  0
LINE
  8
0
  6
DASHED
 62
2
 10
-134.000000
 20
-30.000000
 11
-134.000000
 21
-25.000000
  0
LINE
  8
0
  6
DASHED
 62
2
 10
-130.000000
 20
-30.000000
 11
-130.000000
 21
-25.000000
  0
LINE
  8
0
  6
DASHED
 62
2
 10
-129.000000
 20
-30.000000
 11
-135.000000
 21
-30.000000
  0
LINE
  8
0
  6
CENTER
 62
2
 10
-132.000000
 20
-33.500000
 11
-132.000000
 21
-23.000000
  0
LINE
  8
0
  6
CENTER
 62
2
 10
-164.000000
 20
-33.500000
 11
-164.000000
 21
-23.000000
  0
LINE
  8
0
  6
DASHED
 62
2
 10
-161.000000
 20
-31.500000
 11
-161.000000
 21
-30.000000
  0
LINE
  8
0
  6
DASHED
 62
2
 10
-165.750000
 20
-30.000000
 11
-165.750000
 21
-25.000000
  0
LINE
  8
0
  6
DASHED
 62
2
 10
-162.250000
 20
-30.000000
 11
-162.250000
 21
-25.000000
  0
LINE
  8
0
  6
DASHED
 62
2
 10
-166.000000
 20
-30.000000
 11
-166.000000
 21
-25.000000
  0
LINE
  8
0
  6
DASHED
 62
2
 10
-162.000000
 20
-30.000000
 11
-162.000000
 21
-25.000000
  0
LINE
  8
0
  6
DASHED
 62
2
 10
-161.000000
 20
-30.000000
 11
-167.000000
 21
-30.000000
  0
LINE
  8
0
  6
CONTINUOUS
 62
7
 10
-133.100006
 20
-64.000000
 11
-152.899994
 21
-64.000000
  0
LINE
  8
0
  6
CONTINUOUS
 62
7
 10
-133.100006
 20
-79.000000
 11
-152.899994
 21
-79.000000
  0
LINE
  8
0
  6
CONTINUOUS
 62
7
 10
-133.100006
 20
-69.000000
 11
-152.899994
 21
-69.000000
  0
LINE
  8
0
  6
CONTINUOUS
 62
7
 10
-127.500000
 20
-64.300003
 11
-133.100006
 21
-64.300003
  0
LINE
  8
0
  6
CONTINUOUS
 62
7
 10
-152.899994
 20
-64.300003
 11
-158.500000
 21
-64.300003
  0
LINE
  8
0
  6
CENTER
 62
2
 10
-116.429001
 20
-74.000000
 11
-180.061996
 21
-74.000000
  0
LINE
  8
0
  6
CONTINUOUS
 62
7
 10
-118.000000
 20
-85.500000
 11
-118.000000
 21
-62.500000
  0
LINE
  8
0
  6
CONTINUOUS
 62
7
 10
-178.000000
 20
-85.500000
 11
-178.000000
 21
-62.500000
  0
LINE
  8
0
  6
CONTINUOUS
 62
7
 10
-118.000000
 20
-62.500000
 11
-139.750000
 21
-62.500000
  0
LINE
  8
0
  6
CONTINUOUS
 62
7
 10
-118.000000
 20
-69.500000
 11
-127.500000
 21
-69.500000
  0
LINE
  8
0
  6
CONTINUOUS
 62
7
 10
-118.000000
 20
-78.500000
 11
-127.500000
 21
-78.500000
  0
LINE
  8
0
  6
CONTINUOUS
 62
7
 10
-158.500000
 20
-78.500000
 11
-178.000000
 21
-78.500000
  0
LINE
  8
0
  6
CONTINUOUS
 62
7
 10
-158.500000
 20
-69.500000
 11
-178.000000
 21
-69.500000
  0
LINE
  8
0
  6
CENTER
 62
2
 10
-139.000000
 20
-66.500000
 11
-132.000000
 21
-66.500000
  0
LINE
  8
0
  6
CENTER
 62
2
 10
-135.500000
 20
-63.000000
 11
-135.500000
 21
-70.000000
  0
LINE
  8
0
  6
CONTINUOUS
 62
7
 10
-133.100006
 20
-84.000000
 11
-152.899994
 21
-84.000000
  0
LINE
  8
0
  6
CONTINUOUS
 62
7
 10
-127.500000
 20
-83.699997
 11
-127.500000
 21
-64.300003
  0
LINE
  8
0
  6
CONTINUOUS
 62
7
 10
-127.500000
 20
-83.699997
 11
-133.100006
 21
-83.699997
  0
LINE
  8
0
  6
CONTINUOUS
 62
7
 10
-152.899994
 20
-83.699997
 11
-158.500000
 21
-83.699997
  0
LINE
  8
0
  6
CONTINUOUS
 62
7
 10
-133.100006
 20
-64.000000
 11
-133.100006
 21
-84.000000
  0
LINE
  8
0
  6
CONTINUOUS
 62
7
 10
-152.899994
 20
-64.000000
 11
-152.899994
 21
-84.000000
  0
LINE
  8
0
  6
CENTER
 62
2
 10
-154.000000
 20
-66.500000
 11
-147.000000
 21
-66.500000
  0
LINE
  8
0
  6
CENTER
 62
2
 10
-150.500000
 20
-63.000000
 11
-150.500000
 21
-70.000000
  0
LINE
  8
0
  6
CENTER
 62
2
 10
-154.000000
 20
-81.500000
 11
-147.000000
 21
-81.500000
  0
LINE
  8
0
  6
CENTER
 62
2
 10
-139.000000
 20
-81.500000
 11
-132.000000
 21
-81.500000
  0
LINE
  8
0
  6
CENTER
 62
2
 10
-135.500000
 20
-85.000000
 11
-135.500000
 21
-78.000000
  0
LINE
  8
0
  6
CENTER
 62
2
 10
-150.500000
 20
-85.000000
 11
-150.500000
 21
-78.000000
  0
LINE
  8
0
  6
CENTER
 62
2
 10
-169.000000
 20
-82.000000
 11
-159.000000
 21
-82.000000
  0
LINE
  8
0
  6
CENTER
 62
2
 10
-164.000000
 20
-87.000000
 11
-164.000000
 21
-77.000000
  0
LINE
  8
0
  6
CONTINUOUS
 62
7
 10
-118.000000
 20
-85.500000
 11
-178.000000
 21
-85.500000
  0
LINE
  8
0
  6
CENTER
 62
2
 10
-169.000000
 20
-66.000000
 11
-159.000000
 21
-66.000000
  0
LINE
  8
0
  6
CENTER
 62
2
 10
-164.000000
 20
-61.000000
 11
-164.000000
 21
-71.000000
  0
LINE
  8
0
  6
CENTER
 62
2
 10
-127.000000
 20
-82.000000
 11
-137.000000
 21
-82.000000
  0
LINE
  8
0
  6
CENTER
 62
2
 10
-132.000000
 20
-87.000000
 11
-132.000000
 21
-77.000000
  0
LINE
  8
0
  6
CENTER
 62
2
 10
-132.000000
 20
-61.000000
 11
-132.000000
 21
-71.000000
  0
LINE
  8
0
  6
CENTER
 62
2
 10
-127.000000
 20
-66.000000
 11
-137.000000
 21
-66.000000
  0
LINE
  8
0
  6
CONTINUOUS
 62
7
 10
-158.500000
 20
-64.300003
 11
-158.500000
 21
-83.699997
  0
LINE
  8
0
  6
CONTINUOUS
 62
7
 10
-118.000000
 20
-161.000000
 11
-178.000000
 21
-161.000000
  0
LINE
  8
0
  6
CONTINUOUS
 62
7
 10
-178.000000
 20
-161.000000
 11
-178.000000
 21
-138.000000
  0
LINE
  8
0
  6
CONTINUOUS
 62
7
 10
-118.000000
 20
-138.000000
 11
-178.000000
 21
-138.000000
  0
LINE
  8
0
  6
CONTINUOUS
 62
7
 10
-118.000000
 20
-161.000000
 11
-118.000000
 21
-138.000000
  0
LINE
  8
0
  6
CENTER
 62
2
 10
-116.401001
 20
-149.500000
 11
-180.630005
 21
-149.500000
  0
LINE
  8
0
  6
CENTER
 62
2
 10
-164.000000
 20
-152.500000
 11
-164.000000
 21
-162.500000
  0
LINE
  8
0
  6
CENTER
 62
2
 10
-159.000000
 20
-157.500000
 11
-169.000000
 21
-157.500000
  0
LINE
  8
0
  6
CENTER
 62
2
 10
-164.000000
 20
-146.500000
 11
-164.000000
 21
-136.500000
  0
LINE
  8
0
  6
CENTER
 62
2
 10
-159.000000
 20
-141.500000
 11
-169.000000
 21
-141.500000
  0
LINE
  8
0
  6
CENTER
 62
2
 10
-132.000000
 20
-162.500000
 11
-132.000000
 21
-152.500000
  0
LINE
  8
0
  6
CENTER
 62
2
 10
-127.000000
 20
-157.500000
 11
-137.000000
 21
-157.500000
  0
LINE
  8
0
  6
CENTER
 62
2
 10
-132.000000
 20
-136.500000
 11
-132.000000
 21
-146.500000
  0
LINE
  8
0
  6
CENTER
 62
2
 10
-127.000000
 20
-141.500000
 11
-137.000000
 21
-141.500000
  0
LINE
  8
0
  6
CENTER
 62
2
 10
-171.000000
 20
-140.100006
 11
-171.000000
 21
-154.899994
  0
LINE
  8
0
  6
CENTER
 62
2
 10
-178.399994
 20
-147.500000
 11
-163.600006
 21
-147.500000
  0
LINE
  8
0
  6
CENTER
 62
2
 10
-125.000000
 20
-140.100006
 11
-125.000000
 21
-154.899994
  0
LINE
  8
0
  6
CENTER
 62
2
 10
-117.599998
 20
-147.500000
 11
-132.399994
 21
-147.500000
  0
LINE
  8
0
  6
CONTINUOUS
 62
7
 10
-133.100006
 20
-104.000000
 11
-152.899994
 21
-104.000000
  0
LINE
  8
0
  6
CONTINUOUS
 62
7
 10
-127.500000
 20
-104.300003
 11
-133.100006
 21
-104.300003
  0
LINE
  8
0
  6
CONTINUOUS
 62
7
 10
-127.500000
 20
-111.800003
 11
-158.500000
 21
-111.800003
  0
LINE
  8
0
  6
CONTINUOUS
 62
7
 10
-127.500000
 20
-104.300003
 11
-127.500000
 21
-111.800003
  0
LINE
  8
0
  6
CONTINUOUS
 62
7
 10
-152.899994
 20
-104.300003
 11
-158.500000
 21
-104.300003
  0
LINE
  8
0
  6
CONTINUOUS
 62
7
 10
-158.500000
 20
-111.800003
 11
-158.500000
 21
-104.300003
  0
LINE
  8
0
  6
CONTINUOUS
 62
7
 10
-118.000000
 20
-108.500000
 11
-127.500000
 21
-108.500000
  0
LINE
  8
0
  6
CONTINUOUS
 62
7
 10
-158.500000
 20
-108.500000
 11
-178.000000
 21
-108.500000
  0
LINE
  8
0
  6
CONTINUOUS
 62
7
 10
-178.000000
 20
-108.500000
 11
-178.000000
 21
-123.000000
  0
LINE
  8
0
  6
CONTINUOUS
 62
7
 10
-118.000000
 20
-108.500000
 11
-118.000000
 21
-123.000000
  0
LINE
  8
0
  6
CONTINUOUS
 62
7
 10
-118.000000
 20
-123.000000
 11
-178.000000
 21
-123.000000
  0
LINE
  8
0
  6
CONTINUOUS
 62
7
 10
-178.000000
 20
-113.199997
 11
-169.847000
 21
-113.199997
  0
LINE
  8
0
  6
CONTINUOUS
 62
7
 10
-133.100006
 20
-104.000000
 11
-133.100006
 21
-111.800003
  0
LINE
  8
0
  6
CONTINUOUS
 62
7
 10
-152.899994
 20
-104.000000
 11
-152.899994
 21
-111.800003
  0
LINE
  8
0
  6
CENTER
 62
2
 10
-149.750000
 20
-107.000000
 11
-142.750000
 21
-107.000000
  0
LINE
  8
0
  6
CENTER
 62
2
 10
-146.250000
 20
-110.500000
 11
-146.250000
 21
-103.500000
  0
LINE
  8
0
  6
CENTER
 62
2
 10
-143.250000
 20
-107.000000
 11
-136.250000
 21
-107.000000
  0
LINE
  8
0
  6
CENTER
 62
2
 10
-139.750000
 20
-110.500000
 11
-139.750000
 21
-103.500000
  0
LINE
  8
0
  6
CONTINUOUS
 62
7
 10
-178.000000
 20
-113.199997
 11
-169.847000
 21
-113.199997
  0
LINE
  8
0
  6
CONTINUOUS
 62
7
 10
-167.751007
 20
-116.500000
 11
-158.500000
 21
-116.500000
  0
LINE
  8
0
  6
CENTER
 62
2
 10
-125.000000
 20
-29.500000
 11
-118.000000
 21
-29.500000
  0
LINE
  8
0
  6
CENTER
 62
2
 10
-121.500000
 20
-26.000000
 11
-121.500000
 21
-33.000000
  0
LINE
  8
0
  6
CONTINUOUS
 62
7
 10
-156.697006
 20
-117.000000
 11
-139.302994
 21
-117.000000
  0
LINE
  8
0
  6
CENTER
 62
2
 10
-141.000000
 20
-119.500000
 11
-134.000000
 21
-119.500000
  0
LINE
  8
0
  6
CONTINUOUS
 62
7
 10
-128.248993
 20
-116.500000
 11
-137.500000
 21
-116.500000
  0
LINE
  8
0
  6
CENTER
 62
2
 10
-137.500000
 20
-123.000000
 11
-137.500000
 21
-116.000000
  0
LINE
  8
0
  6
CONTINUOUS
 62
7
 10
-118.000000
 20
-113.199997
 11
-126.153000
 21
-113.199997
  0
LINE
  8
0
  6
CENTER
 62
2
 10
-162.000000
 20
-119.500000
 11
-155.000000
 21
-119.500000
  0
LINE
  8
0
  6
CENTER
 62
2
 10
-158.500000
 20
-123.000000
 11
-158.500000
 21
-116.000000
  0
LINE
  8
0
  6
CENTER
 62
2
 10
-178.000000
 20
-29.500000
 11
-171.000000
 21
-29.500000
  0
LINE
  8
0
  6
CENTER
 62
2
 10
-174.500000
 20
-26.000000
 11
-174.500000
 21
-33.000000
  0
LINE
  8
0
  6
CONTINUOUS
 62
7
 10
-126.153000
 20
-113.199997
 11
-118.000000
 21
-113.199997
  0
LINE
  8
0
  6
CENTER
 62
2
 10
-164.000000
 20
-114.500000
 11
-164.000000
 21
-125.000000
  0
LINE
  8
0
  6
DASHED
 62
2
 10
-161.000000
 20
-116.500000
 11
-161.000000
 21
-118.000000
  0
LINE
  8
0
  6
DASHED
 62
2
 10
-167.000000
 20
-116.500000
 11
-167.000000
 21
-118.000000
  0
LINE
  8
0
  6
DASHED
 62
2
 10
-165.750000
 20
-118.000000
 11
-165.750000
 21
-123.000000
  0
LINE
  8
0
  6
DASHED
 62
2
 10
-162.250000
 20
-118.000000
 11
-162.250000
 21
-123.000000
  0
LINE
  8
0
  6
DASHED
 62
2
 10
-166.000000
 20
-118.000000
 11
-166.000000
 21
-123.000000
  0
LINE
  8
0
  6
DASHED
 62
2
 10
-162.000000
 20
-118.000000
 11
-162.000000
 21
-123.000000
  0
LINE
  8
0
  6
DASHED
 62
2
 10
-161.000000
 20
-118.000000
 11
-167.000000
 21
-118.000000
  0
LINE
  8
0
  6
DASHED
 62
2
 10
-129.000000
 20
-116.500000
 11
-129.000000
 21
-118.000000
  0
LINE
  8
0
  6
DASHED
 62
2
 10
-135.000000
 20
-116.500000
 11
-135.000000
 21
-118.000000
  0
LINE
  8
0
  6
DASHED
 62
2
 10
-133.750000
 20
-118.000000
 11
-133.750000
 21
-123.000000
  0
LINE
  8
0
  6
DASHED
 62
2
 10
-130.250000
 20
-118.000000
 11
-130.250000
 21
-123.000000
  0
LINE
  8
0
  6
DASHED
 62
2
 10
-134.000000
 20
-118.000000
 11
-134.000000
 21
-123.000000
  0
LINE
  8
0
  6
DASHED
 62
2
 10
-130.000000
 20
-118.000000
 11
-130.000000
 21
-123.000000
  0
LINE
  8
0
  6
DASHED
 62
2
 10
-129.000000
 20
-118.000000
 11
-135.000000
 21
-118.000000
  0
LINE
  8
0
  6
CENTER
 62
2
 10
-132.000000
 20
-114.500000
 11
-132.000000
 21
-125.000000
  0
LINE
  8
0
  6
CENTER
 62
2
 10
-150.500000
 20
-106.000000
 11
-150.500000
 21
-102.000000
  0
LINE
  8
0
  6
CENTER
 62
2
 10
-135.500000
 20
-106.000000
 11
-135.500000
 21
-102.000000
  0
LINE
  8
0
  6
CENTER
 62
2
 10
-150.500000
 20
-46.000000
 11
-150.500000
 21
-42.000000
  0
LINE
  8
0
  6
CENTER
 62
2
 10
-135.500000
 20
-46.000000
 11
-135.500000
 21
-42.000000
  0
LINE
  8
0
  6
CONTINUOUS
 62
7
 10
183.000000
 20
-161.000000
 11
93.000000
 21
-161.000000
  0
LINE
  8
0
  6
CONTINUOUS
 62
7
 10
93.000000
 20
-161.000000
 11
93.000000
 21
-138.000000
  0
LINE
  8
0
  6
CONTINUOUS
 62
7
 10
183.000000
 20
-138.000000
 11
93.000000
 21
-138.000000
  0
LINE
  8
0
  6
CONTINUOUS
 62
7
 10
183.000000
 20
-161.000000
 11
183.000000
 21
-138.000000
  0
LINE
  8
0
  6
CENTER
 62
2
 10
184.598999
 20
-149.500000
 11
90.369797
 21
-149.500000
  0
LINE
  8
0
  6
CENTER
 62
2
 10
108.000000
 20
-152.500000
 11
108.000000
 21
-162.500000
  0
LINE
  8
0
  6
CENTER
 62
2
 10
113.000000
 20
-157.500000
 11
103.000000
 21
-157.500000
  0
LINE
  8
0
  6
CENTER
 62
2
 10
108.000000
 20
-146.500000
 11
108.000000
 21
-136.500000
  0
LINE
  8
0
  6
CENTER
 62
2
 10
113.000000
 20
-141.500000
 11
103.000000
 21
-141.500000
  0
LINE
  8
0
  6
CENTER
 62
2
 10
168.000000
 20
-162.500000
 11
168.000000
 21
-152.500000
  0
LINE
  8
0
  6
CENTER
 62
2
 10
173.000000
 20
-157.500000
 11
163.000000
 21
-157.500000
  0
LINE
  8
0
  6
CENTER
 62
2
 10
168.000000
 20
-136.500000
 11
168.000000
 21
-146.500000
  0
LINE
  8
0
  6
CENTER
 62
2
 10
173.000000
 20
-141.500000
 11
163.000000
 21
-141.500000
  0
LINE
  8
0
  6
CENTER
 62
2
 10
100.000000
 20
-140.100006
 11
100.000000
 21
-154.899994
  0
LINE
  8
0
  6
CENTER
 62
2
 10
92.599998
 20
-147.500000
 11
107.400002
 21
-147.500000
  0
LINE
  8
0
  6
CENTER
 62
2
 10
176.000000
 20
-140.100006
 11
176.000000
 21
-154.899994
  0
LINE
  8
0
  6
CENTER
 62
2
 10
183.399994
 20
-147.500000
 11
168.600006
 21
-147.500000
  0
LINE
  8
0
  6
CONTINUOUS
 62
7
 10
164.899994
 20
-44.000000
 11
131.100006
 21
-44.000000
  0
LINE
  8
0
  6
CONTINUOUS
 62
7
 10
170.500000
 20
-43.700001
 11
164.899994
 21
-43.700001
  0
LINE
  8
0
  6
CONTINUOUS
 62
7
 10
170.500000
 20
-36.200001
 11
168.000000
 21
-36.200001
  0
LINE
  8
0
  6
CONTINUOUS
 62
7
 10
170.500000
 20
-43.700001
 11
170.500000
 21
-36.200001
  0
LINE
  8
0
  6
CONTINUOUS
 62
7
 10
131.100006
 20
-43.700001
 11
125.500000
 21
-43.700001
  0
LINE
  8
0
  6
CONTINUOUS
 62
7
 10
125.500000
 20
-43.500000
 11
125.500000
 21
-43.700001
  0
LINE
  8
0
  6
CONTINUOUS
 62
7
 10
183.000000
 20
-39.500000
 11
170.500000
 21
-39.500000
  0
LINE
  8
0
  6
CONTINUOUS
 62
7
 10
108.000000
 20
-39.500000
 11
93.000000
 21
-39.500000
  0
LINE
  8
0
  6
CONTINUOUS
 62
7
 10
93.000000
 20
-39.500000
 11
93.000000
 21
-25.000000
  0
LINE
  8
0
  6
CONTINUOUS
 62
7
 10
183.000000
 20
-39.500000
 11
183.000000
 21
-25.000000
  0
LINE
  8
0
  6
CONTINUOUS
 62
7
 10
183.000000
 20
-25.000000
 11
93.000000
 21
-25.000000
  0
LINE
  8
0
  6
CONTINUOUS
 62
7
 10
93.000000
 20
-34.799999
 11
102.153000
 21
-34.799999
  0
LINE
  8
0
  6
CONTINUOUS
 62
7
 10
164.899994
 20
-44.000000
 11
164.899994
 21
-43.500000
  0
LINE
  8
0
  6
CONTINUOUS
 62
7
 10
131.100006
 20
-44.000000
 11
131.100006
 21
-43.500000
  0
LINE
  8
0
  6
CONTINUOUS
 62
7
 10
171.751007
 20
-31.500000
 11
168.000000
 21
-31.500000
  0
LINE
  8
0
  6
CONTINUOUS
 62
7
 10
183.000000
 20
-34.799999
 11
173.847000
 21
-34.799999
  0
LINE
  8
0
  6
CONTINUOUS
 62
7
 10
104.249001
 20
-31.500000
 11
108.000000
 21
-31.500000
  0
LINE
  8
0
  6
CENTER
 62
2
 10
185.042999
 20
-74.000000
 11
89.855202
 21
-74.000000
  0
LINE
  8
0
  6
CONTINUOUS
 62
7
 10
183.000000
 20
-85.500000
 11
183.000000
 21
-62.500000
  0
LINE
  8
0
  6
CONTINUOUS
 62
7
 10
183.000000
 20
-69.500000
 11
170.500000
 21
-69.500000
  0
LINE
  8
0
  6
CENTER
 62
2
 10
168.000000
 20
-61.000000
 11
168.000000
 21
-71.000000
  0
LINE
  8
0
  6
CENTER
 62
2
 10
173.000000
 20
-66.000000
 11
163.000000
 21
-66.000000
  0
LINE
  8
0
  6
CONTINUOUS
 62
7
 10
164.899994
 20
-64.000000
 11
131.100006
 21
-64.000000
  0
LINE
  8
0
  6
CONTINUOUS
 62
7
 10
164.899994
 20
-79.000000
 11
131.100006
 21
-79.000000
  0
LINE
  8
0
  6
CONTINUOUS
 62
7
 10
164.899994
 20
-69.000000
 11
131.100006
 21
-69.000000
  0
LINE
  8
0
  6
CONTINUOUS
 62
7
 10
131.100006
 20
-64.300003
 11
125.500000
 21
-64.300003
  0
LINE
  8
0
  6
CENTER
 62
2
 10
143.500000
 20
-81.500000
 11
136.600006
 21
-81.500000
  0
LINE
  8
0
  6
CENTER
 62
2
 10
143.500000
 20
-66.500000
 11
136.600006
 21
-66.500000
  0
LINE
  8
0
  6
CENTER
 62
2
 10
140.000000
 20
-63.000000
 11
140.000000
 21
-70.000000
  0
LINE
  8
0
  6
CENTER
 62
2
 10
152.500000
 20
-66.500000
 11
158.891006
 21
-66.500000
  0
LINE
  8
0
  6
CENTER
 62
2
 10
156.000000
 20
-63.000000
 11
156.000000
 21
-70.000000
  0
LINE
  8
0
  6
CENTER
 62
2
 10
140.000000
 20
-85.000000
 11
140.000000
 21
-78.000000
  0
LINE
  8
0
  6
CONTINUOUS
 62
7
 10
131.100006
 20
-64.000000
 11
131.100006
 21
-84.000000
  0
LINE
  8
0
  6
CENTER
 62
2
 10
152.488007
 20
-81.500000
 11
158.932999
 21
-81.500000
  0
LINE
  8
0
  6
CENTER
 62
2
 10
156.000000
 20
-85.000000
 11
156.000000
 21
-78.000000
  0
LINE
  8
0
  6
CONTINUOUS
 62
7
 10
164.899994
 20
-84.000000
 11
131.100006
 21
-84.000000
  0
LINE
  8
0
  6
CONTINUOUS
 62
7
 10
131.100006
 20
-83.699997
 11
125.500000
 21
-83.699997
  0
LINE
  8
0
  6
CONTINUOUS
 62
7
 10
125.500000
 20
-64.300003
 11
125.500000
 21
-83.699997
  0
LINE
  8
0
  6
CONTINUOUS
 62
7
 10
170.500000
 20
-64.300003
 11
164.899994
 21
-64.300003
  0
LINE
  8
0
  6
CONTINUOUS
 62
7
 10
170.500000
 20
-83.699997
 11
164.899994
 21
-83.699997
  0
LINE
  8
0
  6
CONTINUOUS
 62
7
 10
164.899994
 20
-64.000000
 11
164.899994
 21
-84.000000
  0
LINE
  8
0
  6
CONTINUOUS
 62
7
 10
170.500000
 20
-83.699997
 11
170.500000
 21
-64.300003
  0
LINE
  8
0
  6
CONTINUOUS
 62
7
 10
183.000000
 20
-62.500000
 11
151.250000
 21
-62.500000
  0
LINE
  8
0
  6
CONTINUOUS
 62
7
 10
183.000000
 20
-85.500000
 11
93.000000
 21
-85.500000
  0
LINE
  8
0
  6
CONTINUOUS
 62
7
 10
183.000000
 20
-78.500000
 11
170.500000
 21
-78.500000
  0
LINE
  8
0
  6
CENTER
 62
2
 10
168.000000
 20
-87.000000
 11
168.000000
 21
-77.000000
  0
LINE
  8
0
  6
CENTER
 62
2
 10
173.000000
 20
-82.000000
 11
163.000000
 21
-82.000000
  0
LINE
  8
0
  6
CONTINUOUS
 62
7
 10
93.000000
 20
-69.500000
 11
125.500000
 21
-69.500000
  0
LINE
  8
0
  6
CENTER
 62
2
 10
108.000000
 20
-61.000000
 11
108.000000
 21
-71.000000
  0
LINE
  8
0
  6
CENTER
 62
2
 10
103.000000
 20
-66.000000
 11
113.000000
 21
-66.000000
  0
LINE
  8
0
  6
CONTINUOUS
 62
7
 10
93.000000
 20
-85.500000
 11
93.000000
 21
-62.500000
  0
LINE
  8
0
  6
CONTINUOUS
 62
7
 10
93.000000
 20
-78.500000
 11
125.500000
 21
-78.500000
  0
LINE
  8
0
  6
CENTER
 62
2
 10
108.000000
 20
-87.000000
 11
108.000000
 21
-77.000000
  0
LINE
  8
0
  6
CENTER
 62
2
 10
103.000000
 20
-82.000000
 11
113.000000
 21
-82.000000
  0
LINE
  8
0
  6
CONTINUOUS
 62
7
 10
164.899994
 20
-104.000000
 11
131.100006
 21
-104.000000
  0
LINE
  8
0
  6
CONTINUOUS
 62
7
 10
170.500000
 20
-104.300003
 11
164.899994
 21
-104.300003
  0
LINE
  8
0
  6
CONTINUOUS
 62
7
 10
170.500000
 20
-111.800003
 11
125.500000
 21
-111.800003
  0
LINE
  8
0
  6
CONTINUOUS
 62
7
 10
170.500000
 20
-104.300003
 11
170.500000
 21
-111.800003
  0
LINE
  8
0
  6
CONTINUOUS
 62
7
 10
131.100006
 20
-104.300003
 11
125.500000
 21
-104.300003
  0
LINE
  8
0
  6
CONTINUOUS
 62
7
 10
125.500000
 20
-111.800003
 11
125.500000
 21
-104.300003
  0
LINE
  8
0
  6
CONTINUOUS
 62
7
 10
183.000000
 20
-108.500000
 11
170.500000
 21
-108.500000
  0
LINE
  8
0
  6
CONTINUOUS
 62
7
 10
125.500000
 20
-108.500000
 11
93.000000
 21
-108.500000
  0
LINE
  8
0
  6
CONTINUOUS
 62
7
 10
93.000000
 20
-108.500000
 11
93.000000
 21
-123.000000
  0
LINE
  8
0
  6
CONTINUOUS
 62
7
 10
183.000000
 20
-108.500000
 11
183.000000
 21
-123.000000
  0
LINE
  8
0
  6
CONTINUOUS
 62
7
 10
183.000000
 20
-123.000000
 11
93.000000
 21
-123.000000
  0
LINE
  8
0
  6
CONTINUOUS
 62
7
 10
93.000000
 20
-113.199997
 11
102.153000
 21
-113.199997
  0
LINE
  8
0
  6
CONTINUOUS
 62
7
 10
164.899994
 20
-104.000000
 11
164.899994
 21
-111.800003
  0
LINE
  8
0
  6
CONTINUOUS
 62
7
 10
131.100006
 20
-104.000000
 11
131.100006
 21
-111.800003
  0
LINE
  8
0
  6
CENTER
 62
2
 10
141.250000
 20
-107.000000
 11
148.250000
 21
-107.000000
  0
LINE
  8
0
  6
CENTER
 62
2
 10
144.750000
 20
-110.500000
 11
144.750000
 21
-103.500000
  0
LINE
  8
0
  6
CENTER
 62
2
 10
147.750000
 20
-107.000000
 11
154.750000
 21
-107.000000
  0
LINE
  8
0
  6
CENTER
 62
2
 10
151.250000
 20
-110.500000
 11
151.250000
 21
-103.500000
  0
LINE
  8
0
  6
CONTINUOUS
 62
7
 10
104.249001
 20
-116.500000
 11
118.000000
 21
-116.500000
  0
LINE
  8
0
  6
CENTER
 62
2
 10
114.500000
 20
-119.500000
 11
121.500000
 21
-119.500000
  0
LINE
  8
0
  6
CENTER
 62
2
 10
118.000000
 20
-123.000000
 11
118.000000
 21
-116.000000
  0
LINE
  8
0
  6
CONTINUOUS
 62
7
 10
119.803001
 20
-117.000000
 11
156.197006
 21
-117.000000
  0
LINE
  8
0
  6
CENTER
 62
2
 10
99.000000
 20
-29.500000
 11
106.000000
 21
-29.500000
  0
LINE
  8
0
  6
CONTINUOUS
 62
7
 10
171.751007
 20
-116.500000
 11
158.000000
 21
-116.500000
  0
LINE
  8
0
  6
CENTER
 62
2
 10
102.000000
 20
-26.000000
 11
102.000000
 21
-33.000000
  0
LINE
  8
0
  6
CENTER
 62
2
 10
155.000000
 20
-119.500000
 11
162.000000
 21
-119.500000
  0
LINE
  8
0
  6
CENTER
 62
2
 10
158.000000
 20
-123.000000
 11
158.000000
 21
-116.000000
  0
LINE
  8
0
  6
CENTER
 62
2
 10
171.000000
 20
-29.500000
 11
178.000000
 21
-29.500000
  0
LINE
  8
0
  6
CENTER
 62
2
 10
174.000000
 20
-26.000000
 11
174.000000
 21
-33.000000
  0
LINE
  8
0
  6
CONTINUOUS
 62
7
 10
173.847000
 20
-113.199997
 11
183.000000
 21
-113.199997
  0
LINE
  8
0
  6
DASHED
 62
2
 10
111.000000
 20
-30.000000
 11
105.000000
 21
-30.000000
  0
LINE
  8
0
  6
CENTER
 62
2
 10
108.000000
 20
-33.500000
 11
108.000000
 21
-23.000000
  0
LINE
  8
0
  6
DASHED
 62
2
 10
111.000000
 20
-31.500000
 11
111.000000
 21
-30.000000
  0
LINE
  8
0
  6
DASHED
 62
2
 10
105.000000
 20
-31.500000
 11
105.000000
 21
-30.000000
  0
LINE
  8
0
  6
DASHED
 62
2
 10
106.250000
 20
-30.000000
 11
106.250000
 21
-25.000000
  0
LINE
  8
0
  6
DASHED
 62
2
 10
109.750000
 20
-30.000000
 11
109.750000
 21
-25.000000
  0
LINE
  8
0
  6
DASHED
 62
2
 10
106.000000
 20
-30.000000
 11
106.000000
 21
-25.000000
  0
LINE
  8
0
  6
DASHED
 62
2
 10
110.000000
 20
-30.000000
 11
110.000000
 21
-25.000000
  0
LINE
  8
0
  6
DASHED
 62
2
 10
171.000000
 20
-30.000000
 11
165.000000
 21
-30.000000
  0
LINE
  8
0
  6
CENTER
 62
2
 10
168.000000
 20
-33.500000
 11
168.000000
 21
-23.000000
  0
LINE
  8
0
  6
DASHED
 62
2
 10
171.000000
 20
-31.500000
 11
171.000000
 21
-30.000000
  0
LINE
  8
0
  6
DASHED
 62
2
 10
165.000000
 20
-31.500000
 11
165.000000
 21
-30.000000
  0
LINE
  8
0
  6
DASHED
 62
2
 10
166.250000
 20
-30.000000
 11
166.250000
 21
-25.000000
  0
LINE
  8
0
  6
DASHED
 62
2
 10
169.750000
 20
-30.000000
 11
169.750000
 21
-25.000000
  0
LINE
  8
0
  6
DASHED
 62
2
 10
166.000000
 20
-30.000000
 11
166.000000
 21
-25.000000
  0
LINE
  8
0
  6
DASHED
 62
2
 10
170.000000
 20
-30.000000
 11
170.000000
 21
-25.000000
  0
LINE
  8
0
  6
CENTER
 62
2
 10
140.000000
 20
-46.000000
 11
140.000000
 21
-42.000000
  0
LINE
  8
0
  6
CENTER
 62
2
 10
156.000000
 20
-46.000000
 11
156.000000
 21
-42.000000
  0
LINE
  8
0
  6
CENTER
 62
2
 10
140.000000
 20
-106.000000
 11
140.000000
 21
-102.000000
  0
LINE
  8
0
  6
CENTER
 62
2
 10
156.000000
 20
-106.000000
 11
156.000000
 21
-102.000000
  0
LINE
  8
0
  6
DASHED
 62
2
 10
166.000000
 20
-118.000000
 11
166.000000
 21
-123.000000
  0
LINE
  8
0
  6
DASHED
 62
2
 10
111.000000
 20
-118.000000
 11
105.000000
 21
-118.000000
  0
LINE
  8
0
  6
CENTER
 62
2
 10
108.000000
 20
-114.500000
 11
108.000000
 21
-125.000000
  0
LINE
  8
0
  6
DASHED
 62
2
 10
111.000000
 20
-116.500000
 11
111.000000
 21
-118.000000
  0
LINE
  8
0
  6
DASHED
 62
2
 10
105.000000
 20
-116.500000
 11
105.000000
 21
-118.000000
  0
LINE
  8
0
  6
DASHED
 62
2
 10
106.250000
 20
-118.000000
 11
106.250000
 21
-123.000000
  0
LINE
  8
0
  6
DASHED
 62
2
 10
109.750000
 20
-118.000000
 11
109.750000
 21
-123.000000
  0
LINE
  8
0
  6
DASHED
 62
2
 10
106.000000
 20
-118.000000
 11
106.000000
 21
-123.000000
  0
LINE
  8
0
  6
DASHED
 62
2
 10
110.000000
 20
-118.000000
 11
110.000000
 21
-123.000000
  0
LINE
  8
0
  6
DASHED
 62
2
 10
169.750000
 20
-118.000000
 11
169.750000
 21
-123.000000
  0
LINE
  8
0
  6
DASHED
 62
2
 10
170.000000
 20
-118.000000
 11
170.000000
 21
-123.000000
  0
LINE
  8
0
  6
DASHED
 62
2
 10
171.000000
 20
-118.000000
 11
165.000000
 21
-118.000000
  0
LINE
  8
0
  6
CENTER
 62
2
 10
168.000000
 20
-114.500000
 11
168.000000
 21
-125.000000
  0
LINE
  8
0
  6
DASHED
 62
2
 10
171.000000
 20
-116.500000
 11
171.000000
 21
-118.000000
  0
LINE
  8
0
  6
DASHED
 62
2
 10
165.000000
 20
-116.500000
 11
165.000000
 21
-118.000000
  0
LINE
  8
0
  6
DASHED
 62
2
 10
166.250000
 20
-118.000000
 11
166.250000
 21
-123.000000
  0
LINE
  8
0
  6
CONTINUOUS
 62
7
 10
-129.000000
 20
-43.500000
 11
-129.000000
 21
-25.500000
  0
LINE
  8
0
  6
CONTINUOUS
 62
7
 10
-167.000000
 20
-25.500000
 11
-129.000000
 21
-25.500000
  0
LINE
  8
0
  6
CONTINUOUS
 62
7
 10
-167.000000
 20
-43.500000
 11
-167.000000
 21
-25.500000
  0
LINE
  8
0
  6
CONTINUOUS
 62
7
 10
-129.000000
 20
-43.500000
 11
-167.000000
 21
-43.500000
  0
LINE
  8
0
  6
CONTINUOUS
 62
7
 10
-129.000000
 20
-170.000000
 11
-167.000000
 21
-170.000000
  0
LINE
  8
0
  6
CONTINUOUS
 62
7
 10
-167.000000
 20
-170.000000
 11
-167.000000
 21
-161.000000
  0
LINE
  8
0
  6
CONTINUOUS
 62
7
 10
-129.000000
 20
-170.000000
 11
-129.000000
 21
-161.000000
  0
LINE
  8
0
  6
CONTINUOUS
 62
7
 10
-167.000000
 20
-62.500000
 11
-167.000000
 21
-53.500000
  0
LINE
  8
0
  6
CONTINUOUS
 62
7
 10
-129.000000
 20
-61.000000
 11
-167.000000
 21
-61.000000
  0
LINE
  8
0
  6
CONTINUOUS
 62
7
 10
-129.000000
 20
-53.500000
 11
-167.000000
 21
-53.500000
  0
LINE
  8
0
  6
CONTINUOUS
 62
7
 10
-129.000000
 20
-62.500000
 11
-129.000000
 21
-53.500000
  0
LINE
  8
0
  6
CONTINUOUS
 62
7
 10
-139.750000
 20
-64.000000
 11
-139.750000
 21
-61.900002
  0
LINE
  8
0
  6
CONTINUOUS
 62
7
 10
-139.750000
 20
-61.900002
 11
-146.250000
 21
-61.900002
  0
LINE
  8
0
  6
CONTINUOUS
 62
7
 10
-146.250000
 20
-64.000000
 11
-146.250000
 21
-61.900002
  0
LINE
  8
0
  6
CONTINUOUS
 62
7
 10
-146.250000
 20
-62.500000
 11
-178.000000
 21
-62.500000
  0
LINE
  8
0
  6
CONTINUOUS
 62
7
 10
-167.000000
 20
-108.500000
 11
-167.000000
 21
-104.500000
  0
LINE
  8
0
  6
CONTINUOUS
 62
7
 10
-158.500000
 20
-104.500000
 11
-167.000000
 21
-104.500000
  0
LINE
  8
0
  6
CONTINUOUS
 62
2
 10
-167.000000
 20
-35.700001
 11
-129.000000
 21
-35.700001
  0
LINE
  8
0
  6
CONTINUOUS
 62
2
 10
-167.000000
 20
-33.099998
 11
-129.000000
 21
-33.099998
  0
LINE
  8
0
  6
CONTINUOUS
 62
2
 10
-167.000000
 20
-41.500000
 11
-129.000000
 21
-41.500000
  0
LINE
  8
0
  6
CONTINUOUS
 62
2
 10
-167.000000
 20
-38.900002
 11
-129.000000
 21
-38.900002
  0
LINE
  8
0
  6
CENTER
 62
2
 10
73.000000
 20
-103.513000
 11
73.000000
 21
-124.005997
  0
LINE
  8
0
  6
CONTINUOUS
 62
7
 10
77.500000
 20
-110.865997
 11
77.500000
 21
-113.199997
  0
LINE
  8
0
  6
CONTINUOUS
 62
7
 10
68.500000
 20
-110.865997
 11
68.500000
 21
-113.199997
  0
LINE
  8
0
  6
CONTINUOUS
 62
7
 10
83.000000
 20
-104.000000
 11
78.500000
 21
-104.000000
  0
LINE
  8
0
  6
CONTINUOUS
 62
7
 10
83.000000
 20
-104.000000
 11
83.000000
 21
-111.800003
  0
LINE
  8
0
  6
CONTINUOUS
 62
7
 10
83.000000
 20
-111.800003
 11
77.500000
 21
-111.800003
  0
LINE
  8
0
  6
CONTINUOUS
 62
7
 10
78.199997
 20
-104.300003
 11
67.800003
 21
-104.300003
  0
LINE
  8
0
  6
CONTINUOUS
 62
7
 10
68.500000
 20
-111.800003
 11
63.000000
 21
-111.800003
  0
LINE
  8
0
  6
CONTINUOUS
 62
7
 10
67.800003
 20
-104.300003
 11
67.500000
 21
-104.000000
  0
LINE
  8
0
  6
CONTINUOUS
 62
7
 10
78.199997
 20
-104.300003
 11
78.500000
 21
-104.000000
  0
LINE
  8
0
  6
CONTINUOUS
 62
7
 10
67.500000
 20
-104.000000
 11
63.000000
 21
-104.000000
  0
LINE
  8
0
  6
CONTINUOUS
 62
7
 10
77.500000
 20
-108.500000
 11
77.500000
 21
-109.134003
  0
LINE
  8
0
  6
CONTINUOUS
 62
7
 10
68.500000
 20
-108.500000
 11
77.500000
 21
-108.500000
  0
LINE
  8
0
  6
CONTINUOUS
 62
7
 10
68.500000
 20
-108.500000
 11
68.500000
 21
-109.134003
  0
LINE
  8
0
  6
CONTINUOUS
 62
7
 10
84.500000
 20
-123.000000
 11
61.500000
 21
-123.000000
  0
LINE
  8
0
  6
CONTINUOUS
 62
7
 10
84.500000
 20
-113.199997
 11
84.500000
 21
-123.000000
  0
LINE
  8
0
  6
CONTINUOUS
 62
7
 10
61.500000
 20
-113.199997
 11
61.500000
 21
-123.000000
  0
LINE
  8
0
  6
CONTINUOUS
 62
7
 10
61.500000
 20
-113.199997
 11
68.500000
 21
-113.199997
  0
LINE
  8
0
  6
CENTER
 62
2
 10
79.500000
 20
-116.500000
 11
66.500000
 21
-116.500000
  0
LINE
  8
0
  6
CONTINUOUS
 62
7
 10
84.500000
 20
-113.199997
 11
77.500000
 21
-113.199997
  0
LINE
  8
0
  6
CONTINUOUS
 62
7
 10
63.000000
 20
-104.000000
 11
63.000000
 21
-111.800003
  0
LINE
  8
0
  6
CENTER
 62
2
 10
81.000000
 20
-121.000000
 11
81.000000
 21
-125.000000
  0
LINE
  8
0
  6
CENTER
 62
2
 10
65.000000
 20
-121.000000
 11
65.000000
 21
-125.000000
  0
LINE
  8
0
  6
CENTER
 62
2
 10
65.500000
 20
-102.000000
 11
65.500000
 21
-106.000000
  0
LINE
  8
0
  6
CENTER
 62
2
 10
80.500000
 20
-102.000000
 11
80.500000
 21
-106.000000
  0
LINE
  8
0
  6
CONTINUOUS
 62
7
 10
52.500000
 20
-104.500000
 11
52.500000
 21
-122.500000
  0
LINE
  8
0
  6
CONTINUOUS
 62
2
 10
52.500000
 20
-109.099998
 11
53.500000
 21
-109.099998
  0
LINE
  8
0
  6
CONTINUOUS
 62
2
 10
52.500000
 20
-106.500000
 11
53.500000
 21
-106.500000
  0
LINE
  8
0
  6
CONTINUOUS
 62
7
 10
52.500000
 20
-104.500000
 11
60.000000
 21
-104.500000
  0
LINE
  8
0
  6
CONTINUOUS
 62
2
 10
53.500000
 20
-105.650002
 11
53.500000
 21
-106.500000
  0
LINE
  8
0
  6
CONTINUOUS
 62
2
 10
57.299999
 20
-109.949997
 11
53.500000
 21
-109.949997
  0
LINE
  8
0
  6
CONTINUOUS
 62
2
 10
58.799999
 20
-107.150002
 11
58.799999
 21
-108.449997
  0
LINE
  8
0
  6
CONTINUOUS
 62
2
 10
57.299999
 20
-105.650002
 11
53.500000
 21
-105.650002
  0
LINE
  8
0
  6
CONTINUOUS
 62
7
 10
60.000000
 20
-117.000000
 11
61.500000
 21
-117.000000
  0
LINE
  8
0
  6
CONTINUOUS
 62
7
 10
52.500000
 20
-122.500000
 11
61.500000
 21
-122.500000
  0
LINE
  8
0
  6
CONTINUOUS
 62
7
 10
60.000000
 20
-104.500000
 11
60.000000
 21
-117.000000
  0
LINE
  8
0
  6
CENTER
 62
2
 10
60.900002
 20
-107.800003
 11
50.500000
 21
-107.800003
  0
LINE
  8
0
  6
CONTINUOUS
 62
2
 10
53.500000
 20
-109.099998
 11
53.500000
 21
-109.949997
  0
LINE
  8
0
  6
CONTINUOUS
 62
7
 10
60.900002
 20
-104.800003
 11
63.000000
 21
-104.800003
  0
LINE
  8
0
  6
CONTINUOUS
 62
7
 10
60.900002
 20
-104.800003
 11
60.900002
 21
-115.800003
  0
LINE
  8
0
  6
CONTINUOUS
 62
7
 10
60.900002
 20
-115.800003
 11
61.500000
 21
-115.800003
  0
LINE
  8
0
  6
CENTER
 62
2
 10
60.900002
 20
-113.599998
 11
50.500000
 21
-113.599998
  0
LINE
  8
0
  6
CONTINUOUS
 62
7
 10
108.000000
 20
-25.500000
 11
168.000000
 21
-25.500000
  0
LINE
  8
0
  6
CONTINUOUS
 62
7
 10
168.000000
 20
-43.500000
 11
108.000000
 21
-43.500000
  0
LINE
  8
0
  6
CONTINUOUS
 62
7
 10
108.000000
 20
-43.500000
 11
108.000000
 21
-25.500000
  0
LINE
  8
0
  6
CONTINUOUS
 62
7
 10
168.000000
 20
-43.500000
 11
168.000000
 21
-25.500000
  0
LINE
  8
0
  6
CONTINUOUS
 62
2
 10
108.000000
 20
-35.700001
 11
168.000000
 21
-35.700001
  0
LINE
  8
0
  6
CONTINUOUS
 62
2
 10
108.000000
 20
-33.099998
 11
168.000000
 21
-33.099998
  0
LINE
  8
0
  6
CONTINUOUS
 62
2
 10
108.000000
 20
-41.500000
 11
168.000000
 21
-41.500000
  0
LINE
  8
0
  6
CONTINUOUS
 62
2
 10
108.000000
 20
-38.900002
 11
168.000000
 21
-38.900002
  0
LINE
  8
0
  6
CONTINUOUS
 62
7
 10
168.000000
 20
-170.000000
 11
108.000000
 21
-170.000000
  0
LINE
  8
0
  6
CONTINUOUS
 62
7
 10
108.000000
 20
-170.000000
 11
108.000000
 21
-161.000000
  0
LINE
  8
0
  6
CONTINUOUS
 62
7
 10
168.000000
 20
-170.000000
 11
168.000000
 21
-161.000000
  0
LINE
  8
0
  6
CONTINUOUS
 62
7
 10
108.000000
 20
-62.500000
 11
108.000000
 21
-53.500000
  0
LINE
  8
0
  6
CONTINUOUS
 62
7
 10
168.000000
 20
-61.000000
 11
108.000000
 21
-61.000000
  0
LINE
  8
0
  6
CONTINUOUS
 62
7
 10
168.000000
 20
-53.500000
 11
108.000000
 21
-53.500000
  0
LINE
  8
0
  6
CONTINUOUS
 62
7
 10
144.750000
 20
-64.000000
 11
144.750000
 21
-61.900002
  0
LINE
  8
0
  6
CONTINUOUS
 62
7
 10
151.250000
 20
-61.900002
 11
144.750000
 21
-61.900002
  0
LINE
  8
0
  6
CONTINUOUS
 62
7
 10
151.250000
 20
-64.000000
 11
151.250000
 21
-61.900002
  0
LINE
  8
0
  6
CONTINUOUS
 62
7
 10
168.000000
 20
-62.500000
 11
168.000000
 21
-53.500000
  0
LINE
  8
0
  6
CONTINUOUS
 62
7
 10
144.750000
 20
-62.500000
 11
93.000000
 21
-62.500000
  0
LINE
  8
0
  6
CONTINUOUS
 62
7
 10
108.000000
 20
-108.500000
 11
108.000000
 21
-104.500000
  0
LINE
  8
0
  6
CONTINUOUS
 62
7
 10
125.500000
 20
-104.500000
 11
108.000000
 21
-104.500000
  0
LINE
  8
0
  6
CONTINUOUS
 62
7
 10
-133.100006
 20
70.000000
 11
-152.899994
 21
70.000000
  0
LINE
  8
0
  6
CONTINUOUS
 62
7
 10
-127.500000
 20
69.699997
 11
-133.100006
 21
69.699997
  0
LINE
  8
0
  6
CONTINUOUS
 62
7
 10
-127.500000
 20
62.200001
 11
-129.000000
 21
62.200001
  0
LINE
  8
0
  6
CONTINUOUS
 62
7
 10
-127.500000
 20
69.699997
 11
-127.500000
 21
62.200001
  0
LINE
  8
0
  6
CONTINUOUS
 62
7
 10
-152.899994
 20
69.699997
 11
-158.500000
 21
69.699997
  0
LINE
  8
0
  6
CONTINUOUS
 62
7
 10
-158.500000
 20
69.500000
 11
-158.500000
 21
69.699997
  0
LINE
  8
0
  6
CONTINUOUS
 62
7
 10
-118.000000
 20
65.500000
 11
-127.500000
 21
65.500000
  0
LINE
  8
0
  6
CONTINUOUS
 62
7
 10
-167.000000
 20
65.500000
 11
-178.000000
 21
65.500000
  0
LINE
  8
0
  6
CONTINUOUS
 62
7
 10
-178.000000
 20
65.500000
 11
-178.000000
 21
51.000000
  0
LINE
  8
0
  6
CONTINUOUS
 62
7
 10
-118.000000
 20
65.500000
 11
-118.000000
 21
51.000000
  0
LINE
  8
0
  6
CONTINUOUS
 62
7
 10
-118.000000
 20
51.000000
 11
-178.000000
 21
51.000000
  0
LINE
  8
0
  6
CONTINUOUS
 62
7
 10
-178.000000
 20
60.799999
 11
-169.847000
 21
60.799999
  0
LINE
  8
0
  6
CONTINUOUS
 62
7
 10
-133.100006
 20
70.000000
 11
-133.100006
 21
69.500000
  0
LINE
  8
0
  6
CONTINUOUS
 62
7
 10
-152.899994
 20
70.000000
 11
-152.899994
 21
69.500000
  0
LINE
  8
0
  6
CONTINUOUS
 62
7
 10
-128.248993
 20
57.500000
 11
-129.000000
 21
57.500000
  0
LINE
  8
0
  6
CONTINUOUS
 62
7
 10
-118.000000
 20
60.799999
 11
-126.153000
 21
60.799999
  0
LINE
  8
0
  6
CONTINUOUS
 62
7
 10
-167.751007
 20
57.500000
 11
-167.000000
 21
57.500000
  0
LINE
  8
0
  6
DASHED
 62
2
 10
-135.000000
 20
57.500000
 11
-135.000000
 21
56.000000
  0
LINE
  8
0
  6
DASHED
 62
2
 10
-133.750000
 20
56.000000
 11
-133.750000
 21
51.000000
  0
LINE
  8
0
  6
DASHED
 62
2
 10
-130.250000
 20
56.000000
 11
-130.250000
 21
51.000000
  0
LINE
  8
0
  6
DASHED
 62
2
 10
-134.000000
 20
56.000000
 11
-134.000000
 21
51.000000
  0
LINE
  8
0
  6
DASHED
 62
2
 10
-130.000000
 20
56.000000
 11
-130.000000
 21
51.000000
  0
LINE
  8
0
  6
DASHED
 62
2
 10
-129.000000
 20
56.000000
 11
-135.000000
 21
56.000000
  0
LINE
  8
0
  6
CENTER
 62
2
 10
-132.000000
 20
59.500000
 11
-132.000000
 21
49.000000
  0
LINE
  8
0
  6
CENTER
 62
2
 10
-164.000000
 20
59.500000
 11
-164.000000
 21
49.000000
  0
LINE
  8
0
  6
DASHED
 62
2
 10
-161.000000
 20
57.500000
 11
-161.000000
 21
56.000000
  0
LINE
  8
0
  6
DASHED
 62
2
 10
-165.750000
 20
56.000000
 11
-165.750000
 21
51.000000
  0
LINE
  8
0
  6
DASHED
 62
2
 10
-162.250000
 20
56.000000
 11
-162.250000
 21
51.000000
  0
LINE
  8
0
  6
DASHED
 62
2
 10
-166.000000
 20
56.000000
 11
-166.000000
 21
51.000000
  0
LINE
  8
0
  6
DASHED
 62
2
 10
-162.000000
 20
56.000000
 11
-162.000000
 21
51.000000
  0
LINE
  8
0
  6
DASHED
 62
2
 10
-161.000000
 20
56.000000
 11
-167.000000
 21
56.000000
  0
LINE
  8
0
  6
CONTINUOUS
 62
7
 10
-133.100006
 20
90.000000
 11
-152.899994
 21
90.000000
  0
LINE
  8
0
  6
CONTINUOUS
 62
7
 10
-133.100006
 20
105.000000
 11
-152.899994
 21
105.000000
  0
LINE
  8
0
  6
CONTINUOUS
 62
7
 10
-133.100006
 20
95.000000
 11
-152.899994
 21
95.000000
  0
LINE
  8
0
  6
CONTINUOUS
 62
7
 10
-127.500000
 20
90.300003
 11
-133.100006
 21
90.300003
  0
LINE
  8
0
  6
CONTINUOUS
 62
7
 10
-152.899994
 20
90.300003
 11
-158.500000
 21
90.300003
  0
LINE
  8
0
  6
CENTER
 62
2
 10
-116.429001
 20
100.000000
 11
-180.061996
 21
100.000000
  0
LINE
  8
0
  6
CONTINUOUS
 62
7
 10
-118.000000
 20
111.500000
 11
-118.000000
 21
88.500000
  0
LINE
  8
0
  6
CONTINUOUS
 62
7
 10
-178.000000
 20
111.500000
 11
-178.000000
 21
88.500000
  0
LINE
  8
0
  6
CONTINUOUS
 62
7
 10
-118.000000
 20
88.500000
 11
-139.750000
 21
88.500000
  0
LINE
  8
0
  6
CONTINUOUS
 62
7
 10
-118.000000
 20
95.500000
 11
-127.500000
 21
95.500000
  0
LINE
  8
0
  6
CONTINUOUS
 62
7
 10
-118.000000
 20
104.500000
 11
-127.500000
 21
104.500000
  0
LINE
  8
0
  6
CONTINUOUS
 62
7
 10
-158.500000
 20
104.500000
 11
-178.000000
 21
104.500000
  0
LINE
  8
0
  6
CONTINUOUS
 62
7
 10
-158.500000
 20
95.500000
 11
-178.000000
 21
95.500000
  0
LINE
  8
0
  6
CENTER
 62
2
 10
-139.000000
 20
92.500000
 11
-132.000000
 21
92.500000
  0
LINE
  8
0
  6
CENTER
 62
2
 10
-135.500000
 20
89.000000
 11
-135.500000
 21
96.000000
  0
LINE
  8
0
  6
CONTINUOUS
 62
7
 10
-133.100006
 20
110.000000
 11
-152.899994
 21
110.000000
  0
LINE
  8
0
  6
CONTINUOUS
 62
7
 10
-127.500000
 20
109.699997
 11
-127.500000
 21
90.300003
  0
LINE
  8
0
  6
CONTINUOUS
 62
7
 10
-127.500000
 20
109.699997
 11
-133.100006
 21
109.699997
  0
LINE
  8
0
  6
CONTINUOUS
 62
7
 10
-152.899994
 20
109.699997
 11
-158.500000
 21
109.699997
  0
LINE
  8
0
  6
CONTINUOUS
 62
7
 10
-133.100006
 20
90.000000
 11
-133.100006
 21
110.000000
  0
LINE
  8
0
  6
CONTINUOUS
 62
7
 10
-152.899994
 20
90.000000
 11
-152.899994
 21
110.000000
  0
LINE
  8
0
  6
CENTER
 62
2
 10
-154.000000
 20
92.500000
 11
-147.000000
 21
92.500000
  0
LINE
  8
0
  6
CENTER
 62
2
 10
-150.500000
 20
89.000000
 11
-150.500000
 21
96.000000
  0
LINE
  8
0
  6
CENTER
 62
2
 10
-154.000000
 20
107.500000
 11
-147.000000
 21
107.500000
  0
LINE
  8
0
  6
CENTER
 62
2
 10
-139.000000
 20
107.500000
 11
-132.000000
 21
107.500000
  0
LINE
  8
0
  6
CENTER
 62
2
 10
-135.500000
 20
111.000000
 11
-135.500000
 21
104.000000
  0
LINE
  8
0
  6
CENTER
 62
2
 10
-150.500000
 20
111.000000
 11
-150.500000
 21
104.000000
  0
LINE
  8
0
  6
CENTER
 62
2
 10
-169.000000
 20
108.000000
 11
-159.000000
 21
108.000000
  0
LINE
  8
0
  6
CENTER
 62
2
 10
-164.000000
 20
113.000000
 11
-164.000000
 21
103.000000
  0
LINE
  8
0
  6
CONTINUOUS
 62
7
 10
-118.000000
 20
111.500000
 11
-178.000000
 21
111.500000
  0
LINE
  8
0
  6
CENTER
 62
2
 10
-169.000000
 20
92.000000
 11
-159.000000
 21
92.000000
  0
LINE
  8
0
  6
CENTER
 62
2
 10
-164.000000
 20
87.000000
 11
-164.000000
 21
97.000000
  0
LINE
  8
0
  6
CENTER
 62
2
 10
-127.000000
 20
108.000000
 11
-137.000000
 21
108.000000
  0
LINE
  8
0
  6
CENTER
 62
2
 10
-132.000000
 20
113.000000
 11
-132.000000
 21
103.000000
  0
LINE
  8
0
  6
CENTER
 62
2
 10
-132.000000
 20
87.000000
 11
-132.000000
 21
97.000000
  0
LINE
  8
0
  6
CENTER
 62
2
 10
-127.000000
 20
92.000000
 11
-137.000000
 21
92.000000
  0
LINE
  8
0
  6
CONTINUOUS
 62
7
 10
-158.500000
 20
90.300003
 11
-158.500000
 21
109.699997
  0
LINE
  8
0
  6
CONTINUOUS
 62
7
 10
-118.000000
 20
8.000000
 11
-178.000000
 21
8.000000
  0
LINE
  8
0
  6
CONTINUOUS
 62
7
 10
-178.000000
 20
8.000000
 11
-178.000000
 21
31.000000
  0
LINE
  8
0
  6
CONTINUOUS
 62
7
 10
-118.000000
 20
31.000000
 11
-178.000000
 21
31.000000
  0
LINE
  8
0
  6
CONTINUOUS
 62
7
 10
-118.000000
 20
8.000000
 11
-118.000000
 21
31.000000
  0
LINE
  8
0
  6
CENTER
 62
2
 10
-116.401001
 20
19.500000
 11
-180.630005
 21
19.500000
  0
LINE
  8
0
  6
CENTER
 62
2
 10
-164.000000
 20
16.500000
 11
-164.000000
 21
6.500000
  0
LINE
  8
0
  6
CENTER
 62
2
 10
-159.000000
 20
11.500000
 11
-169.000000
 21
11.500000
  0
LINE
  8
0
  6
CENTER
 62
2
 10
-164.000000
 20
22.500000
 11
-164.000000
 21
32.500000
  0
LINE
  8
0
  6
CENTER
 62
2
 10
-159.000000
 20
27.500000
 11
-169.000000
 21
27.500000
  0
LINE
  8
0
  6
CENTER
 62
2
 10
-132.000000
 20
6.500000
 11
-132.000000
 21
16.500000
  0
LINE
  8
0
  6
CENTER
 62
2
 10
-127.000000
 20
11.500000
 11
-137.000000
 21
11.500000
  0
LINE
  8
0
  6
CENTER
 62
2
 10
-132.000000
 20
32.500000
 11
-132.000000
 21
22.500000
  0
LINE
  8
0
  6
CENTER
 62
2
 10
-127.000000
 20
27.500000
 11
-137.000000
 21
27.500000
  0
LINE
  8
0
  6
CENTER
 62
2
 10
-171.000000
 20
28.900000
 11
-171.000000
 21
14.100000
  0
LINE
  8
0
  6
CENTER
 62
2
 10
-178.399994
 20
21.500000
 11
-163.600006
 21
21.500000
  0
LINE
  8
0
  6
CENTER
 62
2
 10
-125.000000
 20
28.900000
 11
-125.000000
 21
14.100000
  0
LINE
  8
0
  6
CENTER
 62
2
 10
-117.599998
 20
21.500000
 11
-132.399994
 21
21.500000
  0
LINE
  8
0
  6
CONTINUOUS
 62
7
 10
-133.100006
 20
130.000000
 11
-152.899994
 21
130.000000
  0
LINE
  8
0
  6
CONTINUOUS
 62
7
 10
-127.500000
 20
130.300003
 11
-133.100006
 21
130.300003
  0
LINE
  8
0
  6
CONTINUOUS
 62
7
 10
-127.500000
 20
137.800003
 11
-158.500000
 21
137.800003
  0
LINE
  8
0
  6
CONTINUOUS
 62
7
 10
-127.500000
 20
130.300003
 11
-127.500000
 21
137.800003
  0
LINE
  8
0
  6
CONTINUOUS
 62
7
 10
-152.899994
 20
130.300003
 11
-158.500000
 21
130.300003
  0
LINE
  8
0
  6
CONTINUOUS
 62
7
 10
-158.500000
 20
137.800003
 11
-158.500000
 21
130.300003
  0
LINE
  8
0
  6
CONTINUOUS
 62
7
 10
-118.000000
 20
134.500000
 11
-127.500000
 21
134.500000
  0
LINE
  8
0
  6
CONTINUOUS
 62
7
 10
-158.500000
 20
134.500000
 11
-178.000000
 21
134.500000
  0
LINE
  8
0
  6
CONTINUOUS
 62
7
 10
-178.000000
 20
134.500000
 11
-178.000000
 21
149.000000
  0
LINE
  8
0
  6
CONTINUOUS
 62
7
 10
-118.000000
 20
134.500000
 11
-118.000000
 21
149.000000
  0
LINE
  8
0
  6
CONTINUOUS
 62
7
 10
-118.000000
 20
149.000000
 11
-178.000000
 21
149.000000
  0
LINE
  8
0
  6
CONTINUOUS
 62
7
 10
-178.000000
 20
139.199997
 11
-169.847000
 21
139.199997
  0
LINE
  8
0
  6
CONTINUOUS
 62
7
 10
-133.100006
 20
130.000000
 11
-133.100006
 21
137.800003
  0
LINE
  8
0
  6
CONTINUOUS
 62
7
 10
-152.899994
 20
130.000000
 11
-152.899994
 21
137.800003
  0
LINE
  8
0
  6
CENTER
 62
2
 10
-149.750000
 20
133.000000
 11
-142.750000
 21
133.000000
  0
LINE
  8
0
  6
CENTER
 62
2
 10
-146.250000
 20
136.500000
 11
-146.250000
 21
129.500000
  0
LINE
  8
0
  6
CENTER
 62
2
 10
-143.250000
 20
133.000000
 11
-136.250000
 21
133.000000
  0
LINE
  8
0
  6
CENTER
 62
2
 10
-139.750000
 20
136.500000
 11
-139.750000
 21
129.500000
  0
LINE
  8
0
  6
CONTINUOUS
 62
7
 10
-178.000000
 20
139.199997
 11
-169.847000
 21
139.199997
  0
LINE
  8
0
  6
CONTINUOUS
 62
7
 10
-167.751007
 20
142.500000
 11
-158.500000
 21
142.500000
  0
LINE
  8
0
  6
CENTER
 62
2
 10
-125.000000
 20
144.500000
 11
-118.000000
 21
144.500000
  0
LINE
  8
0
  6
CENTER
 62
2
 10
-121.500000
 20
148.000000
 11
-121.500000
 21
141.000000
  0
LINE
  8
0
  6
CONTINUOUS
 62
7
 10
-156.697006
 20
143.000000
 11
-139.302994
 21
143.000000
  0
LINE
  8
0
  6
CENTER
 62
2
 10
-141.000000
 20
145.500000
 11
-134.000000
 21
145.500000
  0
LINE
  8
0
  6
CONTINUOUS
 62
7
 10
-128.248993
 20
142.500000
 11
-137.500000
 21
142.500000
  0
LINE
  8
0
  6
CENTER
 62
2
 10
-137.500000
 20
149.000000
 11
-137.500000
 21
142.000000
  0
LINE
  8
0
  6
CONTINUOUS
 62
7
 10
-118.000000
 20
139.199997
 11
-126.153000
 21
139.199997
  0
LINE
  8
0
  6
CENTER
 62
2
 10
-162.000000
 20
145.500000
 11
-155.000000
 21
145.500000
  0
LINE
  8
0
  6
CENTER
 62
2
 10
-158.500000
 20
149.000000
 11
-158.500000
 21
142.000000
  0
LINE
  8
0
  6
CENTER
 62
2
 10
-178.000000
 20
144.500000
 11
-171.000000
 21
144.500000
  0
LINE
  8
0
  6
CENTER
 62
2
 10
-174.500000
 20
148.000000
 11
-174.500000
 21
141.000000
  0
LINE
  8
0
  6
CONTINUOUS
 62
7
 10
-126.153000
 20
139.199997
 11
-118.000000
 21
139.199997
  0
LINE
  8
0
  6
CENTER
 62
2
 10
-164.000000
 20
140.500000
 11
-164.000000
 21
151.000000
  0
LINE
  8
0
  6
DASHED
 62
2
 10
-161.000000
 20
142.500000
 11
-161.000000
 21
144.000000
  0
LINE
  8
0
  6
DASHED
 62
2
 10
-167.000000
 20
142.500000
 11
-167.000000
 21
144.000000
  0
LINE
  8
0
  6
DASHED
 62
2
 10
-165.750000
 20
144.000000
 11
-165.750000
 21
149.000000
  0
LINE
  8
0
  6
DASHED
 62
2
 10
-162.250000
 20
144.000000
 11
-162.250000
 21
149.000000
  0
LINE
  8
0
  6
DASHED
 62
2
 10
-166.000000
 20
144.000000
 11
-166.000000
 21
149.000000
  0
LINE
  8
0
  6
DASHED
 62
2
 10
-162.000000
 20
144.000000
 11
-162.000000
 21
149.000000
  0
LINE
  8
0
  6
DASHED
 62
2
 10
-161.000000
 20
144.000000
 11
-167.000000
 21
144.000000
  0
LINE
  8
0
  6
DASHED
 62
2
 10
-129.000000
 20
142.500000
 11
-129.000000
 21
144.000000
  0
LINE
  8
0
  6
DASHED
 62
2
 10
-135.000000
 20
142.500000
 11
-135.000000
 21
144.000000
  0
LINE
  8
0
  6
DASHED
 62
2
 10
-133.750000
 20
144.000000
 11
-133.750000
 21
149.000000
  0
LINE
  8
0
  6
DASHED
 62
2
 10
-130.250000
 20
144.000000
 11
-130.250000
 21
149.000000
  0
LINE
  8
0
  6
DASHED
 62
2
 10
-134.000000
 20
144.000000
 11
-134.000000
 21
149.000000
  0
LINE
  8
0
  6
DASHED
 62
2
 10
-130.000000
 20
144.000000
 11
-130.000000
 21
149.000000
  0
LINE
  8
0
  6
DASHED
 62
2
 10
-129.000000
 20
144.000000
 11
-135.000000
 21
144.000000
  0
LINE
  8
0
  6
CENTER
 62
2
 10
-132.000000
 20
140.500000
 11
-132.000000
 21
151.000000
  0
LINE
  8
0
  6
CENTER
 62
2
 10
64.000000
 20
70.486801
 11
64.000000
 21
49.993599
  0
LINE
  8
0
  6
CONTINUOUS
 62
7
 10
68.500000
 20
63.133999
 11
68.500000
 21
60.799999
  0
LINE
  8
0
  6
CONTINUOUS
 62
7
 10
59.500000
 20
63.133999
 11
59.500000
 21
60.799999
  0
LINE
  8
0
  6
CONTINUOUS
 62
7
 10
74.000000
 20
70.000000
 11
69.500000
 21
70.000000
  0
LINE
  8
0
  6
CONTINUOUS
 62
7
 10
74.000000
 20
70.000000
 11
74.000000
 21
62.200001
  0
LINE
  8
0
  6
CONTINUOUS
 62
7
 10
74.000000
 20
62.200001
 11
68.500000
 21
62.200001
  0
LINE
  8
0
  6
CONTINUOUS
 62
7
 10
69.199997
 20
69.699997
 11
58.799999
 21
69.699997
  0
LINE
  8
0
  6
CONTINUOUS
 62
7
 10
59.500000
 20
62.200001
 11
54.000000
 21
62.200001
  0
LINE
  8
0
  6
CONTINUOUS
 62
7
 10
58.799999
 20
69.699997
 11
58.500000
 21
70.000000
  0
LINE
  8
0
  6
CONTINUOUS
 62
7
 10
69.199997
 20
69.699997
 11
69.500000
 21
70.000000
  0
LINE
  8
0
  6
CONTINUOUS
 62
7
 10
58.500000
 20
70.000000
 11
54.000000
 21
70.000000
  0
LINE
  8
0
  6
CONTINUOUS
 62
7
 10
68.500000
 20
65.500000
 11
68.500000
 21
64.865997
  0
LINE
  8
0
  6
CONTINUOUS
 62
7
 10
59.500000
 20
65.500000
 11
68.500000
 21
65.500000
  0
LINE
  8
0
  6
CONTINUOUS
 62
7
 10
59.500000
 20
65.500000
 11
59.500000
 21
64.865997
  0
LINE
  8
0
  6
CONTINUOUS
 62
7
 10
75.500000
 20
51.000000
 11
52.500000
 21
51.000000
  0
LINE
  8
0
  6
CONTINUOUS
 62
7
 10
75.500000
 20
60.799999
 11
75.500000
 21
51.000000
  0
LINE
  8
0
  6
CONTINUOUS
 62
7
 10
52.500000
 20
60.799999
 11
52.500000
 21
51.000000
  0
LINE
  8
0
  6
CONTINUOUS
 62
7
 10
52.500000
 20
60.799999
 11
59.500000
 21
60.799999
  0
LINE
  8
0
  6
CENTER
 62
2
 10
70.500000
 20
57.500000
 11
57.500000
 21
57.500000
  0
LINE
  8
0
  6
CONTINUOUS
 62
7
 10
75.500000
 20
60.799999
 11
68.500000
 21
60.799999
  0
LINE
  8
0
  6
CONTINUOUS
 62
7
 10
54.000000
 20
70.000000
 11
54.000000
 21
62.200001
  0
LINE
  8
0
  6
CENTER
 62
2
 10
72.000000
 20
53.000000
 11
72.000000
 21
49.000000
  0
LINE
  8
0
  6
CENTER
 62
2
 10
56.000000
 20
53.000000
 11
56.000000
 21
49.000000
  0
LINE
  8
0
  6
CENTER
 62
2
 10
56.500000
 20
72.000000
 11
56.500000
 21
68.000000
  0
LINE
  8
0
  6
CENTER
 62
2
 10
71.500000
 20
72.000000
 11
71.500000
 21
68.000000
  0
LINE
  8
0
  6
CENTER
 62
2
 10
-150.500000
 20
132.000000
 11
-150.500000
 21
128.000000
  0
LINE
  8
0
  6
CENTER
 62
2
 10
-135.500000
 20
132.000000
 11
-135.500000
 21
128.000000
  0
LINE
  8
0
  6
CENTER
 62
2
 10
-150.500000
 20
72.000000
 11
-150.500000
 21
68.000000
  0
LINE
  8
0
  6
CENTER
 62
2
 10
-135.500000
 20
72.000000
 11
-135.500000
 21
68.000000
  0
LINE
  8
0
  6
CONTINUOUS
 62
7
 10
183.000000
 20
8.000000
 11
93.000000
 21
8.000000
  0
LINE
  8
0
  6
CONTINUOUS
 62
7
 10
93.000000
 20
8.000000
 11
93.000000
 21
31.000000
  0
LINE
  8
0
  6
CONTINUOUS
 62
7
 10
183.000000
 20
31.000000
 11
93.000000
 21
31.000000
  0
LINE
  8
0
  6
CONTINUOUS
 62
7
 10
183.000000
 20
8.000000
 11
183.000000
 21
31.000000
  0
LINE
  8
0
  6
CENTER
 62
2
 10
184.598999
 20
19.500000
 11
90.369797
 21
19.500000
  0
LINE
  8
0
  6
CENTER
 62
2
 10
108.000000
 20
16.500000
 11
108.000000
 21
6.500000
  0
LINE
  8
0
  6
CENTER
 62
2
 10
113.000000
 20
11.500000
 11
103.000000
 21
11.500000
  0
LINE
  8
0
  6
CENTER
 62
2
 10
108.000000
 20
22.500000
 11
108.000000
 21
32.500000
  0
LINE
  8
0
  6
CENTER
 62
2
 10
113.000000
 20
27.500000
 11
103.000000
 21
27.500000
  0
LINE
  8
0
  6
CENTER
 62
2
 10
168.000000
 20
6.500000
 11
168.000000
 21
16.500000
  0
LINE
  8
0
  6
CENTER
 62
2
 10
173.000000
 20
11.500000
 11
163.000000
 21
11.500000
  0
LINE
  8
0
  6
CENTER
 62
2
 10
168.000000
 20
32.500000
 11
168.000000
 21
22.500000
  0
LINE
  8
0
  6
CENTER
 62
2
 10
173.000000
 20
27.500000
 11
163.000000
 21
27.500000
  0
LINE
  8
0
  6
CENTER
 62
2
 10
100.000000
 20
28.900000
 11
100.000000
 21
14.100000
  0
LINE
  8
0
  6
CENTER
 62
2
 10
92.599998
 20
21.500000
 11
107.400002
 21
21.500000
  0
LINE
  8
0
  6
CENTER
 62
2
 10
176.000000
 20
28.900000
 11
176.000000
 21
14.100000
  0
LINE
  8
0
  6
CENTER
 62
2
 10
183.399994
 20
21.500000
 11
168.600006
 21
21.500000
  0
LINE
  8
0
  6
CONTINUOUS
 62
7
 10
164.899994
 20
70.000000
 11
131.100006
 21
70.000000
  0
LINE
  8
0
  6
CONTINUOUS
 62
7
 10
170.500000
 20
69.699997
 11
164.899994
 21
69.699997
  0
LINE
  8
0
  6
CONTINUOUS
 62
7
 10
170.500000
 20
62.200001
 11
168.000000
 21
62.200001
  0
LINE
  8
0
  6
CONTINUOUS
 62
7
 10
170.500000
 20
69.699997
 11
170.500000
 21
62.200001
  0
LINE
  8
0
  6
CONTINUOUS
 62
7
 10
131.100006
 20
69.699997
 11
125.500000
 21
69.699997
  0
LINE
  8
0
  6
CONTINUOUS
 62
7
 10
125.500000
 20
69.500000
 11
125.500000
 21
69.699997
  0
LINE
  8
0
  6
CONTINUOUS
 62
7
 10
183.000000
 20
65.500000
 11
170.500000
 21
65.500000
  0
LINE
  8
0
  6
CONTINUOUS
 62
7
 10
108.000000
 20
65.500000
 11
93.000000
 21
65.500000
  0
LINE
  8
0
  6
CONTINUOUS
 62
7
 10
93.000000
 20
65.500000
 11
93.000000
 21
51.000000
  0
LINE
  8
0
  6
CONTINUOUS
 62
7
 10
183.000000
 20
65.500000
 11
183.000000
 21
51.000000
  0
LINE
  8
0
  6
CONTINUOUS
 62
7
 10
183.000000
 20
51.000000
 11
93.000000
 21
51.000000
  0
LINE
  8
0
  6
CONTINUOUS
 62
7
 10
93.000000
 20
60.799999
 11
102.153000
 21
60.799999
  0
LINE
  8
0
  6
CONTINUOUS
 62
7
 10
164.899994
 20
70.000000
 11
164.899994
 21
69.500000
  0
LINE
  8
0
  6
CONTINUOUS
 62
7
 10
131.100006
 20
70.000000
 11
131.100006
 21
69.500000
  0
LINE
  8
0
  6
CONTINUOUS
 62
7
 10
171.751007
 20
57.500000
 11
168.000000
 21
57.500000
  0
LINE
  8
0
  6
CONTINUOUS
 62
7
 10
183.000000
 20
60.799999
 11
173.847000
 21
60.799999
  0
LINE
  8
0
  6
CONTINUOUS
 62
7
 10
104.249001
 20
57.500000
 11
108.000000
 21
57.500000
  0
LINE
  8
0
  6
CENTER
 62
2
 10
185.042999
 20
100.000000
 11
89.855202
 21
100.000000
  0
LINE
  8
0
  6
CONTINUOUS
 62
7
 10
183.000000
 20
111.500000
 11
183.000000
 21
88.500000
  0
LINE
  8
0
  6
CONTINUOUS
 62
7
 10
183.000000
 20
95.500000
 11
170.500000
 21
95.500000
  0
LINE
  8
0
  6
CENTER
 62
2
 10
168.000000
 20
87.000000
 11
168.000000
 21
97.000000
  0
LINE
  8
0
  6
CENTER
 62
2
 10
173.000000
 20
92.000000
 11
163.000000
 21
92.000000
  0
LINE
  8
0
  6
CONTINUOUS
 62
7
 10
164.899994
 20
90.000000
 11
131.100006
 21
90.000000
  0
LINE
  8
0
  6
CONTINUOUS
 62
7
 10
164.899994
 20
105.000000
 11
131.100006
 21
105.000000
  0
LINE
  8
0
  6
CONTINUOUS
 62
7
 10
164.899994
 20
95.000000
 11
131.100006
 21
95.000000
  0
LINE
  8
0
  6
CONTINUOUS
 62
7
 10
131.100006
 20
90.300003
 11
125.500000
 21
90.300003
  0
LINE
  8
0
  6
CENTER
 62
2
 10
143.500000
 20
107.500000
 11
136.600006
 21
107.500000
  0
LINE
  8
0
  6
CENTER
 62
2
 10
143.500000
 20
92.500000
 11
136.600006
 21
92.500000
  0
LINE
  8
0
  6
CENTER
 62
2
 10
140.000000
 20
89.000000
 11
140.000000
 21
96.000000
  0
LINE
  8
0
  6
CENTER
 62
2
 10
152.500000
 20
92.500000
 11
158.891006
 21
92.500000
  0
LINE
  8
0
  6
CENTER
 62
2
 10
156.000000
 20
89.000000
 11
156.000000
 21
96.000000
  0
LINE
  8
0
  6
CENTER
 62
2
 10
140.000000
 20
111.000000
 11
140.000000
 21
104.000000
  0
LINE
  8
0
  6
CONTINUOUS
 62
7
 10
131.100006
 20
90.000000
 11
131.100006
 21
110.000000
  0
LINE
  8
0
  6
CENTER
 62
2
 10
152.488007
 20
107.500000
 11
158.932999
 21
107.500000
  0
LINE
  8
0
  6
CENTER
 62
2
 10
156.000000
 20
111.000000
 11
156.000000
 21
104.000000
  0
LINE
  8
0
  6
CONTINUOUS
 62
7
 10
164.899994
 20
110.000000
 11
131.100006
 21
110.000000
  0
LINE
  8
0
  6
CONTINUOUS
 62
7
 10
131.100006
 20
109.699997
 11
125.500000
 21
109.699997
  0
LINE
  8
0
  6
CONTINUOUS
 62
7
 10
125.500000
 20
90.300003
 11
125.500000
 21
109.699997
  0
LINE
  8
0
  6
CONTINUOUS
 62
7
 10
170.500000
 20
90.300003
 11
164.899994
 21
90.300003
  0
LINE
  8
0
  6
CONTINUOUS
 62
7
 10
170.500000
 20
109.699997
 11
164.899994
 21
109.699997
  0
LINE
  8
0
  6
CONTINUOUS
 62
7
 10
164.899994
 20
90.000000
 11
164.899994
 21
110.000000
  0
LINE
  8
0
  6
CONTINUOUS
 62
7
 10
170.500000
 20
109.699997
 11
170.500000
 21
90.300003
  0
LINE
  8
0
  6
CONTINUOUS
 62
7
 10
183.000000
 20
88.500000
 11
151.250000
 21
88.500000
  0
LINE
  8
0
  6
CONTINUOUS
 62
7
 10
183.000000
 20
111.500000
 11
93.000000
 21
111.500000
  0
LINE
  8
0
  6
CONTINUOUS
 62
7
 10
183.000000
 20
104.500000
 11
170.500000
 21
104.500000
  0
LINE
  8
0
  6
CENTER
 62
2
 10
168.000000
 20
113.000000
 11
168.000000
 21
103.000000
  0
LINE
  8
0
  6
CENTER
 62
2
 10
173.000000
 20
108.000000
 11
163.000000
 21
108.000000
  0
LINE
  8
0
  6
CONTINUOUS
 62
7
 10
93.000000
 20
95.500000
 11
125.500000
 21
95.500000
  0
LINE
  8
0
  6
CENTER
 62
2
 10
108.000000
 20
87.000000
 11
108.000000
 21
97.000000
  0
LINE
  8
0
  6
CENTER
 62
2
 10
103.000000
 20
92.000000
 11
113.000000
 21
92.000000
  0
LINE
  8
0
  6
CONTINUOUS
 62
7
 10
93.000000
 20
111.500000
 11
93.000000
 21
88.500000
  0
LINE
  8
0
  6
CONTINUOUS
 62
7
 10
93.000000
 20
104.500000
 11
125.500000
 21
104.500000
  0
LINE
  8
0
  6
CENTER
 62
2
 10
108.000000
 20
113.000000
 11
108.000000
 21
103.000000
  0
LINE
  8
0
  6
CENTER
 62
2
 10
103.000000
 20
108.000000
 11
113.000000
 21
108.000000
  0
LINE
  8
0
  6
CONTINUOUS
 62
7
 10
164.899994
 20
130.000000
 11
131.100006
 21
130.000000
  0
LINE
  8
0
  6
CONTINUOUS
 62
7
 10
170.500000
 20
130.300003
 11
164.899994
 21
130.300003
  0
LINE
  8
0
  6
CONTINUOUS
 62
7
 10
170.500000
 20
137.800003
 11
125.500000
 21
137.800003
  0
LINE
  8
0
  6
CONTINUOUS
 62
7
 10
170.500000
 20
130.300003
 11
170.500000
 21
137.800003
  0
LINE
  8
0
  6
CONTINUOUS
 62
7
 10
131.100006
 20
130.300003
 11
125.500000
 21
130.300003
  0
LINE
  8
0
  6
CONTINUOUS
 62
7
 10
125.500000
 20
137.800003
 11
125.500000
 21
130.300003
  0
LINE
  8
0
  6
CONTINUOUS
 62
7
 10
183.000000
 20
134.500000
 11
170.500000
 21
134.500000
  0
LINE
  8
0
  6
CONTINUOUS
 62
7
 10
125.500000
 20
134.500000
 11
93.000000
 21
134.500000
  0
LINE
  8
0
  6
CONTINUOUS
 62
7
 10
93.000000
 20
134.500000
 11
93.000000
 21
149.000000
  0
LINE
  8
0
  6
CONTINUOUS
 62
7
 10
183.000000
 20
134.500000
 11
183.000000
 21
149.000000
  0
LINE
  8
0
  6
CONTINUOUS
 62
7
 10
183.000000
 20
149.000000
 11
93.000000
 21
149.000000
  0
LINE
  8
0
  6
CONTINUOUS
 62
7
 10
93.000000
 20
139.199997
 11
102.153000
 21
139.199997
  0
LINE
  8
0
  6
CONTINUOUS
 62
7
 10
164.899994
 20
130.000000
 11
164.899994
 21
137.800003
  0
LINE
  8
0
  6
CONTINUOUS
 62
7
 10
131.100006
 20
130.000000
 11
131.100006
 21
137.800003
  0
LINE
  8
0
  6
CENTER
 62
2
 10
141.250000
 20
133.000000
 11
148.250000
 21
133.000000
  0
LINE
  8
0
  6
CENTER
 62
2
 10
144.750000
 20
136.500000
 11
144.750000
 21
129.500000
  0
LINE
  8
0
  6
CENTER
 62
2
 10
147.750000
 20
133.000000
 11
154.750000
 21
133.000000
  0
LINE
  8
0
  6
CENTER
 62
2
 10
151.250000
 20
136.500000
 11
151.250000
 21
129.500000
  0
LINE
  8
0
  6
CONTINUOUS
 62
7
 10
104.249001
 20
142.500000
 11
118.000000
 21
142.500000
  0
LINE
  8
0
  6
CENTER
 62
2
 10
114.500000
 20
145.500000
 11
121.500000
 21
145.500000
  0
LINE
  8
0
  6
CENTER
 62
2
 10
118.000000
 20
149.000000
 11
118.000000
 21
142.000000
  0
LINE
  8
0
  6
CONTINUOUS
 62
7
 10
119.803001
 20
143.000000
 11
156.197006
 21
143.000000
  0
LINE
  8
0
  6
CENTER
 62
2
 10
99.000000
 20
144.500000
 11
106.000000
 21
144.500000
  0
LINE
  8
0
  6
CONTINUOUS
 62
7
 10
171.751007
 20
142.500000
 11
158.000000
 21
142.500000
  0
LINE
  8
0
  6
CENTER
 62
2
 10
102.000000
 20
148.000000
 11
102.000000
 21
141.000000
  0
LINE
  8
0
  6
CENTER
 62
2
 10
155.000000
 20
145.500000
 11
162.000000
 21
145.500000
  0
LINE
  8
0
  6
CENTER
 62
2
 10
158.000000
 20
149.000000
 11
158.000000
 21
142.000000
  0
LINE
  8
0
  6
CENTER
 62
2
 10
171.000000
 20
144.500000
 11
178.000000
 21
144.500000
  0
LINE
  8
0
  6
CENTER
 62
2
 10
174.000000
 20
148.000000
 11
174.000000
 21
141.000000
  0
LINE
  8
0
  6
CONTINUOUS
 62
7
 10
173.847000
 20
139.199997
 11
183.000000
 21
139.199997
  0
LINE
  8
0
  6
DASHED
 62
2
 10
111.000000
 20
56.000000
 11
105.000000
 21
56.000000
  0
LINE
  8
0
  6
CENTER
 62
2
 10
108.000000
 20
59.500000
 11
108.000000
 21
49.000000
  0
LINE
  8
0
  6
DASHED
 62
2
 10
111.000000
 20
57.500000
 11
111.000000
 21
56.000000
  0
LINE
  8
0
  6
DASHED
 62
2
 10
105.000000
 20
57.500000
 11
105.000000
 21
56.000000
  0
LINE
  8
0
  6
DASHED
 62
2
 10
106.250000
 20
56.000000
 11
106.250000
 21
51.000000
  0
LINE
  8
0
  6
DASHED
 62
2
 10
109.750000
 20
56.000000
 11
109.750000
 21
51.000000
  0
LINE
  8
0
  6
DASHED
 62
2
 10
106.000000
 20
56.000000
 11
106.000000
 21
51.000000
  0
LINE
  8
0
  6
DASHED
 62
2
 10
110.000000
 20
56.000000
 11
110.000000
 21
51.000000
  0
LINE
  8
0
  6
DASHED
 62
2
 10
171.000000
 20
56.000000
 11
165.000000
 21
56.000000
  0
LINE
  8
0
  6
CENTER
 62
2
 10
168.000000
 20
59.500000
 11
168.000000
 21
49.000000
  0
LINE
  8
0
  6
DASHED
 62
2
 10
171.000000
 20
57.500000
 11
171.000000
 21
56.000000
  0
LINE
  8
0
  6
DASHED
 62
2
 10
165.000000
 20
57.500000
 11
165.000000
 21
56.000000
  0
LINE
  8
0
  6
DASHED
 62
2
 10
166.250000
 20
56.000000
 11
166.250000
 21
51.000000
  0
LINE
  8
0
  6
DASHED
 62
2
 10
169.750000
 20
56.000000
 11
169.750000
 21
51.000000
  0
LINE
  8
0
  6
DASHED
 62
2
 10
166.000000
 20
56.000000
 11
166.000000
 21
51.000000
  0
LINE
  8
0
  6
DASHED
 62
2
 10
170.000000
 20
56.000000
 11
170.000000
 21
51.000000
  0
LINE
  8
0
  6
CENTER
 62
2
 10
140.000000
 20
72.000000
 11
140.000000
 21
68.000000
  0
LINE
  8
0
  6
CENTER
 62
2
 10
156.000000
 20
72.000000
 11
156.000000
 21
68.000000
  0
LINE
  8
0
  6
CENTER
 62
2
 10
140.000000
 20
132.000000
 11
140.000000
 21
128.000000
  0
LINE
  8
0
  6
CENTER
 62
2
 10
156.000000
 20
132.000000
 11
156.000000
 21
128.000000
  0
LINE
  8
0
  6
DASHED
 62
2
 10
166.000000
 20
144.000000
 11
166.000000
 21
149.000000
  0
LINE
  8
0
  6
DASHED
 62
2
 10
111.000000
 20
144.000000
 11
105.000000
 21
144.000000
  0
LINE
  8
0
  6
CENTER
 62
2
 10
108.000000
 20
140.500000
 11
108.000000
 21
151.000000
  0
LINE
  8
0
  6
DASHED
 62
2
 10
111.000000
 20
142.500000
 11
111.000000
 21
144.000000
  0
LINE
  8
0
  6
DASHED
 62
2
 10
105.000000
 20
142.500000
 11
105.000000
 21
144.000000
  0
LINE
  8
0
  6
DASHED
 62
2
 10
106.250000
 20
144.000000
 11
106.250000
 21
149.000000
  0
LINE
  8
0
  6
DASHED
 62
2
 10
109.750000
 20
144.000000
 11
109.750000
 21
149.000000
  0
LINE
  8
0
  6
DASHED
 62
2
 10
106.000000
 20
144.000000
 11
106.000000
 21
149.000000
  0
LINE
  8
0
  6
DASHED
 62
2
 10
110.000000
 20
144.000000
 11
110.000000
 21
149.000000
  0
LINE
  8
0
  6
DASHED
 62
2
 10
169.750000
 20
144.000000
 11
169.750000
 21
149.000000
  0
LINE
  8
0
  6
DASHED
 62
2
 10
170.000000
 20
144.000000
 11
170.000000
 21
149.000000
  0
LINE
  8
0
  6
DASHED
 62
2
 10
171.000000
 20
144.000000
 11
165.000000
 21
144.000000
  0
LINE
  8
0
  6
CENTER
 62
2
 10
168.000000
 20
140.500000
 11
168.000000
 21
151.000000
  0
LINE
  8
0
  6
DASHED
 62
2
 10
171.000000
 20
142.500000
 11
171.000000
 21
144.000000
  0
LINE
  8
0
  6
DASHED
 62
2
 10
165.000000
 20
142.500000
 11
165.000000
 21
144.000000
  0
LINE
  8
0
  6
DASHED
 62
2
 10
166.250000
 20
144.000000
 11
166.250000
 21
149.000000
  0
LINE
  8
0
  6
CONTINUOUS
 62
7
 10
84.500000
 20
69.500000
 11
84.500000
 21
51.500000
  0
LINE
  8
0
  6
CONTINUOUS
 62
2
 10
84.500000
 20
64.900002
 11
83.500000
 21
64.900002
  0
LINE
  8
0
  6
CONTINUOUS
 62
2
 10
84.500000
 20
67.500000
 11
83.500000
 21
67.500000
  0
LINE
  8
0
  6
CONTINUOUS
 62
7
 10
84.500000
 20
69.500000
 11
77.000000
 21
69.500000
  0
LINE
  8
0
  6
CONTINUOUS
 62
2
 10
83.500000
 20
68.349998
 11
83.500000
 21
67.500000
  0
LINE
  8
0
  6
CONTINUOUS
 62
2
 10
79.699997
 20
64.050003
 11
83.500000
 21
64.050003
  0
LINE
  8
0
  6
CONTINUOUS
 62
2
 10
78.199997
 20
66.849998
 11
78.199997
 21
65.550003
  0
LINE
  8
0
  6
CONTINUOUS
 62
2
 10
79.699997
 20
68.349998
 11
83.500000
 21
68.349998
  0
LINE
  8
0
  6
CONTINUOUS
 62
7
 10
77.000000
 20
57.000000
 11
75.500000
 21
57.000000
  0
LINE
  8
0
  6
CONTINUOUS
 62
7
 10
84.500000
 20
51.500000
 11
75.500000
 21
51.500000
  0
LINE
  8
0
  6
CONTINUOUS
 62
7
 10
77.000000
 20
69.500000
 11
77.000000
 21
57.000000
  0
LINE
  8
0
  6
CENTER
 62
2
 10
76.099998
 20
66.199997
 11
86.500000
 21
66.199997
  0
LINE
  8
0
  6
CONTINUOUS
 62
2
 10
83.500000
 20
64.900002
 11
83.500000
 21
64.050003
  0
LINE
  8
0
  6
CONTINUOUS
 62
7
 10
76.099998
 20
69.199997
 11
74.000000
 21
69.199997
  0
LINE
  8
0
  6
CONTINUOUS
 62
7
 10
76.099998
 20
69.199997
 11
76.099998
 21
58.200001
  0
LINE
  8
0
  6
CONTINUOUS
 62
7
 10
76.099998
 20
58.200001
 11
75.500000
 21
58.200001
  0
LINE
  8
0
  6
CENTER
 62
2
 10
76.099998
 20
60.400002
 11
86.500000
 21
60.400002
  0
LINE
  8
0
  6
CONTINUOUS
 62
7
 10
-129.000000
 20
69.500000
 11
-129.000000
 21
51.500000
  0
LINE
  8
0
  6
CONTINUOUS
 62
7
 10
-167.000000
 20
51.500000
 11
-129.000000
 21
51.500000
  0
LINE
  8
0
  6
CONTINUOUS
 62
7
 10
-167.000000
 20
69.500000
 11
-167.000000
 21
51.500000
  0
LINE
  8
0
  6
CONTINUOUS
 62
7
 10
-129.000000
 20
69.500000
 11
-167.000000
 21
69.500000
  0
LINE
  8
0
  6
CONTINUOUS
 62
7
 10
-129.000000
 20
40.000000
 11
-167.000000
 21
40.000000
  0
LINE
  8
0
  6
CONTINUOUS
 62
7
 10
-167.000000
 20
40.000000
 11
-167.000000
 21
31.000000
  0
LINE
  8
0
  6
CONTINUOUS
 62
7
 10
-129.000000
 20
40.000000
 11
-129.000000
 21
31.000000
  0
LINE
  8
0
  6
CONTINUOUS
 62
7
 10
-167.000000
 20
88.500000
 11
-167.000000
 21
79.500000
  0
LINE
  8
0
  6
CONTINUOUS
 62
7
 10
-129.000000
 20
87.000000
 11
-167.000000
 21
87.000000
  0
LINE
  8
0
  6
CONTINUOUS
 62
7
 10
-129.000000
 20
79.500000
 11
-167.000000
 21
79.500000
  0
LINE
  8
0
  6
CONTINUOUS
 62
7
 10
-129.000000
 20
88.500000
 11
-129.000000
 21
79.500000
  0
LINE
  8
0
  6
CONTINUOUS
 62
7
 10
-139.750000
 20
90.000000
 11
-139.750000
 21
87.900002
  0
LINE
  8
0
  6
CONTINUOUS
 62
7
 10
-139.750000
 20
87.900002
 11
-146.250000
 21
87.900002
  0
LINE
  8
0
  6
CONTINUOUS
 62
7
 10
-146.250000
 20
90.000000
 11
-146.250000
 21
87.900002
  0
LINE
  8
0
  6
CONTINUOUS
 62
7
 10
-146.250000
 20
88.500000
 11
-178.000000
 21
88.500000
  0
LINE
  8
0
  6
CONTINUOUS
 62
7
 10
-167.000000
 20
134.500000
 11
-167.000000
 21
130.500000
  0
LINE
  8
0
  6
CONTINUOUS
 62
7
 10
-158.500000
 20
130.500000
 11
-167.000000
 21
130.500000
  0
LINE
  8
0
  6
CONTINUOUS
 62
2
 10
-167.000000
 20
61.700001
 11
-129.000000
 21
61.700001
  0
LINE
  8
0
  6
CONTINUOUS
 62
2
 10
-167.000000
 20
59.099998
 11
-129.000000
 21
59.099998
  0
LINE
  8
0
  6
CONTINUOUS
 62
2
 10
-167.000000
 20
67.500000
 11
-129.000000
 21
67.500000
  0
LINE
  8
0
  6
CONTINUOUS
 62
2
 10
-167.000000
 20
64.900002
 11
-129.000000
 21
64.900002
  0
LINE
  8
0
  6
CENTER
 62
2
 10
212.000000
 20
70.486801
 11
212.000000
 21
49.993599
  0
LINE
  8
0
  6
CONTINUOUS
 62
7
 10
207.500000
 20
63.133999
 11
207.500000
 21
60.799999
  0
LINE
  8
0
  6
CONTINUOUS
 62
7
 10
216.500000
 20
63.133999
 11
216.500000
 21
60.799999
  0
LINE
  8
0
  6
CONTINUOUS
 62
7
 10
202.000000
 20
70.000000
 11
206.500000
 21
70.000000
  0
LINE
  8
0
  6
CONTINUOUS
 62
7
 10
202.000000
 20
70.000000
 11
202.000000
 21
62.200001
  0
LINE
  8
0
  6
CONTINUOUS
 62
7
 10
202.000000
 20
62.200001
 11
207.500000
 21
62.200001
  0
LINE
  8
0
  6
CONTINUOUS
 62
7
 10
206.800003
 20
69.699997
 11
217.199997
 21
69.699997
  0
LINE
  8
0
  6
CONTINUOUS
 62
7
 10
216.500000
 20
62.200001
 11
222.000000
 21
62.200001
  0
LINE
  8
0
  6
CONTINUOUS
 62
7
 10
217.199997
 20
69.699997
 11
217.500000
 21
70.000000
  0
LINE
  8
0
  6
CONTINUOUS
 62
7
 10
206.800003
 20
69.699997
 11
206.500000
 21
70.000000
  0
LINE
  8
0
  6
CONTINUOUS
 62
7
 10
217.500000
 20
70.000000
 11
222.000000
 21
70.000000
  0
LINE
  8
0
  6
CONTINUOUS
 62
7
 10
207.500000
 20
65.500000
 11
207.500000
 21
64.865997
  0
LINE
  8
0
  6
CONTINUOUS
 62
7
 10
216.500000
 20
65.500000
 11
207.500000
 21
65.500000
  0
LINE
  8
0
  6
CONTINUOUS
 62
7
 10
216.500000
 20
65.500000
 11
216.500000
 21
64.865997
  0
LINE
  8
0
  6
CONTINUOUS
 62
7
 10
200.500000
 20
51.000000
 11
223.500000
 21
51.000000
  0
LINE
  8
0
  6
CONTINUOUS
 62
7
 10
200.500000
 20
60.799999
 11
200.500000
 21
51.000000
  0
LINE
  8
0
  6
CONTINUOUS
 62
7
 10
223.500000
 20
60.799999
 11
223.500000
 21
51.000000
  0
LINE
  8
0
  6
CONTINUOUS
 62
7
 10
223.500000
 20
60.799999
 11
216.500000
 21
60.799999
  0
LINE
  8
0
  6
CENTER
 62
2
 10
205.500000
 20
57.500000
 11
218.500000
 21
57.500000
  0
LINE
  8
0
  6
CONTINUOUS
 62
7
 10
200.500000
 20
60.799999
 11
207.500000
 21
60.799999
  0
LINE
  8
0
  6
CONTINUOUS
 62
7
 10
222.000000
 20
70.000000
 11
222.000000
 21
62.200001
  0
LINE
  8
0
  6
CENTER
 62
2
 10
204.000000
 20
53.000000
 11
204.000000
 21
49.000000
  0
LINE
  8
0
  6
CENTER
 62
2
 10
220.000000
 20
53.000000
 11
220.000000
 21
49.000000
  0
LINE
  8
0
  6
CENTER
 62
2
 10
219.500000
 20
72.000000
 11
219.500000
 21
68.000000
  0
LINE
  8
0
  6
CENTER
 62
2
 10
204.500000
 20
72.000000
 11
204.500000
 21
68.000000
  0
LINE
  8
0
  6
CONTINUOUS
 62
7
 10
191.500000
 20
69.500000
 11
191.500000
 21
51.500000
  0
LINE
  8
0
  6
CONTINUOUS
 62
2
 10
191.500000
 20
64.900002
 11
192.500000
 21
64.900002
  0
LINE
  8
0
  6
CONTINUOUS
 62
2
 10
191.500000
 20
67.500000
 11
192.500000
 21
67.500000
  0
LINE
  8
0
  6
CONTINUOUS
 62
7
 10
191.500000
 20
69.500000
 11
199.000000
 21
69.500000
  0
LINE
  8
0
  6
CONTINUOUS
 62
2
 10
192.500000
 20
68.349998
 11
192.500000
 21
67.500000
  0
LINE
  8
0
  6
CONTINUOUS
 62
2
 10
196.300003
 20
64.050003
 11
192.500000
 21
64.050003
  0
LINE
  8
0
  6
CONTINUOUS
 62
2
 10
197.800003
 20
66.849998
 11
197.800003
 21
65.550003
  0
LINE
  8
0
  6
CONTINUOUS
 62
2
 10
196.300003
 20
68.349998
 11
192.500000
 21
68.349998
  0
LINE
  8
0
  6
CONTINUOUS
 62
7
 10
199.000000
 20
57.000000
 11
200.500000
 21
57.000000
  0
LINE
  8
0
  6
CONTINUOUS
 62
7
 10
191.500000
 20
51.500000
 11
200.500000
 21
51.500000
  0
LINE
  8
0
  6
CONTINUOUS
 62
7
 10
199.000000
 20
69.500000
 11
199.000000
 21
57.000000
  0
LINE
  8
0
  6
CENTER
 62
2
 10
199.899994
 20
66.199997
 11
189.500000
 21
66.199997
  0
LINE
  8
0
  6
CONTINUOUS
 62
2
 10
192.500000
 20
64.900002
 11
192.500000
 21
64.050003
  0
LINE
  8
0
  6
CONTINUOUS
 62
7
 10
199.899994
 20
69.199997
 11
202.000000
 21
69.199997
  0
LINE
  8
0
  6
CONTINUOUS
 62
7
 10
199.899994
 20
69.199997
 11
199.899994
 21
58.200001
  0
LINE
  8
0
  6
CONTINUOUS
 62
7
 10
199.899994
 20
58.200001
 11
200.500000
 21
58.200001
  0
LINE
  8
0
  6
CENTER
 62
2
 10
199.899994
 20
60.400002
 11
189.500000
 21
60.400002
  0
LINE
  8
0
  6
CENTER
 62
2
 10
-207.000000
 20
70.486801
 11
-207.000000
 21
49.993599
  0
LINE
  8
0
  6
CONTINUOUS
 62
7
 10
-202.500000
 20
63.133999
 11
-202.500000
 21
60.799999
  0
LINE
  8
0
  6
CONTINUOUS
 62
7
 10
-211.500000
 20
63.133999
 11
-211.500000
 21
60.799999
  0
LINE
  8
0
  6
CONTINUOUS
 62
7
 10
-197.000000
 20
70.000000
 11
-201.500000
 21
70.000000
  0
LINE
  8
0
  6
CONTINUOUS
 62
7
 10
-197.000000
 20
70.000000
 11
-197.000000
 21
62.200001
  0
LINE
  8
0
  6
CONTINUOUS
 62
7
 10
-197.000000
 20
62.200001
 11
-202.500000
 21
62.200001
  0
LINE
  8
0
  6
CONTINUOUS
 62
7
 10
-201.800003
 20
69.699997
 11
-212.199997
 21
69.699997
  0
LINE
  8
0
  6
CONTINUOUS
 62
7
 10
-211.500000
 20
62.200001
 11
-217.000000
 21
62.200001
  0
LINE
  8
0
  6
CONTINUOUS
 62
7
 10
-212.199997
 20
69.699997
 11
-212.500000
 21
70.000000
  0
LINE
  8
0
  6
CONTINUOUS
 62
7
 10
-201.800003
 20
69.700104
 11
-201.500000
 21
70.000099
  0
LINE
  8
0
  6
CONTINUOUS
 62
7
 10
-212.500000
 20
70.000000
 11
-217.000000
 21
70.000000
  0
LINE
  8
0
  6
CONTINUOUS
 62
7
 10
-202.500000
 20
65.500000
 11
-202.500000
 21
64.865997
  0
LINE
  8
0
  6
CONTINUOUS
 62
7
 10
-211.500000
 20
65.500000
 11
-202.500000
 21
65.500000
  0
LINE
  8
0
  6
CONTINUOUS
 62
7
 10
-211.500000
 20
65.500000
 11
-211.500000
 21
64.865997
  0
LINE
  8
0
  6
CONTINUOUS
 62
7
 10
-195.500000
 20
51.000000
 11
-218.500000
 21
51.000000
  0
LINE
  8
0
  6
CONTINUOUS
 62
7
 10
-195.500000
 20
60.799999
 11
-195.500000
 21
51.000000
  0
LINE
  8
0
  6
CONTINUOUS
 62
7
 10
-218.500000
 20
60.799999
 11
-218.500000
 21
51.000000
  0
LINE
  8
0
  6
CONTINUOUS
 62
7
 10
-218.500000
 20
60.799999
 11
-211.500000
 21
60.799999
  0
LINE
  8
0
  6
CENTER
 62
2
 10
-200.500000
 20
57.500000
 11
-213.500000
 21
57.500000
  0
LINE
  8
0
  6
CONTINUOUS
 62
7
 10
-195.500000
 20
60.799999
 11
-202.500000
 21
60.799999
  0
LINE
  8
0
  6
CONTINUOUS
 62
7
 10
-217.000000
 20
70.000000
 11
-217.000000
 21
62.200001
  0
LINE
  8
0
  6
CENTER
 62
2
 10
-199.000000
 20
53.000000
 11
-199.000000
 21
49.000000
  0
LINE
  8
0
  6
CENTER
 62
2
 10
-215.000000
 20
53.000000
 11
-215.000000
 21
49.000000
  0
LINE
  8
0
  6
CENTER
 62
2
 10
-214.500000
 20
72.000000
 11
-214.500000
 21
68.000000
  0
LINE
  8
0
  6
CENTER
 62
2
 10
-199.500000
 20
72.000000
 11
-199.500000
 21
68.000000
  0
LINE
  8
0
  6
CONTINUOUS
 62
7
 10
-186.500000
 20
69.500000
 11
-186.500000
 21
51.500000
  0
LINE
  8
0
  6
CONTINUOUS
 62
2
 10
-186.500000
 20
64.900002
 11
-187.500000
 21
64.900002
  0
LINE
  8
0
  6
CONTINUOUS
 62
2
 10
-186.500000
 20
67.500000
 11
-187.500000
 21
67.500000
  0
LINE
  8
0
  6
CONTINUOUS
 62
7
 10
-186.500000
 20
69.500000
 11
-194.000000
 21
69.500000
  0
LINE
  8
0
  6
CONTINUOUS
 62
2
 10
-187.500000
 20
68.349998
 11
-187.500000
 21
67.500000
  0
LINE
  8
0
  6
CONTINUOUS
 62
2
 10
-191.300003
 20
64.050003
 11
-187.500000
 21
64.050003
  0
LINE
  8
0
  6
CONTINUOUS
 62
2
 10
-192.800003
 20
66.849998
 11
-192.800003
 21
65.550003
  0
LINE
  8
0
  6
CONTINUOUS
 62
2
 10
-191.300003
 20
68.349998
 11
-187.500000
 21
68.349998
  0
LINE
  8
0
  6
CONTINUOUS
 62
7
 10
-194.000000
 20
57.000000
 11
-195.500000
 21
57.000000
  0
LINE
  8
0
  6
CONTINUOUS
 62
7
 10
-186.500000
 20
51.500000
 11
-195.500000
 21
51.500000
  0
LINE
  8
0
  6
CONTINUOUS
 62
7
 10
-194.000000
 20
69.500000
 11
-194.000000
 21
57.000000
  0
LINE
  8
0
  6
CENTER
 62
2
 10
-194.899994
 20
66.199997
 11
-184.500000
 21
66.199997
  0
LINE
  8
0
  6
CONTINUOUS
 62
2
 10
-187.500000
 20
64.900002
 11
-187.500000
 21
64.050003
  0
LINE
  8
0
  6
CONTINUOUS
 62
7
 10
-194.899994
 20
69.199997
 11
-197.000000
 21
69.199997
  0
LINE
  8
0
  6
CONTINUOUS
 62
7
 10
-194.899994
 20
69.199997
 11
-194.899994
 21
58.200001
  0
LINE
  8
0
  6
CONTINUOUS
 62
7
 10
-194.899994
 20
58.200001
 11
-195.500000
 21
58.200001
  0
LINE
  8
0
  6
CENTER
 62
2
 10
-194.899994
 20
60.400002
 11
-184.500000
 21
60.400002
  0
LINE
  8
0
  6
CENTER
 62
2
 10
-89.000000
 20
70.486801
 11
-89.000000
 21
49.993599
  0
LINE
  8
0
  6
CONTINUOUS
 62
7
 10
-93.500000
 20
63.133999
 11
-93.500000
 21
60.799999
  0
LINE
  8
0
  6
CONTINUOUS
 62
7
 10
-84.500000
 20
63.133999
 11
-84.500000
 21
60.799999
  0
LINE
  8
0
  6
CONTINUOUS
 62
7
 10
-99.000000
 20
70.000000
 11
-94.500000
 21
70.000000
  0
LINE
  8
0
  6
CONTINUOUS
 62
7
 10
-99.000000
 20
70.000000
 11
-99.000000
 21
62.200001
  0
LINE
  8
0
  6
CONTINUOUS
 62
7
 10
-99.000000
 20
62.200001
 11
-93.500000
 21
62.200001
  0
LINE
  8
0
  6
CONTINUOUS
 62
7
 10
-94.199997
 20
69.699997
 11
-83.800003
 21
69.699997
  0
LINE
  8
0
  6
CONTINUOUS
 62
7
 10
-84.500000
 20
62.200001
 11
-79.000000
 21
62.200001
  0
LINE
  8
0
  6
CONTINUOUS
 62
7
 10
-83.800003
 20
69.699997
 11
-83.500000
 21
70.000000
  0
LINE
  8
0
  6
CONTINUOUS
 62
7
 10
-94.199997
 20
69.699997
 11
-94.500000
 21
70.000000
  0
LINE
  8
0
  6
CONTINUOUS
 62
7
 10
-83.500000
 20
70.000000
 11
-79.000000
 21
70.000000
  0
LINE
  8
0
  6
CONTINUOUS
 62
7
 10
-93.500000
 20
65.500000
 11
-93.500000
 21
64.865997
  0
LINE
  8
0
  6
CONTINUOUS
 62
7
 10
-84.500000
 20
65.500000
 11
-93.500000
 21
65.500000
  0
LINE
  8
0
  6
CONTINUOUS
 62
7
 10
-84.500000
 20
65.500000
 11
-84.500000
 21
64.865997
  0
LINE
  8
0
  6
CONTINUOUS
 62
7
 10
-100.500000
 20
51.000000
 11
-77.500000
 21
51.000000
  0
LINE
  8
0
  6
CONTINUOUS
 62
7
 10
-100.500000
 20
60.799999
 11
-100.500000
 21
51.000000
  0
LINE
  8
0
  6
CONTINUOUS
 62
7
 10
-77.500000
 20
60.799999
 11
-77.500000
 21
51.000000
  0
LINE
  8
0
  6
CONTINUOUS
 62
7
 10
-77.500000
 20
60.799999
 11
-84.500000
 21
60.799999
  0
LINE
  8
0
  6
CENTER
 62
2
 10
-95.500000
 20
57.500000
 11
-82.500000
 21
57.500000
  0
LINE
  8
0
  6
CONTINUOUS
 62
7
 10
-100.500000
 20
60.799999
 11
-93.500000
 21
60.799999
  0
LINE
  8
0
  6
CONTINUOUS
 62
7
 10
-79.000000
 20
70.000000
 11
-79.000000
 21
62.200001
  0
LINE
  8
0
  6
CENTER
 62
2
 10
-97.000000
 20
53.000000
 11
-97.000000
 21
49.000000
  0
LINE
  8
0
  6
CENTER
 62
2
 10
-81.000000
 20
53.000000
 11
-81.000000
 21
49.000000
  0
LINE
  8
0
  6
CENTER
 62
2
 10
-81.500000
 20
72.000000
 11
-81.500000
 21
68.000000
  0
LINE
  8
0
  6
CENTER
 62
2
 10
-96.500000
 20
72.000000
 11
-96.500000
 21
68.000000
  0
LINE
  8
0
  6
CONTINUOUS
 62
7
 10
-109.500000
 20
69.500000
 11
-109.500000
 21
51.500000
  0
LINE
  8
0
  6
CONTINUOUS
 62
2
 10
-109.500000
 20
64.900002
 11
-108.500000
 21
64.900002
  0
LINE
  8
0
  6
CONTINUOUS
 62
2
 10
-109.500000
 20
67.500000
 11
-108.500000
 21
67.500000
  0
LINE
  8
0
  6
CONTINUOUS
 62
7
 10
-109.500000
 20
69.500000
 11
-102.000000
 21
69.500000
  0
LINE
  8
0
  6
CONTINUOUS
 62
2
 10
-108.500000
 20
68.349998
 11
-108.500000
 21
67.500000
  0
LINE
  8
0
  6
CONTINUOUS
 62
2
 10
-104.699997
 20
64.050003
 11
-108.500000
 21
64.050003
  0
LINE
  8
0
  6
CONTINUOUS
 62
2
 10
-103.199997
 20
66.849998
 11
-103.199997
 21
65.550003
  0
LINE
  8
0
  6
CONTINUOUS
 62
2
 10
-104.699997
 20
68.349998
 11
-108.500000
 21
68.349998
  0
LINE
  8
0
  6
CONTINUOUS
 62
7
 10
-102.000000
 20
57.000000
 11
-100.500000
 21
57.000000
  0
LINE
  8
0
  6
CONTINUOUS
 62
7
 10
-109.500000
 20
51.500000
 11
-100.500000
 21
51.500000
  0
LINE
  8
0
  6
CONTINUOUS
 62
7
 10
-102.000000
 20
69.500000
 11
-102.000000
 21
57.000000
  0
LINE
  8
0
  6
CENTER
 62
2
 10
-101.099998
 20
66.199997
 11
-111.500000
 21
66.199997
  0
LINE
  8
0
  6
CONTINUOUS
 62
2
 10
-108.500000
 20
64.900002
 11
-108.500000
 21
64.050003
  0
LINE
  8
0
  6
CONTINUOUS
 62
7
 10
-101.099998
 20
69.199997
 11
-99.000000
 21
69.199997
  0
LINE
  8
0
  6
CONTINUOUS
 62
7
 10
-101.099998
 20
69.199997
 11
-101.099998
 21
58.200001
  0
LINE
  8
0
  6
CONTINUOUS
 62
7
 10
-101.099998
 20
58.200001
 11
-100.500000
 21
58.200001
  0
LINE
  8
0
  6
CENTER
 62
2
 10
-101.099998
 20
60.400002
 11
-111.500000
 21
60.400002
  0
LINE
  8
0
  6
CONTINUOUS
 62
7
 10
108.000000
 20
51.500000
 11
168.000000
 21
51.500000
  0
LINE
  8
0
  6
CONTINUOUS
 62
7
 10
168.000000
 20
69.500000
 11
108.000000
 21
69.500000
  0
LINE
  8
0
  6
CONTINUOUS
 62
7
 10
108.000000
 20
69.500000
 11
108.000000
 21
51.500000
  0
LINE
  8
0
  6
CONTINUOUS
 62
7
 10
168.000000
 20
69.500000
 11
168.000000
 21
51.500000
  0
LINE
  8
0
  6
CONTINUOUS
 62
2
 10
108.000000
 20
61.700001
 11
168.000000
 21
61.700001
  0
LINE
  8
0
  6
CONTINUOUS
 62
2
 10
108.000000
 20
59.099998
 11
168.000000
 21
59.099998
  0
LINE
  8
0
  6
CONTINUOUS
 62
2
 10
108.000000
 20
67.500000
 11
168.000000
 21
67.500000
  0
LINE
  8
0
  6
CONTINUOUS
 62
2
 10
108.000000
 20
64.900002
 11
168.000000
 21
64.900002
  0
LINE
  8
0
  6
CONTINUOUS
 62
7
 10
168.000000
 20
40.000000
 11
108.000000
 21
40.000000
  0
LINE
  8
0
  6
CONTINUOUS
 62
7
 10
108.000000
 20
40.000000
 11
108.000000
 21
31.000000
  0
LINE
  8
0
  6
CONTINUOUS
 62
7
 10
168.000000
 20
40.000000
 11
168.000000
 21
31.000000
  0
LINE
  8
0
  6
CONTINUOUS
 62
7
 10
108.000000
 20
88.500000
 11
108.000000
 21
79.500000
  0
LINE
  8
0
  6
CONTINUOUS
 62
7
 10
168.000000
 20
87.000000
 11
108.000000
 21
87.000000
  0
LINE
  8
0
  6
CONTINUOUS
 62
7
 10
168.000000
 20
79.500000
 11
108.000000
 21
79.500000
  0
LINE
  8
0
  6
CONTINUOUS
 62
7
 10
144.750000
 20
90.000000
 11
144.750000
 21
87.900002
  0
LINE
  8
0
  6
CONTINUOUS
 62
7
 10
151.250000
 20
87.900002
 11
144.750000
 21
87.900002
  0
LINE
  8
0
  6
CONTINUOUS
 62
7
 10
151.250000
 20
90.000000
 11
151.250000
 21
87.900002
  0
LINE
  8
0
  6
CONTINUOUS
 62
7
 10
168.000000
 20
88.500000
 11
168.000000
 21
79.500000
  0
LINE
  8
0
  6
CONTINUOUS
 62
7
 10
144.750000
 20
88.500000
 11
93.000000
 21
88.500000
  0
LINE
  8
0
  6
CONTINUOUS
 62
7
 10
108.000000
 20
134.500000
 11
108.000000
 21
130.500000
  0
LINE
  8
0
  6
CONTINUOUS
 62
7
 10
125.500000
 20
130.500000
 11
108.000000
 21
130.500000
  0
LINE
  8
0
  6
CENTER
 62
2
 10
203.000000
 20
-103.513000
 11
203.000000
 21
-124.005997
  0
LINE
  8
0
  6
CONTINUOUS
 62
7
 10
198.500000
 20
-110.865997
 11
198.500000
 21
-113.199997
  0
LINE
  8
0
  6
CONTINUOUS
 62
7
 10
207.500000
 20
-110.865997
 11
207.500000
 21
-113.199997
  0
LINE
  8
0
  6
CONTINUOUS
 62
7
 10
193.000000
 20
-104.000000
 11
197.500000
 21
-104.000000
  0
LINE
  8
0
  6
CONTINUOUS
 62
7
 10
193.000000
 20
-104.000000
 11
193.000000
 21
-111.800003
  0
LINE
  8
0
  6
CONTINUOUS
 62
7
 10
193.000000
 20
-111.800003
 11
198.500000
 21
-111.800003
  0
LINE
  8
0
  6
CONTINUOUS
 62
7
 10
197.800003
 20
-104.300003
 11
208.199997
 21
-104.300003
  0
LINE
  8
0
  6
CONTINUOUS
 62
7
 10
207.500000
 20
-111.800003
 11
213.000000
 21
-111.800003
  0
LINE
  8
0
  6
CONTINUOUS
 62
7
 10
208.199997
 20
-104.300003
 11
208.500000
 21
-104.000000
  0
LINE
  8
0
  6
CONTINUOUS
 62
7
 10
197.800003
 20
-104.300003
 11
197.500000
 21
-104.000000
  0
LINE
  8
0
  6
CONTINUOUS
 62
7
 10
208.500000
 20
-104.000000
 11
213.000000
 21
-104.000000
  0
LINE
  8
0
  6
CONTINUOUS
 62
7
 10
198.500000
 20
-108.500000
 11
198.500000
 21
-109.134003
  0
LINE
  8
0
  6
CONTINUOUS
 62
7
 10
207.500000
 20
-108.500000
 11
198.500000
 21
-108.500000
  0
LINE
  8
0
  6
CONTINUOUS
 62
7
 10
207.500000
 20
-108.500000
 11
207.500000
 21
-109.134003
  0
LINE
  8
0
  6
CONTINUOUS
 62
7
 10
191.500000
 20
-123.000000
 11
214.500000
 21
-123.000000
  0
LINE
  8
0
  6
CONTINUOUS
 62
7
 10
191.500000
 20
-113.199997
 11
191.500000
 21
-123.000000
  0
LINE
  8
0
  6
CONTINUOUS
 62
7
 10
214.500000
 20
-113.199997
 11
214.500000
 21
-123.000000
  0
LINE
  8
0
  6
CONTINUOUS
 62
7
 10
214.500000
 20
-113.199997
 11
207.500000
 21
-113.199997
  0
LINE
  8
0
  6
CENTER
 62
2
 10
196.500000
 20
-116.500000
 11
209.500000
 21
-116.500000
  0
LINE
  8
0
  6
CONTINUOUS
 62
7
 10
191.500000
 20
-113.199997
 11
198.500000
 21
-113.199997
  0
LINE
  8
0
  6
CONTINUOUS
 62
7
 10
213.000000
 20
-104.000000
 11
213.000000
 21
-111.800003
  0
LINE
  8
0
  6
CENTER
 62
2
 10
195.000000
 20
-121.000000
 11
195.000000
 21
-125.000000
  0
LINE
  8
0
  6
CENTER
 62
2
 10
211.000000
 20
-121.000000
 11
211.000000
 21
-125.000000
  0
LINE
  8
0
  6
CENTER
 62
2
 10
210.500000
 20
-102.000000
 11
210.500000
 21
-106.000000
  0
LINE
  8
0
  6
CENTER
 62
2
 10
195.500000
 20
-102.000000
 11
195.500000
 21
-106.000000
  0
LINE
  8
0
  6
CONTINUOUS
 62
7
 10
223.500000
 20
-104.500000
 11
223.500000
 21
-122.500000
  0
LINE
  8
0
  6
CONTINUOUS
 62
2
 10
223.500000
 20
-109.099998
 11
222.500000
 21
-109.099998
  0
LINE
  8
0
  6
CONTINUOUS
 62
2
 10
223.500000
 20
-106.500000
 11
222.500000
 21
-106.500000
  0
LINE
  8
0
  6
CONTINUOUS
 62
7
 10
223.500000
 20
-104.500000
 11
216.000000
 21
-104.500000
  0
LINE
  8
0
  6
CONTINUOUS
 62
2
 10
222.500000
 20
-105.650002
 11
222.500000
 21
-106.500000
  0
LINE
  8
0
  6
CONTINUOUS
 62
2
 10
218.699997
 20
-109.949997
 11
222.500000
 21
-109.949997
  0
LINE
  8
0
  6
CONTINUOUS
 62
2
 10
217.199997
 20
-107.150002
 11
217.199997
 21
-108.449997
  0
LINE
  8
0
  6
CONTINUOUS
 62
2
 10
218.699997
 20
-105.650002
 11
222.500000
 21
-105.650002
  0
LINE
  8
0
  6
CONTINUOUS
 62
7
 10
216.000000
 20
-117.000000
 11
214.500000
 21
-117.000000
  0
LINE
  8
0
  6
CONTINUOUS
 62
7
 10
223.500000
 20
-122.500000
 11
214.500000
 21
-122.500000
  0
LINE
  8
0
  6
CONTINUOUS
 62
7
 10
216.000000
 20
-104.500000
 11
216.000000
 21
-117.000000
  0
LINE
  8
0
  6
CENTER
 62
2
 10
215.100006
 20
-107.800003
 11
225.500000
 21
-107.800003
  0
LINE
  8
0
  6
CONTINUOUS
 62
2
 10
222.500000
 20
-109.099998
 11
222.500000
 21
-109.949997
  0
LINE
  8
0
  6
CONTINUOUS
 62
7
 10
215.100006
 20
-104.800003
 11
213.000000
 21
-104.800003
  0
LINE
  8
0
  6
CONTINUOUS
 62
7
 10
215.100006
 20
-104.800003
 11
215.100006
 21
-115.800003
  0
LINE
  8
0
  6
CONTINUOUS
 62
7
 10
215.100006
 20
-115.800003
 11
214.500000
 21
-115.800003
  0
LINE
  8
0
  6
CENTER
 62
2
 10
215.100006
 20
-113.599998
 11
225.500000
 21
-113.599998
  0
LINE
  8
0
  6
CENTER
 62
2
 10
-198.000000
 20
-103.513000
 11
-198.000000
 21
-124.005997
  0
LINE
  8
0
  6
CONTINUOUS
 62
7
 10
-193.500000
 20
-110.865997
 11
-193.500000
 21
-113.199997
  0
LINE
  8
0
  6
CONTINUOUS
 62
7
 10
-202.500000
 20
-110.865997
 11
-202.500000
 21
-113.199997
  0
LINE
  8
0
  6
CONTINUOUS
 62
7
 10
-188.000000
 20
-104.000000
 11
-192.500000
 21
-104.000000
  0
LINE
  8
0
  6
CONTINUOUS
 62
7
 10
-188.000000
 20
-104.000000
 11
-188.000000
 21
-111.800003
  0
LINE
  8
0
  6
CONTINUOUS
 62
7
 10
-188.000000
 20
-111.800003
 11
-193.500000
 21
-111.800003
  0
LINE
  8
0
  6
CONTINUOUS
 62
7
 10
-192.800003
 20
-104.300003
 11
-203.199997
 21
-104.300003
  0
LINE
  8
0
  6
CONTINUOUS
 62
7
 10
-202.500000
 20
-111.800003
 11
-208.000000
 21
-111.800003
  0
LINE
  8
0
  6
CONTINUOUS
 62
7
 10
-203.199997
 20
-104.300003
 11
-203.500000
 21
-104.000000
  0
LINE
  8
0
  6
CONTINUOUS
 62
7
 10
-192.800003
 20
-104.300003
 11
-192.500000
 21
-104.000000
  0
LINE
  8
0
  6
CONTINUOUS
 62
7
 10
-203.500000
 20
-104.000000
 11
-208.000000
 21
-104.000000
  0
LINE
  8
0
  6
CONTINUOUS
 62
7
 10
-193.500000
 20
-108.500000
 11
-193.500000
 21
-109.134003
  0
LINE
  8
0
  6
CONTINUOUS
 62
7
 10
-202.500000
 20
-108.500000
 11
-193.500000
 21
-108.500000
  0
LINE
  8
0
  6
CONTINUOUS
 62
7
 10
-202.500000
 20
-108.500000
 11
-202.500000
 21
-109.134003
  0
LINE
  8
0
  6
CONTINUOUS
 62
7
 10
-186.500000
 20
-123.000000
 11
-209.500000
 21
-123.000000
  0
LINE
  8
0
  6
CONTINUOUS
 62
7
 10
-186.500000
 20
-113.199997
 11
-186.500000
 21
-123.000000
  0
LINE
  8
0
  6
CONTINUOUS
 62
7
 10
-209.500000
 20
-113.199997
 11
-209.500000
 21
-123.000000
  0
LINE
  8
0
  6
CONTINUOUS
 62
7
 10
-209.500000
 20
-113.199997
 11
-202.500000
 21
-113.199997
  0
LINE
  8
0
  6
CENTER
 62
2
 10
-191.500000
 20
-116.500000
 11
-204.500000
 21
-116.500000
  0
LINE
  8
0
  6
CONTINUOUS
 62
7
 10
-186.500000
 20
-113.199997
 11
-193.500000
 21
-113.199997
  0
LINE
  8
0
  6
CONTINUOUS
 62
7
 10
-208.000000
 20
-104.000000
 11
-208.000000
 21
-111.800003
  0
LINE
  8
0
  6
CENTER
 62
2
 10
-190.000000
 20
-121.000000
 11
-190.000000
 21
-125.000000
  0
LINE
  8
0
  6
CENTER
 62
2
 10
-206.000000
 20
-121.000000
 11
-206.000000
 21
-125.000000
  0
LINE
  8
0
  6
CENTER
 62
2
 10
-205.500000
 20
-102.000000
 11
-205.500000
 21
-106.000000
  0
LINE
  8
0
  6
CENTER
 62
2
 10
-190.500000
 20
-102.000000
 11
-190.500000
 21
-106.000000
  0
LINE
  8
0
  6
CONTINUOUS
 62
7
 10
-218.500000
 20
-104.500000
 11
-218.500000
 21
-122.500000
  0
LINE
  8
0
  6
CONTINUOUS
 62
2
 10
-218.500000
 20
-109.099998
 11
-217.500000
 21
-109.099998
  0
LINE
  8
0
  6
CONTINUOUS
 62
2
 10
-218.500000
 20
-106.500000
 11
-217.500000
 21
-106.500000
  0
LINE
  8
0
  6
CONTINUOUS
 62
7
 10
-218.500000
 20
-104.500000
 11
-211.000000
 21
-104.500000
  0
LINE
  8
0
  6
CONTINUOUS
 62
2
 10
-217.500000
 20
-105.650002
 11
-217.500000
 21
-106.500000
  0
LINE
  8
0
  6
CONTINUOUS
 62
2
 10
-213.699997
 20
-109.949997
 11
-217.500000
 21
-109.949997
  0
LINE
  8
0
  6
CONTINUOUS
 62
2
 10
-212.199997
 20
-107.150002
 11
-212.199997
 21
-108.449997
  0
LINE
  8
0
  6
CONTINUOUS
 62
2
 10
-213.699997
 20
-105.650002
 11
-217.500000
 21
-105.650002
  0
LINE
  8
0
  6
CONTINUOUS
 62
7
 10
-211.000000
 20
-117.000000
 11
-209.500000
 21
-117.000000
  0
LINE
  8
0
  6
CONTINUOUS
 62
7
 10
-218.500000
 20
-122.500000
 11
-209.500000
 21
-122.500000
  0
LINE
  8
0
  6
CONTINUOUS
 62
7
 10
-211.000000
 20
-104.500000
 11
-211.000000
 21
-117.000000
  0
LINE
  8
0
  6
CENTER
 62
2
 10
-210.100006
 20
-107.800003
 11
-220.500000
 21
-107.800003
  0
LINE
  8
0
  6
CONTINUOUS
 62
2
 10
-217.500000
 20
-109.099998
 11
-217.500000
 21
-109.949997
  0
LINE
  8
0
  6
CONTINUOUS
 62
7
 10
-210.100006
 20
-104.800003
 11
-208.000000
 21
-104.800003
  0
LINE
  8
0
  6
CONTINUOUS
 62
7
 10
-210.100006
 20
-104.800003
 11
-210.100006
 21
-115.800003
  0
LINE
  8
0
  6
CONTINUOUS
 62
7
 10
-210.100006
 20
-115.800003
 11
-209.500000
 21
-115.800003
  0
LINE
  8
0
  6
CENTER
 62
2
 10
-210.100006
 20
-113.599998
 11
-220.500000
 21
-113.599998
  0
LINE
  8
0
  6
CENTER
 62
2
 10
-98.000000
 20
-103.513000
 11
-98.000000
 21
-124.005997
  0
LINE
  8
0
  6
CONTINUOUS
 62
7
 10
-102.500000
 20
-110.865997
 11
-102.500000
 21
-113.199997
  0
LINE
  8
0
  6
CONTINUOUS
 62
7
 10
-93.500000
 20
-110.865997
 11
-93.500000
 21
-113.199997
  0
LINE
  8
0
  6
CONTINUOUS
 62
7
 10
-108.000000
 20
-104.000000
 11
-103.500000
 21
-104.000000
  0
LINE
  8
0
  6
CONTINUOUS
 62
7
 10
-108.000000
 20
-104.000000
 11
-108.000000
 21
-111.800003
  0
LINE
  8
0
  6
CONTINUOUS
 62
7
 10
-108.000000
 20
-111.800003
 11
-102.500000
 21
-111.800003
  0
LINE
  8
0
  6
CONTINUOUS
 62
7
 10
-103.199997
 20
-104.300003
 11
-92.800003
 21
-104.300003
  0
LINE
  8
0
  6
CONTINUOUS
 62
7
 10
-93.500000
 20
-111.800003
 11
-88.000000
 21
-111.800003
  0
LINE
  8
0
  6
CONTINUOUS
 62
7
 10
-92.800003
 20
-104.300003
 11
-92.500000
 21
-104.000000
  0
LINE
  8
0
  6
CONTINUOUS
 62
7
 10
-103.199997
 20
-104.300003
 11
-103.500000
 21
-104.000000
  0
LINE
  8
0
  6
CONTINUOUS
 62
7
 10
-92.500000
 20
-104.000000
 11
-88.000000
 21
-104.000000
  0
LINE
  8
0
  6
CONTINUOUS
 62
7
 10
-102.500000
 20
-108.500000
 11
-102.500000
 21
-109.134003
  0
LINE
  8
0
  6
CONTINUOUS
 62
7
 10
-93.500000
 20
-108.500000
 11
-102.500000
 21
-108.500000
  0
LINE
  8
0
  6
CONTINUOUS
 62
7
 10
-93.500000
 20
-108.500000
 11
-93.500000
 21
-109.134003
  0
LINE
  8
0
  6
CONTINUOUS
 62
7
 10
-109.500000
 20
-123.000000
 11
-86.500000
 21
-123.000000
  0
LINE
  8
0
  6
CONTINUOUS
 62
7
 10
-109.500000
 20
-113.199997
 11
-109.500000
 21
-123.000000
  0
LINE
  8
0
  6
CONTINUOUS
 62
7
 10
-86.500000
 20
-113.199997
 11
-86.500000
 21
-123.000000
  0
LINE
  8
0
  6
CONTINUOUS
 62
7
 10
-86.500000
 20
-113.199997
 11
-93.500000
 21
-113.199997
  0
LINE
  8
0
  6
CENTER
 62
2
 10
-104.500000
 20
-116.500000
 11
-91.500000
 21
-116.500000
  0
LINE
  8
0
  6
CONTINUOUS
 62
7
 10
-109.500000
 20
-113.199997
 11
-102.500000
 21
-113.199997
  0
LINE
  8
0
  6
CONTINUOUS
 62
7
 10
-88.000000
 20
-104.000000
 11
-88.000000
 21
-111.800003
  0
LINE
  8
0
  6
CENTER
 62
2
 10
-106.000000
 20
-121.000000
 11
-106.000000
 21
-125.000000
  0
LINE
  8
0
  6
CENTER
 62
2
 10
-90.000000
 20
-121.000000
 11
-90.000000
 21
-125.000000
  0
LINE
  8
0
  6
CENTER
 62
2
 10
-90.500000
 20
-102.000000
 11
-90.500000
 21
-106.000000
  0
LINE
  8
0
  6
CENTER
 62
2
 10
-105.500000
 20
-102.000000
 11
-105.500000
 21
-106.000000
  0
LINE
  8
0
  6
CONTINUOUS
 62
7
 10
-77.500000
 20
-104.500000
 11
-77.500000
 21
-122.500000
  0
LINE
  8
0
  6
CONTINUOUS
 62
2
 10
-77.500000
 20
-109.099998
 11
-78.500000
 21
-109.099998
  0
LINE
  8
0
  6
CONTINUOUS
 62
2
 10
-77.500000
 20
-106.500000
 11
-78.500000
 21
-106.500000
  0
LINE
  8
0
  6
CONTINUOUS
 62
7
 10
-77.500000
 20
-104.500000
 11
-85.000000
 21
-104.500000
  0
LINE
  8
0
  6
CONTINUOUS
 62
2
 10
-78.500000
 20
-105.650002
 11
-78.500000
 21
-106.500000
  0
LINE
  8
0
  6
CONTINUOUS
 62
2
 10
-82.300003
 20
-109.949997
 11
-78.500000
 21
-109.949997
  0
LINE
  8
0
  6
CONTINUOUS
 62
2
 10
-83.800003
 20
-107.150002
 11
-83.800003
 21
-108.449997
  0
LINE
  8
0
  6
CONTINUOUS
 62
2
 10
-82.300003
 20
-105.650002
 11
-78.500000
 21
-105.650002
  0
LINE
  8
0
  6
CONTINUOUS
 62
7
 10
-85.000000
 20
-117.000000
 11
-86.500000
 21
-117.000000
  0
LINE
  8
0
  6
CONTINUOUS
 62
7
 10
-77.500000
 20
-122.500000
 11
-86.500000
 21
-122.500000
  0
LINE
  8
0
  6
CONTINUOUS
 62
7
 10
-85.000000
 20
-104.500000
 11
-85.000000
 21
-117.000000
  0
LINE
  8
0
  6
CENTER
 62
2
 10
-85.900002
 20
-107.800003
 11
-75.500000
 21
-107.800003
  0
LINE
  8
0
  6
CONTINUOUS
 62
2
 10
-78.500000
 20
-109.099998
 11
-78.500000
 21
-109.949997
  0
LINE
  8
0
  6
CONTINUOUS
 62
7
 10
-85.900002
 20
-104.800003
 11
-88.000000
 21
-104.800003
  0
LINE
  8
0
  6
CONTINUOUS
 62
7
 10
-85.900002
 20
-104.800003
 11
-85.900002
 21
-115.800003
  0
LINE
  8
0
  6
CONTINUOUS
 62
7
 10
-85.900002
 20
-115.800003
 11
-86.500000
 21
-115.800003
  0
LINE
  8
0
  6
CENTER
 62
2
 10
-85.900002
 20
-113.599998
 11
-75.500000
 21
-113.599998
  0
LINE
  8
0
  6
CENTER
 62
2
 10
-172.500000
 20
61.000000
 11
-172.500000
 21
52.000000
  0
LINE
  8
0
  6
CENTER
 62
2
 10
-177.000000
 20
56.500000
 11
-168.000000
 21
56.500000
  0
LINE
  8
0
  6
CENTER
 62
2
 10
-123.500000
 20
61.000000
 11
-123.500000
 21
52.000000
  0
LINE
  8
0
  6
CENTER
 62
2
 10
-128.000000
 20
56.500000
 11
-119.000000
 21
56.500000
  0
LINE
  8
0
  6
CENTER
 62
2
 10
98.500000
 20
61.000000
 11
98.500000
 21
52.000000
  0
LINE
  8
0
  6
CENTER
 62
2
 10
94.000000
 20
56.500000
 11
103.000000
 21
56.500000
  0
LINE
  8
0
  6
CENTER
 62
2
 10
177.500000
 20
61.000000
 11
177.500000
 21
52.000000
  0
LINE
  8
0
  6
CENTER
 62
2
 10
173.000000
 20
56.500000
 11
182.000000
 21
56.500000
  0
LINE
  8
0
  6
CENTER
 62
2
 10
-172.500000
 20
-113.000000
 11
-172.500000
 21
-122.000000
  0
LINE
  8
0
  6
CENTER
 62
2
 10
-177.000000
 20
-117.500000
 11
-168.000000
 21
-117.500000
  0
LINE
  8
0
  6
CENTER
 62
2
 10
-123.500000
 20
-113.000000
 11
-123.500000
 21
-122.000000
  0
LINE
  8
0
  6
CENTER
 62
2
 10
-128.000000
 20
-117.500000
 11
-119.000000
 21
-117.500000
  0
LINE
  8
0
  6
CENTER
 62
2
 10
98.500000
 20
-113.000000
 11
98.500000
 21
-122.000000
  0
LINE
  8
0
  6
CENTER
 62
2
 10
94.000000
 20
-117.500000
 11
103.000000
 21
-117.500000
  0
LINE
  8
0
  6
CENTER
 62
2
 10
177.500000
 20
-113.000000
 11
177.500000
 21
-122.000000
  0
LINE
  8
0
  6
CENTER
 62
2
 10
173.000000
 20
-117.500000
 11
182.000000
 21
-117.500000
  0
LINE
  8
0
  6
CONTINUOUS
 62
7
 10
0.424988
 20
195.500000
 11
0.424988
 21
-195.000000
  0
LINE
  8
0
  6
CONTINUOUS
 62
7
 10
-281.250000
 20
0.250000
 11
282.100006
 21
0.250000
  0
ARC
  8
0
  6
CONTINUOUS
 62
7
 10
-172.500000
 20
-30.799999
 40
4.800000
 50
303.557007
 51
351.614014
  0
ARC
  8
0
  6
CONTINUOUS
 62
7
 10
-123.500000
 20
-30.799999
 40
4.800000
 50
188.384995
 51
236.442993
  0
CIRCLE
  8
0
  6
CONTINUOUS
 62
7
 10
-135.500000
 20
-66.500000
 40
1.250000
  0
CIRCLE
  8
0
  6
CONTINUOUS
 62
2
 10
-135.500000
 20
-66.500000
 40
1.500000
  0
CIRCLE
  8
0
  6
CONTINUOUS
 62
7
 10
-150.500000
 20
-81.500000
 40
1.250000
  0
CIRCLE
  8
0
  6
CONTINUOUS
 62
7
 10
-150.500000
 20
-66.500000
 40
1.250000
  0
CIRCLE
  8
0
  6
CONTINUOUS
 62
2
 10
-150.500000
 20
-66.500000
 40
1.500000
  0
CIRCLE
  8
0
  6
CONTINUOUS
 62
2
 10
-150.500000
 20
-81.500000
 40
1.500000
  0
CIRCLE
  8
0
  6
CONTINUOUS
 62
7
 10
-135.500000
 20
-81.500000
 40
1.250000
  0
CIRCLE
  8
0
  6
CONTINUOUS
 62
2
 10
-135.500000
 20
-81.500000
 40
1.500000
  0
CIRCLE
  8
0
  6
CONTINUOUS
 62
2
 10
-164.000000
 20
-66.000000
 40
2.000000
  0
CIRCLE
  8
0
  6
CONTINUOUS
 62
7
 10
-164.000000
 20
-66.000000
 40
3.000000
  0
ARC
  8
0
  6
CONTINUOUS
 62
7
 10
-132.000000
 20
-82.000000
 40
3.000000
 50
221.809998
 51
325.481995
  0
CIRCLE
  8
0
  6
CONTINUOUS
 62
7
 10
-164.000000
 20
-82.000000
 40
3.000000
  0
CIRCLE
  8
0
  6
CONTINUOUS
 62
2
 10
-164.000000
 20
-82.000000
 40
2.000000
  0
ARC
  8
0
  6
DASHED
 62
2
 10
-132.000000
 20
-82.000000
 40
3.000000
 50
325.481995
 51
221.809998
  0
CIRCLE
  8
0
  6
DASHED
 62
2
 10
-132.000000
 20
-82.000000
 40
2.000000
  0
CIRCLE
  8
0
  6
DASHED
 62
2
 10
-132.000000
 20
-66.000000
 40
2.000000
  0
ARC
  8
0
  6
CONTINUOUS
 62
7
 10
-132.000000
 20
-66.000000
 40
3.000000
 50
34.518398
 51
138.190002
  0
ARC
  8
0
  6
DASHED
 62
2
 10
-132.000000
 20
-66.000000
 40
3.000000
 50
138.190002
 51
394.518005
  0
CIRCLE
  8
0
  6
CONTINUOUS
 62
2
 10
-164.000000
 20
-157.500000
 40
2.000000
  0
CIRCLE
  8
0
  6
CONTINUOUS
 62
7
 10
-164.000000
 20
-157.500000
 40
1.750000
  0
CIRCLE
  8
0
  6
CONTINUOUS
 62
7
 10
-164.000000
 20
-141.500000
 40
1.750000
  0
CIRCLE
  8
0
  6
CONTINUOUS
 62
7
 10
-132.000000
 20
-157.500000
 40
1.750000
  0
CIRCLE
  8
0
  6
CONTINUOUS
 62
2
 10
-132.000000
 20
-157.500000
 40
2.000000
  0
CIRCLE
  8
0
  6
CONTINUOUS
 62
7
 10
-132.000000
 20
-141.500000
 40
1.750000
  0
CIRCLE
  8
0
  6
CONTINUOUS
 62
2
 10
-132.000000
 20
-141.500000
 40
2.000000
  0
CIRCLE
  8
0
  6
CONTINUOUS
 62
2
 10
-164.000000
 20
-141.500000
 40
2.000000
  0
CIRCLE
  8
0
  6
CONTINUOUS
 62
7
 10
-171.000000
 20
-147.500000
 40
5.900000
  0
CIRCLE
  8
0
  6
CONTINUOUS
 62
7
 10
-125.000000
 20
-147.500000
 40
5.900000
  0
CIRCLE
  8
0
  6
CONTINUOUS
 62
7
 10
-146.250000
 20
-107.000000
 40
1.250000
  0
CIRCLE
  8
0
  6
CONTINUOUS
 62
2
 10
-146.250000
 20
-107.000000
 40
1.500000
  0
CIRCLE
  8
0
  6
CONTINUOUS
 62
2
 10
-139.750000
 20
-107.000000
 40
1.500000
  0
CIRCLE
  8
0
  6
CONTINUOUS
 62
7
 10
-139.750000
 20
-107.000000
 40
1.250000
  0
ARC
  8
0
  6
CONTINUOUS
 62
7
 10
-172.500000
 20
-117.199997
 40
4.800000
 50
8.385500
 51
56.442600
  0
ARC
  8
0
  6
CONTINUOUS
 62
7
 10
-158.500000
 20
-119.500000
 40
3.000000
 50
58.997200
 51
90.000000
  0
CIRCLE
  8
0
  6
CONTINUOUS
 62
7
 10
-121.500000
 20
-29.500000
 40
1.250000
  0
CIRCLE
  8
0
  6
CONTINUOUS
 62
2
 10
-121.500000
 20
-29.500000
 40
1.500000
  0
CIRCLE
  8
0
  6
CONTINUOUS
 62
2
 10
-137.500000
 20
-119.500000
 40
1.500000
  0
ARC
  8
0
  6
CONTINUOUS
 62
7
 10
-137.500000
 20
-119.500000
 40
3.000000
 50
90.000000
 51
121.002998
  0
ARC
  8
0
  6
CONTINUOUS
 62
7
 10
-123.500000
 20
-117.199997
 40
4.800000
 50
123.556999
 51
171.615005
  0
CIRCLE
  8
0
  6
CONTINUOUS
 62
7
 10
-137.500000
 20
-119.500000
 40
1.250000
  0
ARC
  8
0
  6
CONTINUOUS
 62
7
 10
-156.697006
 20
-116.500000
 40
0.500001
 50
238.998001
 51
270.000000
  0
ARC
  8
0
  6
CONTINUOUS
 62
7
 10
-139.302994
 20
-116.500000
 40
0.500000
 50
270.000000
 51
301.002014
  0
CIRCLE
  8
0
  6
CONTINUOUS
 62
7
 10
-158.500000
 20
-119.500000
 40
1.250000
  0
CIRCLE
  8
0
  6
CONTINUOUS
 62
2
 10
-158.500000
 20
-119.500000
 40
1.500000
  0
CIRCLE
  8
0
  6
CONTINUOUS
 62
7
 10
-174.500000
 20
-29.500000
 40
1.250000
  0
CIRCLE
  8
0
  6
CONTINUOUS
 62
2
 10
-174.500000
 20
-29.500000
 40
1.500000
  0
CIRCLE
  8
0
  6
CONTINUOUS
 62
2
 10
108.000000
 20
-157.500000
 40
2.000000
  0
CIRCLE
  8
0
  6
CONTINUOUS
 62
7
 10
108.000000
 20
-157.500000
 40
1.750000
  0
CIRCLE
  8
0
  6
CONTINUOUS
 62
7
 10
108.000000
 20
-141.500000
 40
1.750000
  0
CIRCLE
  8
0
  6
CONTINUOUS
 62
7
 10
168.000000
 20
-157.500000
 40
1.750000
  0
CIRCLE
  8
0
  6
CONTINUOUS
 62
2
 10
168.000000
 20
-157.500000
 40
2.000000
  0
CIRCLE
  8
0
  6
CONTINUOUS
 62
7
 10
168.000000
 20
-141.500000
 40
1.750000
  0
CIRCLE
  8
0
  6
CONTINUOUS
 62
2
 10
168.000000
 20
-141.500000
 40
2.000000
  0
CIRCLE
  8
0
  6
CONTINUOUS
 62
2
 10
108.000000
 20
-141.500000
 40
2.000000
  0
CIRCLE
  8
0
  6
CONTINUOUS
 62
7
 10
100.000000
 20
-147.500000
 40
5.900000
  0
CIRCLE
  8
0
  6
CONTINUOUS
 62
7
 10
176.000000
 20
-147.500000
 40
5.900000
  0
ARC
  8
0
  6
CONTINUOUS
 62
7
 10
99.500000
 20
-30.799999
 40
4.800000
 50
303.557007
 51
351.614014
  0
ARC
  8
0
  6
CONTINUOUS
 62
7
 10
176.500000
 20
-30.799999
 40
4.800000
 50
188.384995
 51
236.442993
  0
ARC
  8
0
  6
DASHED
 62
2
 10
168.000000
 20
-66.000000
 40
3.000000
 50
145.481995
 51
326.442993
  0
CIRCLE
  8
0
  6
DASHED
 62
2
 10
168.000000
 20
-66.000000
 40
2.000000
  0
CIRCLE
  8
0
  6
CONTINUOUS
 62
2
 10
156.000000
 20
-81.500000
 40
1.500000
  0
CIRCLE
  8
0
  6
CONTINUOUS
 62
7
 10
140.000000
 20
-66.500000
 40
1.250000
  0
CIRCLE
  8
0
  6
CONTINUOUS
 62
2
 10
140.000000
 20
-66.500000
 40
1.500000
  0
CIRCLE
  8
0
  6
CONTINUOUS
 62
7
 10
156.000000
 20
-66.500000
 40
1.250000
  0
CIRCLE
  8
0
  6
CONTINUOUS
 62
2
 10
156.000000
 20
-66.500000
 40
1.500000
  0
CIRCLE
  8
0
  6
CONTINUOUS
 62
2
 10
140.000000
 20
-81.500000
 40
1.500000
  0
CIRCLE
  8
0
  6
CONTINUOUS
 62
7
 10
140.000000
 20
-81.500000
 40
1.250000
  0
CIRCLE
  8
0
  6
CONTINUOUS
 62
7
 10
156.000000
 20
-81.500000
 40
1.250000
  0
ARC
  8
0
  6
CONTINUOUS
 62
7
 10
168.000000
 20
-82.000000
 40
3.000000
 50
214.518005
 51
33.556702
  0
CIRCLE
  8
0
  6
DASHED
 62
2
 10
168.000000
 20
-82.000000
 40
2.000000
  0
CIRCLE
  8
0
  6
CONTINUOUS
 62
2
 10
108.000000
 20
-82.000000
 40
2.000000
  0
CIRCLE
  8
0
  6
CONTINUOUS
 62
7
 10
108.000000
 20
-66.000000
 40
3.000000
  0
CIRCLE
  8
0
  6
CONTINUOUS
 62
2
 10
108.000000
 20
-66.000000
 40
2.000000
  0
CIRCLE
  8
0
  6
CONTINUOUS
 62
7
 10
108.000000
 20
-82.000000
 40
3.000000
  0
ARC
  8
0
  6
DASHED
 62
2
 10
168.000000
 20
-82.000000
 40
3.000000
 50
33.556702
 51
214.518005
  0
ARC
  8
0
  6
CONTINUOUS
 62
7
 10
168.000000
 20
-66.000000
 40
3.000000
 50
326.442993
 51
145.481995
  0
CIRCLE
  8
0
  6
CONTINUOUS
 62
7
 10
144.750000
 20
-107.000000
 40
1.250000
  0
CIRCLE
  8
0
  6
CONTINUOUS
 62
2
 10
144.750000
 20
-107.000000
 40
1.500000
  0
CIRCLE
  8
0
  6
CONTINUOUS
 62
2
 10
151.250000
 20
-107.000000
 40
1.500000
  0
CIRCLE
  8
0
  6
CONTINUOUS
 62
7
 10
151.250000
 20
-107.000000
 40
1.250000
  0
ARC
  8
0
  6
CONTINUOUS
 62
7
 10
99.500000
 20
-117.199997
 40
4.800000
 50
8.385500
 51
56.442699
  0
ARC
  8
0
  6
CONTINUOUS
 62
7
 10
118.000000
 20
-119.500000
 40
3.000000
 50
58.997299
 51
90.000000
  0
CIRCLE
  8
0
  6
CONTINUOUS
 62
7
 10
118.000000
 20
-119.500000
 40
1.250000
  0
CIRCLE
  8
0
  6
CONTINUOUS
 62
2
 10
118.000000
 20
-119.500000
 40
1.500000
  0
CIRCLE
  8
0
  6
CONTINUOUS
 62
2
 10
102.000000
 20
-29.500000
 40
1.500000
  0
ARC
  8
0
  6
CONTINUOUS
 62
7
 10
158.000000
 20
-119.500000
 40
3.000000
 50
90.000000
 51
121.002998
  0
ARC
  8
0
  6
CONTINUOUS
 62
7
 10
176.500000
 20
-117.199997
 40
4.800000
 50
123.556999
 51
171.615005
  0
CIRCLE
  8
0
  6
CONTINUOUS
 62
7
 10
102.000000
 20
-29.500000
 40
1.250000
  0
ARC
  8
0
  6
CONTINUOUS
 62
7
 10
119.803001
 20
-116.500000
 40
0.500001
 50
238.998001
 51
270.000000
  0
ARC
  8
0
  6
CONTINUOUS
 62
7
 10
156.197006
 20
-116.500000
 40
0.500000
 50
270.000000
 51
301.002014
  0
CIRCLE
  8
0
  6
CONTINUOUS
 62
2
 10
158.000000
 20
-119.500000
 40
1.500000
  0
CIRCLE
  8
0
  6
CONTINUOUS
 62
7
 10
158.000000
 20
-119.500000
 40
1.250000
  0
CIRCLE
  8
0
  6
CONTINUOUS
 62
2
 10
174.000000
 20
-29.500000
 40
1.500000
  0
CIRCLE
  8
0
  6
CONTINUOUS
 62
7
 10
174.000000
 20
-29.500000
 40
1.250000
  0
ARC
  8
0
  6
CONTINUOUS
 62
7
 10
68.842598
 20
-110.161003
 40
1.200000
 50
99.579201
 51
100.733002
  0
ARC
  8
0
  6
CONTINUOUS
 62
7
 10
78.000000
 20
-110.000000
 40
1.000000
 50
120.001999
 51
240.001999
  0
ARC
  8
0
  6
CONTINUOUS
 62
7
 10
68.000000
 20
-110.000000
 40
1.000000
 50
300.001007
 51
60.000401
  0
CIRCLE
  8
0
  6
CONTINUOUS
 62
7
 10
73.000000
 20
-116.500000
 40
4.450000
  0
ARC
  8
0
  6
CONTINUOUS
 62
2
 10
57.299999
 20
-108.449997
 40
1.500000
 50
270.000000
 51
0.000000
  0
ARC
  8
0
  6
CONTINUOUS
 62
2
 10
57.299999
 20
-107.150002
 40
1.500000
 50
0.000000
 51
90.000000
  0
ARC
  8
0
  6
CONTINUOUS
 62
2
 10
-104.699997
 20
65.550003
 40
1.500000
 50
270.000000
 51
0.000000
  0
ARC
  8
0
  6
CONTINUOUS
 62
2
 10
-104.699997
 20
66.849998
 40
1.500000
 50
0.000000
 51
90.000000
  0
CIRCLE
  8
0
  6
CONTINUOUS
 62
7
 10
-89.000000
 20
57.500000
 40
4.450000
  0
ARC
  8
0
  6
CONTINUOUS
 62
7
 10
-172.500000
 20
56.799999
 40
4.800000
 50
8.385500
 51
56.442600
  0
ARC
  8
0
  6
CONTINUOUS
 62
7
 10
-123.500000
 20
56.799999
 40
4.800000
 50
123.556999
 51
171.615005
  0
CIRCLE
  8
0
  6
CONTINUOUS
 62
7
 10
-135.500000
 20
92.500000
 40
1.250000
  0
CIRCLE
  8
0
  6
CONTINUOUS
 62
2
 10
-135.500000
 20
92.500000
 40
1.500000
  0
CIRCLE
  8
0
  6
CONTINUOUS
 62
7
 10
-150.500000
 20
107.500000
 40
1.250000
  0
CIRCLE
  8
0
  6
CONTINUOUS
 62
7
 10
-150.500000
 20
92.500000
 40
1.250000
  0
CIRCLE
  8
0
  6
CONTINUOUS
 62
2
 10
-150.500000
 20
92.500000
 40
1.500000
  0
CIRCLE
  8
0
  6
CONTINUOUS
 62
2
 10
-150.500000
 20
107.500000
 40
1.500000
  0
CIRCLE
  8
0
  6
CONTINUOUS
 62
7
 10
-135.500000
 20
107.500000
 40
1.250000
  0
CIRCLE
  8
0
  6
CONTINUOUS
 62
2
 10
-135.500000
 20
107.500000
 40
1.500000
  0
CIRCLE
  8
0
  6
CONTINUOUS
 62
2
 10
-164.000000
 20
92.000000
 40
2.000000
  0
CIRCLE
  8
0
  6
CONTINUOUS
 62
7
 10
-164.000000
 20
92.000000
 40
3.000000
  0
ARC
  8
0
  6
CONTINUOUS
 62
7
 10
-132.000000
 20
108.000000
 40
3.000000
 50
34.518398
 51
138.190002
  0
CIRCLE
  8
0
  6
CONTINUOUS
 62
7
 10
-164.000000
 20
108.000000
 40
3.000000
  0
CIRCLE
  8
0
  6
CONTINUOUS
 62
2
 10
-164.000000
 20
108.000000
 40
2.000000
  0
ARC
  8
0
  6
DASHED
 62
2
 10
-132.000000
 20
108.000000
 40
3.000000
 50
138.190002
 51
394.518005
  0
CIRCLE
  8
0
  6
DASHED
 62
2
 10
-132.000000
 20
108.000000
 40
2.000000
  0
CIRCLE
  8
0
  6
DASHED
 62
2
 10
-132.000000
 20
92.000000
 40
2.000000
  0
ARC
  8
0
  6
CONTINUOUS
 62
7
 10
-132.000000
 20
92.000000
 40
3.000000
 50
221.809998
 51
325.481995
  0
ARC
  8
0
  6
DASHED
 62
2
 10
-132.000000
 20
92.000000
 40
3.000000
 50
325.481995
 51
221.809998
  0
CIRCLE
  8
0
  6
CONTINUOUS
 62
2
 10
-164.000000
 20
11.500000
 40
2.000000
  0
CIRCLE
  8
0
  6
CONTINUOUS
 62
7
 10
-164.000000
 20
11.500000
 40
1.750000
  0
CIRCLE
  8
0
  6
CONTINUOUS
 62
7
 10
-164.000000
 20
27.500000
 40
1.750000
  0
CIRCLE
  8
0
  6
CONTINUOUS
 62
7
 10
-132.000000
 20
11.500000
 40
1.750000
  0
CIRCLE
  8
0
  6
CONTINUOUS
 62
2
 10
-132.000000
 20
11.500000
 40
2.000000
  0
CIRCLE
  8
0
  6
CONTINUOUS
 62
7
 10
-132.000000
 20
27.500000
 40
1.750000
  0
CIRCLE
  8
0
  6
CONTINUOUS
 62
2
 10
-132.000000
 20
27.500000
 40
2.000000
  0
CIRCLE
  8
0
  6
CONTINUOUS
 62
2
 10
-164.000000
 20
27.500000
 40
2.000000
  0
CIRCLE
  8
0
  6
CONTINUOUS
 62
7
 10
-171.000000
 20
21.500000
 40
5.900000
  0
CIRCLE
  8
0
  6
CONTINUOUS
 62
7
 10
-125.000000
 20
21.500000
 40
5.900000
  0
CIRCLE
  8
0
  6
CONTINUOUS
 62
7
 10
-146.250000
 20
133.000000
 40
1.250000
  0
CIRCLE
  8
0
  6
CONTINUOUS
 62
2
 10
-146.250000
 20
133.000000
 40
1.500000
  0
CIRCLE
  8
0
  6
CONTINUOUS
 62
2
 10
-139.750000
 20
133.000000
 40
1.500000
  0
CIRCLE
  8
0
  6
CONTINUOUS
 62
7
 10
-139.750000
 20
133.000000
 40
1.250000
  0
ARC
  8
0
  6
CONTINUOUS
 62
7
 10
-172.500000
 20
143.199997
 40
4.800000
 50
303.557007
 51
351.614014
  0
ARC
  8
0
  6
CONTINUOUS
 62
7
 10
-158.500000
 20
145.500000
 40
3.000000
 50
270.000000
 51
301.002991
  0
CIRCLE
  8
0
  6
CONTINUOUS
 62
7
 10
-121.500000
 20
144.500000
 40
1.250000
  0
CIRCLE
  8
0
  6
CONTINUOUS
 62
2
 10
-121.500000
 20
144.500000
 40
1.500000
  0
CIRCLE
  8
0
  6
CONTINUOUS
 62
2
 10
-137.500000
 20
145.500000
 40
1.500000
  0
ARC
  8
0
  6
CONTINUOUS
 62
7
 10
-137.500000
 20
145.500000
 40
3.000000
 50
238.996994
 51
270.000000
  0
ARC
  8
0
  6
CONTINUOUS
 62
7
 10
-123.500000
 20
143.199997
 40
4.800000
 50
188.384995
 51
236.442993
  0
CIRCLE
  8
0
  6
CONTINUOUS
 62
7
 10
-137.500000
 20
145.500000
 40
1.250000
  0
ARC
  8
0
  6
CONTINUOUS
 62
7
 10
-156.697006
 20
142.500000
 40
0.500000
 50
90.000000
 51
121.001999
  0
ARC
  8
0
  6
CONTINUOUS
 62
7
 10
-139.302994
 20
142.500000
 40
0.500001
 50
58.997601
 51
90.000000
  0
CIRCLE
  8
0
  6
CONTINUOUS
 62
7
 10
-158.500000
 20
145.500000
 40
1.250000
  0
CIRCLE
  8
0
  6
CONTINUOUS
 62
2
 10
-158.500000
 20
145.500000
 40
1.500000
  0
CIRCLE
  8
0
  6
CONTINUOUS
 62
7
 10
-174.500000
 20
144.500000
 40
1.250000
  0
CIRCLE
  8
0
  6
CONTINUOUS
 62
2
 10
-174.500000
 20
144.500000
 40
1.500000
  0
ARC
  8
0
  6
CONTINUOUS
 62
7
 10
59.842602
 20
63.839199
 40
1.200000
 50
99.579399
 51
100.733002
  0
ARC
  8
0
  6
CONTINUOUS
 62
7
 10
69.000000
 20
64.000000
 40
1.000000
 50
120.001999
 51
240.001999
  0
ARC
  8
0
  6
CONTINUOUS
 62
7
 10
59.000000
 20
64.000000
 40
0.999997
 50
300.002014
 51
60.000401
  0
CIRCLE
  8
0
  6
CONTINUOUS
 62
7
 10
64.000000
 20
57.500000
 40
4.450000
  0
CIRCLE
  8
0
  6
CONTINUOUS
 62
2
 10
108.000000
 20
11.500000
 40
2.000000
  0
CIRCLE
  8
0
  6
CONTINUOUS
 62
7
 10
108.000000
 20
11.500000
 40
1.750000
  0
CIRCLE
  8
0
  6
CONTINUOUS
 62
7
 10
108.000000
 20
27.500000
 40
1.750000
  0
CIRCLE
  8
0
  6
CONTINUOUS
 62
7
 10
168.000000
 20
11.500000
 40
1.750000
  0
CIRCLE
  8
0
  6
CONTINUOUS
 62
2
 10
168.000000
 20
11.500000
 40
2.000000
  0
CIRCLE
  8
0
  6
CONTINUOUS
 62
7
 10
168.000000
 20
27.500000
 40
1.750000
  0
CIRCLE
  8
0
  6
CONTINUOUS
 62
2
 10
168.000000
 20
27.500000
 40
2.000000
  0
CIRCLE
  8
0
  6
CONTINUOUS
 62
2
 10
108.000000
 20
27.500000
 40
2.000000
  0
CIRCLE
  8
0
  6
CONTINUOUS
 62
7
 10
100.000000
 20
21.500000
 40
5.900000
  0
CIRCLE
  8
0
  6
CONTINUOUS
 62
7
 10
176.000000
 20
21.500000
 40
5.900000
  0
ARC
  8
0
  6
CONTINUOUS
 62
7
 10
99.500000
 20
56.799999
 40
4.800000
 50
8.385500
 51
56.442699
  0
ARC
  8
0
  6
CONTINUOUS
 62
7
 10
176.500000
 20
56.799999
 40
4.800000
 50
123.556999
 51
171.615005
  0
ARC
  8
0
  6
DASHED
 62
2
 10
168.000000
 20
92.000000
 40
3.000000
 50
33.556702
 51
214.518005
  0
CIRCLE
  8
0
  6
DASHED
 62
2
 10
168.000000
 20
92.000000
 40
2.000000
  0
CIRCLE
  8
0
  6
CONTINUOUS
 62
2
 10
156.000000
 20
107.500000
 40
1.500000
  0
CIRCLE
  8
0
  6
CONTINUOUS
 62
7
 10
140.000000
 20
92.500000
 40
1.250000
  0
CIRCLE
  8
0
  6
CONTINUOUS
 62
2
 10
140.000000
 20
92.500000
 40
1.500000
  0
CIRCLE
  8
0
  6
CONTINUOUS
 62
7
 10
156.000000
 20
92.500000
 40
1.250000
  0
CIRCLE
  8
0
  6
CONTINUOUS
 62
2
 10
156.000000
 20
92.500000
 40
1.500000
  0
CIRCLE
  8
0
  6
CONTINUOUS
 62
2
 10
140.000000
 20
107.500000
 40
1.500000
  0
CIRCLE
  8
0
  6
CONTINUOUS
 62
7
 10
140.000000
 20
107.500000
 40
1.250000
  0
CIRCLE
  8
0
  6
CONTINUOUS
 62
7
 10
156.000000
 20
107.500000
 40
1.250000
  0
ARC
  8
0
  6
CONTINUOUS
 62
7
 10
168.000000
 20
108.000000
 40
3.000000
 50
326.442993
 51
145.481995
  0
CIRCLE
  8
0
  6
DASHED
 62
2
 10
168.000000
 20
108.000000
 40
2.000000
  0
CIRCLE
  8
0
  6
CONTINUOUS
 62
2
 10
108.000000
 20
108.000000
 40
2.000000
  0
CIRCLE
  8
0
  6
CONTINUOUS
 62
7
 10
108.000000
 20
92.000000
 40
3.000000
  0
CIRCLE
  8
0
  6
CONTINUOUS
 62
2
 10
108.000000
 20
92.000000
 40
2.000000
  0
CIRCLE
  8
0
  6
CONTINUOUS
 62
7
 10
108.000000
 20
108.000000
 40
3.000000
  0
ARC
  8
0
  6
DASHED
 62
2
 10
168.000000
 20
108.000000
 40
3.000000
 50
145.481995
 51
326.442993
  0
ARC
  8
0
  6
CONTINUOUS
 62
7
 10
168.000000
 20
92.000000
 40
3.000000
 50
214.518005
 51
33.556702
  0
CIRCLE
  8
0
  6
CONTINUOUS
 62
7
 10
144.750000
 20
133.000000
 40
1.250000
  0
CIRCLE
  8
0
  6
CONTINUOUS
 62
2
 10
144.750000
 20
133.000000
 40
1.500000
  0
CIRCLE
  8
0
  6
CONTINUOUS
 62
2
 10
151.250000
 20
133.000000
 40
1.500000
  0
CIRCLE
  8
0
  6
CONTINUOUS
 62
7
 10
151.250000
 20
133.000000
 40
1.250000
  0
ARC
  8
0
  6
CONTINUOUS
 62
7
 10
99.500000
 20
143.199997
 40
4.800000
 50
303.557007
 51
351.614014
  0
ARC
  8
0
  6
CONTINUOUS
 62
7
 10
118.000000
 20
145.500000
 40
3.000000
 50
270.000000
 51
301.002991
  0
CIRCLE
  8
0
  6
CONTINUOUS
 62
7
 10
118.000000
 20
145.500000
 40
1.250000
  0
CIRCLE
  8
0
  6
CONTINUOUS
 62
2
 10
118.000000
 20
145.500000
 40
1.500000
  0
CIRCLE
  8
0
  6
CONTINUOUS
 62
2
 10
102.000000
 20
144.500000
 40
1.500000
  0
ARC
  8
0
  6
CONTINUOUS
 62
7
 10
158.000000
 20
145.500000
 40
3.000000
 50
238.996994
 51
270.000000
  0
ARC
  8
0
  6
CONTINUOUS
 62
7
 10
176.500000
 20
143.199997
 40
4.800000
 50
188.384995
 51
236.442993
  0
CIRCLE
  8
0
  6
CONTINUOUS
 62
7
 10
102.000000
 20
144.500000
 40
1.250000
  0
ARC
  8
0
  6
CONTINUOUS
 62
7
 10
119.803001
 20
142.500000
 40
0.500000
 50
90.000000
 51
121.001999
  0
ARC
  8
0
  6
CONTINUOUS
 62
7
 10
156.197006
 20
142.500000
 40
0.500001
 50
58.997601
 51
90.000000
  0
CIRCLE
  8
0
  6
CONTINUOUS
 62
2
 10
158.000000
 20
145.500000
 40
1.500000
  0
CIRCLE
  8
0
  6
CONTINUOUS
 62
7
 10
158.000000
 20
145.500000
 40
1.250000
  0
CIRCLE
  8
0
  6
CONTINUOUS
 62
2
 10
174.000000
 20
144.500000
 40
1.500000
  0
CIRCLE
  8
0
  6
CONTINUOUS
 62
7
 10
174.000000
 20
144.500000
 40
1.250000
  0
ARC
  8
0
  6
CONTINUOUS
 62
2
 10
79.699997
 20
65.550003
 40
1.500000
 50
180.000000
 51
270.000000
  0
ARC
  8
0
  6
CONTINUOUS
 62
2
 10
79.699997
 20
66.849998
 40
1.500000
 50
90.000000
 51
180.000000
  0
ARC
  8
0
  6
CONTINUOUS
 62
7
 10
216.156998
 20
63.839199
 40
1.200000
 50
79.266998
 51
80.420799
  0
ARC
  8
0
  6
CONTINUOUS
 62
7
 10
207.000000
 20
64.000000
 40
1.000000
 50
299.997986
 51
59.998100
  0
ARC
  8
0
  6
CONTINUOUS
 62
7
 10
217.000000
 20
64.000000
 40
1.000000
 50
120.000000
 51
239.998993
  0
CIRCLE
  8
0
  6
CONTINUOUS
 62
7
 10
212.000000
 20
57.500000
 40
4.450000
  0
ARC
  8
0
  6
CONTINUOUS
 62
2
 10
196.300003
 20
65.550003
 40
1.500000
 50
270.000000
 51
0.000000
  0
ARC
  8
0
  6
CONTINUOUS
 62
2
 10
196.300003
 20
66.849998
 40
1.500000
 50
0.000000
 51
90.000000
  0
ARC
  8
0
  6
CONTINUOUS
 62
7
 10
-211.156998
 20
63.839199
 40
1.200000
 50
99.579201
 51
100.733002
  0
ARC
  8
0
  6
CONTINUOUS
 62
7
 10
-202.000000
 20
64.000000
 40
1.000000
 50
120.001999
 51
240.001999
  0
ARC
  8
0
  6
CONTINUOUS
 62
7
 10
-212.000000
 20
64.000000
 40
0.999993
 50
300.001007
 51
60.000099
  0
CIRCLE
  8
0
  6
CONTINUOUS
 62
7
 10
-207.000000
 20
57.500000
 40
4.450000
  0
ARC
  8
0
  6
CONTINUOUS
 62
2
 10
-191.300003
 20
65.550003
 40
1.500000
 50
180.000000
 51
270.000000
  0
ARC
  8
0
  6
CONTINUOUS
 62
2
 10
-191.300003
 20
66.849998
 40
1.500000
 50
90.000000
 51
180.000000
  0
ARC
  8
0
  6
CONTINUOUS
 62
7
 10
-84.842598
 20
63.839199
 40
1.200000
 50
79.267303
 51
80.420502
  0
ARC
  8
0
  6
CONTINUOUS
 62
7
 10
-94.000000
 20
64.000000
 40
1.000000
 50
299.997986
 51
59.998100
  0
ARC
  8
0
  6
CONTINUOUS
 62
7
 10
-84.000000
 20
64.000000
 40
0.999998
 50
120.000000
 51
239.998001
  0
ARC
  8
0
  6
CONTINUOUS
 62
2
 10
218.699997
 20
-107.150002
 40
1.500000
 50
90.000000
 51
180.000000
  0
ARC
  8
0
  6
CONTINUOUS
 62
7
 10
207.156998
 20
-110.161003
 40
1.200000
 50
79.266998
 51
80.420799
  0
ARC
  8
0
  6
CONTINUOUS
 62
7
 10
198.000000
 20
-110.000000
 40
1.000000
 50
299.997986
 51
59.998100
  0
ARC
  8
0
  6
CONTINUOUS
 62
7
 10
208.000000
 20
-110.000000
 40
1.000000
 50
120.000000
 51
239.998993
  0
CIRCLE
  8
0
  6
CONTINUOUS
 62
7
 10
203.000000
 20
-116.500000
 40
4.450000
  0
ARC
  8
0
  6
CONTINUOUS
 62
2
 10
218.699997
 20
-108.449997
 40
1.500000
 50
180.000000
 51
270.000000
  0
ARC
  8
0
  6
CONTINUOUS
 62
7
 10
-202.156998
 20
-110.161003
 40
1.200000
 50
99.579201
 51
100.733002
  0
ARC
  8
0
  6
CONTINUOUS
 62
7
 10
-193.000000
 20
-110.000000
 40
1.000000
 50
120.001999
 51
240.001999
  0
ARC
  8
0
  6
CONTINUOUS
 62
7
 10
-203.000000
 20
-110.000000
 40
0.999996
 50
300.001007
 51
60.000099
  0
CIRCLE
  8
0
  6
CONTINUOUS
 62
7
 10
-198.000000
 20
-116.500000
 40
4.450000
  0
ARC
  8
0
  6
CONTINUOUS
 62
2
 10
-213.699997
 20
-108.449997
 40
1.500000
 50
270.000000
 51
0.000000
  0
ARC
  8
0
  6
CONTINUOUS
 62
2
 10
-213.699997
 20
-107.150002
 40
1.500000
 50
0.000000
 51
90.000000
  0
ARC
  8
0
  6
CONTINUOUS
 62
2
 10
-82.300003
 20
-107.150002
 40
1.500000
 50
90.000000
 51
180.000000
  0
ARC
  8
0
  6
CONTINUOUS
 62
7
 10
-93.842598
 20
-110.161003
 40
1.200000
 50
79.267303
 51
80.420502
  0
ARC
  8
0
  6
CONTINUOUS
 62
7
 10
-103.000000
 20
-110.000000
 40
1.000000
 50
299.997986
 51
59.998100
  0
ARC
  8
0
  6
CONTINUOUS
 62
7
 10
-93.000000
 20
-110.000000
 40
0.999998
 50
120.000000
 51
239.998001
  0
CIRCLE
  8
0
  6
CONTINUOUS
 62
7
 10
-98.000000
 20
-116.500000
 40
4.450000
  0
ARC
  8
0
  6
CONTINUOUS
 62
2
 10
-82.300003
 20
-108.449997
 40
1.500000
 50
180.000000
 51
270.000000
  0
CIRCLE
  8
0
  6
CONTINUOUS
 62
2
 10
-172.500000
 20
56.500000
 40
2.500000
  0
CIRCLE
  8
0
  6
CONTINUOUS
 62
7
 10
-172.500000
 20
56.500000
 40
2.100000
  0
CIRCLE
  8
0
  6
CONTINUOUS
 62
2
 10
-123.500000
 20
56.500000
 40
2.500000
  0
CIRCLE
  8
0
  6
CONTINUOUS
 62
7
 10
-123.500000
 20
56.500000
 40
2.100000
  0
CIRCLE
  8
0
  6
CONTINUOUS
 62
2
 10
98.500000
 20
56.500000
 40
2.500000
  0
CIRCLE
  8
0
  6
CONTINUOUS
 62
7
 10
98.500000
 20
56.500000
 40
2.100000
  0
CIRCLE
  8
0
  6
CONTINUOUS
 62
2
 10
177.500000
 20
56.500000
 40
2.500000
  0
CIRCLE
  8
0
  6
CONTINUOUS
 62
7
 10
177.500000
 20
56.500000
 40
2.100000
  0
CIRCLE
  8
0
  6
CONTINUOUS
 62
2
 10
-172.500000
 20
-117.500000
 40
2.500000
  0
CIRCLE
  8
0
  6
CONTINUOUS
 62
7
 10
-172.500000
 20
-117.500000
 40
2.100000
  0
CIRCLE
  8
0
  6
CONTINUOUS
 62
2
 10
-123.500000
 20
-117.500000
 40
2.500000
  0
CIRCLE
  8
0
  6
CONTINUOUS
 62
7
 10
-123.500000
 20
-117.500000
 40
2.100000
  0
CIRCLE
  8
0
  6
CONTINUOUS
 62
2
 10
98.500000
 20
-117.500000
 40
2.500000
  0
CIRCLE
  8
0
  6
CONTINUOUS
 62
7
 10
98.500000
 20
-117.500000
 40
2.100000
  0
CIRCLE
  8
0
  6
CONTINUOUS
 62
2
 10
177.500000
 20
-117.500000
 40
2.500000
  0
CIRCLE
  8
0
  6
CONTINUOUS
 62
7
 10
177.500000
 20
-117.500000
 40
2.100000
  0
CIRCLE
  8
0
  6
CONTINUOUS
 62
7
 10
108.000000
 20
92.000000
 40
1.650000
  0
CIRCLE
  8
0
  6
CONTINUOUS
 62
7
 10
108.000000
 20
108.000000
 40
1.650000
  0
CIRCLE
  8
0
  6
DASHED
 62
2
 10
168.000000
 20
108.000000
 40
1.650000
  0
CIRCLE
  8
0
  6
DASHED
 62
2
 10
168.000000
 20
92.000000
 40
1.650000
  0
CIRCLE
  8
0
  6
CONTINUOUS
 62
7
 10
108.000000
 20
-82.000000
 40
1.650000
  0
CIRCLE
  8
0
  6
CONTINUOUS
 62
7
 10
108.000000
 20
-66.000000
 40
1.650000
  0
CIRCLE
  8
0
  6
DASHED
 62
2
 10
168.000000
 20
-66.000000
 40
1.650000
  0
CIRCLE
  8
0
  6
DASHED
 62
2
 10
168.000000
 20
-82.000000
 40
1.650000
  0
CIRCLE
  8
0
  6
CONTINUOUS
 62
7
 10
-164.000000
 20
108.000000
 40
1.650000
  0
CIRCLE
  8
0
  6
CONTINUOUS
 62
7
 10
-164.000000
 20
92.000000
 40
1.650000
  0
CIRCLE
  8
0
  6
DASHED
 62
2
 10
-132.000000
 20
92.000000
 40
1.650000
  0
CIRCLE
  8
0
  6
DASHED
 62
2
 10
-132.000000
 20
108.000000
 40
1.650000
  0
CIRCLE
  8
0
  6
CONTINUOUS
 62
7
 10
-164.000000
 20
-66.000000
 40
1.650000
  0
CIRCLE
  8
0
  6
CONTINUOUS
 62
7
 10
-164.000000
 20
-82.000000
 40
1.650000
  0
CIRCLE
  8
0
  6
DASHED
 62
2
 10
-132.000000
 20
-82.000000
 40
1.650000
  0
CIRCLE
  8
0
  6
DASHED
 62
2
 10
-132.000000
 20
-66.000000
 40
1.650000
  0
TEXT
  8
0
 62
7
 10
202.930283
 20
183.925003
 40
6.300000
  1
Ver.1.0
 50
0.000000
 41
1.010330
 51
0.000000
  7
STANDARD
  0
TEXT
  8
0
 62
7
 10
172.714691
 20
-187.250000
 40
9.000000
  1
KOGANEI CORP.
 50
0.000000
 41
0.771524
 51
0.000000
  7
STANDARD
  0
TEXT
  8
0
 62
7
 10
-243.569717
 20
183.925003
 40
6.300000
  1
AP TABLE
 50
0.000000
 41
0.775607
 51
0.000000
  7
STANDARD
  0
TEXT
  8
0
 62
7
 10
12.274609
 20
-16.325001
 40
6.300000
  1
MODEL:APTS-GT8-20-TP-R***
 50
0.000000
 41
0.758573
 51
0.000000
  7
STANDARD
  0
TEXT
  8
0
 62
7
 10
-269.400391
 20
-16.325001
 40
6.300000
  1
MODEL:APTS-GT8-10-TP-R***
 50
0.000000
 41
0.769647
 51
0.000000
  7
STANDARD
  0
TEXT
  8
0
 62
7
 10
-269.400391
 20
158.925003
 40
6.300000
  1
MODEL:APTS-SD8-10-TP-R***
 50
0.000000
 41
0.769647
 51
0.000000
  7
STANDARD
  0
TEXT
  8
0
 62
7
 10
12.274609
 20
158.925003
 40
6.300000
  1
MODEL:APTS-SD8-20-TP-R***
 50
0.000000
 41
0.758573
 51
0.000000
  7
STANDARD
  0
ENDSEC
  0
EOF
