  0
SECTION
  2
HEADER
  0
ENDSEC
  0
SECTION
  2
TABLES
  0
TABLE
  2
LTYPE
 70
     4
  0
LTYPE
  2
CONTINUOUS
 70
    64
  3
Solid line
 72
    65
 73
     0
 40
0.000000
  0
LTYPE
  2
DASHED
 70
    64
  3
__ __ __ __ __ __ __ __ __ __ __ __ __ __ __
 72
    65
 73
     2
 40
3.500000
 49
2.000000
 49
-1.500000
  0
LTYPE
  2
CENTER
 70
    64
  3
____ _ ____ _ ____ _ ____ _ ____ _ ____ _ ____
 72
    65
 73
     4
 40
17.500000
 49
13.000000
 49
-1.500000
 49
1.500000
 49
-1.500000
  0
LTYPE
  2
PHANTOM
 70
    64
  3
_____ _ _ _____ _ _ _____ _ _ _____ _ _ ____  
 72
    65
 73
     6
 40
15.500000
 49
8.000000
 49
-1.500000
 49
1.500000
 49
-1.500000
 49
1.500000
 49
-1.500000
  0
ENDTAB
  0
TABLE
  2
LAYER
 70
     1
  0
LAYER
  2
0
 70
     0
 62
     7
  6
CONTINUOUS
  0
ENDTAB
  0
TABLE
  2
STYLE
 70
     1
  0
STYLE
  2
STANDARD
 70
     0
 40
0.000000
 41
1.000000
 50
0.000000
 71
     0
 42
0.200000
  3
txt
  4
BIGFONT
  0
ENDTAB
  0
TABLE
  2
VIEW
 70
     0
  0
ENDTAB
  0
ENDSEC
  0
SECTION
  2
BLOCKS
  0
ENDSEC
  0
SECTION
  2
ENTITIES
  0
LINE
  8
0
  6
CONTINUOUS
 62
7
 10
-281.250000
 20
195.500000
 11
282.100006
 21
195.500000
  0
LINE
  8
0
  6
CONTINUOUS
 62
7
 10
-281.250000
 20
195.500000
 11
-281.250000
 21
-195.000000
  0
LINE
  8
0
  6
CONTINUOUS
 62
7
 10
282.100006
 20
195.500000
 11
282.100006
 21
-195.000000
  0
LINE
  8
0
  6
CONTINUOUS
 62
7
 10
-281.250000
 20
-195.000000
 11
282.100006
 21
-195.000000
  0
LINE
  8
0
  6
CONTINUOUS
 62
7
 10
162.100006
 20
-175.000000
 11
162.100006
 21
-195.000000
  0
LINE
  8
0
  6
CONTINUOUS
 62
7
 10
162.100006
 20
-175.000000
 11
282.100006
 21
-175.000000
  0
LINE
  8
0
  6
CONTINUOUS
 62
7
 10
162.100006
 20
175.500000
 11
282.100006
 21
175.500000
  0
LINE
  8
0
  6
CONTINUOUS
 62
7
 10
-281.250000
 20
175.500000
 11
-161.250000
 21
175.500000
  0
LINE
  8
0
  6
CONTINUOUS
 62
7
 10
162.100006
 20
195.500000
 11
162.100006
 21
175.500000
  0
LINE
  8
0
  6
CONTINUOUS
 62
7
 10
-161.250000
 20
195.500000
 11
-161.250000
 21
175.500000
  0
LINE
  8
0
  6
CENTER
 62
2
 10
239.000000
 20
28.000000
 11
137.000000
 21
28.000000
  0
LINE
  8
0
  6
CONTINUOUS
 62
7
 10
235.699997
 20
41.500000
 11
138.000000
 21
41.500000
  0
LINE
  8
0
  6
CONTINUOUS
 62
7
 10
235.000000
 20
14.500000
 11
138.000000
 21
14.500000
  0
LINE
  8
0
  6
CONTINUOUS
 62
7
 10
235.000000
 20
21.000000
 11
146.000000
 21
21.000000
  0
LINE
  8
0
  6
CONTINUOUS
 62
7
 10
235.000000
 20
35.000000
 11
146.000000
 21
35.000000
  0
LINE
  8
0
  6
CONTINUOUS
 62
7
 10
238.000000
 20
14.000000
 11
163.649994
 21
14.000000
  0
LINE
  8
0
  6
CONTINUOUS
 62
7
 10
238.000000
 20
42.000000
 11
238.000000
 21
14.000000
  0
LINE
  8
0
  6
CONTINUOUS
 62
7
 10
146.000000
 20
41.500000
 11
146.000000
 21
14.500000
  0
LINE
  8
0
  6
CONTINUOUS
 62
7
 10
235.000000
 20
41.500000
 11
235.000000
 21
14.500000
  0
LINE
  8
0
  6
CONTINUOUS
 62
7
 10
148.000000
 20
14.500000
 11
148.000000
 21
14.000000
  0
LINE
  8
0
  6
CONTINUOUS
 62
7
 10
148.000000
 20
42.000000
 11
148.000000
 21
41.500000
  0
LINE
  8
0
  6
CONTINUOUS
 62
7
 10
238.000000
 20
42.000000
 11
235.699997
 21
42.000000
  0
LINE
  8
0
  6
CONTINUOUS
 62
7
 10
160.350006
 20
14.000000
 11
160.350006
 21
14.500000
  0
LINE
  8
0
  6
CONTINUOUS
 62
7
 10
163.649994
 20
14.000000
 11
163.649994
 21
14.500000
  0
LINE
  8
0
  6
CONTINUOUS
 62
7
 10
163.649994
 20
41.500000
 11
163.649994
 21
42.000000
  0
LINE
  8
0
  6
CONTINUOUS
 62
7
 10
160.350006
 20
41.500000
 11
160.350006
 21
42.000000
  0
LINE
  8
0
  6
CONTINUOUS
 62
7
 10
160.350006
 20
14.000000
 11
148.000000
 21
14.000000
  0
LINE
  8
0
  6
CONTINUOUS
 62
7
 10
160.350006
 20
42.000000
 11
148.000000
 21
42.000000
  0
LINE
  8
0
  6
CONTINUOUS
 62
7
 10
138.000000
 20
41.500000
 11
138.000000
 21
14.500000
  0
LINE
  8
0
  6
CENTER
 62
2
 10
155.000000
 20
40.500000
 11
155.000000
 21
35.500000
  0
LINE
  8
0
  6
CENTER
 62
2
 10
152.500000
 20
38.000000
 11
157.500000
 21
38.000000
  0
LINE
  8
0
  6
CENTER
 62
2
 10
155.000000
 20
20.500000
 11
155.000000
 21
15.500000
  0
LINE
  8
0
  6
CENTER
 62
2
 10
152.500000
 20
18.000000
 11
157.500000
 21
18.000000
  0
LINE
  8
0
  6
CENTER
 62
2
 10
221.000000
 20
40.500000
 11
221.000000
 21
35.500000
  0
LINE
  8
0
  6
CENTER
 62
2
 10
218.500000
 20
38.000000
 11
223.500000
 21
38.000000
  0
LINE
  8
0
  6
CENTER
 62
2
 10
187.000000
 20
41.099998
 11
187.000000
 21
35.900002
  0
LINE
  8
0
  6
CENTER
 62
2
 10
184.399994
 20
38.500000
 11
189.600006
 21
38.500000
  0
LINE
  8
0
  6
CENTER
 62
2
 10
221.000000
 20
20.500000
 11
221.000000
 21
15.500000
  0
LINE
  8
0
  6
CENTER
 62
2
 10
218.500000
 20
18.000000
 11
223.500000
 21
18.000000
  0
LINE
  8
0
  6
CENTER
 62
2
 10
203.000000
 20
40.500000
 11
203.000000
 21
35.500000
  0
LINE
  8
0
  6
CENTER
 62
2
 10
200.500000
 20
38.000000
 11
205.500000
 21
38.000000
  0
LINE
  8
0
  6
CENTER
 62
2
 10
203.000000
 20
20.500000
 11
203.000000
 21
15.500000
  0
LINE
  8
0
  6
CENTER
 62
2
 10
200.500000
 20
18.000000
 11
205.500000
 21
18.000000
  0
LINE
  8
0
  6
CONTINUOUS
 62
7
 10
236.199997
 20
14.700000
 11
235.000000
 21
14.700000
  0
LINE
  8
0
  6
CONTINUOUS
 62
7
 10
236.199997
 20
19.250000
 11
236.199997
 21
14.700000
  0
LINE
  8
0
  6
CONTINUOUS
 62
7
 10
236.199997
 20
33.250000
 11
236.199997
 21
22.750000
  0
LINE
  8
0
  6
CONTINUOUS
 62
7
 10
235.600006
 20
33.250000
 11
235.600006
 21
36.750000
  0
LINE
  8
0
  6
CONTINUOUS
 62
7
 10
235.600006
 20
33.250000
 11
236.600006
 21
33.250000
  0
LINE
  8
0
  6
CONTINUOUS
 62
7
 10
236.600006
 20
33.250000
 11
236.600006
 21
36.750000
  0
LINE
  8
0
  6
CONTINUOUS
 62
7
 10
235.600006
 20
36.750000
 11
236.600006
 21
36.750000
  0
LINE
  8
0
  6
CONTINUOUS
 62
7
 10
236.199997
 20
36.750000
 11
236.199997
 21
41.299999
  0
LINE
  8
0
  6
CONTINUOUS
 62
7
 10
236.199997
 20
41.299999
 11
235.000000
 21
41.299999
  0
LINE
  8
0
  6
CONTINUOUS
 62
7
 10
150.100006
 20
42.599998
 11
150.100006
 21
42.000000
  0
LINE
  8
0
  6
CONTINUOUS
 62
7
 10
235.600006
 20
22.750000
 11
235.600006
 21
19.250000
  0
LINE
  8
0
  6
CONTINUOUS
 62
7
 10
235.600006
 20
22.750000
 11
236.600006
 21
22.750000
  0
LINE
  8
0
  6
CONTINUOUS
 62
7
 10
236.600006
 20
19.250000
 11
236.600006
 21
22.750000
  0
LINE
  8
0
  6
CONTINUOUS
 62
7
 10
235.600006
 20
19.250000
 11
236.600006
 21
19.250000
  0
LINE
  8
0
  6
DASHED
 62
2
 10
163.649994
 20
17.500000
 11
163.649994
 21
14.500000
  0
LINE
  8
0
  6
DASHED
 62
2
 10
160.350006
 20
17.500000
 11
160.350006
 21
14.500000
  0
LINE
  8
0
  6
DASHED
 62
2
 10
163.649994
 20
38.500000
 11
163.649994
 21
41.500000
  0
LINE
  8
0
  6
DASHED
 62
2
 10
160.350006
 20
38.500000
 11
160.350006
 21
41.500000
  0
LINE
  8
0
  6
CENTER
 62
2
 10
224.000000
 20
42.500000
 11
224.000000
 21
34.500000
  0
LINE
  8
0
  6
CENTER
 62
2
 10
220.000000
 20
38.500000
 11
228.000000
 21
38.500000
  0
LINE
  8
0
  6
CENTER
 62
2
 10
224.000000
 20
21.500000
 11
224.000000
 21
13.500000
  0
LINE
  8
0
  6
CENTER
 62
2
 10
220.000000
 20
17.500000
 11
228.000000
 21
17.500000
  0
LINE
  8
0
  6
CENTER
 62
2
 10
162.000000
 20
21.500000
 11
162.000000
 21
13.500000
  0
LINE
  8
0
  6
CENTER
 62
2
 10
158.000000
 20
17.500000
 11
166.000000
 21
17.500000
  0
LINE
  8
0
  6
CENTER
 62
2
 10
162.000000
 20
42.500000
 11
162.000000
 21
34.500000
  0
LINE
  8
0
  6
CENTER
 62
2
 10
158.000000
 20
38.500000
 11
166.000000
 21
38.500000
  0
LINE
  8
0
  6
CENTER
 62
2
 10
154.000000
 20
45.000099
 11
154.000000
 21
41.000000
  0
LINE
  8
0
  6
CENTER
 62
2
 10
232.000000
 20
45.000099
 11
232.000000
 21
41.000000
  0
LINE
  8
0
  6
CONTINUOUS
 62
7
 10
158.000000
 20
42.599998
 11
158.000000
 21
42.000000
  0
LINE
  8
0
  6
CONTINUOUS
 62
7
 10
150.500000
 20
44.000099
 11
150.500000
 21
42.599998
  0
LINE
  8
0
  6
CONTINUOUS
 62
7
 10
157.500000
 20
44.000099
 11
157.500000
 21
42.599998
  0
LINE
  8
0
  6
CONTINUOUS
 62
7
 10
158.000000
 20
42.599998
 11
150.100006
 21
42.599998
  0
LINE
  8
0
  6
CENTER
 62
2
 10
136.000000
 20
38.000000
 11
140.000000
 21
38.000000
  0
LINE
  8
0
  6
CENTER
 62
2
 10
136.000000
 20
18.000000
 11
140.000000
 21
18.000000
  0
LINE
  8
0
  6
CONTINUOUS
 62
7
 10
122.000000
 20
41.500000
 11
122.000000
 21
35.000000
  0
LINE
  8
0
  6
CONTINUOUS
 62
7
 10
121.699997
 20
34.700001
 11
121.699997
 21
21.299999
  0
LINE
  8
0
  6
CONTINUOUS
 62
7
 10
122.000000
 20
14.500000
 11
122.000000
 21
21.000000
  0
LINE
  8
0
  6
CONTINUOUS
 62
7
 10
122.000000
 20
14.500000
 11
103.000000
 21
14.500000
  0
LINE
  8
0
  6
CONTINUOUS
 62
7
 10
122.000000
 20
41.500000
 11
103.000000
 21
41.500000
  0
LINE
  8
0
  6
CONTINUOUS
 62
7
 10
122.000000
 20
35.000000
 11
121.699997
 21
34.700100
  0
LINE
  8
0
  6
CONTINUOUS
 62
7
 10
122.000000
 20
21.000000
 11
121.699997
 21
21.299999
  0
LINE
  8
0
  6
CONTINUOUS
 62
7
 10
111.500000
 20
14.000000
 11
111.500000
 21
14.500000
  0
LINE
  8
0
  6
CONTINUOUS
 62
7
 10
102.000000
 20
14.000000
 11
102.000000
 21
42.000000
  0
LINE
  8
0
  6
CONTINUOUS
 62
7
 10
111.500000
 20
14.000000
 11
102.000000
 21
14.000000
  0
LINE
  8
0
  6
CONTINUOUS
 62
7
 10
103.000000
 20
14.500000
 11
103.000000
 21
41.500000
  0
LINE
  8
0
  6
CONTINUOUS
 62
7
 10
121.500000
 20
41.500000
 11
121.500000
 21
14.500000
  0
LINE
  8
0
  6
CONTINUOUS
 62
7
 10
121.500000
 20
42.000000
 11
102.000000
 21
42.000000
  0
LINE
  8
0
  6
CONTINUOUS
 62
7
 10
111.500000
 20
42.000000
 11
111.500000
 21
41.500000
  0
LINE
  8
0
  6
CONTINUOUS
 62
7
 10
103.459000
 20
45.500000
 11
103.459000
 21
42.599998
  0
LINE
  8
0
  6
CONTINUOUS
 62
7
 10
105.478996
 20
45.500000
 11
105.478996
 21
42.599998
  0
LINE
  8
0
  6
CONTINUOUS
 62
7
 10
109.521004
 20
45.500000
 11
109.521004
 21
42.599998
  0
LINE
  8
0
  6
CONTINUOUS
 62
7
 10
111.541000
 20
45.500000
 11
103.459000
 21
45.500000
  0
LINE
  8
0
  6
CONTINUOUS
 62
7
 10
111.541000
 20
45.500000
 11
111.541000
 21
42.599998
  0
LINE
  8
0
  6
CONTINUOUS
 62
7
 10
111.541000
 20
42.599998
 11
103.459000
 21
42.599998
  0
LINE
  8
0
  6
CONTINUOUS
 62
7
 10
111.400002
 20
42.599998
 11
111.400002
 21
42.000000
  0
LINE
  8
0
  6
CONTINUOUS
 62
7
 10
103.599998
 20
42.599998
 11
103.599998
 21
42.000000
  0
LINE
  8
0
  6
CENTER
 62
2
 10
109.000000
 20
41.000000
 11
109.000000
 21
15.000000
  0
LINE
  8
0
  6
CENTER
 62
2
 10
101.000000
 20
28.000000
 11
123.000000
 21
28.000000
  0
LINE
  8
0
  6
CENTER
 62
2
 10
118.000000
 20
31.000000
 11
118.000000
 21
25.000000
  0
LINE
  8
0
  6
CENTER
 62
2
 10
106.000000
 20
38.000000
 11
122.000000
 21
38.000000
  0
LINE
  8
0
  6
CENTER
 62
2
 10
118.000000
 20
42.000000
 11
118.000000
 21
34.000000
  0
LINE
  8
0
  6
CENTER
 62
2
 10
106.000000
 20
18.000000
 11
122.000000
 21
18.000000
  0
LINE
  8
0
  6
CENTER
 62
2
 10
118.000000
 20
22.000000
 11
118.000000
 21
14.000000
  0
LINE
  8
0
  6
CENTER
 62
2
 10
107.500000
 20
46.500000
 11
107.500000
 21
41.000000
  0
LINE
  8
0
  6
CONTINUOUS
 62
7
 10
265.500000
 20
14.000000
 11
275.000000
 21
14.000000
  0
LINE
  8
0
  6
CENTER
 62
2
 10
268.000000
 20
34.400002
 11
268.000000
 21
21.600000
  0
LINE
  8
0
  6
CENTER
 62
2
 10
254.000000
 20
28.000000
 11
276.000000
 21
28.000000
  0
LINE
  8
0
  6
CONTINUOUS
 62
7
 10
259.500000
 20
34.000000
 11
259.500000
 21
22.000000
  0
LINE
  8
0
  6
CONTINUOUS
 62
7
 10
262.709015
 20
34.000000
 11
265.500000
 21
34.000000
  0
LINE
  8
0
  6
CONTINUOUS
 62
7
 10
259.500000
 20
34.000000
 11
260.290985
 21
34.000000
  0
LINE
  8
0
  6
CONTINUOUS
 62
7
 10
262.709015
 20
22.000000
 11
265.500000
 21
22.000000
  0
LINE
  8
0
  6
CONTINUOUS
 62
7
 10
259.500000
 20
22.000000
 11
260.290985
 21
22.000000
  0
LINE
  8
0
  6
CONTINUOUS
 62
7
 10
265.500000
 20
14.000000
 11
265.500000
 21
22.000000
  0
LINE
  8
0
  6
CONTINUOUS
 62
7
 10
275.000000
 20
14.000000
 11
275.000000
 21
42.000000
  0
LINE
  8
0
  6
CONTINUOUS
 62
7
 10
265.500000
 20
42.000000
 11
265.500000
 21
34.000000
  0
LINE
  8
0
  6
CONTINUOUS
 62
7
 10
255.300003
 20
34.700001
 11
255.300003
 21
21.299999
  0
LINE
  8
0
  6
CONTINUOUS
 62
7
 10
255.000000
 20
14.500000
 11
255.000000
 21
21.000000
  0
LINE
  8
0
  6
CONTINUOUS
 62
7
 10
255.000000
 20
14.500000
 11
265.500000
 21
14.500000
  0
LINE
  8
0
  6
CONTINUOUS
 62
7
 10
265.000000
 20
14.500000
 11
265.000000
 21
22.000000
  0
LINE
  8
0
  6
CONTINUOUS
 62
7
 10
255.000000
 20
21.000099
 11
255.300003
 21
21.300100
  0
LINE
  8
0
  6
CONTINUOUS
 62
7
 10
255.000000
 20
41.500000
 11
255.000000
 21
35.000000
  0
LINE
  8
0
  6
CONTINUOUS
 62
7
 10
255.000000
 20
35.000000
 11
255.300003
 21
34.699902
  0
LINE
  8
0
  6
CONTINUOUS
 62
7
 10
265.000000
 20
41.500000
 11
265.000000
 21
34.000000
  0
LINE
  8
0
  6
CONTINUOUS
 62
7
 10
255.000000
 20
41.500000
 11
265.500000
 21
41.500000
  0
LINE
  8
0
  6
CONTINUOUS
 62
7
 10
273.540985
 20
45.500000
 11
265.459015
 21
45.500000
  0
LINE
  8
0
  6
CONTINUOUS
 62
7
 10
265.459015
 20
45.500000
 11
265.459015
 21
42.599998
  0
LINE
  8
0
  6
CONTINUOUS
 62
7
 10
267.479004
 20
45.500000
 11
267.479004
 21
42.599998
  0
LINE
  8
0
  6
CONTINUOUS
 62
7
 10
271.520996
 20
45.500000
 11
271.520996
 21
42.599998
  0
LINE
  8
0
  6
CONTINUOUS
 62
7
 10
273.540985
 20
45.500000
 11
273.540985
 21
42.599998
  0
LINE
  8
0
  6
CONTINUOUS
 62
7
 10
273.540985
 20
42.599998
 11
265.459015
 21
42.599998
  0
LINE
  8
0
  6
CONTINUOUS
 62
7
 10
273.399994
 20
42.599998
 11
273.399994
 21
42.000000
  0
LINE
  8
0
  6
CONTINUOUS
 62
7
 10
265.600006
 20
42.599998
 11
265.600006
 21
42.000000
  0
LINE
  8
0
  6
CENTER
 62
2
 10
269.500000
 20
46.500000
 11
269.500000
 21
41.000000
  0
LINE
  8
0
  6
CENTER
 62
2
 10
273.000000
 20
38.500000
 11
277.000000
 21
38.500000
  0
LINE
  8
0
  6
CENTER
 62
2
 10
273.000000
 20
17.500000
 11
277.000000
 21
17.500000
  0
LINE
  8
0
  6
CENTER
 62
2
 10
253.000000
 20
38.000000
 11
257.000000
 21
38.000000
  0
LINE
  8
0
  6
CENTER
 62
2
 10
253.000000
 20
18.000000
 11
257.000000
 21
18.000000
  0
LINE
  8
0
  6
CONTINUOUS
 62
7
 10
146.000000
 20
91.500000
 11
146.000000
 21
83.000000
  0
LINE
  8
0
  6
CONTINUOUS
 62
7
 10
138.000000
 20
91.500000
 11
138.000000
 21
73.000000
  0
LINE
  8
0
  6
CONTINUOUS
 62
7
 10
146.000000
 20
89.500000
 11
148.000000
 21
89.500000
  0
LINE
  8
0
  6
CONTINUOUS
 62
7
 10
138.000000
 20
91.500000
 11
146.000000
 21
91.500000
  0
LINE
  8
0
  6
CONTINUOUS
 62
7
 10
138.000000
 20
73.000000
 11
146.000000
 21
73.000000
  0
LINE
  8
0
  6
CONTINUOUS
 62
7
 10
146.000000
 20
72.500000
 11
235.000000
 21
72.500000
  0
LINE
  8
0
  6
CONTINUOUS
 62
7
 10
148.000000
 20
92.500000
 11
148.000000
 21
83.000000
  0
LINE
  8
0
  6
CONTINUOUS
 62
7
 10
238.000000
 20
92.500000
 11
238.000000
 21
77.000000
  0
LINE
  8
0
  6
CONTINUOUS
 62
7
 10
148.000000
 20
92.500000
 11
238.000000
 21
92.500000
  0
LINE
  8
0
  6
CONTINUOUS
 62
7
 10
227.199997
 20
87.000000
 11
221.500000
 21
87.000000
  0
LINE
  8
0
  6
CONTINUOUS
 62
7
 10
144.199997
 20
83.000000
 11
162.500000
 21
83.000000
  0
LINE
  8
0
  6
DASHED
 62
2
 10
177.000000
 20
88.500000
 11
171.000000
 21
88.500000
  0
LINE
  8
0
  6
CONTINUOUS
 62
7
 10
175.199997
 20
82.500000
 11
236.199997
 21
82.500000
  0
LINE
  8
0
  6
CONTINUOUS
 62
7
 10
158.800003
 20
87.000000
 11
164.500000
 21
87.000000
  0
LINE
  8
0
  6
CONTINUOUS
 62
7
 10
236.600006
 20
77.000000
 11
238.000000
 21
77.000000
  0
LINE
  8
0
  6
CONTINUOUS
 62
7
 10
236.199997
 20
77.903397
 11
238.000000
 21
77.903397
  0
LINE
  8
0
  6
CONTINUOUS
 62
7
 10
236.199997
 20
80.096603
 11
238.000000
 21
80.096603
  0
LINE
  8
0
  6
CONTINUOUS
 62
7
 10
235.000000
 20
82.500000
 11
235.000000
 21
82.000000
  0
LINE
  8
0
  6
CONTINUOUS
 62
7
 10
160.350006
 20
92.500000
 11
160.350006
 21
87.000000
  0
LINE
  8
0
  6
DASHED
 62
2
 10
159.000000
 20
87.500000
 11
160.350006
 21
87.500000
  0
LINE
  8
0
  6
CENTER
 62
2
 10
162.000000
 20
93.500000
 11
162.000000
 21
86.000000
  0
LINE
  8
0
  6
CONTINUOUS
 62
7
 10
163.649994
 20
92.500000
 11
163.649994
 21
87.000000
  0
LINE
  8
0
  6
CONTINUOUS
 62
7
 10
154.000000
 20
82.958603
 11
157.500000
 21
84.979301
  0
LINE
  8
0
  6
CONTINUOUS
 62
7
 10
157.500000
 20
89.020798
 11
157.500000
 21
84.979301
  0
LINE
  8
0
  6
CONTINUOUS
 62
7
 10
154.000000
 20
91.041397
 11
157.500000
 21
89.020699
  0
LINE
  8
0
  6
CONTINUOUS
 62
7
 10
150.500000
 20
89.020798
 11
154.000000
 21
91.041496
  0
LINE
  8
0
  6
CONTINUOUS
 62
7
 10
150.500000
 20
84.979301
 11
150.500000
 21
89.020798
  0
LINE
  8
0
  6
CONTINUOUS
 62
7
 10
157.500000
 20
87.500000
 11
150.500000
 21
87.500000
  0
LINE
  8
0
  6
CONTINUOUS
 62
7
 10
157.500000
 20
86.500000
 11
150.500000
 21
86.500000
  0
LINE
  8
0
  6
CONTINUOUS
 62
7
 10
150.500000
 20
84.979202
 11
154.000000
 21
82.958603
  0
LINE
  8
0
  6
CONTINUOUS
 62
7
 10
232.000000
 20
82.958603
 11
235.500000
 21
84.979301
  0
LINE
  8
0
  6
CONTINUOUS
 62
7
 10
235.500000
 20
89.020798
 11
235.500000
 21
84.979301
  0
LINE
  8
0
  6
CONTINUOUS
 62
7
 10
232.000000
 20
91.041397
 11
235.500000
 21
89.020699
  0
LINE
  8
0
  6
CONTINUOUS
 62
7
 10
228.500000
 20
89.020798
 11
232.000000
 21
91.041496
  0
LINE
  8
0
  6
CONTINUOUS
 62
7
 10
228.500000
 20
84.979301
 11
228.500000
 21
89.020798
  0
LINE
  8
0
  6
CONTINUOUS
 62
7
 10
235.500000
 20
87.500000
 11
228.500000
 21
87.500000
  0
LINE
  8
0
  6
CONTINUOUS
 62
7
 10
235.500000
 20
86.500000
 11
228.500000
 21
86.500000
  0
LINE
  8
0
  6
CONTINUOUS
 62
7
 10
228.500000
 20
84.979202
 11
232.000000
 21
82.958504
  0
LINE
  8
0
  6
CONTINUOUS
 62
7
 10
235.000000
 20
73.000000
 11
236.199997
 21
73.000000
  0
LINE
  8
0
  6
CONTINUOUS
 62
7
 10
236.199997
 20
82.500000
 11
236.199997
 21
73.000000
  0
LINE
  8
0
  6
CONTINUOUS
 62
7
 10
236.600006
 20
77.250000
 11
236.600006
 21
73.750000
  0
LINE
  8
0
  6
CONTINUOUS
 62
7
 10
236.199997
 20
73.750000
 11
236.600006
 21
73.750000
  0
LINE
  8
0
  6
CONTINUOUS
 62
7
 10
236.199997
 20
77.250000
 11
236.600006
 21
77.250000
  0
LINE
  8
0
  6
CENTER
 62
2
 10
232.000000
 20
92.041496
 11
232.000000
 21
81.958603
  0
LINE
  8
0
  6
CENTER
 62
2
 10
226.959000
 20
87.000000
 11
237.041000
 21
87.000000
  0
LINE
  8
0
  6
CENTER
 62
2
 10
154.000000
 20
92.041496
 11
154.000000
 21
81.958603
  0
LINE
  8
0
  6
CENTER
 62
2
 10
148.959000
 20
87.000000
 11
159.041000
 21
87.000000
  0
LINE
  8
0
  6
CENTER
 62
2
 10
217.850006
 20
78.199997
 11
217.850006
 21
74.199997
  0
LINE
  8
0
  6
CENTER
 62
2
 10
215.850006
 20
76.199997
 11
219.850006
 21
76.199997
  0
LINE
  8
0
  6
CENTER
 62
2
 10
174.000000
 20
93.500000
 11
174.000000
 21
87.500000
  0
LINE
  8
0
  6
DASHED
 62
2
 10
172.000000
 20
90.900002
 11
172.000000
 21
88.500000
  0
LINE
  8
0
  6
DASHED
 62
2
 10
176.000000
 20
90.900002
 11
176.000000
 21
88.500000
  0
LINE
  8
0
  6
DASHED
 62
2
 10
171.500000
 20
92.500000
 11
171.500000
 21
90.900002
  0
LINE
  8
0
  6
DASHED
 62
2
 10
176.500000
 20
92.500000
 11
176.500000
 21
90.900002
  0
LINE
  8
0
  6
DASHED
 62
2
 10
222.000000
 20
92.500000
 11
222.000000
 21
87.500000
  0
LINE
  8
0
  6
CENTER
 62
2
 10
224.000000
 20
93.500000
 11
224.000000
 21
86.000000
  0
LINE
  8
0
  6
DASHED
 62
2
 10
221.000000
 20
87.500000
 11
221.000000
 21
86.992500
  0
LINE
  8
0
  6
DASHED
 62
2
 10
221.000000
 20
87.500000
 11
227.000000
 21
87.500000
  0
LINE
  8
0
  6
DASHED
 62
2
 10
227.000000
 20
87.500000
 11
227.000000
 21
87.000000
  0
LINE
  8
0
  6
DASHED
 62
2
 10
226.000000
 20
92.500000
 11
226.000000
 21
87.500000
  0
LINE
  8
0
  6
CENTER
 62
2
 10
155.000000
 20
74.500000
 11
155.000000
 21
70.500000
  0
LINE
  8
0
  6
CENTER
 62
2
 10
173.000000
 20
74.500000
 11
173.000000
 21
70.500000
  0
LINE
  8
0
  6
CENTER
 62
2
 10
221.000000
 20
74.500000
 11
221.000000
 21
70.500000
  0
LINE
  8
0
  6
CENTER
 62
2
 10
136.000000
 20
85.500000
 11
140.000000
 21
85.500000
  0
LINE
  8
0
  6
CENTER
 62
2
 10
136.000000
 20
76.500000
 11
140.000000
 21
76.500000
  0
LINE
  8
0
  6
DASHED
 62
2
 10
159.000000
 20
87.500000
 11
159.000000
 21
87.000000
  0
LINE
  8
0
  6
DASHED
 62
2
 10
165.000000
 20
87.500000
 11
165.000000
 21
87.000000
  0
LINE
  8
0
  6
CONTINUOUS
 62
7
 10
160.350006
 20
87.500000
 11
163.649994
 21
87.500000
  0
LINE
  8
0
  6
DASHED
 62
2
 10
163.649994
 20
87.500000
 11
165.000000
 21
87.500000
  0
LINE
  8
0
  6
CONTINUOUS
 62
7
 10
146.000000
 20
-92.000000
 11
146.000000
 21
-65.000000
  0
LINE
  8
0
  6
CONTINUOUS
 62
7
 10
163.649994
 20
-92.000000
 11
160.350006
 21
-92.000000
  0
LINE
  8
0
  6
CONTINUOUS
 62
7
 10
163.649994
 20
-65.000000
 11
160.350006
 21
-65.000000
  0
LINE
  8
0
  6
CONTINUOUS
 62
7
 10
148.000000
 20
-92.500000
 11
148.000000
 21
-64.500000
  0
LINE
  8
0
  6
CONTINUOUS
 62
7
 10
238.000000
 20
-64.500000
 11
163.649994
 21
-64.500000
  0
LINE
  8
0
  6
CONTINUOUS
 62
7
 10
238.000000
 20
-92.500000
 11
238.000000
 21
-64.500000
  0
LINE
  8
0
  6
CENTER
 62
2
 10
239.000000
 20
-78.500000
 11
137.000000
 21
-78.500000
  0
LINE
  8
0
  6
CONTINUOUS
 62
7
 10
238.000000
 20
-92.500000
 11
163.649994
 21
-92.500000
  0
LINE
  8
0
  6
CONTINUOUS
 62
7
 10
160.350006
 20
-64.500000
 11
148.000000
 21
-64.500000
  0
LINE
  8
0
  6
CONTINUOUS
 62
7
 10
160.350006
 20
-92.500000
 11
148.000000
 21
-92.500000
  0
LINE
  8
0
  6
CONTINUOUS
 62
7
 10
148.000000
 20
-65.000000
 11
138.000000
 21
-65.000000
  0
LINE
  8
0
  6
CONTINUOUS
 62
7
 10
148.000000
 20
-92.000000
 11
138.000000
 21
-92.000000
  0
LINE
  8
0
  6
CONTINUOUS
 62
7
 10
138.000000
 20
-92.000000
 11
138.000000
 21
-65.000000
  0
LINE
  8
0
  6
CONTINUOUS
 62
7
 10
148.000000
 20
-82.500000
 11
146.000000
 21
-82.500000
  0
LINE
  8
0
  6
CONTINUOUS
 62
7
 10
148.000000
 20
-74.500000
 11
146.000000
 21
-74.500000
  0
LINE
  8
0
  6
CONTINUOUS
 62
7
 10
157.500000
 20
-96.000000
 11
150.500000
 21
-96.000000
  0
LINE
  8
0
  6
CONTINUOUS
 62
7
 10
235.500000
 20
-96.000000
 11
228.500000
 21
-96.000000
  0
LINE
  8
0
  6
CENTER
 62
2
 10
162.000000
 20
-65.349998
 11
162.000000
 21
-70.650002
  0
LINE
  8
0
  6
CENTER
 62
2
 10
159.350006
 20
-68.000000
 11
164.649994
 21
-68.000000
  0
LINE
  8
0
  6
CENTER
 62
2
 10
162.000000
 20
-86.349998
 11
162.000000
 21
-91.650002
  0
LINE
  8
0
  6
CENTER
 62
2
 10
159.350006
 20
-89.000000
 11
164.649994
 21
-89.000000
  0
LINE
  8
0
  6
CENTER
 62
2
 10
174.000000
 20
-85.500000
 11
174.000000
 21
-92.500000
  0
LINE
  8
0
  6
CENTER
 62
2
 10
170.500000
 20
-89.000000
 11
177.500000
 21
-89.000000
  0
LINE
  8
0
  6
CENTER
 62
2
 10
174.000000
 20
-64.500000
 11
174.000000
 21
-71.500000
  0
LINE
  8
0
  6
CENTER
 62
2
 10
170.500000
 20
-68.000000
 11
177.500000
 21
-68.000000
  0
LINE
  8
0
  6
CENTER
 62
2
 10
224.000000
 20
-65.000000
 11
224.000000
 21
-71.000000
  0
LINE
  8
0
  6
CENTER
 62
2
 10
221.000000
 20
-68.000000
 11
227.000000
 21
-68.000000
  0
LINE
  8
0
  6
CENTER
 62
2
 10
224.000000
 20
-86.000000
 11
224.000000
 21
-92.000000
  0
LINE
  8
0
  6
CENTER
 62
2
 10
221.000000
 20
-89.000000
 11
227.000000
 21
-89.000000
  0
LINE
  8
0
  6
CONTINUOUS
 62
7
 10
160.350006
 20
-64.500000
 11
160.350006
 21
-68.000000
  0
LINE
  8
0
  6
CONTINUOUS
 62
7
 10
163.649994
 20
-64.500000
 11
163.649994
 21
-68.000000
  0
LINE
  8
0
  6
CONTINUOUS
 62
7
 10
160.350006
 20
-89.000000
 11
160.350006
 21
-92.500000
  0
LINE
  8
0
  6
CONTINUOUS
 62
7
 10
163.649994
 20
-89.000000
 11
163.649994
 21
-92.500000
  0
LINE
  8
0
  6
CENTER
 62
2
 10
154.000000
 20
-91.500000
 11
154.000000
 21
-97.000000
  0
LINE
  8
0
  6
CONTINUOUS
 62
7
 10
157.899994
 20
-93.099998
 11
150.100006
 21
-93.099998
  0
LINE
  8
0
  6
CONTINUOUS
 62
7
 10
150.100006
 20
-92.500000
 11
150.100006
 21
-93.099998
  0
LINE
  8
0
  6
CONTINUOUS
 62
7
 10
157.899994
 20
-92.500000
 11
157.899994
 21
-93.099998
  0
LINE
  8
0
  6
CONTINUOUS
 62
7
 10
157.500000
 20
-93.099998
 11
157.500000
 21
-96.000000
  0
LINE
  8
0
  6
CONTINUOUS
 62
7
 10
150.500000
 20
-93.099998
 11
150.500000
 21
-96.000000
  0
LINE
  8
0
  6
CENTER
 62
2
 10
232.000000
 20
-97.000000
 11
232.000000
 21
-91.500000
  0
LINE
  8
0
  6
CONTINUOUS
 62
7
 10
235.899994
 20
-93.099998
 11
228.100006
 21
-93.099998
  0
LINE
  8
0
  6
CONTINUOUS
 62
7
 10
235.899994
 20
-93.099998
 11
235.899994
 21
-92.500000
  0
LINE
  8
0
  6
CONTINUOUS
 62
7
 10
228.100006
 20
-93.099998
 11
228.100006
 21
-92.500000
  0
LINE
  8
0
  6
CONTINUOUS
 62
7
 10
235.500000
 20
-96.000000
 11
235.500000
 21
-93.099998
  0
LINE
  8
0
  6
CONTINUOUS
 62
7
 10
228.500000
 20
-96.000000
 11
228.500000
 21
-93.099998
  0
LINE
  8
0
  6
CONTINUOUS
 62
7
 10
-34.000000
 20
-92.000000
 11
-34.000000
 21
-65.000000
  0
LINE
  8
0
  6
CONTINUOUS
 62
7
 10
-16.350000
 20
-92.000000
 11
-19.650000
 21
-92.000000
  0
LINE
  8
0
  6
CONTINUOUS
 62
7
 10
-16.350000
 20
-65.000000
 11
-19.650000
 21
-65.000000
  0
LINE
  8
0
  6
CONTINUOUS
 62
7
 10
-32.000000
 20
-92.500000
 11
-32.000000
 21
-64.500000
  0
LINE
  8
0
  6
CONTINUOUS
 62
7
 10
43.000000
 20
-64.500000
 11
-16.350000
 21
-64.500000
  0
LINE
  8
0
  6
CONTINUOUS
 62
7
 10
43.000000
 20
-92.500000
 11
43.000000
 21
-64.500000
  0
LINE
  8
0
  6
CENTER
 62
2
 10
44.000000
 20
-78.500000
 11
-43.000000
 21
-78.500000
  0
LINE
  8
0
  6
CONTINUOUS
 62
7
 10
43.000000
 20
-92.500000
 11
-16.350000
 21
-92.500000
  0
LINE
  8
0
  6
CONTINUOUS
 62
7
 10
-19.650000
 20
-64.500000
 11
-32.000000
 21
-64.500000
  0
LINE
  8
0
  6
CONTINUOUS
 62
7
 10
-19.650000
 20
-92.500000
 11
-32.000000
 21
-92.500000
  0
LINE
  8
0
  6
CONTINUOUS
 62
7
 10
-32.000000
 20
-65.000000
 11
-42.000000
 21
-65.000000
  0
LINE
  8
0
  6
CONTINUOUS
 62
7
 10
-32.000000
 20
-92.000000
 11
-42.000000
 21
-92.000000
  0
LINE
  8
0
  6
CONTINUOUS
 62
7
 10
-42.000000
 20
-92.000000
 11
-42.000000
 21
-65.000000
  0
LINE
  8
0
  6
CONTINUOUS
 62
7
 10
-32.000000
 20
-82.500000
 11
-34.000000
 21
-82.500000
  0
LINE
  8
0
  6
CONTINUOUS
 62
7
 10
-32.000000
 20
-74.500000
 11
-34.000000
 21
-74.500000
  0
LINE
  8
0
  6
CONTINUOUS
 62
7
 10
-22.500000
 20
-96.000000
 11
-29.500000
 21
-96.000000
  0
LINE
  8
0
  6
CONTINUOUS
 62
7
 10
40.500000
 20
-96.000000
 11
33.500000
 21
-96.000000
  0
LINE
  8
0
  6
CENTER
 62
2
 10
-18.000000
 20
-65.349998
 11
-18.000000
 21
-70.650002
  0
LINE
  8
0
  6
CENTER
 62
2
 10
-20.650000
 20
-68.000000
 11
-15.350000
 21
-68.000000
  0
LINE
  8
0
  6
CENTER
 62
2
 10
-18.000000
 20
-86.349998
 11
-18.000000
 21
-91.650002
  0
LINE
  8
0
  6
CENTER
 62
2
 10
-20.650000
 20
-89.000000
 11
-15.350000
 21
-89.000000
  0
LINE
  8
0
  6
CENTER
 62
2
 10
-6.000000
 20
-85.500000
 11
-6.000000
 21
-92.500000
  0
LINE
  8
0
  6
CENTER
 62
2
 10
-9.500000
 20
-89.000000
 11
-2.500000
 21
-89.000000
  0
LINE
  8
0
  6
CENTER
 62
2
 10
-6.000000
 20
-64.500000
 11
-6.000000
 21
-71.500000
  0
LINE
  8
0
  6
CENTER
 62
2
 10
-9.500000
 20
-68.000000
 11
-2.500000
 21
-68.000000
  0
LINE
  8
0
  6
CENTER
 62
2
 10
29.000000
 20
-65.000000
 11
29.000000
 21
-71.000000
  0
LINE
  8
0
  6
CENTER
 62
2
 10
26.000000
 20
-68.000000
 11
32.000000
 21
-68.000000
  0
LINE
  8
0
  6
CENTER
 62
2
 10
29.000000
 20
-86.000000
 11
29.000000
 21
-92.000000
  0
LINE
  8
0
  6
CENTER
 62
2
 10
26.000000
 20
-89.000000
 11
32.000000
 21
-89.000000
  0
LINE
  8
0
  6
CONTINUOUS
 62
7
 10
-19.650000
 20
-64.500000
 11
-19.650000
 21
-68.000000
  0
LINE
  8
0
  6
CONTINUOUS
 62
7
 10
-16.350000
 20
-64.500000
 11
-16.350000
 21
-68.000000
  0
LINE
  8
0
  6
CONTINUOUS
 62
7
 10
-19.650000
 20
-89.000000
 11
-19.650000
 21
-92.500000
  0
LINE
  8
0
  6
CONTINUOUS
 62
7
 10
-16.350000
 20
-89.000000
 11
-16.350000
 21
-92.500000
  0
LINE
  8
0
  6
CENTER
 62
2
 10
-26.000000
 20
-91.500000
 11
-26.000000
 21
-97.000000
  0
LINE
  8
0
  6
CONTINUOUS
 62
7
 10
-22.100000
 20
-93.099998
 11
-29.900000
 21
-93.099998
  0
LINE
  8
0
  6
CONTINUOUS
 62
7
 10
-29.900000
 20
-92.500000
 11
-29.900000
 21
-93.099998
  0
LINE
  8
0
  6
CONTINUOUS
 62
7
 10
-22.100000
 20
-92.500000
 11
-22.100000
 21
-93.099998
  0
LINE
  8
0
  6
CONTINUOUS
 62
7
 10
-22.500000
 20
-93.099998
 11
-22.500000
 21
-96.000000
  0
LINE
  8
0
  6
CONTINUOUS
 62
7
 10
-29.500000
 20
-93.099998
 11
-29.500000
 21
-96.000000
  0
LINE
  8
0
  6
CENTER
 62
2
 10
37.000000
 20
-97.000000
 11
37.000000
 21
-91.500000
  0
LINE
  8
0
  6
CONTINUOUS
 62
7
 10
40.900002
 20
-93.099998
 11
33.099998
 21
-93.099998
  0
LINE
  8
0
  6
CONTINUOUS
 62
7
 10
40.900002
 20
-93.099998
 11
40.900002
 21
-92.500000
  0
LINE
  8
0
  6
CONTINUOUS
 62
7
 10
33.099998
 20
-93.099998
 11
33.099998
 21
-92.500000
  0
LINE
  8
0
  6
CONTINUOUS
 62
7
 10
40.500000
 20
-96.000000
 11
40.500000
 21
-93.099998
  0
LINE
  8
0
  6
CONTINUOUS
 62
7
 10
33.500000
 20
-96.000000
 11
33.500000
 21
-93.099998
  0
LINE
  8
0
  6
CENTER
 62
2
 10
44.000000
 20
28.000000
 11
-43.000000
 21
28.000000
  0
LINE
  8
0
  6
CONTINUOUS
 62
7
 10
40.700001
 20
41.500000
 11
-42.000000
 21
41.500000
  0
LINE
  8
0
  6
CONTINUOUS
 62
7
 10
40.000000
 20
14.500000
 11
-42.000000
 21
14.500000
  0
LINE
  8
0
  6
CONTINUOUS
 62
7
 10
40.000000
 20
21.000000
 11
-34.000000
 21
21.000000
  0
LINE
  8
0
  6
CONTINUOUS
 62
7
 10
40.000000
 20
35.000000
 11
-34.000000
 21
35.000000
  0
LINE
  8
0
  6
CONTINUOUS
 62
7
 10
43.000000
 20
14.000000
 11
-16.350000
 21
14.000000
  0
LINE
  8
0
  6
CONTINUOUS
 62
7
 10
43.000000
 20
42.000000
 11
43.000000
 21
14.000000
  0
LINE
  8
0
  6
CONTINUOUS
 62
7
 10
-34.000000
 20
41.500000
 11
-34.000000
 21
14.500000
  0
LINE
  8
0
  6
CONTINUOUS
 62
7
 10
40.000000
 20
41.500000
 11
40.000000
 21
14.500000
  0
LINE
  8
0
  6
CONTINUOUS
 62
7
 10
-32.000000
 20
14.500000
 11
-32.000000
 21
14.000000
  0
LINE
  8
0
  6
CONTINUOUS
 62
7
 10
-32.000000
 20
42.000000
 11
-32.000000
 21
41.500000
  0
LINE
  8
0
  6
CONTINUOUS
 62
7
 10
43.000000
 20
42.000000
 11
40.700001
 21
42.000000
  0
LINE
  8
0
  6
CONTINUOUS
 62
7
 10
-19.650000
 20
14.000000
 11
-19.650000
 21
14.500000
  0
LINE
  8
0
  6
CONTINUOUS
 62
7
 10
-16.350000
 20
14.000000
 11
-16.350000
 21
14.500000
  0
LINE
  8
0
  6
CONTINUOUS
 62
7
 10
-16.350000
 20
41.500000
 11
-16.350000
 21
42.000000
  0
LINE
  8
0
  6
CONTINUOUS
 62
7
 10
-19.650000
 20
41.500000
 11
-19.650000
 21
42.000000
  0
LINE
  8
0
  6
CONTINUOUS
 62
7
 10
-19.650000
 20
14.000000
 11
-32.000000
 21
14.000000
  0
LINE
  8
0
  6
CONTINUOUS
 62
7
 10
-19.650000
 20
42.000000
 11
-32.000000
 21
42.000000
  0
LINE
  8
0
  6
CONTINUOUS
 62
7
 10
-42.000000
 20
41.500000
 11
-42.000000
 21
14.500000
  0
LINE
  8
0
  6
CENTER
 62
2
 10
-25.000000
 20
40.500000
 11
-25.000000
 21
35.500000
  0
LINE
  8
0
  6
CENTER
 62
2
 10
-27.500000
 20
38.000000
 11
-22.500000
 21
38.000000
  0
LINE
  8
0
  6
CENTER
 62
2
 10
-25.000000
 20
20.500000
 11
-25.000000
 21
15.500000
  0
LINE
  8
0
  6
CENTER
 62
2
 10
-27.500000
 20
18.000000
 11
-22.500000
 21
18.000000
  0
LINE
  8
0
  6
CENTER
 62
2
 10
26.000000
 20
40.500000
 11
26.000000
 21
35.500000
  0
LINE
  8
0
  6
CENTER
 62
2
 10
23.500000
 20
38.000000
 11
28.500000
 21
38.000000
  0
LINE
  8
0
  6
CENTER
 62
2
 10
-3.000030
 20
41.099998
 11
-3.000030
 21
35.900002
  0
LINE
  8
0
  6
CENTER
 62
2
 10
-5.600040
 20
38.500000
 11
-0.400024
 21
38.500000
  0
LINE
  8
0
  6
CENTER
 62
2
 10
26.000000
 20
20.500000
 11
26.000000
 21
15.500000
  0
LINE
  8
0
  6
CENTER
 62
2
 10
23.500000
 20
18.000000
 11
28.500000
 21
18.000000
  0
LINE
  8
0
  6
CENTER
 62
2
 10
-7.000030
 20
40.500000
 11
-7.000030
 21
35.500000
  0
LINE
  8
0
  6
CENTER
 62
2
 10
-9.500030
 20
38.000000
 11
-4.500030
 21
38.000000
  0
LINE
  8
0
  6
CENTER
 62
2
 10
-7.000030
 20
20.500000
 11
-7.000030
 21
15.500000
  0
LINE
  8
0
  6
CENTER
 62
2
 10
-9.500030
 20
18.000000
 11
-4.500030
 21
18.000000
  0
LINE
  8
0
  6
CONTINUOUS
 62
7
 10
41.200001
 20
14.700000
 11
40.000000
 21
14.700000
  0
LINE
  8
0
  6
CONTINUOUS
 62
7
 10
41.200001
 20
19.250000
 11
41.200001
 21
14.700000
  0
LINE
  8
0
  6
CONTINUOUS
 62
7
 10
41.200001
 20
33.250000
 11
41.200001
 21
22.750000
  0
LINE
  8
0
  6
CONTINUOUS
 62
7
 10
40.599998
 20
33.250000
 11
40.599998
 21
36.750000
  0
LINE
  8
0
  6
CONTINUOUS
 62
7
 10
40.599998
 20
33.250000
 11
41.599998
 21
33.250000
  0
LINE
  8
0
  6
CONTINUOUS
 62
7
 10
41.599998
 20
33.250000
 11
41.599998
 21
36.750000
  0
LINE
  8
0
  6
CONTINUOUS
 62
7
 10
40.599998
 20
36.750000
 11
41.599998
 21
36.750000
  0
LINE
  8
0
  6
CONTINUOUS
 62
7
 10
41.200001
 20
36.750000
 11
41.200001
 21
41.299999
  0
LINE
  8
0
  6
CONTINUOUS
 62
7
 10
41.200001
 20
41.299999
 11
40.000000
 21
41.299999
  0
LINE
  8
0
  6
CONTINUOUS
 62
7
 10
-29.900000
 20
42.599998
 11
-29.900000
 21
42.000000
  0
LINE
  8
0
  6
CONTINUOUS
 62
7
 10
40.599998
 20
22.750000
 11
40.599998
 21
19.250000
  0
LINE
  8
0
  6
CONTINUOUS
 62
7
 10
40.599998
 20
22.750000
 11
41.599998
 21
22.750000
  0
LINE
  8
0
  6
CONTINUOUS
 62
7
 10
41.599998
 20
19.250000
 11
41.599998
 21
22.750000
  0
LINE
  8
0
  6
CONTINUOUS
 62
7
 10
40.599998
 20
19.250000
 11
41.599998
 21
19.250000
  0
LINE
  8
0
  6
DASHED
 62
2
 10
-16.350000
 20
17.500000
 11
-16.350000
 21
14.500000
  0
LINE
  8
0
  6
DASHED
 62
2
 10
-19.650000
 20
17.500000
 11
-19.650000
 21
14.500000
  0
LINE
  8
0
  6
DASHED
 62
2
 10
-16.350000
 20
38.500000
 11
-16.350000
 21
41.500000
  0
LINE
  8
0
  6
DASHED
 62
2
 10
-19.650000
 20
38.500000
 11
-19.650000
 21
41.500000
  0
LINE
  8
0
  6
CENTER
 62
2
 10
29.000000
 20
42.500000
 11
29.000000
 21
34.500000
  0
LINE
  8
0
  6
CENTER
 62
2
 10
25.000000
 20
38.500000
 11
33.000000
 21
38.500000
  0
LINE
  8
0
  6
CENTER
 62
2
 10
29.000000
 20
21.500000
 11
29.000000
 21
13.500000
  0
LINE
  8
0
  6
CENTER
 62
2
 10
25.000000
 20
17.500000
 11
33.000000
 21
17.500000
  0
LINE
  8
0
  6
CENTER
 62
2
 10
-18.000000
 20
21.500000
 11
-18.000000
 21
13.500000
  0
LINE
  8
0
  6
CENTER
 62
2
 10
-22.000000
 20
17.500000
 11
-14.000000
 21
17.500000
  0
LINE
  8
0
  6
CENTER
 62
2
 10
-18.000000
 20
42.500000
 11
-18.000000
 21
34.500000
  0
LINE
  8
0
  6
CENTER
 62
2
 10
-22.000000
 20
38.500000
 11
-14.000000
 21
38.500000
  0
LINE
  8
0
  6
CENTER
 62
2
 10
-26.000000
 20
45.000000
 11
-26.000000
 21
41.000000
  0
LINE
  8
0
  6
CENTER
 62
2
 10
37.000000
 20
45.000000
 11
37.000000
 21
41.000000
  0
LINE
  8
0
  6
CONTINUOUS
 62
7
 10
-22.000000
 20
42.599998
 11
-22.000000
 21
42.000000
  0
LINE
  8
0
  6
CONTINUOUS
 62
7
 10
-29.500000
 20
44.000000
 11
-29.500000
 21
42.599998
  0
LINE
  8
0
  6
CONTINUOUS
 62
7
 10
-22.500000
 20
44.000000
 11
-22.500000
 21
42.599998
  0
LINE
  8
0
  6
CONTINUOUS
 62
7
 10
-22.000000
 20
42.599998
 11
-29.900000
 21
42.599998
  0
LINE
  8
0
  6
CENTER
 62
2
 10
-44.000000
 20
38.000000
 11
-40.000000
 21
38.000000
  0
LINE
  8
0
  6
CENTER
 62
2
 10
-44.000000
 20
18.000000
 11
-40.000000
 21
18.000000
  0
LINE
  8
0
  6
CENTER
 62
2
 10
8.000000
 20
20.500000
 11
8.000000
 21
15.500000
  0
LINE
  8
0
  6
CENTER
 62
2
 10
5.500000
 20
18.000000
 11
10.500000
 21
18.000000
  0
LINE
  8
0
  6
CENTER
 62
2
 10
8.000000
 20
40.500000
 11
8.000000
 21
35.500000
  0
LINE
  8
0
  6
CENTER
 62
2
 10
5.500000
 20
38.000000
 11
10.500000
 21
38.000000
  0
LINE
  8
0
  6
CONTINUOUS
 62
7
 10
-34.000000
 20
91.500000
 11
-34.000000
 21
83.000000
  0
LINE
  8
0
  6
CONTINUOUS
 62
7
 10
-42.000000
 20
91.500000
 11
-42.000000
 21
73.000000
  0
LINE
  8
0
  6
CONTINUOUS
 62
7
 10
-34.000000
 20
89.500000
 11
-32.000000
 21
89.500000
  0
LINE
  8
0
  6
CONTINUOUS
 62
7
 10
-42.000000
 20
91.500000
 11
-34.000000
 21
91.500000
  0
LINE
  8
0
  6
CONTINUOUS
 62
7
 10
-42.000000
 20
73.000000
 11
-34.000000
 21
73.000000
  0
LINE
  8
0
  6
CONTINUOUS
 62
7
 10
-34.000000
 20
72.500000
 11
40.000000
 21
72.500000
  0
LINE
  8
0
  6
CONTINUOUS
 62
7
 10
-32.000000
 20
92.500000
 11
-32.000000
 21
83.000000
  0
LINE
  8
0
  6
CONTINUOUS
 62
7
 10
43.000000
 20
92.500000
 11
43.000000
 21
77.000000
  0
LINE
  8
0
  6
CONTINUOUS
 62
7
 10
-32.000000
 20
92.500000
 11
43.000000
 21
92.500000
  0
LINE
  8
0
  6
CONTINUOUS
 62
7
 10
-35.799999
 20
83.000000
 11
-17.500000
 21
83.000000
  0
LINE
  8
0
  6
CONTINUOUS
 62
7
 10
-4.800020
 20
82.500000
 11
41.200001
 21
82.500000
  0
LINE
  8
0
  6
CONTINUOUS
 62
7
 10
41.599998
 20
77.000000
 11
43.000000
 21
77.000000
  0
LINE
  8
0
  6
CONTINUOUS
 62
7
 10
41.200001
 20
77.903397
 11
43.000000
 21
77.903397
  0
LINE
  8
0
  6
CONTINUOUS
 62
7
 10
41.200001
 20
80.096603
 11
43.000000
 21
80.096603
  0
LINE
  8
0
  6
CONTINUOUS
 62
7
 10
40.000000
 20
82.500000
 11
40.000000
 21
82.000000
  0
LINE
  8
0
  6
CONTINUOUS
 62
7
 10
-26.000000
 20
82.958603
 11
-22.500000
 21
84.979301
  0
LINE
  8
0
  6
CONTINUOUS
 62
7
 10
-22.500000
 20
89.020798
 11
-22.500000
 21
84.979301
  0
LINE
  8
0
  6
CONTINUOUS
 62
7
 10
-26.000000
 20
91.041397
 11
-22.500000
 21
89.020699
  0
LINE
  8
0
  6
CONTINUOUS
 62
7
 10
-29.500000
 20
89.020798
 11
-26.000000
 21
91.041496
  0
LINE
  8
0
  6
CONTINUOUS
 62
7
 10
-29.500000
 20
84.979301
 11
-29.500000
 21
89.020798
  0
LINE
  8
0
  6
CONTINUOUS
 62
7
 10
-22.500000
 20
87.500000
 11
-29.500000
 21
87.500000
  0
LINE
  8
0
  6
CONTINUOUS
 62
7
 10
-22.500000
 20
86.500000
 11
-29.500000
 21
86.500000
  0
LINE
  8
0
  6
CONTINUOUS
 62
7
 10
-29.500000
 20
84.979301
 11
-26.000099
 21
82.958603
  0
LINE
  8
0
  6
CONTINUOUS
 62
7
 10
37.000000
 20
82.958603
 11
40.500000
 21
84.979301
  0
LINE
  8
0
  6
CONTINUOUS
 62
7
 10
40.500000
 20
89.020798
 11
40.500000
 21
84.979301
  0
LINE
  8
0
  6
CONTINUOUS
 62
7
 10
37.000000
 20
91.041496
 11
40.500000
 21
89.020798
  0
LINE
  8
0
  6
CONTINUOUS
 62
7
 10
33.499901
 20
89.020699
 11
37.000000
 21
91.041496
  0
LINE
  8
0
  6
CONTINUOUS
 62
7
 10
33.500000
 20
84.979301
 11
33.500000
 21
89.020798
  0
LINE
  8
0
  6
CONTINUOUS
 62
7
 10
40.500000
 20
87.500000
 11
33.500000
 21
87.500000
  0
LINE
  8
0
  6
CONTINUOUS
 62
7
 10
40.500000
 20
86.500000
 11
33.500000
 21
86.500000
  0
LINE
  8
0
  6
CONTINUOUS
 62
7
 10
33.500000
 20
84.979301
 11
36.999901
 21
82.958603
  0
LINE
  8
0
  6
CONTINUOUS
 62
7
 10
40.000000
 20
73.000000
 11
41.200001
 21
73.000000
  0
LINE
  8
0
  6
CONTINUOUS
 62
7
 10
41.200001
 20
82.500000
 11
41.200001
 21
73.000000
  0
LINE
  8
0
  6
CONTINUOUS
 62
7
 10
41.599998
 20
77.250000
 11
41.599998
 21
73.750000
  0
LINE
  8
0
  6
CONTINUOUS
 62
7
 10
41.200001
 20
73.750000
 11
41.599998
 21
73.750000
  0
LINE
  8
0
  6
CONTINUOUS
 62
7
 10
41.200001
 20
77.250000
 11
41.599998
 21
77.250000
  0
LINE
  8
0
  6
CENTER
 62
2
 10
37.000000
 20
92.041496
 11
37.000000
 21
81.958603
  0
LINE
  8
0
  6
CENTER
 62
2
 10
31.958599
 20
87.000000
 11
42.041401
 21
87.000000
  0
LINE
  8
0
  6
CENTER
 62
2
 10
-26.000000
 20
92.041496
 11
-26.000000
 21
81.958603
  0
LINE
  8
0
  6
CENTER
 62
2
 10
-31.041401
 20
87.000000
 11
-20.958599
 21
87.000000
  0
LINE
  8
0
  6
CENTER
 62
2
 10
22.850000
 20
78.199997
 11
22.850000
 21
74.199997
  0
LINE
  8
0
  6
CENTER
 62
2
 10
20.850000
 20
76.199997
 11
24.850000
 21
76.199997
  0
LINE
  8
0
  6
CENTER
 62
2
 10
-6.000000
 20
93.500000
 11
-6.000000
 21
85.500000
  0
LINE
  8
0
  6
DASHED
 62
2
 10
-8.000000
 20
92.500000
 11
-8.000000
 21
86.500000
  0
LINE
  8
0
  6
DASHED
 62
2
 10
-4.000000
 20
92.500000
 11
-4.000000
 21
86.500000
  0
LINE
  8
0
  6
DASHED
 62
2
 10
27.000000
 20
92.500000
 11
27.000000
 21
87.500000
  0
LINE
  8
0
  6
CENTER
 62
2
 10
29.000000
 20
93.500000
 11
29.000000
 21
86.000000
  0
LINE
  8
0
  6
DASHED
 62
2
 10
26.000000
 20
87.500000
 11
26.000000
 21
87.199997
  0
LINE
  8
0
  6
DASHED
 62
2
 10
26.000000
 20
87.500000
 11
32.000000
 21
87.500000
  0
LINE
  8
0
  6
DASHED
 62
2
 10
32.000000
 20
87.500000
 11
32.000000
 21
87.199997
  0
LINE
  8
0
  6
DASHED
 62
2
 10
31.000000
 20
92.500000
 11
31.000000
 21
87.500000
  0
LINE
  8
0
  6
CENTER
 62
2
 10
-25.000000
 20
74.500000
 11
-25.000000
 21
70.500000
  0
LINE
  8
0
  6
CENTER
 62
2
 10
-7.000000
 20
74.500000
 11
-7.000000
 21
70.500000
  0
LINE
  8
0
  6
CENTER
 62
2
 10
26.000000
 20
74.500000
 11
26.000000
 21
70.500000
  0
LINE
  8
0
  6
CENTER
 62
2
 10
-44.000000
 20
85.500000
 11
-40.000000
 21
85.500000
  0
LINE
  8
0
  6
CENTER
 62
2
 10
-44.000000
 20
76.500000
 11
-40.000000
 21
76.500000
  0
LINE
  8
0
  6
CENTER
 62
2
 10
8.000000
 20
74.500000
 11
8.000000
 21
70.500000
  0
LINE
  8
0
  6
CONTINUOUS
 62
7
 10
-15.500000
 20
87.199997
 11
-21.200001
 21
87.199997
  0
LINE
  8
0
  6
DASHED
 62
2
 10
-21.000000
 20
87.500000
 11
-19.650000
 21
87.500000
  0
LINE
  8
0
  6
CONTINUOUS
 62
7
 10
-19.650000
 20
92.500000
 11
-19.650000
 21
87.199997
  0
LINE
  8
0
  6
CONTINUOUS
 62
7
 10
-16.350000
 20
92.500000
 11
-16.350000
 21
87.199997
  0
LINE
  8
0
  6
CENTER
 62
2
 10
-18.000000
 20
93.500000
 11
-18.000000
 21
86.000000
  0
LINE
  8
0
  6
DASHED
 62
2
 10
-3.000000
 20
86.500000
 11
-9.000000
 21
86.500000
  0
LINE
  8
0
  6
CONTINUOUS
 62
7
 10
32.200001
 20
87.199997
 11
26.500000
 21
87.199997
  0
LINE
  8
0
  6
CONTINUOUS
 62
7
 10
146.000000
 20
-35.500000
 11
146.000000
 21
-16.500000
  0
LINE
  8
0
  6
CONTINUOUS
 62
7
 10
138.000000
 20
-35.500000
 11
138.000000
 21
-17.000000
  0
LINE
  8
0
  6
CONTINUOUS
 62
7
 10
146.000000
 20
-33.500000
 11
148.000000
 21
-33.500000
  0
LINE
  8
0
  6
CONTINUOUS
 62
7
 10
138.000000
 20
-35.500000
 11
146.000000
 21
-35.500000
  0
LINE
  8
0
  6
CONTINUOUS
 62
7
 10
138.000000
 20
-17.000000
 11
146.000000
 21
-17.000000
  0
LINE
  8
0
  6
CONTINUOUS
 62
7
 10
146.000000
 20
-16.500000
 11
235.000000
 21
-16.500000
  0
LINE
  8
0
  6
CONTINUOUS
 62
7
 10
148.000000
 20
-36.500000
 11
148.000000
 21
-26.500000
  0
LINE
  8
0
  6
CONTINUOUS
 62
7
 10
238.000000
 20
-36.500000
 11
238.000000
 21
-21.000000
  0
LINE
  8
0
  6
CONTINUOUS
 62
7
 10
148.000000
 20
-36.500000
 11
238.000000
 21
-36.500000
  0
LINE
  8
0
  6
CONTINUOUS
 62
7
 10
227.199997
 20
-31.000000
 11
220.598007
 21
-31.000000
  0
LINE
  8
0
  6
CONTINUOUS
 62
7
 10
148.000000
 20
-27.000000
 11
238.000000
 21
-27.000000
  0
LINE
  8
0
  6
CONTINUOUS
 62
7
 10
215.000000
 20
-32.500000
 11
171.000000
 21
-32.500000
  0
LINE
  8
0
  6
CONTINUOUS
 62
7
 10
146.000000
 20
-26.500000
 11
236.199997
 21
-26.500000
  0
LINE
  8
0
  6
CONTINUOUS
 62
7
 10
158.800003
 20
-31.000000
 11
165.401993
 21
-31.000000
  0
LINE
  8
0
  6
CONTINUOUS
 62
7
 10
236.600006
 20
-21.000000
 11
238.000000
 21
-21.000000
  0
LINE
  8
0
  6
CONTINUOUS
 62
7
 10
236.199997
 20
-21.903400
 11
238.000000
 21
-21.903400
  0
LINE
  8
0
  6
CONTINUOUS
 62
7
 10
236.199997
 20
-24.096600
 11
238.000000
 21
-24.096600
  0
LINE
  8
0
  6
CONTINUOUS
 62
7
 10
235.000000
 20
-26.500000
 11
235.000000
 21
-16.500000
  0
LINE
  8
0
  6
CONTINUOUS
 62
7
 10
160.350006
 20
-36.500000
 11
160.350006
 21
-31.000000
  0
LINE
  8
0
  6
DASHED
 62
2
 10
159.000000
 20
-31.500000
 11
160.350006
 21
-31.500000
  0
LINE
  8
0
  6
CENTER
 62
2
 10
162.000000
 20
-37.500000
 11
162.000000
 21
-30.000000
  0
LINE
  8
0
  6
CONTINUOUS
 62
7
 10
163.649994
 20
-36.500000
 11
163.649994
 21
-31.000000
  0
LINE
  8
0
  6
CONTINUOUS
 62
7
 10
235.000000
 20
-17.000000
 11
236.199997
 21
-17.000000
  0
LINE
  8
0
  6
CONTINUOUS
 62
7
 10
236.199997
 20
-26.500000
 11
236.199997
 21
-17.000000
  0
LINE
  8
0
  6
CONTINUOUS
 62
7
 10
236.600006
 20
-21.250000
 11
236.600006
 21
-17.750000
  0
LINE
  8
0
  6
CONTINUOUS
 62
7
 10
236.199997
 20
-17.750000
 11
236.600006
 21
-17.750000
  0
LINE
  8
0
  6
CONTINUOUS
 62
7
 10
236.199997
 20
-21.250000
 11
236.600006
 21
-21.250000
  0
LINE
  8
0
  6
CENTER
 62
2
 10
154.000000
 20
-27.500000
 11
154.000000
 21
-34.500000
  0
LINE
  8
0
  6
CENTER
 62
2
 10
150.500000
 20
-31.000000
 11
157.500000
 21
-31.000000
  0
LINE
  8
0
  6
CENTER
 62
2
 10
168.000000
 20
-30.000000
 11
168.000000
 21
-35.000000
  0
LINE
  8
0
  6
CENTER
 62
2
 10
165.500000
 20
-32.500000
 11
170.500000
 21
-32.500000
  0
LINE
  8
0
  6
CENTER
 62
2
 10
218.000000
 20
-30.000000
 11
218.000000
 21
-35.000000
  0
LINE
  8
0
  6
CENTER
 62
2
 10
215.500000
 20
-32.500000
 11
220.500000
 21
-32.500000
  0
LINE
  8
0
  6
CENTER
 62
2
 10
217.850006
 20
-18.200001
 11
217.850006
 21
-22.200001
  0
LINE
  8
0
  6
CENTER
 62
2
 10
215.850006
 20
-20.200001
 11
219.850006
 21
-20.200001
  0
LINE
  8
0
  6
CENTER
 62
2
 10
224.699997
 20
-18.000000
 11
224.699997
 21
-23.000000
  0
LINE
  8
0
  6
CENTER
 62
2
 10
222.199997
 20
-20.500000
 11
227.199997
 21
-20.500000
  0
LINE
  8
0
  6
CENTER
 62
2
 10
227.850006
 20
-18.200001
 11
227.850006
 21
-22.200001
  0
LINE
  8
0
  6
CENTER
 62
2
 10
225.850006
 20
-20.200001
 11
229.850006
 21
-20.200001
  0
LINE
  8
0
  6
CENTER
 62
2
 10
231.199997
 20
-18.000000
 11
231.199997
 21
-23.000000
  0
LINE
  8
0
  6
CENTER
 62
2
 10
228.699997
 20
-20.500000
 11
233.699997
 21
-20.500000
  0
LINE
  8
0
  6
CENTER
 62
2
 10
232.000000
 20
-27.500000
 11
232.000000
 21
-34.500000
  0
LINE
  8
0
  6
CENTER
 62
2
 10
228.500000
 20
-31.000000
 11
235.500000
 21
-31.000000
  0
LINE
  8
0
  6
CENTER
 62
2
 10
174.000000
 20
-37.500000
 11
174.000000
 21
-31.500000
  0
LINE
  8
0
  6
DASHED
 62
2
 10
172.000000
 20
-34.900002
 11
172.000000
 21
-32.500000
  0
LINE
  8
0
  6
DASHED
 62
2
 10
176.000000
 20
-34.900002
 11
176.000000
 21
-32.500000
  0
LINE
  8
0
  6
DASHED
 62
2
 10
171.500000
 20
-36.500000
 11
171.500000
 21
-34.900002
  0
LINE
  8
0
  6
DASHED
 62
2
 10
176.500000
 20
-36.500000
 11
176.500000
 21
-34.900002
  0
LINE
  8
0
  6
DASHED
 62
2
 10
171.500000
 20
-34.900002
 11
176.500000
 21
-34.900002
  0
LINE
  8
0
  6
DASHED
 62
2
 10
222.000000
 20
-36.500000
 11
222.000000
 21
-31.500000
  0
LINE
  8
0
  6
CENTER
 62
2
 10
224.000000
 20
-37.500000
 11
224.000000
 21
-30.000000
  0
LINE
  8
0
  6
DASHED
 62
2
 10
221.000000
 20
-31.500000
 11
221.000000
 21
-30.992399
  0
LINE
  8
0
  6
DASHED
 62
2
 10
221.000000
 20
-31.500000
 11
227.000000
 21
-31.500000
  0
LINE
  8
0
  6
DASHED
 62
2
 10
227.000000
 20
-31.500000
 11
227.000000
 21
-31.000000
  0
LINE
  8
0
  6
DASHED
 62
2
 10
226.000000
 20
-36.500000
 11
226.000000
 21
-31.500000
  0
LINE
  8
0
  6
CENTER
 62
2
 10
155.000000
 20
-14.500000
 11
155.000000
 21
-18.500000
  0
LINE
  8
0
  6
CENTER
 62
2
 10
173.000000
 20
-14.500000
 11
173.000000
 21
-18.500000
  0
LINE
  8
0
  6
CENTER
 62
2
 10
221.000000
 20
-14.500000
 11
221.000000
 21
-18.500000
  0
LINE
  8
0
  6
CENTER
 62
2
 10
136.000000
 20
-29.500000
 11
140.000000
 21
-29.500000
  0
LINE
  8
0
  6
CENTER
 62
2
 10
136.000000
 20
-20.500000
 11
140.000000
 21
-20.500000
  0
LINE
  8
0
  6
DASHED
 62
2
 10
159.000000
 20
-31.500000
 11
159.000000
 21
-31.000000
  0
LINE
  8
0
  6
DASHED
 62
2
 10
165.000000
 20
-31.500000
 11
165.000000
 21
-31.000000
  0
LINE
  8
0
  6
CONTINUOUS
 62
7
 10
160.350006
 20
-31.500000
 11
163.649994
 21
-31.500000
  0
LINE
  8
0
  6
DASHED
 62
2
 10
163.649994
 20
-31.500000
 11
165.000000
 21
-31.500000
  0
LINE
  8
0
  6
CONTINUOUS
 62
7
 10
-34.000000
 20
-35.500000
 11
-34.000000
 21
-16.500000
  0
LINE
  8
0
  6
CONTINUOUS
 62
7
 10
-42.000000
 20
-35.500000
 11
-42.000000
 21
-17.000000
  0
LINE
  8
0
  6
CONTINUOUS
 62
7
 10
-34.000000
 20
-33.500000
 11
-32.000000
 21
-33.500000
  0
LINE
  8
0
  6
CONTINUOUS
 62
7
 10
-42.000000
 20
-35.500000
 11
-34.000000
 21
-35.500000
  0
LINE
  8
0
  6
CONTINUOUS
 62
7
 10
-42.000000
 20
-17.000000
 11
-34.000000
 21
-17.000000
  0
LINE
  8
0
  6
CONTINUOUS
 62
7
 10
-34.000000
 20
-16.500000
 11
40.000000
 21
-16.500000
  0
LINE
  8
0
  6
CONTINUOUS
 62
7
 10
-32.000000
 20
-36.500000
 11
-32.000000
 21
-26.500000
  0
LINE
  8
0
  6
CONTINUOUS
 62
7
 10
43.000000
 20
-36.500000
 11
43.000000
 21
-21.000000
  0
LINE
  8
0
  6
CONTINUOUS
 62
7
 10
-32.000000
 20
-36.500000
 11
43.000000
 21
-36.500000
  0
LINE
  8
0
  6
CONTINUOUS
 62
7
 10
-32.000000
 20
-27.000000
 11
43.000000
 21
-27.000000
  0
LINE
  8
0
  6
CONTINUOUS
 62
7
 10
-34.000000
 20
-26.500000
 11
41.200001
 21
-26.500000
  0
LINE
  8
0
  6
CONTINUOUS
 62
7
 10
41.599998
 20
-21.000000
 11
43.000000
 21
-21.000000
  0
LINE
  8
0
  6
CONTINUOUS
 62
7
 10
41.200001
 20
-21.903400
 11
43.000000
 21
-21.903400
  0
LINE
  8
0
  6
CONTINUOUS
 62
7
 10
41.200001
 20
-24.096600
 11
43.000000
 21
-24.096600
  0
LINE
  8
0
  6
CONTINUOUS
 62
7
 10
40.000000
 20
-26.500000
 11
40.000000
 21
-16.500000
  0
LINE
  8
0
  6
CONTINUOUS
 62
7
 10
-19.650000
 20
-36.500000
 11
-19.650000
 21
-31.200001
  0
LINE
  8
0
  6
DASHED
 62
2
 10
-21.000000
 20
-31.500000
 11
-19.650000
 21
-31.500000
  0
LINE
  8
0
  6
CENTER
 62
2
 10
-18.000000
 20
-37.500000
 11
-18.000000
 21
-30.200001
  0
LINE
  8
0
  6
CONTINUOUS
 62
7
 10
-16.350000
 20
-36.500000
 11
-16.350000
 21
-31.200001
  0
LINE
  8
0
  6
CONTINUOUS
 62
7
 10
40.000000
 20
-17.000000
 11
41.200001
 21
-17.000000
  0
LINE
  8
0
  6
CONTINUOUS
 62
7
 10
41.200001
 20
-26.500000
 11
41.200001
 21
-17.000000
  0
LINE
  8
0
  6
CONTINUOUS
 62
7
 10
41.599998
 20
-21.250000
 11
41.599998
 21
-17.750000
  0
LINE
  8
0
  6
CONTINUOUS
 62
7
 10
41.200001
 20
-17.750000
 11
41.599998
 21
-17.750000
  0
LINE
  8
0
  6
CONTINUOUS
 62
7
 10
41.200001
 20
-21.250000
 11
41.599998
 21
-21.250000
  0
LINE
  8
0
  6
CENTER
 62
2
 10
-26.000000
 20
-27.500000
 11
-26.000000
 21
-34.500000
  0
LINE
  8
0
  6
CENTER
 62
2
 10
-29.500000
 20
-31.000000
 11
-22.500000
 21
-31.000000
  0
LINE
  8
0
  6
CENTER
 62
2
 10
-12.000000
 20
-30.000000
 11
-12.000000
 21
-35.000000
  0
LINE
  8
0
  6
CENTER
 62
2
 10
-14.500000
 20
-32.500000
 11
-9.500000
 21
-32.500000
  0
LINE
  8
0
  6
CENTER
 62
2
 10
23.000000
 20
-30.000000
 11
23.000000
 21
-35.000000
  0
LINE
  8
0
  6
CENTER
 62
2
 10
20.500000
 20
-32.500000
 11
25.500000
 21
-32.500000
  0
LINE
  8
0
  6
CENTER
 62
2
 10
22.850000
 20
-18.200001
 11
22.850000
 21
-22.200001
  0
LINE
  8
0
  6
CENTER
 62
2
 10
20.850000
 20
-20.200001
 11
24.850000
 21
-20.200001
  0
LINE
  8
0
  6
CENTER
 62
2
 10
29.700001
 20
-18.000000
 11
29.700001
 21
-23.000000
  0
LINE
  8
0
  6
CENTER
 62
2
 10
27.200001
 20
-20.500000
 11
32.200001
 21
-20.500000
  0
LINE
  8
0
  6
CENTER
 62
2
 10
32.849998
 20
-18.200001
 11
32.849998
 21
-22.200001
  0
LINE
  8
0
  6
CENTER
 62
2
 10
30.850000
 20
-20.200001
 11
34.849998
 21
-20.200001
  0
LINE
  8
0
  6
CENTER
 62
2
 10
36.200001
 20
-18.000000
 11
36.200001
 21
-23.000000
  0
LINE
  8
0
  6
CENTER
 62
2
 10
33.700001
 20
-20.500000
 11
38.700001
 21
-20.500000
  0
LINE
  8
0
  6
CENTER
 62
2
 10
37.000000
 20
-27.500000
 11
37.000000
 21
-34.500000
  0
LINE
  8
0
  6
CENTER
 62
2
 10
33.500000
 20
-31.000000
 11
40.500000
 21
-31.000000
  0
LINE
  8
0
  6
CENTER
 62
2
 10
-6.000000
 20
-37.500000
 11
-6.000000
 21
-29.500000
  0
LINE
  8
0
  6
DASHED
 62
2
 10
-8.000000
 20
-36.500000
 11
-8.000000
 21
-30.500000
  0
LINE
  8
0
  6
DASHED
 62
2
 10
-4.000000
 20
-36.500000
 11
-4.000000
 21
-30.500000
  0
LINE
  8
0
  6
DASHED
 62
2
 10
27.000000
 20
-36.500000
 11
27.000000
 21
-31.500000
  0
LINE
  8
0
  6
CENTER
 62
2
 10
29.000000
 20
-37.500000
 11
29.000000
 21
-30.200001
  0
LINE
  8
0
  6
DASHED
 62
2
 10
26.000000
 20
-31.500000
 11
26.000000
 21
-31.200001
  0
LINE
  8
0
  6
DASHED
 62
2
 10
26.000000
 20
-31.500000
 11
32.000000
 21
-31.500000
  0
LINE
  8
0
  6
DASHED
 62
2
 10
32.000000
 20
-31.500000
 11
32.000000
 21
-31.200001
  0
LINE
  8
0
  6
DASHED
 62
2
 10
31.000000
 20
-36.500000
 11
31.000000
 21
-31.500000
  0
LINE
  8
0
  6
CENTER
 62
2
 10
-25.000000
 20
-14.500000
 11
-25.000000
 21
-18.500000
  0
LINE
  8
0
  6
CENTER
 62
2
 10
-7.000000
 20
-14.500000
 11
-7.000000
 21
-18.500000
  0
LINE
  8
0
  6
CENTER
 62
2
 10
26.000000
 20
-14.500000
 11
26.000000
 21
-18.500000
  0
LINE
  8
0
  6
CENTER
 62
2
 10
-44.000000
 20
-29.500000
 11
-40.000000
 21
-29.500000
  0
LINE
  8
0
  6
CENTER
 62
2
 10
-44.000000
 20
-20.500000
 11
-40.000000
 21
-20.500000
  0
LINE
  8
0
  6
CENTER
 62
2
 10
8.000000
 20
-14.500000
 11
8.000000
 21
-18.500000
  0
LINE
  8
0
  6
CONTINUOUS
 62
7
 10
25.598101
 20
-31.200001
 11
32.200001
 21
-31.200001
  0
LINE
  8
0
  6
CONTINUOUS
 62
7
 10
-9.960360
 20
-30.500000
 11
20.960400
 21
-30.500000
  0
LINE
  8
0
  6
CONTINUOUS
 62
7
 10
-21.200001
 20
-31.200001
 11
-14.598100
 21
-31.200001
  0
LINE
  8
0
  6
CONTINUOUS
 62
7
 10
-26.000000
 20
-93.099998
 11
-26.000000
 21
-96.000000
  0
LINE
  8
0
  6
CONTINUOUS
 62
7
 10
37.000000
 20
-96.000000
 11
37.000000
 21
-93.099998
  0
LINE
  8
0
  6
CONTINUOUS
 62
7
 10
154.000000
 20
-93.099998
 11
154.000000
 21
-96.000000
  0
LINE
  8
0
  6
CONTINUOUS
 62
7
 10
232.000000
 20
-96.000000
 11
232.000000
 21
-93.099998
  0
LINE
  8
0
  6
DASHED
 62
2
 10
-21.000000
 20
87.500000
 11
-21.000000
 21
87.199997
  0
LINE
  8
0
  6
DASHED
 62
2
 10
-15.000000
 20
87.500000
 11
-15.000000
 21
87.199997
  0
LINE
  8
0
  6
CONTINUOUS
 62
7
 10
-19.650000
 20
87.500000
 11
-16.350000
 21
87.500000
  0
LINE
  8
0
  6
DASHED
 62
2
 10
-16.350000
 20
87.500000
 11
-15.000000
 21
87.500000
  0
LINE
  8
0
  6
CENTER
 62
2
 10
-21.000000
 20
-37.500000
 11
-21.000000
 21
-35.880699
  0
LINE
  8
0
  6
DASHED
 62
2
 10
-15.000000
 20
-31.500000
 11
-15.000000
 21
-31.200001
  0
LINE
  8
0
  6
CONTINUOUS
 62
7
 10
-19.650000
 20
-31.500000
 11
-16.350000
 21
-31.500000
  0
LINE
  8
0
  6
DASHED
 62
2
 10
-16.350000
 20
-31.500000
 11
-15.000000
 21
-31.500000
  0
LINE
  8
0
  6
DASHED
 62
2
 10
-21.000000
 20
-31.500000
 11
-21.000000
 21
-31.200001
  0
LINE
  8
0
  6
CONTINUOUS
 62
7
 10
164.500000
 20
92.000000
 11
221.500000
 21
92.000000
  0
LINE
  8
0
  6
CONTINUOUS
 62
7
 10
164.500000
 20
92.000000
 11
164.500000
 21
73.000000
  0
LINE
  8
0
  6
CONTINUOUS
 62
7
 10
162.500000
 20
73.000000
 11
168.699997
 21
73.000000
  0
LINE
  8
0
  6
CONTINUOUS
 62
7
 10
220.199997
 20
82.000000
 11
235.699997
 21
82.000000
  0
LINE
  8
0
  6
CONTINUOUS
 62
7
 10
235.699997
 20
74.000000
 11
235.699997
 21
82.000000
  0
LINE
  8
0
  6
CONTINUOUS
 62
7
 10
220.199997
 20
74.000000
 11
235.699997
 21
74.000000
  0
LINE
  8
0
  6
CONTINUOUS
 62
7
 10
221.500000
 20
92.000000
 11
221.500000
 21
85.000000
  0
LINE
  8
0
  6
CONTINUOUS
 62
7
 10
220.199997
 20
74.000000
 11
220.199997
 21
82.000000
  0
LINE
  8
0
  6
CONTINUOUS
 62
7
 10
170.199997
 20
85.000000
 11
221.500000
 21
85.000000
  0
LINE
  8
0
  6
CONTINUOUS
 62
7
 10
169.199997
 20
84.500000
 11
175.199997
 21
84.500000
  0
LINE
  8
0
  6
CONTINUOUS
 62
7
 10
175.199997
 20
73.500000
 11
175.199997
 21
84.500000
  0
LINE
  8
0
  6
CONTINUOUS
 62
7
 10
175.199997
 20
80.000000
 11
179.199997
 21
80.000000
  0
LINE
  8
0
  6
CONTINUOUS
 62
7
 10
179.199997
 20
78.000000
 11
179.199997
 21
80.000000
  0
LINE
  8
0
  6
CONTINUOUS
 62
7
 10
175.199997
 20
78.000000
 11
179.199997
 21
78.000000
  0
LINE
  8
0
  6
CENTER
 62
2
 10
142.199997
 20
79.000000
 11
180.199997
 21
79.000000
  0
LINE
  8
0
  6
CONTINUOUS
 62
7
 10
169.199997
 20
73.500000
 11
175.199997
 21
73.500000
  0
LINE
  8
0
  6
CONTINUOUS
 62
7
 10
168.699997
 20
73.000000
 11
168.699997
 21
83.500000
  0
LINE
  8
0
  6
CONTINUOUS
 62
7
 10
169.199997
 20
73.500000
 11
169.199997
 21
84.500000
  0
LINE
  8
0
  6
CONTINUOUS
 62
7
 10
162.500000
 20
85.000000
 11
164.500000
 21
85.000000
  0
LINE
  8
0
  6
CONTINUOUS
 62
7
 10
162.500000
 20
73.000000
 11
162.500000
 21
85.000000
  0
LINE
  8
0
  6
CONTINUOUS
 62
7
 10
162.500000
 20
82.564201
 11
164.500000
 21
82.564201
  0
LINE
  8
0
  6
CONTINUOUS
 62
7
 10
162.500000
 20
81.397903
 11
164.500000
 21
81.397903
  0
LINE
  8
0
  6
CONTINUOUS
 62
7
 10
162.500000
 20
76.602097
 11
164.500000
 21
76.602097
  0
LINE
  8
0
  6
CONTINUOUS
 62
7
 10
162.500000
 20
75.435898
 11
164.500000
 21
75.435898
  0
LINE
  8
0
  6
CONTINUOUS
 62
2
 10
169.199997
 20
75.699997
 11
168.699997
 21
75.699997
  0
LINE
  8
0
  6
CONTINUOUS
 62
7
 10
169.199997
 20
75.000000
 11
168.699997
 21
75.000000
  0
LINE
  8
0
  6
CONTINUOUS
 62
2
 10
169.199997
 20
82.300003
 11
168.699997
 21
82.300003
  0
LINE
  8
0
  6
CONTINUOUS
 62
7
 10
169.199997
 20
83.000000
 11
168.699997
 21
83.000000
  0
LINE
  8
0
  6
CONTINUOUS
 62
7
 10
144.199997
 20
75.000000
 11
144.199997
 21
83.000000
  0
LINE
  8
0
  6
CONTINUOUS
 62
7
 10
144.199997
 20
82.300003
 11
143.199997
 21
82.300003
  0
LINE
  8
0
  6
CONTINUOUS
 62
7
 10
143.199997
 20
79.750000
 11
143.199997
 21
82.300003
  0
LINE
  8
0
  6
CONTINUOUS
 62
7
 10
144.199997
 20
79.750000
 11
143.199997
 21
79.750000
  0
LINE
  8
0
  6
CONTINUOUS
 62
7
 10
144.199997
 20
78.250000
 11
143.199997
 21
78.250000
  0
LINE
  8
0
  6
CONTINUOUS
 62
7
 10
143.199997
 20
75.699997
 11
143.199997
 21
78.250000
  0
LINE
  8
0
  6
CONTINUOUS
 62
7
 10
144.199997
 20
75.699997
 11
143.199997
 21
75.699997
  0
LINE
  8
0
  6
CONTINUOUS
 62
7
 10
162.500000
 20
75.000000
 11
144.199997
 21
75.000000
  0
LINE
  8
0
  6
CONTINUOUS
 62
2
 10
162.500000
 20
75.699997
 11
144.199997
 21
75.699997
  0
LINE
  8
0
  6
CONTINUOUS
 62
2
 10
162.500000
 20
82.300003
 11
144.199997
 21
82.300003
  0
LINE
  8
0
  6
CONTINUOUS
 62
7
 10
175.199997
 20
83.000000
 11
238.000000
 21
83.000000
  0
LINE
  8
0
  6
CONTINUOUS
 62
7
 10
146.000000
 20
75.000000
 11
146.000000
 21
72.500000
  0
LINE
  8
0
  6
CONTINUOUS
 62
7
 10
235.000000
 20
74.000000
 11
235.000000
 21
72.500000
  0
LINE
  8
0
  6
CONTINUOUS
 62
7
 10
220.199997
 20
41.500099
 11
220.199997
 21
50.500000
  0
LINE
  8
0
  6
CONTINUOUS
 62
7
 10
235.699997
 20
50.500000
 11
220.199997
 21
50.500000
  0
LINE
  8
0
  6
CONTINUOUS
 62
7
 10
235.699997
 20
41.500099
 11
235.699997
 21
50.500000
  0
LINE
  8
0
  6
CONTINUOUS
 62
7
 10
164.500000
 20
42.000000
 11
164.500000
 21
54.000000
  0
LINE
  8
0
  6
CONTINUOUS
 62
7
 10
175.199997
 20
42.500000
 11
175.199997
 21
53.500000
  0
LINE
  8
0
  6
CENTER
 62
2
 10
142.199997
 20
48.000000
 11
180.199997
 21
48.000000
  0
LINE
  8
0
  6
CONTINUOUS
 62
7
 10
169.199997
 20
53.500000
 11
175.199997
 21
53.500000
  0
LINE
  8
0
  6
CONTINUOUS
 62
7
 10
169.199997
 20
42.500000
 11
175.199997
 21
42.500000
  0
LINE
  8
0
  6
CONTINUOUS
 62
7
 10
169.199997
 20
42.500000
 11
169.199997
 21
53.500000
  0
LINE
  8
0
  6
CONTINUOUS
 62
7
 10
175.199997
 20
47.000000
 11
179.199997
 21
47.000000
  0
LINE
  8
0
  6
CONTINUOUS
 62
7
 10
175.199997
 20
49.000099
 11
179.199997
 21
49.000099
  0
LINE
  8
0
  6
CONTINUOUS
 62
7
 10
179.199997
 20
47.000000
 11
179.199997
 21
49.000099
  0
LINE
  8
0
  6
CONTINUOUS
 62
2
 10
169.199997
 20
51.299999
 11
168.699997
 21
51.299999
  0
LINE
  8
0
  6
CONTINUOUS
 62
7
 10
169.199997
 20
44.000099
 11
168.699997
 21
44.000099
  0
LINE
  8
0
  6
CONTINUOUS
 62
7
 10
144.199997
 20
44.700100
 11
143.199997
 21
44.700100
  0
LINE
  8
0
  6
CONTINUOUS
 62
7
 10
169.199997
 20
52.000000
 11
168.699997
 21
52.000000
  0
LINE
  8
0
  6
CONTINUOUS
 62
7
 10
144.199997
 20
44.000099
 11
144.199997
 21
52.000000
  0
LINE
  8
0
  6
CONTINUOUS
 62
7
 10
143.199997
 20
44.700100
 11
143.199997
 21
51.299999
  0
LINE
  8
0
  6
CONTINUOUS
 62
7
 10
144.199997
 20
51.299999
 11
143.199997
 21
51.299999
  0
LINE
  8
0
  6
CONTINUOUS
 62
2
 10
169.199997
 20
44.700100
 11
168.699997
 21
44.700100
  0
LINE
  8
0
  6
CONTINUOUS
 62
7
 10
221.500000
 20
54.000000
 11
164.500000
 21
54.000000
  0
LINE
  8
0
  6
CONTINUOUS
 62
7
 10
168.699997
 20
42.000000
 11
168.699997
 21
54.000000
  0
LINE
  8
0
  6
CONTINUOUS
 62
7
 10
164.500000
 20
42.500000
 11
162.500000
 21
42.500000
  0
LINE
  8
0
  6
CONTINUOUS
 62
7
 10
162.500000
 20
53.500000
 11
162.500000
 21
42.500000
  0
LINE
  8
0
  6
CONTINUOUS
 62
7
 10
164.500000
 20
43.173401
 11
162.500000
 21
43.173401
  0
LINE
  8
0
  6
CONTINUOUS
 62
7
 10
164.500000
 20
47.326698
 11
162.500000
 21
47.326698
  0
LINE
  8
0
  6
CONTINUOUS
 62
7
 10
164.500000
 20
48.673401
 11
162.500000
 21
48.673401
  0
LINE
  8
0
  6
CONTINUOUS
 62
7
 10
164.500000
 20
52.826698
 11
162.500000
 21
52.826698
  0
LINE
  8
0
  6
CONTINUOUS
 62
7
 10
164.500000
 20
53.500000
 11
162.500000
 21
53.500000
  0
LINE
  8
0
  6
CONTINUOUS
 62
7
 10
221.500000
 20
50.500000
 11
221.500000
 21
54.000000
  0
LINE
  8
0
  6
CONTINUOUS
 62
7
 10
162.500000
 20
44.000099
 11
144.199997
 21
44.000099
  0
LINE
  8
0
  6
CONTINUOUS
 62
2
 10
162.500000
 20
44.700100
 11
144.199997
 21
44.700100
  0
LINE
  8
0
  6
CONTINUOUS
 62
2
 10
162.500000
 20
51.299999
 11
144.199997
 21
51.299999
  0
LINE
  8
0
  6
CONTINUOUS
 62
7
 10
162.500000
 20
52.000000
 11
144.199997
 21
52.000000
  0
LINE
  8
0
  6
CONTINUOUS
 62
7
 10
154.000000
 20
44.000099
 11
154.000000
 21
42.599998
  0
LINE
  8
0
  6
CONTINUOUS
 62
7
 10
220.199997
 20
42.000000
 11
163.649994
 21
42.000000
  0
LINE
  8
0
  6
CONTINUOUS
 62
7
 10
112.500000
 20
42.000000
 11
112.500000
 21
41.500099
  0
LINE
  8
0
  6
CONTINUOUS
 62
7
 10
120.500000
 20
42.000000
 11
120.500000
 21
41.500099
  0
LINE
  8
0
  6
CONTINUOUS
 62
7
 10
102.500000
 20
54.000000
 11
102.500000
 21
42.000000
  0
LINE
  8
0
  6
CONTINUOUS
 62
7
 10
121.500000
 20
54.000000
 11
121.500000
 21
42.000000
  0
LINE
  8
0
  6
CONTINUOUS
 62
7
 10
102.500000
 20
54.000000
 11
121.500000
 21
54.000000
  0
LINE
  8
0
  6
CONTINUOUS
 62
7
 10
109.538002
 20
47.326599
 11
110.593002
 21
45.500000
  0
LINE
  8
0
  6
CONTINUOUS
 62
7
 10
111.935997
 20
52.826698
 11
109.538002
 21
48.673302
  0
LINE
  8
0
  6
CONTINUOUS
 62
7
 10
117.898003
 20
53.500000
 11
113.101997
 21
53.500000
  0
LINE
  8
0
  6
CONTINUOUS
 62
7
 10
121.461998
 20
48.673302
 11
119.064003
 21
52.826599
  0
LINE
  8
0
  6
CONTINUOUS
 62
7
 10
119.064003
 20
43.173302
 11
121.461998
 21
47.326698
  0
LINE
  8
0
  6
CONTINUOUS
 62
7
 10
117.898003
 20
42.500000
 11
113.101997
 21
42.500000
  0
LINE
  8
0
  6
CONTINUOUS
 62
7
 10
114.750000
 20
46.363701
 11
114.750000
 21
44.070999
  0
LINE
  8
0
  6
CONTINUOUS
 62
7
 10
116.250000
 20
46.363701
 11
116.250000
 21
44.070999
  0
LINE
  8
0
  6
CONTINUOUS
 62
7
 10
116.250000
 20
51.929100
 11
116.250000
 21
49.636299
  0
LINE
  8
0
  6
CONTINUOUS
 62
7
 10
114.750000
 20
51.929100
 11
114.750000
 21
49.636299
  0
LINE
  8
0
  6
CENTER
 62
2
 10
122.500000
 20
48.000000
 11
108.500000
 21
48.000000
  0
LINE
  8
0
  6
CENTER
 62
2
 10
115.500000
 20
41.000000
 11
115.500000
 21
55.000000
  0
LINE
  8
0
  6
CONTINUOUS
 62
7
 10
111.541000
 20
43.856400
 11
111.935997
 21
43.173401
  0
LINE
  8
0
  6
CONTINUOUS
 62
7
 10
264.500000
 20
50.500000
 11
264.500000
 21
41.500000
  0
LINE
  8
0
  6
CONTINUOUS
 62
7
 10
256.500000
 20
50.500000
 11
256.500000
 21
41.500099
  0
LINE
  8
0
  6
CONTINUOUS
 62
7
 10
255.500000
 20
42.000000
 11
256.500000
 21
42.000000
  0
LINE
  8
0
  6
CONTINUOUS
 62
7
 10
255.500000
 20
54.000000
 11
255.500000
 21
42.000000
  0
LINE
  8
0
  6
CONTINUOUS
 62
7
 10
274.500000
 20
54.000000
 11
255.500000
 21
54.000000
  0
LINE
  8
0
  6
CONTINUOUS
 62
7
 10
274.500000
 20
54.000000
 11
274.500000
 21
42.000000
  0
LINE
  8
0
  6
CENTER
 62
2
 10
261.500000
 20
41.000000
 11
261.500000
 21
55.000000
  0
LINE
  8
0
  6
CENTER
 62
2
 10
254.500000
 20
48.000000
 11
268.500000
 21
48.000000
  0
LINE
  8
0
  6
CONTINUOUS
 62
7
 10
256.500000
 20
50.500000
 11
264.500000
 21
50.500000
  0
LINE
  8
0
  6
CONTINUOUS
 62
7
 10
264.500000
 20
42.000000
 11
275.000000
 21
42.000000
  0
LINE
  8
0
  6
CONTINUOUS
 62
7
 10
235.699997
 20
-101.000000
 11
221.500000
 21
-101.000000
  0
LINE
  8
0
  6
CONTINUOUS
 62
7
 10
221.500000
 20
-104.500000
 11
164.500000
 21
-104.500000
  0
LINE
  8
0
  6
CONTINUOUS
 62
7
 10
221.500000
 20
-92.500000
 11
221.500000
 21
-104.500000
  0
LINE
  8
0
  6
CONTINUOUS
 62
7
 10
164.500000
 20
-92.500000
 11
164.500000
 21
-104.500000
  0
LINE
  8
0
  6
CENTER
 62
2
 10
142.199997
 20
-98.500000
 11
165.500000
 21
-98.500000
  0
LINE
  8
0
  6
CONTINUOUS
 62
7
 10
164.500000
 20
-93.000000
 11
162.500000
 21
-93.000000
  0
LINE
  8
0
  6
CONTINUOUS
 62
7
 10
162.500000
 20
-104.000000
 11
162.500000
 21
-93.000000
  0
LINE
  8
0
  6
CONTINUOUS
 62
7
 10
164.500000
 20
-93.673302
 11
162.500000
 21
-93.673302
  0
LINE
  8
0
  6
CONTINUOUS
 62
7
 10
164.500000
 20
-97.826599
 11
162.500000
 21
-97.826599
  0
LINE
  8
0
  6
CONTINUOUS
 62
7
 10
164.500000
 20
-99.173302
 11
162.500000
 21
-99.173302
  0
LINE
  8
0
  6
CONTINUOUS
 62
7
 10
164.500000
 20
-103.327003
 11
162.500000
 21
-103.327003
  0
LINE
  8
0
  6
CONTINUOUS
 62
7
 10
164.500000
 20
-104.000000
 11
162.500000
 21
-104.000000
  0
LINE
  8
0
  6
CONTINUOUS
 62
7
 10
162.500000
 20
-94.500000
 11
157.500000
 21
-94.500000
  0
LINE
  8
0
  6
CONTINUOUS
 62
2
 10
162.500000
 20
-95.199997
 11
157.500000
 21
-95.199997
  0
LINE
  8
0
  6
CONTINUOUS
 62
2
 10
162.500000
 20
-101.800003
 11
144.199997
 21
-101.800003
  0
LINE
  8
0
  6
CONTINUOUS
 62
7
 10
162.500000
 20
-102.500000
 11
144.199997
 21
-102.500000
  0
LINE
  8
0
  6
CONTINUOUS
 62
7
 10
144.199997
 20
-95.199997
 11
143.199997
 21
-95.199997
  0
LINE
  8
0
  6
CONTINUOUS
 62
7
 10
144.199997
 20
-94.500000
 11
144.199997
 21
-102.500000
  0
LINE
  8
0
  6
CONTINUOUS
 62
7
 10
143.199997
 20
-95.199997
 11
143.199997
 21
-101.800003
  0
LINE
  8
0
  6
CONTINUOUS
 62
7
 10
144.199997
 20
-101.800003
 11
143.199997
 21
-101.800003
  0
LINE
  8
0
  6
CONTINUOUS
 62
7
 10
235.699997
 20
-93.099998
 11
235.699997
 21
-101.000000
  0
LINE
  8
0
  6
CONTINUOUS
 62
7
 10
150.500000
 20
-94.500000
 11
144.199997
 21
-94.500000
  0
LINE
  8
0
  6
CONTINUOUS
 62
2
 10
150.500000
 20
-95.199997
 11
144.199997
 21
-95.199997
  0
LINE
  8
0
  6
CENTER
 62
2
 10
-151.000000
 20
28.000000
 11
-223.000000
 21
28.000000
  0
LINE
  8
0
  6
CONTINUOUS
 62
7
 10
-154.300003
 20
41.500000
 11
-222.000000
 21
41.500000
  0
LINE
  8
0
  6
CONTINUOUS
 62
7
 10
-155.000000
 20
14.500000
 11
-222.000000
 21
14.500000
  0
LINE
  8
0
  6
CONTINUOUS
 62
7
 10
-155.000000
 20
21.000000
 11
-214.000000
 21
21.000000
  0
LINE
  8
0
  6
CONTINUOUS
 62
7
 10
-155.000000
 20
35.000000
 11
-214.000000
 21
35.000000
  0
LINE
  8
0
  6
CONTINUOUS
 62
7
 10
-152.000000
 20
14.000000
 11
-196.350006
 21
14.000000
  0
LINE
  8
0
  6
CONTINUOUS
 62
7
 10
-152.000000
 20
42.000000
 11
-152.000000
 21
14.000000
  0
LINE
  8
0
  6
CONTINUOUS
 62
7
 10
-214.000000
 20
41.500000
 11
-214.000000
 21
14.500000
  0
LINE
  8
0
  6
CONTINUOUS
 62
7
 10
-155.000000
 20
41.500000
 11
-155.000000
 21
14.500000
  0
LINE
  8
0
  6
CONTINUOUS
 62
7
 10
-212.000000
 20
14.500000
 11
-212.000000
 21
14.000000
  0
LINE
  8
0
  6
CONTINUOUS
 62
7
 10
-212.000000
 20
42.000000
 11
-212.000000
 21
41.500000
  0
LINE
  8
0
  6
CONTINUOUS
 62
7
 10
-152.000000
 20
42.000000
 11
-154.300003
 21
42.000000
  0
LINE
  8
0
  6
CONTINUOUS
 62
7
 10
-199.649994
 20
14.000000
 11
-199.649994
 21
14.500000
  0
LINE
  8
0
  6
CONTINUOUS
 62
7
 10
-196.350006
 20
14.000000
 11
-196.350006
 21
14.500000
  0
LINE
  8
0
  6
CONTINUOUS
 62
7
 10
-196.350006
 20
41.500000
 11
-196.350006
 21
42.000000
  0
LINE
  8
0
  6
CONTINUOUS
 62
7
 10
-199.649994
 20
41.500000
 11
-199.649994
 21
42.000000
  0
LINE
  8
0
  6
CONTINUOUS
 62
7
 10
-199.649994
 20
14.000000
 11
-212.000000
 21
14.000000
  0
LINE
  8
0
  6
CONTINUOUS
 62
7
 10
-199.649994
 20
42.000000
 11
-212.000000
 21
42.000000
  0
LINE
  8
0
  6
CONTINUOUS
 62
7
 10
-222.000000
 20
41.500000
 11
-222.000000
 21
14.500000
  0
LINE
  8
0
  6
CENTER
 62
2
 10
-205.000000
 20
40.500000
 11
-205.000000
 21
35.500000
  0
LINE
  8
0
  6
CENTER
 62
2
 10
-207.500000
 20
38.000000
 11
-202.500000
 21
38.000000
  0
LINE
  8
0
  6
CENTER
 62
2
 10
-205.000000
 20
20.500000
 11
-205.000000
 21
15.500000
  0
LINE
  8
0
  6
CENTER
 62
2
 10
-207.500000
 20
18.000000
 11
-202.500000
 21
18.000000
  0
LINE
  8
0
  6
CENTER
 62
2
 10
-169.000000
 20
40.500000
 11
-169.000000
 21
35.500000
  0
LINE
  8
0
  6
CENTER
 62
2
 10
-171.500000
 20
38.000000
 11
-166.500000
 21
38.000000
  0
LINE
  8
0
  6
CENTER
 62
2
 10
-183.000000
 20
41.099998
 11
-183.000000
 21
35.900002
  0
LINE
  8
0
  6
CENTER
 62
2
 10
-185.600006
 20
38.500000
 11
-180.399994
 21
38.500000
  0
LINE
  8
0
  6
CENTER
 62
2
 10
-169.000000
 20
20.500000
 11
-169.000000
 21
15.500000
  0
LINE
  8
0
  6
CENTER
 62
2
 10
-171.500000
 20
18.000000
 11
-166.500000
 21
18.000000
  0
LINE
  8
0
  6
CENTER
 62
2
 10
-187.000000
 20
40.500000
 11
-187.000000
 21
35.500000
  0
LINE
  8
0
  6
CENTER
 62
2
 10
-189.500000
 20
38.000000
 11
-184.500000
 21
38.000000
  0
LINE
  8
0
  6
CENTER
 62
2
 10
-187.000000
 20
20.500000
 11
-187.000000
 21
15.500000
  0
LINE
  8
0
  6
CENTER
 62
2
 10
-189.500000
 20
18.000000
 11
-184.500000
 21
18.000000
  0
LINE
  8
0
  6
CONTINUOUS
 62
7
 10
-153.800003
 20
14.700000
 11
-155.000000
 21
14.700000
  0
LINE
  8
0
  6
CONTINUOUS
 62
7
 10
-153.800003
 20
19.250000
 11
-153.800003
 21
14.700000
  0
LINE
  8
0
  6
CONTINUOUS
 62
7
 10
-153.800003
 20
33.250000
 11
-153.800003
 21
22.750000
  0
LINE
  8
0
  6
CONTINUOUS
 62
7
 10
-154.399994
 20
33.250000
 11
-154.399994
 21
36.750000
  0
LINE
  8
0
  6
CONTINUOUS
 62
7
 10
-154.399994
 20
33.250000
 11
-153.399994
 21
33.250000
  0
LINE
  8
0
  6
CONTINUOUS
 62
7
 10
-153.399994
 20
33.250000
 11
-153.399994
 21
36.750000
  0
LINE
  8
0
  6
CONTINUOUS
 62
7
 10
-154.399994
 20
36.750000
 11
-153.399994
 21
36.750000
  0
LINE
  8
0
  6
CONTINUOUS
 62
7
 10
-153.800003
 20
36.750000
 11
-153.800003
 21
41.299999
  0
LINE
  8
0
  6
CONTINUOUS
 62
7
 10
-153.800003
 20
41.299999
 11
-155.000000
 21
41.299999
  0
LINE
  8
0
  6
CONTINUOUS
 62
7
 10
-209.899994
 20
42.599998
 11
-209.899994
 21
42.000000
  0
LINE
  8
0
  6
CONTINUOUS
 62
7
 10
-154.399994
 20
22.750000
 11
-154.399994
 21
19.250000
  0
LINE
  8
0
  6
CONTINUOUS
 62
7
 10
-154.399994
 20
22.750000
 11
-153.399994
 21
22.750000
  0
LINE
  8
0
  6
CONTINUOUS
 62
7
 10
-153.399994
 20
19.250000
 11
-153.399994
 21
22.750000
  0
LINE
  8
0
  6
CONTINUOUS
 62
7
 10
-154.399994
 20
19.250000
 11
-153.399994
 21
19.250000
  0
LINE
  8
0
  6
DASHED
 62
2
 10
-196.350006
 20
17.500000
 11
-196.350006
 21
14.500000
  0
LINE
  8
0
  6
DASHED
 62
2
 10
-199.649994
 20
17.500000
 11
-199.649994
 21
14.500000
  0
LINE
  8
0
  6
DASHED
 62
2
 10
-196.350006
 20
38.500000
 11
-196.350006
 21
41.500000
  0
LINE
  8
0
  6
DASHED
 62
2
 10
-199.649994
 20
38.500000
 11
-199.649994
 21
41.500000
  0
LINE
  8
0
  6
CENTER
 62
2
 10
-166.000000
 20
42.500000
 11
-166.000000
 21
34.500000
  0
LINE
  8
0
  6
CENTER
 62
2
 10
-170.000000
 20
38.500000
 11
-162.000000
 21
38.500000
  0
LINE
  8
0
  6
CENTER
 62
2
 10
-166.000000
 20
21.500000
 11
-166.000000
 21
13.500000
  0
LINE
  8
0
  6
CENTER
 62
2
 10
-170.000000
 20
17.500000
 11
-162.000000
 21
17.500000
  0
LINE
  8
0
  6
CENTER
 62
2
 10
-198.000000
 20
21.500000
 11
-198.000000
 21
13.500000
  0
LINE
  8
0
  6
CENTER
 62
2
 10
-202.000000
 20
17.500000
 11
-194.000000
 21
17.500000
  0
LINE
  8
0
  6
CENTER
 62
2
 10
-198.000000
 20
42.500000
 11
-198.000000
 21
34.500000
  0
LINE
  8
0
  6
CENTER
 62
2
 10
-202.000000
 20
38.500000
 11
-194.000000
 21
38.500000
  0
LINE
  8
0
  6
CENTER
 62
2
 10
-206.000000
 20
45.000099
 11
-206.000000
 21
41.000000
  0
LINE
  8
0
  6
CENTER
 62
2
 10
-158.000000
 20
45.000099
 11
-158.000000
 21
41.000000
  0
LINE
  8
0
  6
CONTINUOUS
 62
7
 10
-202.000000
 20
42.599998
 11
-202.000000
 21
42.000000
  0
LINE
  8
0
  6
CONTINUOUS
 62
7
 10
-209.500000
 20
44.000099
 11
-209.500000
 21
42.599998
  0
LINE
  8
0
  6
CONTINUOUS
 62
7
 10
-202.500000
 20
44.000099
 11
-202.500000
 21
42.599998
  0
LINE
  8
0
  6
CONTINUOUS
 62
7
 10
-202.000000
 20
42.599998
 11
-209.899994
 21
42.599998
  0
LINE
  8
0
  6
CENTER
 62
2
 10
-224.000000
 20
38.000000
 11
-220.000000
 21
38.000000
  0
LINE
  8
0
  6
CENTER
 62
2
 10
-224.000000
 20
18.000000
 11
-220.000000
 21
18.000000
  0
LINE
  8
0
  6
CONTINUOUS
 62
7
 10
-214.000000
 20
91.500000
 11
-214.000000
 21
83.000000
  0
LINE
  8
0
  6
CONTINUOUS
 62
7
 10
-222.000000
 20
91.500000
 11
-222.000000
 21
73.000000
  0
LINE
  8
0
  6
CONTINUOUS
 62
7
 10
-214.000000
 20
89.500000
 11
-212.000000
 21
89.500000
  0
LINE
  8
0
  6
CONTINUOUS
 62
7
 10
-222.000000
 20
91.500000
 11
-214.000000
 21
91.500000
  0
LINE
  8
0
  6
CONTINUOUS
 62
7
 10
-222.000000
 20
73.000000
 11
-214.000000
 21
73.000000
  0
LINE
  8
0
  6
CONTINUOUS
 62
7
 10
-214.000000
 20
72.500000
 11
-155.000000
 21
72.500000
  0
LINE
  8
0
  6
CONTINUOUS
 62
7
 10
-212.000000
 20
92.500000
 11
-212.000000
 21
83.000000
  0
LINE
  8
0
  6
CONTINUOUS
 62
7
 10
-152.000000
 20
92.500000
 11
-152.000000
 21
77.000000
  0
LINE
  8
0
  6
CONTINUOUS
 62
7
 10
-212.000000
 20
92.500000
 11
-152.000000
 21
92.500000
  0
LINE
  8
0
  6
CONTINUOUS
 62
7
 10
-162.800003
 20
87.000000
 11
-168.500000
 21
87.000000
  0
LINE
  8
0
  6
CONTINUOUS
 62
7
 10
-215.800003
 20
83.000000
 11
-197.500000
 21
83.000000
  0
LINE
  8
0
  6
DASHED
 62
2
 10
-183.000000
 20
88.500000
 11
-189.000000
 21
88.500000
  0
LINE
  8
0
  6
CONTINUOUS
 62
7
 10
-184.800003
 20
82.500000
 11
-153.800003
 21
82.500000
  0
LINE
  8
0
  6
CONTINUOUS
 62
7
 10
-201.199997
 20
87.000000
 11
-195.500000
 21
87.000000
  0
LINE
  8
0
  6
CONTINUOUS
 62
7
 10
-153.399994
 20
77.000000
 11
-152.000000
 21
77.000000
  0
LINE
  8
0
  6
CONTINUOUS
 62
7
 10
-153.800003
 20
77.903397
 11
-152.000000
 21
77.903397
  0
LINE
  8
0
  6
CONTINUOUS
 62
7
 10
-153.800003
 20
80.096603
 11
-152.000000
 21
80.096603
  0
LINE
  8
0
  6
CONTINUOUS
 62
7
 10
-155.000000
 20
82.500000
 11
-155.000000
 21
82.000000
  0
LINE
  8
0
  6
CONTINUOUS
 62
7
 10
-199.649994
 20
92.500000
 11
-199.649994
 21
87.000000
  0
LINE
  8
0
  6
DASHED
 62
2
 10
-201.000000
 20
87.500000
 11
-199.649994
 21
87.500000
  0
LINE
  8
0
  6
CENTER
 62
2
 10
-198.000000
 20
93.500000
 11
-198.000000
 21
86.000000
  0
LINE
  8
0
  6
CONTINUOUS
 62
7
 10
-196.350006
 20
92.500000
 11
-196.350006
 21
87.000000
  0
LINE
  8
0
  6
CONTINUOUS
 62
7
 10
-206.000000
 20
82.958603
 11
-202.500000
 21
84.979301
  0
LINE
  8
0
  6
CONTINUOUS
 62
7
 10
-202.500000
 20
89.020798
 11
-202.500000
 21
84.979301
  0
LINE
  8
0
  6
CONTINUOUS
 62
7
 10
-206.000000
 20
91.041496
 11
-202.500000
 21
89.020798
  0
LINE
  8
0
  6
CONTINUOUS
 62
7
 10
-209.500000
 20
89.020699
 11
-206.000000
 21
91.041496
  0
LINE
  8
0
  6
CONTINUOUS
 62
7
 10
-209.500000
 20
84.979301
 11
-209.500000
 21
89.020798
  0
LINE
  8
0
  6
CONTINUOUS
 62
7
 10
-202.500000
 20
87.500000
 11
-209.500000
 21
87.500000
  0
LINE
  8
0
  6
CONTINUOUS
 62
7
 10
-202.500000
 20
86.500000
 11
-209.500000
 21
86.500000
  0
LINE
  8
0
  6
CONTINUOUS
 62
7
 10
-209.500000
 20
84.979301
 11
-206.000000
 21
82.958603
  0
LINE
  8
0
  6
CONTINUOUS
 62
7
 10
-158.000000
 20
82.958504
 11
-154.500000
 21
84.979202
  0
LINE
  8
0
  6
CONTINUOUS
 62
7
 10
-154.500000
 20
89.020798
 11
-154.500000
 21
84.979301
  0
LINE
  8
0
  6
CONTINUOUS
 62
7
 10
-158.000000
 20
91.041496
 11
-154.500000
 21
89.020798
  0
LINE
  8
0
  6
CONTINUOUS
 62
7
 10
-161.500000
 20
89.020699
 11
-158.000000
 21
91.041496
  0
LINE
  8
0
  6
CONTINUOUS
 62
7
 10
-161.500000
 20
84.979301
 11
-161.500000
 21
89.020798
  0
LINE
  8
0
  6
CONTINUOUS
 62
7
 10
-154.500000
 20
87.500000
 11
-161.500000
 21
87.500000
  0
LINE
  8
0
  6
CONTINUOUS
 62
7
 10
-154.500000
 20
86.500000
 11
-161.500000
 21
86.500000
  0
LINE
  8
0
  6
CONTINUOUS
 62
7
 10
-161.500000
 20
84.979301
 11
-158.000000
 21
82.958603
  0
LINE
  8
0
  6
CONTINUOUS
 62
7
 10
-155.000000
 20
73.000000
 11
-153.800003
 21
73.000000
  0
LINE
  8
0
  6
CONTINUOUS
 62
7
 10
-153.800003
 20
82.500000
 11
-153.800003
 21
73.000000
  0
LINE
  8
0
  6
CONTINUOUS
 62
7
 10
-153.399994
 20
77.250000
 11
-153.399994
 21
73.750000
  0
LINE
  8
0
  6
CONTINUOUS
 62
7
 10
-153.800003
 20
73.750000
 11
-153.399994
 21
73.750000
  0
LINE
  8
0
  6
CONTINUOUS
 62
7
 10
-153.800003
 20
77.250000
 11
-153.399994
 21
77.250000
  0
LINE
  8
0
  6
CENTER
 62
2
 10
-158.000000
 20
92.041496
 11
-158.000000
 21
81.958603
  0
LINE
  8
0
  6
CENTER
 62
2
 10
-163.041000
 20
87.000000
 11
-152.959000
 21
87.000000
  0
LINE
  8
0
  6
CENTER
 62
2
 10
-206.000000
 20
92.041496
 11
-206.000000
 21
81.958603
  0
LINE
  8
0
  6
CENTER
 62
2
 10
-211.041000
 20
87.000000
 11
-200.959000
 21
87.000000
  0
LINE
  8
0
  6
CENTER
 62
2
 10
-172.149994
 20
78.199997
 11
-172.149994
 21
74.199997
  0
LINE
  8
0
  6
CENTER
 62
2
 10
-174.149994
 20
76.199997
 11
-170.149994
 21
76.199997
  0
LINE
  8
0
  6
CENTER
 62
2
 10
-186.000000
 20
93.500000
 11
-186.000000
 21
87.500000
  0
LINE
  8
0
  6
DASHED
 62
2
 10
-188.000000
 20
90.900002
 11
-188.000000
 21
88.500000
  0
LINE
  8
0
  6
DASHED
 62
2
 10
-184.000000
 20
90.900002
 11
-184.000000
 21
88.500000
  0
LINE
  8
0
  6
DASHED
 62
2
 10
-188.500000
 20
92.500000
 11
-188.500000
 21
90.900002
  0
LINE
  8
0
  6
DASHED
 62
2
 10
-183.500000
 20
92.500000
 11
-183.500000
 21
90.900002
  0
LINE
  8
0
  6
DASHED
 62
2
 10
-168.000000
 20
92.500000
 11
-168.000000
 21
87.500000
  0
LINE
  8
0
  6
CENTER
 62
2
 10
-166.000000
 20
93.500000
 11
-166.000000
 21
86.000000
  0
LINE
  8
0
  6
DASHED
 62
2
 10
-169.000000
 20
87.500000
 11
-169.000000
 21
86.992500
  0
LINE
  8
0
  6
DASHED
 62
2
 10
-169.000000
 20
87.500000
 11
-163.000000
 21
87.500000
  0
LINE
  8
0
  6
DASHED
 62
2
 10
-163.000000
 20
87.500000
 11
-163.000000
 21
87.000000
  0
LINE
  8
0
  6
DASHED
 62
2
 10
-164.000000
 20
92.500000
 11
-164.000000
 21
87.500000
  0
LINE
  8
0
  6
CENTER
 62
2
 10
-205.000000
 20
74.500000
 11
-205.000000
 21
70.500000
  0
LINE
  8
0
  6
CENTER
 62
2
 10
-187.000000
 20
74.500000
 11
-187.000000
 21
70.500000
  0
LINE
  8
0
  6
CENTER
 62
2
 10
-169.000000
 20
74.500000
 11
-169.000000
 21
70.500000
  0
LINE
  8
0
  6
CENTER
 62
2
 10
-224.000000
 20
85.500000
 11
-220.000000
 21
85.500000
  0
LINE
  8
0
  6
CENTER
 62
2
 10
-224.000000
 20
76.500000
 11
-220.000000
 21
76.500000
  0
LINE
  8
0
  6
DASHED
 62
2
 10
-201.000000
 20
87.500000
 11
-201.000000
 21
87.000000
  0
LINE
  8
0
  6
DASHED
 62
2
 10
-195.000000
 20
87.500000
 11
-195.000000
 21
87.000000
  0
LINE
  8
0
  6
CONTINUOUS
 62
7
 10
-199.649994
 20
87.500000
 11
-196.350006
 21
87.500000
  0
LINE
  8
0
  6
DASHED
 62
2
 10
-196.350006
 20
87.500000
 11
-195.000000
 21
87.500000
  0
LINE
  8
0
  6
CONTINUOUS
 62
7
 10
-214.000000
 20
-92.000000
 11
-214.000000
 21
-65.000000
  0
LINE
  8
0
  6
CONTINUOUS
 62
7
 10
-196.350006
 20
-92.000000
 11
-199.649994
 21
-92.000000
  0
LINE
  8
0
  6
CONTINUOUS
 62
7
 10
-196.350006
 20
-65.000000
 11
-199.649994
 21
-65.000000
  0
LINE
  8
0
  6
CONTINUOUS
 62
7
 10
-212.000000
 20
-92.500000
 11
-212.000000
 21
-64.500000
  0
LINE
  8
0
  6
CONTINUOUS
 62
7
 10
-152.000000
 20
-64.500000
 11
-196.350006
 21
-64.500000
  0
LINE
  8
0
  6
CONTINUOUS
 62
7
 10
-152.000000
 20
-92.500000
 11
-152.000000
 21
-64.500000
  0
LINE
  8
0
  6
CENTER
 62
2
 10
-151.000000
 20
-78.500000
 11
-223.000000
 21
-78.500000
  0
LINE
  8
0
  6
CONTINUOUS
 62
7
 10
-152.000000
 20
-92.500000
 11
-196.350006
 21
-92.500000
  0
LINE
  8
0
  6
CONTINUOUS
 62
7
 10
-199.649994
 20
-64.500000
 11
-212.000000
 21
-64.500000
  0
LINE
  8
0
  6
CONTINUOUS
 62
7
 10
-199.649994
 20
-92.500000
 11
-212.000000
 21
-92.500000
  0
LINE
  8
0
  6
CONTINUOUS
 62
7
 10
-212.000000
 20
-65.000000
 11
-222.000000
 21
-65.000000
  0
LINE
  8
0
  6
CONTINUOUS
 62
7
 10
-212.000000
 20
-92.000000
 11
-222.000000
 21
-92.000000
  0
LINE
  8
0
  6
CONTINUOUS
 62
7
 10
-222.000000
 20
-92.000000
 11
-222.000000
 21
-65.000000
  0
LINE
  8
0
  6
CONTINUOUS
 62
7
 10
-212.000000
 20
-82.500000
 11
-214.000000
 21
-82.500000
  0
LINE
  8
0
  6
CONTINUOUS
 62
7
 10
-212.000000
 20
-74.500000
 11
-214.000000
 21
-74.500000
  0
LINE
  8
0
  6
CONTINUOUS
 62
7
 10
-202.500000
 20
-96.000000
 11
-209.500000
 21
-96.000000
  0
LINE
  8
0
  6
CONTINUOUS
 62
7
 10
-154.500000
 20
-96.000000
 11
-161.500000
 21
-96.000000
  0
LINE
  8
0
  6
CENTER
 62
2
 10
-198.000000
 20
-65.349998
 11
-198.000000
 21
-70.650002
  0
LINE
  8
0
  6
CENTER
 62
2
 10
-200.649994
 20
-68.000000
 11
-195.350006
 21
-68.000000
  0
LINE
  8
0
  6
CENTER
 62
2
 10
-198.000000
 20
-86.349998
 11
-198.000000
 21
-91.650002
  0
LINE
  8
0
  6
CENTER
 62
2
 10
-200.649994
 20
-89.000000
 11
-195.350006
 21
-89.000000
  0
LINE
  8
0
  6
CENTER
 62
2
 10
-186.000000
 20
-85.500000
 11
-186.000000
 21
-92.500000
  0
LINE
  8
0
  6
CENTER
 62
2
 10
-189.500000
 20
-89.000000
 11
-182.500000
 21
-89.000000
  0
LINE
  8
0
  6
CENTER
 62
2
 10
-186.000000
 20
-64.500000
 11
-186.000000
 21
-71.500000
  0
LINE
  8
0
  6
CENTER
 62
2
 10
-189.500000
 20
-68.000000
 11
-182.500000
 21
-68.000000
  0
LINE
  8
0
  6
CENTER
 62
2
 10
-166.000000
 20
-65.000000
 11
-166.000000
 21
-71.000000
  0
LINE
  8
0
  6
CENTER
 62
2
 10
-169.000000
 20
-68.000000
 11
-163.000000
 21
-68.000000
  0
LINE
  8
0
  6
CENTER
 62
2
 10
-166.000000
 20
-86.000000
 11
-166.000000
 21
-92.000000
  0
LINE
  8
0
  6
CENTER
 62
2
 10
-169.000000
 20
-89.000000
 11
-163.000000
 21
-89.000000
  0
LINE
  8
0
  6
CONTINUOUS
 62
7
 10
-199.649994
 20
-64.500000
 11
-199.649994
 21
-68.000000
  0
LINE
  8
0
  6
CONTINUOUS
 62
7
 10
-196.350006
 20
-64.500000
 11
-196.350006
 21
-68.000000
  0
LINE
  8
0
  6
CONTINUOUS
 62
7
 10
-199.649994
 20
-89.000000
 11
-199.649994
 21
-92.500000
  0
LINE
  8
0
  6
CONTINUOUS
 62
7
 10
-196.350006
 20
-89.000000
 11
-196.350006
 21
-92.500000
  0
LINE
  8
0
  6
CENTER
 62
2
 10
-206.000000
 20
-91.500000
 11
-206.000000
 21
-97.000000
  0
LINE
  8
0
  6
CONTINUOUS
 62
7
 10
-202.100006
 20
-93.099998
 11
-209.899994
 21
-93.099998
  0
LINE
  8
0
  6
CONTINUOUS
 62
7
 10
-209.899994
 20
-92.500000
 11
-209.899994
 21
-93.099998
  0
LINE
  8
0
  6
CONTINUOUS
 62
7
 10
-202.100006
 20
-92.500000
 11
-202.100006
 21
-93.099998
  0
LINE
  8
0
  6
CONTINUOUS
 62
7
 10
-202.500000
 20
-93.099998
 11
-202.500000
 21
-96.000000
  0
LINE
  8
0
  6
CONTINUOUS
 62
7
 10
-209.500000
 20
-93.099998
 11
-209.500000
 21
-96.000000
  0
LINE
  8
0
  6
CENTER
 62
2
 10
-158.000000
 20
-97.000000
 11
-158.000000
 21
-91.500000
  0
LINE
  8
0
  6
CONTINUOUS
 62
7
 10
-154.100006
 20
-93.099998
 11
-161.899994
 21
-93.099998
  0
LINE
  8
0
  6
CONTINUOUS
 62
7
 10
-154.100006
 20
-93.099998
 11
-154.100006
 21
-92.500000
  0
LINE
  8
0
  6
CONTINUOUS
 62
7
 10
-161.899994
 20
-93.099998
 11
-161.899994
 21
-92.500000
  0
LINE
  8
0
  6
CONTINUOUS
 62
7
 10
-154.500000
 20
-96.000000
 11
-154.500000
 21
-93.099998
  0
LINE
  8
0
  6
CONTINUOUS
 62
7
 10
-161.500000
 20
-96.000000
 11
-161.500000
 21
-93.099998
  0
LINE
  8
0
  6
CONTINUOUS
 62
7
 10
-214.000000
 20
-35.500000
 11
-214.000000
 21
-16.500000
  0
LINE
  8
0
  6
CONTINUOUS
 62
7
 10
-222.000000
 20
-35.500000
 11
-222.000000
 21
-17.000000
  0
LINE
  8
0
  6
CONTINUOUS
 62
7
 10
-214.000000
 20
-33.500000
 11
-212.000000
 21
-33.500000
  0
LINE
  8
0
  6
CONTINUOUS
 62
7
 10
-222.000000
 20
-35.500000
 11
-214.000000
 21
-35.500000
  0
LINE
  8
0
  6
CONTINUOUS
 62
7
 10
-222.000000
 20
-17.000000
 11
-214.000000
 21
-17.000000
  0
LINE
  8
0
  6
CONTINUOUS
 62
7
 10
-214.000000
 20
-16.500000
 11
-155.000000
 21
-16.500000
  0
LINE
  8
0
  6
CONTINUOUS
 62
7
 10
-212.000000
 20
-36.500000
 11
-212.000000
 21
-26.500000
  0
LINE
  8
0
  6
CONTINUOUS
 62
7
 10
-152.000000
 20
-36.500000
 11
-152.000000
 21
-21.000000
  0
LINE
  8
0
  6
CONTINUOUS
 62
7
 10
-212.000000
 20
-36.500000
 11
-152.000000
 21
-36.500000
  0
LINE
  8
0
  6
CONTINUOUS
 62
7
 10
-162.800003
 20
-31.000000
 11
-169.401993
 21
-31.000000
  0
LINE
  8
0
  6
CONTINUOUS
 62
7
 10
-212.000000
 20
-27.000000
 11
-152.000000
 21
-27.000000
  0
LINE
  8
0
  6
CONTINUOUS
 62
7
 10
-175.000000
 20
-32.500000
 11
-189.000000
 21
-32.500000
  0
LINE
  8
0
  6
CONTINUOUS
 62
7
 10
-214.000000
 20
-26.500000
 11
-153.800003
 21
-26.500000
  0
LINE
  8
0
  6
CONTINUOUS
 62
7
 10
-201.199997
 20
-31.000000
 11
-194.598007
 21
-31.000000
  0
LINE
  8
0
  6
CONTINUOUS
 62
7
 10
-153.399994
 20
-21.000000
 11
-152.000000
 21
-21.000000
  0
LINE
  8
0
  6
CONTINUOUS
 62
7
 10
-153.800003
 20
-21.903400
 11
-152.000000
 21
-21.903400
  0
LINE
  8
0
  6
CONTINUOUS
 62
7
 10
-153.800003
 20
-24.096600
 11
-152.000000
 21
-24.096600
  0
LINE
  8
0
  6
CONTINUOUS
 62
7
 10
-155.000000
 20
-26.500000
 11
-155.000000
 21
-16.500000
  0
LINE
  8
0
  6
CONTINUOUS
 62
7
 10
-199.649994
 20
-36.500000
 11
-199.649994
 21
-31.000000
  0
LINE
  8
0
  6
DASHED
 62
2
 10
-201.000000
 20
-31.500000
 11
-199.649994
 21
-31.500000
  0
LINE
  8
0
  6
CENTER
 62
2
 10
-198.000000
 20
-37.500000
 11
-198.000000
 21
-30.000000
  0
LINE
  8
0
  6
CONTINUOUS
 62
7
 10
-196.350006
 20
-36.500000
 11
-196.350006
 21
-31.000000
  0
LINE
  8
0
  6
CONTINUOUS
 62
7
 10
-155.000000
 20
-17.000000
 11
-153.800003
 21
-17.000000
  0
LINE
  8
0
  6
CONTINUOUS
 62
7
 10
-153.800003
 20
-26.500000
 11
-153.800003
 21
-17.000000
  0
LINE
  8
0
  6
CONTINUOUS
 62
7
 10
-153.399994
 20
-21.250000
 11
-153.399994
 21
-17.750000
  0
LINE
  8
0
  6
CONTINUOUS
 62
7
 10
-153.800003
 20
-17.750000
 11
-153.399994
 21
-17.750000
  0
LINE
  8
0
  6
CONTINUOUS
 62
7
 10
-153.800003
 20
-21.250000
 11
-153.399994
 21
-21.250000
  0
LINE
  8
0
  6
CENTER
 62
2
 10
-206.000000
 20
-27.500000
 11
-206.000000
 21
-34.500000
  0
LINE
  8
0
  6
CENTER
 62
2
 10
-209.500000
 20
-31.000000
 11
-202.500000
 21
-31.000000
  0
LINE
  8
0
  6
CENTER
 62
2
 10
-192.000000
 20
-30.000000
 11
-192.000000
 21
-35.000000
  0
LINE
  8
0
  6
CENTER
 62
2
 10
-194.500000
 20
-32.500000
 11
-189.500000
 21
-32.500000
  0
LINE
  8
0
  6
CENTER
 62
2
 10
-172.000000
 20
-30.000000
 11
-172.000000
 21
-35.000000
  0
LINE
  8
0
  6
CENTER
 62
2
 10
-174.500000
 20
-32.500000
 11
-169.500000
 21
-32.500000
  0
LINE
  8
0
  6
CENTER
 62
2
 10
-172.149994
 20
-18.200001
 11
-172.149994
 21
-22.200001
  0
LINE
  8
0
  6
CENTER
 62
2
 10
-174.149994
 20
-20.200001
 11
-170.149994
 21
-20.200001
  0
LINE
  8
0
  6
CENTER
 62
2
 10
-165.300003
 20
-18.000000
 11
-165.300003
 21
-23.000000
  0
LINE
  8
0
  6
CENTER
 62
2
 10
-167.800003
 20
-20.500000
 11
-162.800003
 21
-20.500000
  0
LINE
  8
0
  6
CENTER
 62
2
 10
-162.149994
 20
-18.200001
 11
-162.149994
 21
-22.200001
  0
LINE
  8
0
  6
CENTER
 62
2
 10
-164.149994
 20
-20.200001
 11
-160.149994
 21
-20.200001
  0
LINE
  8
0
  6
CENTER
 62
2
 10
-158.800003
 20
-18.000000
 11
-158.800003
 21
-23.000000
  0
LINE
  8
0
  6
CENTER
 62
2
 10
-161.300003
 20
-20.500000
 11
-156.300003
 21
-20.500000
  0
LINE
  8
0
  6
CENTER
 62
2
 10
-158.000000
 20
-27.500000
 11
-158.000000
 21
-34.500000
  0
LINE
  8
0
  6
CENTER
 62
2
 10
-161.500000
 20
-31.000000
 11
-154.500000
 21
-31.000000
  0
LINE
  8
0
  6
CENTER
 62
2
 10
-186.000000
 20
-37.500000
 11
-186.000000
 21
-31.500000
  0
LINE
  8
0
  6
DASHED
 62
2
 10
-188.000000
 20
-34.900002
 11
-188.000000
 21
-32.500000
  0
LINE
  8
0
  6
DASHED
 62
2
 10
-184.000000
 20
-34.900002
 11
-184.000000
 21
-32.500000
  0
LINE
  8
0
  6
DASHED
 62
2
 10
-188.500000
 20
-36.500000
 11
-188.500000
 21
-34.900002
  0
LINE
  8
0
  6
DASHED
 62
2
 10
-183.500000
 20
-36.500000
 11
-183.500000
 21
-34.900002
  0
LINE
  8
0
  6
DASHED
 62
2
 10
-188.500000
 20
-34.900002
 11
-183.500000
 21
-34.900002
  0
LINE
  8
0
  6
DASHED
 62
2
 10
-168.000000
 20
-36.500000
 11
-168.000000
 21
-31.500000
  0
LINE
  8
0
  6
CENTER
 62
2
 10
-166.000000
 20
-37.500000
 11
-166.000000
 21
-30.000000
  0
LINE
  8
0
  6
DASHED
 62
2
 10
-169.000000
 20
-31.500000
 11
-169.000000
 21
-30.992399
  0
LINE
  8
0
  6
DASHED
 62
2
 10
-169.000000
 20
-31.500000
 11
-163.000000
 21
-31.500000
  0
LINE
  8
0
  6
DASHED
 62
2
 10
-163.000000
 20
-31.500000
 11
-163.000000
 21
-31.000000
  0
LINE
  8
0
  6
DASHED
 62
2
 10
-164.000000
 20
-36.500000
 11
-164.000000
 21
-31.500000
  0
LINE
  8
0
  6
CENTER
 62
2
 10
-205.000000
 20
-14.500000
 11
-205.000000
 21
-18.500000
  0
LINE
  8
0
  6
CENTER
 62
2
 10
-187.000000
 20
-14.500000
 11
-187.000000
 21
-18.500000
  0
LINE
  8
0
  6
CENTER
 62
2
 10
-169.000000
 20
-14.500000
 11
-169.000000
 21
-18.500000
  0
LINE
  8
0
  6
CENTER
 62
2
 10
-224.000000
 20
-29.500000
 11
-220.000000
 21
-29.500000
  0
LINE
  8
0
  6
CENTER
 62
2
 10
-224.000000
 20
-20.500000
 11
-220.000000
 21
-20.500000
  0
LINE
  8
0
  6
DASHED
 62
2
 10
-201.000000
 20
-31.500000
 11
-201.000000
 21
-31.000000
  0
LINE
  8
0
  6
DASHED
 62
2
 10
-195.000000
 20
-31.500000
 11
-195.000000
 21
-31.000000
  0
LINE
  8
0
  6
CONTINUOUS
 62
7
 10
-199.649994
 20
-31.500000
 11
-196.350006
 21
-31.500000
  0
LINE
  8
0
  6
DASHED
 62
2
 10
-196.350006
 20
-31.500000
 11
-195.000000
 21
-31.500000
  0
LINE
  8
0
  6
CONTINUOUS
 62
7
 10
-206.000000
 20
-93.099998
 11
-206.000000
 21
-96.000000
  0
LINE
  8
0
  6
CONTINUOUS
 62
7
 10
-158.000000
 20
-96.000000
 11
-158.000000
 21
-93.099998
  0
LINE
  8
0
  6
CONTINUOUS
 62
7
 10
-195.500000
 20
92.000000
 11
-168.500000
 21
92.000000
  0
LINE
  8
0
  6
CONTINUOUS
 62
7
 10
-195.500000
 20
92.000000
 11
-195.500000
 21
73.000000
  0
LINE
  8
0
  6
CONTINUOUS
 62
7
 10
-197.500000
 20
73.000000
 11
-191.300003
 21
73.000000
  0
LINE
  8
0
  6
CONTINUOUS
 62
7
 10
-169.800003
 20
82.000000
 11
-154.300003
 21
82.000000
  0
LINE
  8
0
  6
CONTINUOUS
 62
7
 10
-154.300003
 20
74.000000
 11
-154.300003
 21
82.000000
  0
LINE
  8
0
  6
CONTINUOUS
 62
7
 10
-169.800003
 20
74.000000
 11
-154.300003
 21
74.000000
  0
LINE
  8
0
  6
CONTINUOUS
 62
7
 10
-168.500000
 20
92.000000
 11
-168.500000
 21
85.000000
  0
LINE
  8
0
  6
CONTINUOUS
 62
7
 10
-169.800003
 20
74.000000
 11
-169.800003
 21
82.000000
  0
LINE
  8
0
  6
CONTINUOUS
 62
7
 10
-189.800003
 20
85.000000
 11
-168.500000
 21
85.000000
  0
LINE
  8
0
  6
CONTINUOUS
 62
7
 10
-190.800003
 20
84.500000
 11
-184.800003
 21
84.500000
  0
LINE
  8
0
  6
CONTINUOUS
 62
7
 10
-184.800003
 20
73.500000
 11
-184.800003
 21
84.500000
  0
LINE
  8
0
  6
CONTINUOUS
 62
7
 10
-184.800003
 20
80.000000
 11
-180.800003
 21
80.000000
  0
LINE
  8
0
  6
CONTINUOUS
 62
7
 10
-180.800003
 20
78.000000
 11
-180.800003
 21
80.000000
  0
LINE
  8
0
  6
CONTINUOUS
 62
7
 10
-184.800003
 20
78.000000
 11
-180.800003
 21
78.000000
  0
LINE
  8
0
  6
CENTER
 62
2
 10
-217.800003
 20
79.000000
 11
-179.800003
 21
79.000000
  0
LINE
  8
0
  6
CONTINUOUS
 62
7
 10
-190.800003
 20
73.500000
 11
-184.800003
 21
73.500000
  0
LINE
  8
0
  6
CONTINUOUS
 62
7
 10
-191.300003
 20
73.000000
 11
-191.300003
 21
83.500000
  0
LINE
  8
0
  6
CONTINUOUS
 62
7
 10
-190.800003
 20
73.500000
 11
-190.800003
 21
84.500000
  0
LINE
  8
0
  6
CONTINUOUS
 62
7
 10
-197.500000
 20
85.000000
 11
-195.500000
 21
85.000000
  0
LINE
  8
0
  6
CONTINUOUS
 62
7
 10
-197.500000
 20
73.000000
 11
-197.500000
 21
85.000000
  0
LINE
  8
0
  6
CONTINUOUS
 62
7
 10
-197.500000
 20
82.564201
 11
-195.500000
 21
82.564201
  0
LINE
  8
0
  6
CONTINUOUS
 62
7
 10
-197.500000
 20
81.397903
 11
-195.500000
 21
81.397903
  0
LINE
  8
0
  6
CONTINUOUS
 62
7
 10
-197.500000
 20
76.602097
 11
-195.500000
 21
76.602097
  0
LINE
  8
0
  6
CONTINUOUS
 62
7
 10
-197.500000
 20
75.435898
 11
-195.500000
 21
75.435898
  0
LINE
  8
0
  6
CONTINUOUS
 62
2
 10
-190.800003
 20
75.699997
 11
-191.300003
 21
75.699997
  0
LINE
  8
0
  6
CONTINUOUS
 62
7
 10
-190.800003
 20
75.000000
 11
-191.300003
 21
75.000000
  0
LINE
  8
0
  6
CONTINUOUS
 62
2
 10
-190.800003
 20
82.300003
 11
-191.300003
 21
82.300003
  0
LINE
  8
0
  6
CONTINUOUS
 62
7
 10
-190.800003
 20
83.000000
 11
-191.300003
 21
83.000000
  0
LINE
  8
0
  6
CONTINUOUS
 62
7
 10
-215.800003
 20
75.000000
 11
-215.800003
 21
83.000000
  0
LINE
  8
0
  6
CONTINUOUS
 62
7
 10
-215.800003
 20
82.300003
 11
-216.800003
 21
82.300003
  0
LINE
  8
0
  6
CONTINUOUS
 62
7
 10
-216.800003
 20
79.750000
 11
-216.800003
 21
82.300003
  0
LINE
  8
0
  6
CONTINUOUS
 62
7
 10
-215.800003
 20
79.750000
 11
-216.800003
 21
79.750000
  0
LINE
  8
0
  6
CONTINUOUS
 62
7
 10
-215.800003
 20
78.250000
 11
-216.800003
 21
78.250000
  0
LINE
  8
0
  6
CONTINUOUS
 62
7
 10
-216.800003
 20
75.699997
 11
-216.800003
 21
78.250000
  0
LINE
  8
0
  6
CONTINUOUS
 62
7
 10
-215.800003
 20
75.699997
 11
-216.800003
 21
75.699997
  0
LINE
  8
0
  6
CONTINUOUS
 62
7
 10
-197.500000
 20
75.000000
 11
-215.800003
 21
75.000000
  0
LINE
  8
0
  6
CONTINUOUS
 62
2
 10
-197.500000
 20
75.699997
 11
-215.800003
 21
75.699997
  0
LINE
  8
0
  6
CONTINUOUS
 62
2
 10
-197.500000
 20
82.300003
 11
-215.800003
 21
82.300003
  0
LINE
  8
0
  6
CONTINUOUS
 62
7
 10
-184.800003
 20
83.000000
 11
-152.000000
 21
83.000000
  0
LINE
  8
0
  6
CONTINUOUS
 62
7
 10
-214.000000
 20
75.000000
 11
-214.000000
 21
72.500000
  0
LINE
  8
0
  6
CONTINUOUS
 62
7
 10
-155.000000
 20
74.000000
 11
-155.000000
 21
72.500000
  0
LINE
  8
0
  6
CONTINUOUS
 62
7
 10
-169.800003
 20
41.500099
 11
-169.800003
 21
50.500000
  0
LINE
  8
0
  6
CONTINUOUS
 62
7
 10
-154.300003
 20
50.500000
 11
-169.800003
 21
50.500000
  0
LINE
  8
0
  6
CONTINUOUS
 62
7
 10
-154.300003
 20
41.500099
 11
-154.300003
 21
50.500000
  0
LINE
  8
0
  6
CONTINUOUS
 62
7
 10
-195.500000
 20
42.000000
 11
-195.500000
 21
54.000000
  0
LINE
  8
0
  6
CONTINUOUS
 62
7
 10
-184.800003
 20
42.500000
 11
-184.800003
 21
53.500000
  0
LINE
  8
0
  6
CENTER
 62
2
 10
-217.800003
 20
48.000000
 11
-179.800003
 21
48.000000
  0
LINE
  8
0
  6
CONTINUOUS
 62
7
 10
-190.800003
 20
53.500000
 11
-184.800003
 21
53.500000
  0
LINE
  8
0
  6
CONTINUOUS
 62
7
 10
-190.800003
 20
42.500000
 11
-184.800003
 21
42.500000
  0
LINE
  8
0
  6
CONTINUOUS
 62
7
 10
-190.800003
 20
42.500000
 11
-190.800003
 21
53.500000
  0
LINE
  8
0
  6
CONTINUOUS
 62
7
 10
-184.800003
 20
47.000000
 11
-180.800003
 21
47.000000
  0
LINE
  8
0
  6
CONTINUOUS
 62
7
 10
-184.800003
 20
49.000099
 11
-180.800003
 21
49.000099
  0
LINE
  8
0
  6
CONTINUOUS
 62
7
 10
-180.800003
 20
47.000000
 11
-180.800003
 21
49.000099
  0
LINE
  8
0
  6
CONTINUOUS
 62
2
 10
-190.800003
 20
51.299999
 11
-191.300003
 21
51.299999
  0
LINE
  8
0
  6
CONTINUOUS
 62
7
 10
-190.800003
 20
44.000099
 11
-191.300003
 21
44.000099
  0
LINE
  8
0
  6
CONTINUOUS
 62
7
 10
-215.800003
 20
44.700100
 11
-216.800003
 21
44.700100
  0
LINE
  8
0
  6
CONTINUOUS
 62
7
 10
-190.800003
 20
52.000000
 11
-191.300003
 21
52.000000
  0
LINE
  8
0
  6
CONTINUOUS
 62
7
 10
-215.800003
 20
44.000099
 11
-215.800003
 21
52.000000
  0
LINE
  8
0
  6
CONTINUOUS
 62
7
 10
-216.800003
 20
44.700100
 11
-216.800003
 21
51.299999
  0
LINE
  8
0
  6
CONTINUOUS
 62
7
 10
-215.800003
 20
51.299999
 11
-216.800003
 21
51.299999
  0
LINE
  8
0
  6
CONTINUOUS
 62
2
 10
-190.800003
 20
44.700100
 11
-191.300003
 21
44.700100
  0
LINE
  8
0
  6
CONTINUOUS
 62
7
 10
-168.500000
 20
54.000000
 11
-195.500000
 21
54.000000
  0
LINE
  8
0
  6
CONTINUOUS
 62
7
 10
-191.300003
 20
42.000000
 11
-191.300003
 21
54.000000
  0
LINE
  8
0
  6
CONTINUOUS
 62
7
 10
-195.500000
 20
42.500000
 11
-197.500000
 21
42.500000
  0
LINE
  8
0
  6
CONTINUOUS
 62
7
 10
-197.500000
 20
53.500000
 11
-197.500000
 21
42.500000
  0
LINE
  8
0
  6
CONTINUOUS
 62
7
 10
-195.500000
 20
43.173401
 11
-197.500000
 21
43.173401
  0
LINE
  8
0
  6
CONTINUOUS
 62
7
 10
-195.500000
 20
47.326698
 11
-197.500000
 21
47.326698
  0
LINE
  8
0
  6
CONTINUOUS
 62
7
 10
-195.500000
 20
48.673401
 11
-197.500000
 21
48.673401
  0
LINE
  8
0
  6
CONTINUOUS
 62
7
 10
-195.500000
 20
52.826698
 11
-197.500000
 21
52.826698
  0
LINE
  8
0
  6
CONTINUOUS
 62
7
 10
-195.500000
 20
53.500000
 11
-197.500000
 21
53.500000
  0
LINE
  8
0
  6
CONTINUOUS
 62
7
 10
-168.500000
 20
50.500000
 11
-168.500000
 21
54.000000
  0
LINE
  8
0
  6
CONTINUOUS
 62
7
 10
-197.500000
 20
44.000099
 11
-215.800003
 21
44.000099
  0
LINE
  8
0
  6
CONTINUOUS
 62
2
 10
-197.500000
 20
44.700100
 11
-215.800003
 21
44.700100
  0
LINE
  8
0
  6
CONTINUOUS
 62
2
 10
-197.500000
 20
51.299999
 11
-215.800003
 21
51.299999
  0
LINE
  8
0
  6
CONTINUOUS
 62
7
 10
-197.500000
 20
52.000000
 11
-215.800003
 21
52.000000
  0
LINE
  8
0
  6
CONTINUOUS
 62
7
 10
-206.000000
 20
44.000099
 11
-206.000000
 21
42.599998
  0
LINE
  8
0
  6
CONTINUOUS
 62
7
 10
-169.800003
 20
42.000000
 11
-196.350006
 21
42.000000
  0
LINE
  8
0
  6
CONTINUOUS
 62
7
 10
-154.300003
 20
-101.000000
 11
-168.500000
 21
-101.000000
  0
LINE
  8
0
  6
CONTINUOUS
 62
7
 10
-168.500000
 20
-104.500000
 11
-195.500000
 21
-104.500000
  0
LINE
  8
0
  6
CONTINUOUS
 62
7
 10
-168.500000
 20
-92.500000
 11
-168.500000
 21
-104.500000
  0
LINE
  8
0
  6
CONTINUOUS
 62
7
 10
-195.500000
 20
-92.500000
 11
-195.500000
 21
-104.500000
  0
LINE
  8
0
  6
CENTER
 62
2
 10
-217.800003
 20
-98.500000
 11
-194.500000
 21
-98.500000
  0
LINE
  8
0
  6
CONTINUOUS
 62
7
 10
-195.500000
 20
-93.000000
 11
-197.500000
 21
-93.000000
  0
LINE
  8
0
  6
CONTINUOUS
 62
7
 10
-197.500000
 20
-104.000000
 11
-197.500000
 21
-93.000000
  0
LINE
  8
0
  6
CONTINUOUS
 62
7
 10
-195.500000
 20
-93.673302
 11
-197.500000
 21
-93.673302
  0
LINE
  8
0
  6
CONTINUOUS
 62
7
 10
-195.500000
 20
-97.826599
 11
-197.500000
 21
-97.826599
  0
LINE
  8
0
  6
CONTINUOUS
 62
7
 10
-195.500000
 20
-99.173302
 11
-197.500000
 21
-99.173302
  0
LINE
  8
0
  6
CONTINUOUS
 62
7
 10
-195.500000
 20
-103.327003
 11
-197.500000
 21
-103.327003
  0
LINE
  8
0
  6
CONTINUOUS
 62
7
 10
-195.500000
 20
-104.000000
 11
-197.500000
 21
-104.000000
  0
LINE
  8
0
  6
CONTINUOUS
 62
7
 10
-197.500000
 20
-94.500000
 11
-202.500000
 21
-94.500000
  0
LINE
  8
0
  6
CONTINUOUS
 62
2
 10
-197.500000
 20
-95.199997
 11
-202.500000
 21
-95.199997
  0
LINE
  8
0
  6
CONTINUOUS
 62
2
 10
-197.500000
 20
-101.800003
 11
-215.800003
 21
-101.800003
  0
LINE
  8
0
  6
CONTINUOUS
 62
7
 10
-197.500000
 20
-102.500000
 11
-215.800003
 21
-102.500000
  0
LINE
  8
0
  6
CONTINUOUS
 62
7
 10
-215.800003
 20
-95.199997
 11
-216.800003
 21
-95.199997
  0
LINE
  8
0
  6
CONTINUOUS
 62
7
 10
-215.800003
 20
-94.500000
 11
-215.800003
 21
-102.500000
  0
LINE
  8
0
  6
CONTINUOUS
 62
7
 10
-216.800003
 20
-95.199997
 11
-216.800003
 21
-101.800003
  0
LINE
  8
0
  6
CONTINUOUS
 62
7
 10
-215.800003
 20
-101.800003
 11
-216.800003
 21
-101.800003
  0
LINE
  8
0
  6
CONTINUOUS
 62
7
 10
-154.300003
 20
-93.099998
 11
-154.300003
 21
-101.000000
  0
LINE
  8
0
  6
CONTINUOUS
 62
7
 10
-209.500000
 20
-94.500000
 11
-215.800003
 21
-94.500000
  0
LINE
  8
0
  6
CONTINUOUS
 62
2
 10
-209.500000
 20
-95.199997
 11
-215.800003
 21
-95.199997
  0
LINE
  8
0
  6
CENTER
 62
2
 10
203.000000
 20
74.500000
 11
203.000000
 21
70.500000
  0
LINE
  8
0
  6
CENTER
 62
2
 10
173.000000
 20
20.500000
 11
173.000000
 21
15.500000
  0
LINE
  8
0
  6
CENTER
 62
2
 10
170.500000
 20
18.000000
 11
175.500000
 21
18.000000
  0
LINE
  8
0
  6
CENTER
 62
2
 10
173.000000
 20
40.500000
 11
173.000000
 21
35.500000
  0
LINE
  8
0
  6
CENTER
 62
2
 10
170.500000
 20
38.000000
 11
175.500000
 21
38.000000
  0
LINE
  8
0
  6
CONTINUOUS
 62
7
 10
-15.500000
 20
92.000000
 11
26.500000
 21
92.000000
  0
LINE
  8
0
  6
CONTINUOUS
 62
7
 10
-15.500000
 20
92.000000
 11
-15.500000
 21
73.000000
  0
LINE
  8
0
  6
CONTINUOUS
 62
7
 10
-17.500000
 20
73.000000
 11
-11.300000
 21
73.000000
  0
LINE
  8
0
  6
CONTINUOUS
 62
7
 10
25.200001
 20
82.000000
 11
40.700001
 21
82.000000
  0
LINE
  8
0
  6
CONTINUOUS
 62
7
 10
40.700001
 20
74.000000
 11
40.700001
 21
82.000000
  0
LINE
  8
0
  6
CONTINUOUS
 62
7
 10
25.200001
 20
74.000000
 11
40.700001
 21
74.000000
  0
LINE
  8
0
  6
CONTINUOUS
 62
7
 10
26.500000
 20
92.000000
 11
26.500000
 21
85.000000
  0
LINE
  8
0
  6
CONTINUOUS
 62
7
 10
25.200001
 20
74.000000
 11
25.200001
 21
82.000000
  0
LINE
  8
0
  6
CONTINUOUS
 62
7
 10
-9.800020
 20
85.000000
 11
26.500000
 21
85.000000
  0
LINE
  8
0
  6
CONTINUOUS
 62
7
 10
-10.800000
 20
84.500000
 11
-4.800020
 21
84.500000
  0
LINE
  8
0
  6
CONTINUOUS
 62
7
 10
-4.800020
 20
73.500000
 11
-4.800020
 21
84.500000
  0
LINE
  8
0
  6
CONTINUOUS
 62
7
 10
-4.800020
 20
80.000000
 11
-0.800018
 21
80.000000
  0
LINE
  8
0
  6
CONTINUOUS
 62
7
 10
-0.800018
 20
78.000000
 11
-0.800018
 21
80.000000
  0
LINE
  8
0
  6
CONTINUOUS
 62
7
 10
-4.800020
 20
78.000000
 11
-0.800018
 21
78.000000
  0
LINE
  8
0
  6
CENTER
 62
2
 10
-37.799999
 20
79.000000
 11
0.199982
 21
79.000000
  0
LINE
  8
0
  6
CONTINUOUS
 62
7
 10
-10.800000
 20
73.500000
 11
-4.800020
 21
73.500000
  0
LINE
  8
0
  6
CONTINUOUS
 62
7
 10
-11.300000
 20
73.000000
 11
-11.300000
 21
83.500000
  0
LINE
  8
0
  6
CONTINUOUS
 62
7
 10
-10.800000
 20
73.500000
 11
-10.800000
 21
84.500000
  0
LINE
  8
0
  6
CONTINUOUS
 62
7
 10
-17.500000
 20
85.000000
 11
-15.500000
 21
85.000000
  0
LINE
  8
0
  6
CONTINUOUS
 62
7
 10
-17.500000
 20
73.000000
 11
-17.500000
 21
85.000000
  0
LINE
  8
0
  6
CONTINUOUS
 62
7
 10
-17.500000
 20
82.564201
 11
-15.500000
 21
82.564201
  0
LINE
  8
0
  6
CONTINUOUS
 62
7
 10
-17.500000
 20
81.397903
 11
-15.500000
 21
81.397903
  0
LINE
  8
0
  6
CONTINUOUS
 62
7
 10
-17.500000
 20
76.602097
 11
-15.500000
 21
76.602097
  0
LINE
  8
0
  6
CONTINUOUS
 62
7
 10
-17.500000
 20
75.435898
 11
-15.500000
 21
75.435898
  0
LINE
  8
0
  6
CONTINUOUS
 62
2
 10
-10.800000
 20
75.699997
 11
-11.300000
 21
75.699997
  0
LINE
  8
0
  6
CONTINUOUS
 62
7
 10
-10.800000
 20
75.000000
 11
-11.300000
 21
75.000000
  0
LINE
  8
0
  6
CONTINUOUS
 62
2
 10
-10.800000
 20
82.300003
 11
-11.300000
 21
82.300003
  0
LINE
  8
0
  6
CONTINUOUS
 62
7
 10
-10.800000
 20
83.000000
 11
-11.300000
 21
83.000000
  0
LINE
  8
0
  6
CONTINUOUS
 62
7
 10
-35.799999
 20
75.000000
 11
-35.799999
 21
83.000000
  0
LINE
  8
0
  6
CONTINUOUS
 62
7
 10
-35.799999
 20
82.300003
 11
-36.799999
 21
82.300003
  0
LINE
  8
0
  6
CONTINUOUS
 62
7
 10
-36.799999
 20
79.750000
 11
-36.799999
 21
82.300003
  0
LINE
  8
0
  6
CONTINUOUS
 62
7
 10
-35.799999
 20
79.750000
 11
-36.799999
 21
79.750000
  0
LINE
  8
0
  6
CONTINUOUS
 62
7
 10
-35.799999
 20
78.250000
 11
-36.799999
 21
78.250000
  0
LINE
  8
0
  6
CONTINUOUS
 62
7
 10
-36.799999
 20
75.699997
 11
-36.799999
 21
78.250000
  0
LINE
  8
0
  6
CONTINUOUS
 62
7
 10
-35.799999
 20
75.699997
 11
-36.799999
 21
75.699997
  0
LINE
  8
0
  6
CONTINUOUS
 62
7
 10
-17.500000
 20
75.000000
 11
-35.799999
 21
75.000000
  0
LINE
  8
0
  6
CONTINUOUS
 62
2
 10
-17.500000
 20
75.699997
 11
-35.799999
 21
75.699997
  0
LINE
  8
0
  6
CONTINUOUS
 62
2
 10
-17.500000
 20
82.300003
 11
-35.799999
 21
82.300003
  0
LINE
  8
0
  6
CONTINUOUS
 62
7
 10
-34.000000
 20
75.000000
 11
-34.000000
 21
72.500000
  0
LINE
  8
0
  6
CONTINUOUS
 62
7
 10
-4.800020
 20
83.000000
 11
43.000000
 21
83.000000
  0
LINE
  8
0
  6
CONTINUOUS
 62
7
 10
40.000000
 20
74.000000
 11
40.000000
 21
72.500000
  0
LINE
  8
0
  6
CONTINUOUS
 62
7
 10
-63.000000
 20
41.500000
 11
-63.000000
 21
35.000000
  0
LINE
  8
0
  6
CONTINUOUS
 62
7
 10
-63.299999
 20
34.700001
 11
-63.299999
 21
21.299999
  0
LINE
  8
0
  6
CONTINUOUS
 62
7
 10
-63.000000
 20
14.500000
 11
-63.000000
 21
21.000000
  0
LINE
  8
0
  6
CONTINUOUS
 62
7
 10
-63.000000
 20
14.500000
 11
-82.000000
 21
14.500000
  0
LINE
  8
0
  6
CONTINUOUS
 62
7
 10
-63.000000
 20
41.500000
 11
-82.000000
 21
41.500000
  0
LINE
  8
0
  6
CONTINUOUS
 62
7
 10
-63.000000
 20
35.000000
 11
-63.299999
 21
34.700001
  0
LINE
  8
0
  6
CONTINUOUS
 62
7
 10
-63.000000
 20
21.000000
 11
-63.299999
 21
21.299999
  0
LINE
  8
0
  6
CONTINUOUS
 62
7
 10
-73.500000
 20
14.000000
 11
-73.500000
 21
14.500000
  0
LINE
  8
0
  6
CONTINUOUS
 62
7
 10
-83.000000
 20
14.000000
 11
-83.000000
 21
42.000000
  0
LINE
  8
0
  6
CONTINUOUS
 62
7
 10
-73.500000
 20
14.000000
 11
-83.000000
 21
14.000000
  0
LINE
  8
0
  6
CONTINUOUS
 62
7
 10
-82.000000
 20
14.500000
 11
-82.000000
 21
41.500000
  0
LINE
  8
0
  6
CONTINUOUS
 62
7
 10
-63.500000
 20
41.500000
 11
-63.500000
 21
14.500000
  0
LINE
  8
0
  6
CONTINUOUS
 62
7
 10
-63.500000
 20
42.000000
 11
-83.000000
 21
42.000000
  0
LINE
  8
0
  6
CONTINUOUS
 62
7
 10
-73.500000
 20
42.000000
 11
-73.500000
 21
41.500000
  0
LINE
  8
0
  6
CONTINUOUS
 62
7
 10
-81.541397
 20
45.500000
 11
-81.541397
 21
42.599998
  0
LINE
  8
0
  6
CONTINUOUS
 62
7
 10
-79.520699
 20
45.500000
 11
-79.520699
 21
42.599998
  0
LINE
  8
0
  6
CONTINUOUS
 62
7
 10
-75.479301
 20
45.500000
 11
-75.479301
 21
42.599998
  0
LINE
  8
0
  6
CONTINUOUS
 62
7
 10
-73.458504
 20
45.500000
 11
-81.541397
 21
45.500000
  0
LINE
  8
0
  6
CONTINUOUS
 62
7
 10
-73.458504
 20
45.500000
 11
-73.458504
 21
42.599998
  0
LINE
  8
0
  6
CONTINUOUS
 62
7
 10
-73.458504
 20
42.599998
 11
-81.541397
 21
42.599998
  0
LINE
  8
0
  6
CONTINUOUS
 62
7
 10
-73.599998
 20
42.599998
 11
-73.599998
 21
42.000000
  0
LINE
  8
0
  6
CONTINUOUS
 62
7
 10
-81.400002
 20
42.599998
 11
-81.400002
 21
42.000000
  0
LINE
  8
0
  6
CENTER
 62
2
 10
-76.000000
 20
41.000000
 11
-76.000000
 21
15.000000
  0
LINE
  8
0
  6
CENTER
 62
2
 10
-84.000000
 20
28.000000
 11
-62.000000
 21
28.000000
  0
LINE
  8
0
  6
CENTER
 62
2
 10
-67.000000
 20
31.000000
 11
-67.000000
 21
25.000000
  0
LINE
  8
0
  6
CENTER
 62
2
 10
-79.000000
 20
38.000000
 11
-63.000000
 21
38.000000
  0
LINE
  8
0
  6
CENTER
 62
2
 10
-67.000000
 20
42.000000
 11
-67.000000
 21
34.000000
  0
LINE
  8
0
  6
CENTER
 62
2
 10
-79.000000
 20
18.000000
 11
-63.000000
 21
18.000000
  0
LINE
  8
0
  6
CENTER
 62
2
 10
-67.000000
 20
22.000000
 11
-67.000000
 21
14.000000
  0
LINE
  8
0
  6
CENTER
 62
2
 10
-77.500000
 20
46.500000
 11
-77.500000
 21
41.000000
  0
LINE
  8
0
  6
CONTINUOUS
 62
7
 10
-72.500000
 20
42.000000
 11
-72.500000
 21
41.500000
  0
LINE
  8
0
  6
CONTINUOUS
 62
7
 10
-64.500000
 20
42.000000
 11
-64.500000
 21
41.500000
  0
LINE
  8
0
  6
CONTINUOUS
 62
7
 10
-82.500000
 20
54.000000
 11
-82.500000
 21
42.000000
  0
LINE
  8
0
  6
CONTINUOUS
 62
7
 10
-63.500000
 20
54.000000
 11
-63.500000
 21
42.000000
  0
LINE
  8
0
  6
CONTINUOUS
 62
7
 10
-82.500000
 20
54.000000
 11
-63.500000
 21
54.000000
  0
LINE
  8
0
  6
CONTINUOUS
 62
7
 10
-75.462097
 20
47.326698
 11
-74.407501
 21
45.500000
  0
LINE
  8
0
  6
CONTINUOUS
 62
7
 10
-73.064201
 20
52.826698
 11
-75.462097
 21
48.673401
  0
LINE
  8
0
  6
CONTINUOUS
 62
7
 10
-67.102097
 20
53.500000
 11
-71.897903
 21
53.500000
  0
LINE
  8
0
  6
CONTINUOUS
 62
7
 10
-63.537899
 20
48.673401
 11
-65.935799
 21
52.826698
  0
LINE
  8
0
  6
CONTINUOUS
 62
7
 10
-65.935799
 20
43.173401
 11
-63.537899
 21
47.326698
  0
LINE
  8
0
  6
CONTINUOUS
 62
7
 10
-67.102097
 20
42.500000
 11
-71.897903
 21
42.500000
  0
LINE
  8
0
  6
CONTINUOUS
 62
7
 10
-70.250000
 20
46.363701
 11
-70.250000
 21
44.070999
  0
LINE
  8
0
  6
CONTINUOUS
 62
7
 10
-68.750000
 20
46.363701
 11
-68.750000
 21
44.070999
  0
LINE
  8
0
  6
CONTINUOUS
 62
7
 10
-68.750000
 20
51.929100
 11
-68.750000
 21
49.636299
  0
LINE
  8
0
  6
CONTINUOUS
 62
7
 10
-70.250000
 20
51.929100
 11
-70.250000
 21
49.636299
  0
LINE
  8
0
  6
CENTER
 62
2
 10
-62.500000
 20
48.000000
 11
-76.500000
 21
48.000000
  0
LINE
  8
0
  6
CENTER
 62
2
 10
-69.500000
 20
41.000000
 11
-69.500000
 21
55.000000
  0
LINE
  8
0
  6
CONTINUOUS
 62
7
 10
-73.458603
 20
43.856400
 11
-73.064201
 21
43.173401
  0
LINE
  8
0
  6
CONTINUOUS
 62
7
 10
75.500000
 20
14.000000
 11
85.000000
 21
14.000000
  0
LINE
  8
0
  6
CENTER
 62
2
 10
78.000000
 20
34.400002
 11
78.000000
 21
21.600000
  0
LINE
  8
0
  6
CENTER
 62
2
 10
64.000000
 20
28.000000
 11
86.000000
 21
28.000000
  0
LINE
  8
0
  6
CONTINUOUS
 62
7
 10
69.500000
 20
34.000000
 11
69.500000
 21
22.000000
  0
LINE
  8
0
  6
CONTINUOUS
 62
7
 10
72.709396
 20
34.000000
 11
75.500000
 21
34.000000
  0
LINE
  8
0
  6
CONTINUOUS
 62
7
 10
69.500000
 20
34.000000
 11
70.290604
 21
34.000000
  0
LINE
  8
0
  6
CONTINUOUS
 62
7
 10
72.709396
 20
22.000000
 11
75.500000
 21
22.000000
  0
LINE
  8
0
  6
CONTINUOUS
 62
7
 10
69.500000
 20
22.000000
 11
70.290604
 21
22.000000
  0
LINE
  8
0
  6
CONTINUOUS
 62
7
 10
75.500000
 20
14.000000
 11
75.500000
 21
22.000000
  0
LINE
  8
0
  6
CONTINUOUS
 62
7
 10
85.000000
 20
14.000000
 11
85.000000
 21
42.000000
  0
LINE
  8
0
  6
CONTINUOUS
 62
7
 10
75.500000
 20
42.000000
 11
75.500000
 21
34.000000
  0
LINE
  8
0
  6
CONTINUOUS
 62
7
 10
65.300003
 20
34.700001
 11
65.300003
 21
21.299999
  0
LINE
  8
0
  6
CONTINUOUS
 62
7
 10
65.000000
 20
14.500000
 11
65.000000
 21
21.000000
  0
LINE
  8
0
  6
CONTINUOUS
 62
7
 10
65.000000
 20
14.500000
 11
75.500000
 21
14.500000
  0
LINE
  8
0
  6
CONTINUOUS
 62
7
 10
75.000000
 20
14.500000
 11
75.000000
 21
22.000000
  0
LINE
  8
0
  6
CONTINUOUS
 62
7
 10
65.000000
 20
21.000000
 11
65.300003
 21
21.299999
  0
LINE
  8
0
  6
CONTINUOUS
 62
7
 10
65.000000
 20
41.500000
 11
65.000000
 21
35.000000
  0
LINE
  8
0
  6
CONTINUOUS
 62
7
 10
64.999901
 20
35.000000
 11
65.299896
 21
34.699902
  0
LINE
  8
0
  6
CONTINUOUS
 62
7
 10
75.000000
 20
41.500000
 11
75.000000
 21
34.000000
  0
LINE
  8
0
  6
CONTINUOUS
 62
7
 10
65.000000
 20
41.500000
 11
75.500000
 21
41.500000
  0
LINE
  8
0
  6
CONTINUOUS
 62
7
 10
83.541397
 20
45.500000
 11
75.458603
 21
45.500000
  0
LINE
  8
0
  6
CONTINUOUS
 62
7
 10
75.458603
 20
45.500000
 11
75.458603
 21
42.599998
  0
LINE
  8
0
  6
CONTINUOUS
 62
7
 10
77.479301
 20
45.500000
 11
77.479301
 21
42.599998
  0
LINE
  8
0
  6
CONTINUOUS
 62
7
 10
81.520798
 20
45.500000
 11
81.520798
 21
42.599998
  0
LINE
  8
0
  6
CONTINUOUS
 62
7
 10
83.541397
 20
45.500000
 11
83.541397
 21
42.599998
  0
LINE
  8
0
  6
CONTINUOUS
 62
7
 10
83.541397
 20
42.599998
 11
75.458603
 21
42.599998
  0
LINE
  8
0
  6
CONTINUOUS
 62
7
 10
83.400002
 20
42.599998
 11
83.400002
 21
42.000000
  0
LINE
  8
0
  6
CONTINUOUS
 62
7
 10
75.599998
 20
42.599998
 11
75.599998
 21
42.000000
  0
LINE
  8
0
  6
CENTER
 62
2
 10
79.500000
 20
46.500000
 11
79.500000
 21
41.000000
  0
LINE
  8
0
  6
CENTER
 62
2
 10
83.000000
 20
38.500000
 11
87.000000
 21
38.500000
  0
LINE
  8
0
  6
CENTER
 62
2
 10
83.000000
 20
17.500000
 11
87.000000
 21
17.500000
  0
LINE
  8
0
  6
CENTER
 62
2
 10
63.000000
 20
38.000000
 11
67.000000
 21
38.000000
  0
LINE
  8
0
  6
CENTER
 62
2
 10
63.000000
 20
18.000000
 11
67.000000
 21
18.000000
  0
LINE
  8
0
  6
CONTINUOUS
 62
7
 10
74.500000
 20
50.500000
 11
74.500000
 21
41.500000
  0
LINE
  8
0
  6
CONTINUOUS
 62
7
 10
66.500000
 20
50.500000
 11
66.500000
 21
41.500000
  0
LINE
  8
0
  6
CONTINUOUS
 62
7
 10
65.500000
 20
42.000000
 11
66.500000
 21
42.000000
  0
LINE
  8
0
  6
CONTINUOUS
 62
7
 10
65.500000
 20
54.000000
 11
65.500000
 21
42.000000
  0
LINE
  8
0
  6
CONTINUOUS
 62
7
 10
84.500000
 20
54.000000
 11
65.500000
 21
54.000000
  0
LINE
  8
0
  6
CONTINUOUS
 62
7
 10
84.500000
 20
54.000000
 11
84.500000
 21
42.000000
  0
LINE
  8
0
  6
CENTER
 62
2
 10
71.500000
 20
41.000000
 11
71.500000
 21
55.000000
  0
LINE
  8
0
  6
CENTER
 62
2
 10
64.500000
 20
48.000000
 11
78.500000
 21
48.000000
  0
LINE
  8
0
  6
CONTINUOUS
 62
7
 10
66.500000
 20
50.500000
 11
74.500000
 21
50.500000
  0
LINE
  8
0
  6
CONTINUOUS
 62
7
 10
74.500000
 20
42.000000
 11
85.000000
 21
42.000000
  0
LINE
  8
0
  6
CONTINUOUS
 62
7
 10
-248.000000
 20
41.500000
 11
-248.000000
 21
35.000000
  0
LINE
  8
0
  6
CONTINUOUS
 62
7
 10
-248.300003
 20
34.700001
 11
-248.300003
 21
21.299999
  0
LINE
  8
0
  6
CONTINUOUS
 62
7
 10
-248.000000
 20
14.500000
 11
-248.000000
 21
21.000000
  0
LINE
  8
0
  6
CONTINUOUS
 62
7
 10
-248.000000
 20
14.500000
 11
-267.000000
 21
14.500000
  0
LINE
  8
0
  6
CONTINUOUS
 62
7
 10
-248.000000
 20
41.500000
 11
-267.000000
 21
41.500000
  0
LINE
  8
0
  6
CONTINUOUS
 62
7
 10
-248.000000
 20
35.000000
 11
-248.300003
 21
34.700001
  0
LINE
  8
0
  6
CONTINUOUS
 62
7
 10
-248.000000
 20
21.000000
 11
-248.300003
 21
21.299999
  0
LINE
  8
0
  6
CONTINUOUS
 62
7
 10
-258.500000
 20
14.000000
 11
-258.500000
 21
14.500000
  0
LINE
  8
0
  6
CONTINUOUS
 62
7
 10
-268.000000
 20
14.000000
 11
-268.000000
 21
42.000000
  0
LINE
  8
0
  6
CONTINUOUS
 62
7
 10
-258.500000
 20
14.000000
 11
-268.000000
 21
14.000000
  0
LINE
  8
0
  6
CONTINUOUS
 62
7
 10
-267.000000
 20
14.500000
 11
-267.000000
 21
41.500000
  0
LINE
  8
0
  6
CONTINUOUS
 62
7
 10
-248.500000
 20
41.500000
 11
-248.500000
 21
14.500000
  0
LINE
  8
0
  6
CONTINUOUS
 62
7
 10
-248.500000
 20
42.000000
 11
-268.000000
 21
42.000000
  0
LINE
  8
0
  6
CONTINUOUS
 62
7
 10
-258.500000
 20
42.000000
 11
-258.500000
 21
41.500000
  0
LINE
  8
0
  6
CONTINUOUS
 62
7
 10
-266.540985
 20
45.500000
 11
-266.540985
 21
42.599998
  0
LINE
  8
0
  6
CONTINUOUS
 62
7
 10
-264.520996
 20
45.500000
 11
-264.520996
 21
42.599998
  0
LINE
  8
0
  6
CONTINUOUS
 62
7
 10
-260.479004
 20
45.500000
 11
-260.479004
 21
42.599998
  0
LINE
  8
0
  6
CONTINUOUS
 62
7
 10
-258.459015
 20
45.500000
 11
-266.540985
 21
45.500000
  0
LINE
  8
0
  6
CONTINUOUS
 62
7
 10
-258.459015
 20
45.500000
 11
-258.459015
 21
42.599998
  0
LINE
  8
0
  6
CONTINUOUS
 62
7
 10
-258.459015
 20
42.599998
 11
-266.540985
 21
42.599998
  0
LINE
  8
0
  6
CONTINUOUS
 62
7
 10
-258.600006
 20
42.599998
 11
-258.600006
 21
42.000000
  0
LINE
  8
0
  6
CONTINUOUS
 62
7
 10
-266.399994
 20
42.599998
 11
-266.399994
 21
42.000000
  0
LINE
  8
0
  6
CENTER
 62
2
 10
-261.000000
 20
41.000000
 11
-261.000000
 21
15.000000
  0
LINE
  8
0
  6
CENTER
 62
2
 10
-269.000000
 20
28.000000
 11
-247.000000
 21
28.000000
  0
LINE
  8
0
  6
CENTER
 62
2
 10
-252.000000
 20
31.000000
 11
-252.000000
 21
25.000000
  0
LINE
  8
0
  6
CENTER
 62
2
 10
-264.000000
 20
38.000000
 11
-248.000000
 21
38.000000
  0
LINE
  8
0
  6
CENTER
 62
2
 10
-252.000000
 20
42.000000
 11
-252.000000
 21
34.000000
  0
LINE
  8
0
  6
CENTER
 62
2
 10
-264.000000
 20
18.000000
 11
-248.000000
 21
18.000000
  0
LINE
  8
0
  6
CENTER
 62
2
 10
-252.000000
 20
22.000000
 11
-252.000000
 21
14.000000
  0
LINE
  8
0
  6
CENTER
 62
2
 10
-262.500000
 20
46.500000
 11
-262.500000
 21
41.000000
  0
LINE
  8
0
  6
CONTINUOUS
 62
7
 10
-257.500000
 20
42.000000
 11
-257.500000
 21
41.500099
  0
LINE
  8
0
  6
CONTINUOUS
 62
7
 10
-249.500000
 20
42.000000
 11
-249.500000
 21
41.500099
  0
LINE
  8
0
  6
CONTINUOUS
 62
7
 10
-267.500000
 20
54.000000
 11
-267.500000
 21
42.000000
  0
LINE
  8
0
  6
CONTINUOUS
 62
7
 10
-248.500000
 20
54.000000
 11
-248.500000
 21
42.000000
  0
LINE
  8
0
  6
CONTINUOUS
 62
7
 10
-267.500000
 20
54.000000
 11
-248.500000
 21
54.000000
  0
LINE
  8
0
  6
CONTINUOUS
 62
7
 10
-260.462006
 20
47.326698
 11
-259.407013
 21
45.500000
  0
LINE
  8
0
  6
CONTINUOUS
 62
7
 10
-258.063995
 20
52.826698
 11
-260.462006
 21
48.673302
  0
LINE
  8
0
  6
CONTINUOUS
 62
7
 10
-252.102005
 20
53.500000
 11
-256.898010
 21
53.500000
  0
LINE
  8
0
  6
CONTINUOUS
 62
7
 10
-248.537994
 20
48.673401
 11
-250.936005
 21
52.826698
  0
LINE
  8
0
  6
CONTINUOUS
 62
7
 10
-250.936005
 20
43.173302
 11
-248.537994
 21
47.326599
  0
LINE
  8
0
  6
CONTINUOUS
 62
7
 10
-252.102005
 20
42.500000
 11
-256.898010
 21
42.500000
  0
LINE
  8
0
  6
CONTINUOUS
 62
7
 10
-255.250000
 20
46.363701
 11
-255.250000
 21
44.070999
  0
LINE
  8
0
  6
CONTINUOUS
 62
7
 10
-253.750000
 20
46.363701
 11
-253.750000
 21
44.070999
  0
LINE
  8
0
  6
CONTINUOUS
 62
7
 10
-253.750000
 20
51.929100
 11
-253.750000
 21
49.636299
  0
LINE
  8
0
  6
CONTINUOUS
 62
7
 10
-255.250000
 20
51.929100
 11
-255.250000
 21
49.636299
  0
LINE
  8
0
  6
CENTER
 62
2
 10
-247.500000
 20
48.000000
 11
-261.500000
 21
48.000000
  0
LINE
  8
0
  6
CENTER
 62
2
 10
-254.500000
 20
41.000000
 11
-254.500000
 21
55.000000
  0
LINE
  8
0
  6
CONTINUOUS
 62
7
 10
-70.207100
 20
48.707100
 11
-68.792900
 21
47.292900
  0
LINE
  8
0
  6
CONTINUOUS
 62
7
 10
-258.459015
 20
43.856400
 11
-258.063995
 21
43.173401
  0
LINE
  8
0
  6
CONTINUOUS
 62
7
 10
-119.500000
 20
14.000000
 11
-110.000000
 21
14.000000
  0
LINE
  8
0
  6
CENTER
 62
2
 10
-117.000000
 20
34.400002
 11
-117.000000
 21
21.600000
  0
LINE
  8
0
  6
CENTER
 62
2
 10
-131.000000
 20
28.000000
 11
-109.000000
 21
28.000000
  0
LINE
  8
0
  6
CONTINUOUS
 62
7
 10
-125.500000
 20
34.000000
 11
-125.500000
 21
22.000000
  0
LINE
  8
0
  6
CONTINUOUS
 62
7
 10
-122.291000
 20
34.000000
 11
-119.500000
 21
34.000000
  0
LINE
  8
0
  6
CONTINUOUS
 62
7
 10
-125.500000
 20
34.000000
 11
-124.709000
 21
34.000000
  0
LINE
  8
0
  6
CONTINUOUS
 62
7
 10
-122.291000
 20
22.000000
 11
-119.500000
 21
22.000000
  0
LINE
  8
0
  6
CONTINUOUS
 62
7
 10
-125.500000
 20
22.000000
 11
-124.709000
 21
22.000000
  0
LINE
  8
0
  6
CONTINUOUS
 62
7
 10
-119.500000
 20
14.000000
 11
-119.500000
 21
22.000000
  0
LINE
  8
0
  6
CONTINUOUS
 62
7
 10
-110.000000
 20
14.000000
 11
-110.000000
 21
42.000000
  0
LINE
  8
0
  6
CONTINUOUS
 62
7
 10
-119.500000
 20
42.000000
 11
-119.500000
 21
34.000000
  0
LINE
  8
0
  6
CONTINUOUS
 62
7
 10
-129.699997
 20
34.700001
 11
-129.699997
 21
21.299999
  0
LINE
  8
0
  6
CONTINUOUS
 62
7
 10
-130.000000
 20
14.500000
 11
-130.000000
 21
21.000000
  0
LINE
  8
0
  6
CONTINUOUS
 62
7
 10
-130.000000
 20
14.500000
 11
-119.500000
 21
14.500000
  0
LINE
  8
0
  6
CONTINUOUS
 62
7
 10
-120.000000
 20
14.500000
 11
-120.000000
 21
22.000000
  0
LINE
  8
0
  6
CONTINUOUS
 62
7
 10
-130.000000
 20
21.000000
 11
-129.699997
 21
21.299999
  0
LINE
  8
0
  6
CONTINUOUS
 62
7
 10
-130.000000
 20
41.500000
 11
-130.000000
 21
35.000000
  0
LINE
  8
0
  6
CONTINUOUS
 62
7
 10
-130.000000
 20
35.000000
 11
-129.699997
 21
34.700001
  0
LINE
  8
0
  6
CONTINUOUS
 62
7
 10
-120.000000
 20
41.500000
 11
-120.000000
 21
34.000000
  0
LINE
  8
0
  6
CONTINUOUS
 62
7
 10
-130.000000
 20
41.500000
 11
-119.500000
 21
41.500000
  0
LINE
  8
0
  6
CONTINUOUS
 62
7
 10
-111.459000
 20
45.500000
 11
-119.541000
 21
45.500000
  0
LINE
  8
0
  6
CONTINUOUS
 62
7
 10
-119.541000
 20
45.500000
 11
-119.541000
 21
42.599998
  0
LINE
  8
0
  6
CONTINUOUS
 62
7
 10
-117.521004
 20
45.500000
 11
-117.521004
 21
42.599998
  0
LINE
  8
0
  6
CONTINUOUS
 62
7
 10
-113.478996
 20
45.500000
 11
-113.478996
 21
42.599998
  0
LINE
  8
0
  6
CONTINUOUS
 62
7
 10
-111.459000
 20
45.500000
 11
-111.459000
 21
42.599998
  0
LINE
  8
0
  6
CONTINUOUS
 62
7
 10
-111.459000
 20
42.599998
 11
-119.541000
 21
42.599998
  0
LINE
  8
0
  6
CONTINUOUS
 62
7
 10
-111.599998
 20
42.599998
 11
-111.599998
 21
42.000000
  0
LINE
  8
0
  6
CONTINUOUS
 62
7
 10
-119.400002
 20
42.599998
 11
-119.400002
 21
42.000000
  0
LINE
  8
0
  6
CENTER
 62
2
 10
-115.500000
 20
46.500000
 11
-115.500000
 21
41.000000
  0
LINE
  8
0
  6
CENTER
 62
2
 10
-112.000000
 20
38.500000
 11
-108.000000
 21
38.500000
  0
LINE
  8
0
  6
CENTER
 62
2
 10
-112.000000
 20
17.500000
 11
-108.000000
 21
17.500000
  0
LINE
  8
0
  6
CENTER
 62
2
 10
-132.000000
 20
38.000000
 11
-128.000000
 21
38.000000
  0
LINE
  8
0
  6
CENTER
 62
2
 10
-132.000000
 20
18.000000
 11
-128.000000
 21
18.000000
  0
LINE
  8
0
  6
CONTINUOUS
 62
7
 10
-120.500000
 20
50.500000
 11
-120.500000
 21
41.500000
  0
LINE
  8
0
  6
CONTINUOUS
 62
7
 10
-128.500000
 20
50.500000
 11
-128.500000
 21
41.500099
  0
LINE
  8
0
  6
CONTINUOUS
 62
7
 10
-129.500000
 20
42.000000
 11
-128.500000
 21
42.000000
  0
LINE
  8
0
  6
CONTINUOUS
 62
7
 10
-129.500000
 20
54.000000
 11
-129.500000
 21
42.000000
  0
LINE
  8
0
  6
CONTINUOUS
 62
7
 10
-110.500000
 20
54.000000
 11
-129.500000
 21
54.000000
  0
LINE
  8
0
  6
CONTINUOUS
 62
7
 10
-110.500000
 20
54.000000
 11
-110.500000
 21
42.000000
  0
LINE
  8
0
  6
CENTER
 62
2
 10
-123.500000
 20
41.000000
 11
-123.500000
 21
55.000000
  0
LINE
  8
0
  6
CENTER
 62
2
 10
-130.500000
 20
48.000000
 11
-116.500000
 21
48.000000
  0
LINE
  8
0
  6
CONTINUOUS
 62
7
 10
-128.500000
 20
50.500000
 11
-120.500000
 21
50.500000
  0
LINE
  8
0
  6
CONTINUOUS
 62
7
 10
-120.500000
 20
42.000000
 11
-110.000000
 21
42.000000
  0
LINE
  8
0
  6
CONTINUOUS
 62
7
 10
25.200001
 20
41.500000
 11
25.200001
 21
50.500000
  0
LINE
  8
0
  6
CONTINUOUS
 62
7
 10
40.700001
 20
50.500000
 11
25.200001
 21
50.500000
  0
LINE
  8
0
  6
CONTINUOUS
 62
7
 10
40.700001
 20
41.500000
 11
40.700001
 21
50.500000
  0
LINE
  8
0
  6
CONTINUOUS
 62
7
 10
-15.500000
 20
42.000000
 11
-15.500000
 21
54.000000
  0
LINE
  8
0
  6
CONTINUOUS
 62
7
 10
-4.800020
 20
42.500000
 11
-4.800020
 21
53.500000
  0
LINE
  8
0
  6
CENTER
 62
2
 10
-37.799999
 20
48.000000
 11
0.199982
 21
48.000000
  0
LINE
  8
0
  6
CONTINUOUS
 62
7
 10
-10.800000
 20
53.500000
 11
-4.800020
 21
53.500000
  0
LINE
  8
0
  6
CONTINUOUS
 62
7
 10
-10.800000
 20
42.500000
 11
-4.800020
 21
42.500000
  0
LINE
  8
0
  6
CONTINUOUS
 62
7
 10
-10.800000
 20
42.500000
 11
-10.800000
 21
53.500000
  0
LINE
  8
0
  6
CONTINUOUS
 62
7
 10
-4.800020
 20
47.000000
 11
-0.799988
 21
47.000000
  0
LINE
  8
0
  6
CONTINUOUS
 62
7
 10
-4.800020
 20
49.000000
 11
-0.799988
 21
49.000000
  0
LINE
  8
0
  6
CONTINUOUS
 62
7
 10
-0.799988
 20
47.000000
 11
-0.799988
 21
49.000000
  0
LINE
  8
0
  6
CONTINUOUS
 62
2
 10
-10.800000
 20
51.299999
 11
-11.300000
 21
51.299999
  0
LINE
  8
0
  6
CONTINUOUS
 62
7
 10
-10.800000
 20
44.000000
 11
-11.300000
 21
44.000000
  0
LINE
  8
0
  6
CONTINUOUS
 62
7
 10
-35.799999
 20
44.700001
 11
-36.799999
 21
44.700001
  0
LINE
  8
0
  6
CONTINUOUS
 62
7
 10
-10.800000
 20
52.000000
 11
-11.300000
 21
52.000000
  0
LINE
  8
0
  6
CONTINUOUS
 62
7
 10
-35.799999
 20
44.000000
 11
-35.799999
 21
52.000000
  0
LINE
  8
0
  6
CONTINUOUS
 62
7
 10
-36.799999
 20
44.700001
 11
-36.799999
 21
51.299999
  0
LINE
  8
0
  6
CONTINUOUS
 62
7
 10
-35.799999
 20
51.299999
 11
-36.799999
 21
51.299999
  0
LINE
  8
0
  6
CONTINUOUS
 62
2
 10
-10.800000
 20
44.700001
 11
-11.300000
 21
44.700001
  0
LINE
  8
0
  6
CONTINUOUS
 62
7
 10
26.500000
 20
54.000000
 11
-15.500000
 21
54.000000
  0
LINE
  8
0
  6
CONTINUOUS
 62
7
 10
-11.300000
 20
42.000000
 11
-11.300000
 21
54.000000
  0
LINE
  8
0
  6
CONTINUOUS
 62
7
 10
-15.500000
 20
42.500000
 11
-17.500000
 21
42.500000
  0
LINE
  8
0
  6
CONTINUOUS
 62
7
 10
-17.500000
 20
53.500000
 11
-17.500000
 21
42.500000
  0
LINE
  8
0
  6
CONTINUOUS
 62
7
 10
-15.500000
 20
43.173401
 11
-17.500000
 21
43.173401
  0
LINE
  8
0
  6
CONTINUOUS
 62
7
 10
-15.500000
 20
47.326698
 11
-17.500000
 21
47.326698
  0
LINE
  8
0
  6
CONTINUOUS
 62
7
 10
-15.500000
 20
48.673401
 11
-17.500000
 21
48.673401
  0
LINE
  8
0
  6
CONTINUOUS
 62
7
 10
-15.500000
 20
52.826698
 11
-17.500000
 21
52.826698
  0
LINE
  8
0
  6
CONTINUOUS
 62
7
 10
-15.500000
 20
53.500000
 11
-17.500000
 21
53.500000
  0
LINE
  8
0
  6
CONTINUOUS
 62
7
 10
26.500000
 20
50.500000
 11
26.500000
 21
54.000000
  0
LINE
  8
0
  6
CONTINUOUS
 62
7
 10
-17.500000
 20
44.000000
 11
-35.799999
 21
44.000000
  0
LINE
  8
0
  6
CONTINUOUS
 62
2
 10
-17.500000
 20
44.700001
 11
-35.799999
 21
44.700001
  0
LINE
  8
0
  6
CONTINUOUS
 62
2
 10
-17.500000
 20
51.299999
 11
-35.799999
 21
51.299999
  0
LINE
  8
0
  6
CONTINUOUS
 62
7
 10
-17.500000
 20
52.000000
 11
-35.799999
 21
52.000000
  0
LINE
  8
0
  6
CONTINUOUS
 62
7
 10
25.200001
 20
42.000000
 11
-16.350000
 21
42.000000
  0
LINE
  8
0
  6
CONTINUOUS
 62
7
 10
-26.000000
 20
44.000000
 11
-26.000000
 21
42.599998
  0
LINE
  8
0
  6
CONTINUOUS
 62
7
 10
-15.500000
 20
-92.500000
 11
-15.500000
 21
-104.500000
  0
LINE
  8
0
  6
CENTER
 62
2
 10
-37.799999
 20
-98.500000
 11
-14.500000
 21
-98.500000
  0
LINE
  8
0
  6
CONTINUOUS
 62
7
 10
26.500000
 20
-104.500000
 11
-15.500000
 21
-104.500000
  0
LINE
  8
0
  6
CONTINUOUS
 62
7
 10
-15.500000
 20
-93.000000
 11
-17.500000
 21
-93.000000
  0
LINE
  8
0
  6
CONTINUOUS
 62
7
 10
-17.500000
 20
-104.000000
 11
-17.500000
 21
-93.000000
  0
LINE
  8
0
  6
CONTINUOUS
 62
7
 10
-15.500000
 20
-93.673302
 11
-17.500000
 21
-93.673302
  0
LINE
  8
0
  6
CONTINUOUS
 62
7
 10
-15.500000
 20
-97.826599
 11
-17.500000
 21
-97.826599
  0
LINE
  8
0
  6
CONTINUOUS
 62
7
 10
-15.500000
 20
-99.173302
 11
-17.500000
 21
-99.173302
  0
LINE
  8
0
  6
CONTINUOUS
 62
7
 10
-15.500000
 20
-103.327003
 11
-17.500000
 21
-103.327003
  0
LINE
  8
0
  6
CONTINUOUS
 62
7
 10
-15.500000
 20
-104.000000
 11
-17.500000
 21
-104.000000
  0
LINE
  8
0
  6
CONTINUOUS
 62
7
 10
-17.500000
 20
-94.500000
 11
-22.500000
 21
-94.500000
  0
LINE
  8
0
  6
CONTINUOUS
 62
2
 10
-17.500000
 20
-95.199997
 11
-22.500000
 21
-95.199997
  0
LINE
  8
0
  6
CONTINUOUS
 62
2
 10
-17.500000
 20
-101.800003
 11
-35.799999
 21
-101.800003
  0
LINE
  8
0
  6
CONTINUOUS
 62
7
 10
-17.500000
 20
-102.500000
 11
-35.799999
 21
-102.500000
  0
LINE
  8
0
  6
CONTINUOUS
 62
7
 10
-35.799999
 20
-95.199997
 11
-36.799999
 21
-95.199997
  0
LINE
  8
0
  6
CONTINUOUS
 62
7
 10
-35.799999
 20
-94.500000
 11
-35.799999
 21
-102.500000
  0
LINE
  8
0
  6
CONTINUOUS
 62
7
 10
-36.799999
 20
-95.199997
 11
-36.799999
 21
-101.800003
  0
LINE
  8
0
  6
CONTINUOUS
 62
7
 10
-35.799999
 20
-101.800003
 11
-36.799999
 21
-101.800003
  0
LINE
  8
0
  6
CONTINUOUS
 62
7
 10
40.700001
 20
-101.000000
 11
26.500000
 21
-101.000000
  0
LINE
  8
0
  6
CONTINUOUS
 62
7
 10
40.700001
 20
-93.099998
 11
40.700001
 21
-101.000000
  0
LINE
  8
0
  6
CONTINUOUS
 62
7
 10
26.500000
 20
-92.500000
 11
26.500000
 21
-104.500000
  0
LINE
  8
0
  6
CONTINUOUS
 62
7
 10
-29.500000
 20
-94.500000
 11
-35.799999
 21
-94.500000
  0
LINE
  8
0
  6
CONTINUOUS
 62
2
 10
-29.500000
 20
-95.199997
 11
-35.799999
 21
-95.199997
  0
LINE
  8
0
  6
CONTINUOUS
 62
7
 10
-188.500000
 20
90.900002
 11
-183.500000
 21
90.900002
  0
LINE
  8
0
  6
DASHED
 62
2
 10
-187.649994
 20
90.900002
 11
-187.649994
 21
88.500000
  0
LINE
  8
0
  6
DASHED
 62
2
 10
-184.350006
 20
90.900002
 11
-184.350006
 21
88.500000
  0
LINE
  8
0
  6
DASHED
 62
2
 10
-167.649994
 20
92.500000
 11
-167.649994
 21
87.500000
  0
LINE
  8
0
  6
DASHED
 62
2
 10
-164.350006
 20
92.500000
 11
-164.350006
 21
87.500000
  0
LINE
  8
0
  6
CENTER
 62
2
 10
-183.000000
 20
20.100000
 11
-183.000000
 21
14.900000
  0
LINE
  8
0
  6
CENTER
 62
2
 10
-185.600006
 20
17.500000
 11
-180.399994
 21
17.500000
  0
LINE
  8
0
  6
DASHED
 62
2
 10
-184.350006
 20
-34.900002
 11
-184.350006
 21
-32.500000
  0
LINE
  8
0
  6
DASHED
 62
2
 10
-187.649994
 20
-34.900002
 11
-187.649994
 21
-32.500000
  0
LINE
  8
0
  6
DASHED
 62
2
 10
-167.649994
 20
-36.500000
 11
-167.649994
 21
-31.500000
  0
LINE
  8
0
  6
DASHED
 62
2
 10
-164.350006
 20
-36.500000
 11
-164.350006
 21
-31.500000
  0
LINE
  8
0
  6
DASHED
 62
2
 10
171.500000
 20
90.900002
 11
176.500000
 21
90.900002
  0
LINE
  8
0
  6
DASHED
 62
2
 10
172.350006
 20
90.900002
 11
172.350006
 21
88.500000
  0
LINE
  8
0
  6
DASHED
 62
2
 10
175.649994
 20
90.900002
 11
175.649994
 21
88.500000
  0
LINE
  8
0
  6
DASHED
 62
2
 10
222.350006
 20
92.500000
 11
222.350006
 21
87.500000
  0
LINE
  8
0
  6
DASHED
 62
2
 10
225.649994
 20
92.500000
 11
225.649994
 21
87.500000
  0
LINE
  8
0
  6
CENTER
 62
2
 10
187.000000
 20
20.100000
 11
187.000000
 21
14.900000
  0
LINE
  8
0
  6
CENTER
 62
2
 10
184.399994
 20
17.500000
 11
189.600006
 21
17.500000
  0
LINE
  8
0
  6
DASHED
 62
2
 10
172.350006
 20
-34.900002
 11
172.350006
 21
-32.500000
  0
LINE
  8
0
  6
DASHED
 62
2
 10
175.649994
 20
-34.900002
 11
175.649994
 21
-32.500000
  0
LINE
  8
0
  6
DASHED
 62
2
 10
222.350006
 20
-36.500000
 11
222.350006
 21
-31.500000
  0
LINE
  8
0
  6
DASHED
 62
2
 10
225.649994
 20
-36.500000
 11
225.649994
 21
-31.500000
  0
LINE
  8
0
  6
DASHED
 62
2
 10
-7.649990
 20
92.500000
 11
-7.649990
 21
86.500000
  0
LINE
  8
0
  6
DASHED
 62
2
 10
-4.349980
 20
92.500000
 11
-4.349980
 21
86.500000
  0
LINE
  8
0
  6
DASHED
 62
2
 10
27.350000
 20
92.500000
 11
27.350000
 21
87.500000
  0
LINE
  8
0
  6
DASHED
 62
2
 10
30.650000
 20
92.500000
 11
30.650000
 21
87.500000
  0
LINE
  8
0
  6
CENTER
 62
2
 10
-3.000030
 20
20.100000
 11
-3.000030
 21
14.900000
  0
LINE
  8
0
  6
CENTER
 62
2
 10
-5.600040
 20
17.500000
 11
-0.400024
 21
17.500000
  0
LINE
  8
0
  6
DASHED
 62
2
 10
30.650000
 20
-36.500000
 11
30.650000
 21
-31.500000
  0
LINE
  8
0
  6
DASHED
 62
2
 10
27.350000
 20
-36.500000
 11
27.350000
 21
-31.500000
  0
LINE
  8
0
  6
DASHED
 62
2
 10
-4.349980
 20
-36.500000
 11
-4.349980
 21
-30.500000
  0
LINE
  8
0
  6
DASHED
 62
2
 10
-7.649990
 20
-36.500000
 11
-7.649990
 21
-30.500000
  0
LINE
  8
0
  6
CONTINUOUS
 62
7
 10
-68.792900
 20
48.707100
 11
-70.207100
 21
47.292900
  0
LINE
  8
0
  6
CONTINUOUS
 62
7
 10
-255.207001
 20
48.707100
 11
-253.792999
 21
47.292900
  0
LINE
  8
0
  6
CONTINUOUS
 62
7
 10
-253.792999
 20
48.707199
 11
-255.207001
 21
47.292999
  0
LINE
  8
0
  6
CONTINUOUS
 62
7
 10
114.792999
 20
48.707199
 11
116.207001
 21
47.292999
  0
LINE
  8
0
  6
CONTINUOUS
 62
7
 10
116.207001
 20
48.707100
 11
114.792999
 21
47.292900
  0
LINE
  8
0
  6
CONTINUOUS
 62
7
 10
-93.466698
 20
195.500000
 11
-93.466698
 21
-195.000000
  0
LINE
  8
0
  6
CONTINUOUS
 62
7
 10
94.316704
 20
195.500000
 11
94.316704
 21
-195.000000
  0
CIRCLE
  8
0
  6
CONTINUOUS
 62
2
 10
174.000000
 20
-68.000000
 40
2.000000
  0
CIRCLE
  8
0
  6
CONTINUOUS
 62
7
 10
174.000000
 20
-68.000000
 40
2.500000
  0
CIRCLE
  8
0
  6
CONTINUOUS
 62
2
 10
221.000000
 20
38.000000
 40
1.500000
  0
CIRCLE
  8
0
  6
CONTINUOUS
 62
7
 10
203.000000
 20
38.000000
 40
1.250000
  0
CIRCLE
  8
0
  6
CONTINUOUS
 62
2
 10
203.000000
 20
38.000000
 40
1.500000
  0
CIRCLE
  8
0
  6
CONTINUOUS
 62
7
 10
187.000000
 20
38.500000
 40
1.600000
  0
CIRCLE
  8
0
  6
CONTINUOUS
 62
7
 10
155.000000
 20
38.000000
 40
1.250000
  0
CIRCLE
  8
0
  6
CONTINUOUS
 62
2
 10
155.000000
 20
38.000000
 40
1.500000
  0
CIRCLE
  8
0
  6
CONTINUOUS
 62
7
 10
155.000000
 20
18.000000
 40
1.250000
  0
CIRCLE
  8
0
  6
CONTINUOUS
 62
2
 10
155.000000
 20
18.000000
 40
1.500000
  0
CIRCLE
  8
0
  6
CONTINUOUS
 62
7
 10
221.000000
 20
18.000000
 40
1.250000
  0
CIRCLE
  8
0
  6
CONTINUOUS
 62
2
 10
221.000000
 20
18.000000
 40
1.500000
  0
CIRCLE
  8
0
  6
CONTINUOUS
 62
7
 10
203.000000
 20
18.000000
 40
1.250000
  0
CIRCLE
  8
0
  6
CONTINUOUS
 62
2
 10
203.000000
 20
18.000000
 40
1.500000
  0
CIRCLE
  8
0
  6
CONTINUOUS
 62
7
 10
221.000000
 20
38.000000
 40
1.250000
  0
ARC
  8
0
  6
DASHED
 62
2
 10
162.000000
 20
17.500000
 40
3.000000
 50
303.367004
 51
236.632996
  0
ARC
  8
0
  6
DASHED
 62
2
 10
162.000000
 20
17.500000
 40
1.649990
 50
0.000000
 51
180.000000
  0
ARC
  8
0
  6
DASHED
 62
2
 10
162.000000
 20
38.500000
 40
1.649990
 50
180.000000
 51
0.000000
  0
ARC
  8
0
  6
DASHED
 62
2
 10
162.000000
 20
38.500000
 40
3.000000
 50
123.366997
 51
416.632996
  0
CIRCLE
  8
0
  6
DASHED
 62
2
 10
224.000000
 20
38.500000
 40
3.000000
  0
CIRCLE
  8
0
  6
DASHED
 62
2
 10
224.000000
 20
38.500000
 40
2.000000
  0
CIRCLE
  8
0
  6
DASHED
 62
2
 10
224.000000
 20
38.500000
 40
1.650000
  0
CIRCLE
  8
0
  6
DASHED
 62
2
 10
224.000000
 20
17.500000
 40
3.000000
  0
CIRCLE
  8
0
  6
DASHED
 62
2
 10
224.000000
 20
17.500000
 40
2.000000
  0
CIRCLE
  8
0
  6
DASHED
 62
2
 10
224.000000
 20
17.500000
 40
1.650000
  0
CIRCLE
  8
0
  6
CONTINUOUS
 62
2
 10
118.000000
 20
28.000000
 40
2.000000
  0
CIRCLE
  8
0
  6
CONTINUOUS
 62
7
 10
118.000000
 20
38.000000
 40
3.000000
  0
CIRCLE
  8
0
  6
CONTINUOUS
 62
7
 10
118.000000
 20
28.000000
 40
1.650000
  0
CIRCLE
  8
0
  6
CONTINUOUS
 62
7
 10
109.000000
 20
28.000000
 40
5.000000
  0
CIRCLE
  8
0
  6
CONTINUOUS
 62
7
 10
118.000000
 20
18.000000
 40
3.000000
  0
CIRCLE
  8
0
  6
CONTINUOUS
 62
2
 10
109.000000
 20
18.000000
 40
2.000000
  0
CIRCLE
  8
0
  6
CONTINUOUS
 62
7
 10
109.000000
 20
18.000000
 40
1.650000
  0
CIRCLE
  8
0
  6
CONTINUOUS
 62
2
 10
109.000000
 20
38.000000
 40
2.000000
  0
CIRCLE
  8
0
  6
CONTINUOUS
 62
7
 10
109.000000
 20
38.000000
 40
1.650000
  0
CIRCLE
  8
0
  6
CONTINUOUS
 62
7
 10
268.000000
 20
28.000000
 40
5.400000
  0
ARC
  8
0
  6
CONTINUOUS
 62
7
 10
261.500000
 20
34.599998
 40
1.350000
 50
206.389999
 51
333.614014
  0
ARC
  8
0
  6
CONTINUOUS
 62
7
 10
261.500000
 20
21.400000
 40
1.350000
 50
26.389299
 51
153.613007
  0
ARC
  8
0
  6
CONTINUOUS
 62
7
 10
232.000000
 20
87.000000
 40
4.800000
 50
180.000000
 51
236.442993
  0
ARC
  8
0
  6
CONTINUOUS
 62
7
 10
154.000000
 20
87.000000
 40
4.800000
 50
303.557007
 51
0.000000
  0
CIRCLE
  8
0
  6
CONTINUOUS
 62
2
 10
217.850006
 20
76.199997
 40
1.000000
  0
CIRCLE
  8
0
  6
CONTINUOUS
 62
7
 10
217.850006
 20
76.199997
 40
0.800000
  0
ARC
  8
0
  6
CONTINUOUS
 62
7
 10
162.000000
 20
-68.000000
 40
1.649990
 50
180.000000
 51
0.000000
  0
ARC
  8
0
  6
CONTINUOUS
 62
7
 10
162.000000
 20
-89.000000
 40
1.649990
 50
0.000000
 51
180.000000
  0
CIRCLE
  8
0
  6
CONTINUOUS
 62
7
 10
174.000000
 20
-89.000000
 40
2.500000
  0
CIRCLE
  8
0
  6
CONTINUOUS
 62
7
 10
224.000000
 20
-89.000000
 40
1.650000
  0
CIRCLE
  8
0
  6
CONTINUOUS
 62
2
 10
224.000000
 20
-89.000000
 40
2.000000
  0
CIRCLE
  8
0
  6
CONTINUOUS
 62
7
 10
174.000000
 20
-89.000000
 40
1.650000
  0
CIRCLE
  8
0
  6
CONTINUOUS
 62
2
 10
174.000000
 20
-89.000000
 40
2.000000
  0
CIRCLE
  8
0
  6
CONTINUOUS
 62
7
 10
224.000000
 20
-68.000000
 40
1.650000
  0
CIRCLE
  8
0
  6
CONTINUOUS
 62
2
 10
224.000000
 20
-68.000000
 40
2.000000
  0
CIRCLE
  8
0
  6
CONTINUOUS
 62
7
 10
174.000000
 20
-68.000000
 40
1.650000
  0
ARC
  8
0
  6
CONTINUOUS
 62
7
 10
-18.000000
 20
-68.000000
 40
1.650000
 50
180.000000
 51
0.000000
  0
ARC
  8
0
  6
CONTINUOUS
 62
7
 10
-18.000000
 20
-89.000000
 40
1.650000
 50
0.000000
 51
180.000000
  0
CIRCLE
  8
0
  6
CONTINUOUS
 62
7
 10
29.000000
 20
-89.000000
 40
1.650000
  0
CIRCLE
  8
0
  6
CONTINUOUS
 62
2
 10
29.000000
 20
-89.000000
 40
2.000000
  0
CIRCLE
  8
0
  6
CONTINUOUS
 62
7
 10
-6.000000
 20
-89.000000
 40
1.650000
  0
CIRCLE
  8
0
  6
CONTINUOUS
 62
2
 10
-6.000000
 20
-89.000000
 40
2.000000
  0
CIRCLE
  8
0
  6
CONTINUOUS
 62
7
 10
29.000000
 20
-68.000000
 40
1.650000
  0
CIRCLE
  8
0
  6
CONTINUOUS
 62
2
 10
29.000000
 20
-68.000000
 40
2.000000
  0
CIRCLE
  8
0
  6
CONTINUOUS
 62
7
 10
-6.000000
 20
-68.000000
 40
1.650000
  0
CIRCLE
  8
0
  6
CONTINUOUS
 62
2
 10
-6.000000
 20
-68.000000
 40
2.000000
  0
CIRCLE
  8
0
  6
CONTINUOUS
 62
2
 10
26.000000
 20
38.000000
 40
1.500000
  0
CIRCLE
  8
0
  6
CONTINUOUS
 62
7
 10
-7.000030
 20
38.000000
 40
1.250000
  0
CIRCLE
  8
0
  6
CONTINUOUS
 62
2
 10
-7.000030
 20
38.000000
 40
1.500000
  0
CIRCLE
  8
0
  6
CONTINUOUS
 62
7
 10
-3.000030
 20
38.500000
 40
1.600000
  0
CIRCLE
  8
0
  6
CONTINUOUS
 62
7
 10
-25.000000
 20
38.000000
 40
1.250000
  0
CIRCLE
  8
0
  6
CONTINUOUS
 62
2
 10
-25.000000
 20
38.000000
 40
1.500000
  0
CIRCLE
  8
0
  6
CONTINUOUS
 62
7
 10
-25.000000
 20
18.000000
 40
1.250000
  0
CIRCLE
  8
0
  6
CONTINUOUS
 62
2
 10
-25.000000
 20
18.000000
 40
1.500000
  0
CIRCLE
  8
0
  6
CONTINUOUS
 62
7
 10
26.000000
 20
18.000000
 40
1.250000
  0
CIRCLE
  8
0
  6
CONTINUOUS
 62
2
 10
26.000000
 20
18.000000
 40
1.500000
  0
CIRCLE
  8
0
  6
CONTINUOUS
 62
7
 10
-7.000030
 20
18.000000
 40
1.250000
  0
CIRCLE
  8
0
  6
CONTINUOUS
 62
2
 10
-7.000030
 20
18.000000
 40
1.500000
  0
CIRCLE
  8
0
  6
CONTINUOUS
 62
7
 10
26.000000
 20
38.000000
 40
1.250000
  0
ARC
  8
0
  6
DASHED
 62
2
 10
-18.000000
 20
17.500000
 40
3.000000
 50
303.367004
 51
236.632996
  0
ARC
  8
0
  6
DASHED
 62
2
 10
-18.000000
 20
17.500000
 40
1.650000
 50
0.000000
 51
180.000000
  0
ARC
  8
0
  6
DASHED
 62
2
 10
-18.000000
 20
38.500000
 40
1.650000
 50
180.000000
 51
0.000000
  0
ARC
  8
0
  6
DASHED
 62
2
 10
-18.000000
 20
38.500000
 40
3.000000
 50
123.366997
 51
416.632996
  0
CIRCLE
  8
0
  6
DASHED
 62
2
 10
29.000000
 20
38.500000
 40
3.000000
  0
CIRCLE
  8
0
  6
DASHED
 62
2
 10
29.000000
 20
38.500000
 40
2.000000
  0
CIRCLE
  8
0
  6
DASHED
 62
2
 10
29.000000
 20
38.500000
 40
1.650000
  0
CIRCLE
  8
0
  6
DASHED
 62
2
 10
29.000000
 20
17.500000
 40
3.000000
  0
CIRCLE
  8
0
  6
DASHED
 62
2
 10
29.000000
 20
17.500000
 40
2.000000
  0
CIRCLE
  8
0
  6
DASHED
 62
2
 10
29.000000
 20
17.500000
 40
1.650000
  0
CIRCLE
  8
0
  6
CONTINUOUS
 62
7
 10
8.000000
 20
18.000000
 40
1.250000
  0
CIRCLE
  8
0
  6
CONTINUOUS
 62
2
 10
8.000000
 20
18.000000
 40
1.500000
  0
CIRCLE
  8
0
  6
CONTINUOUS
 62
2
 10
8.000000
 20
38.000000
 40
1.500000
  0
CIRCLE
  8
0
  6
CONTINUOUS
 62
7
 10
8.000000
 20
38.000000
 40
1.250000
  0
CIRCLE
  8
0
  6
CONTINUOUS
 62
2
 10
22.850000
 20
76.199997
 40
1.000000
  0
CIRCLE
  8
0
  6
CONTINUOUS
 62
7
 10
22.850000
 20
76.199997
 40
0.800000
  0
ARC
  8
0
  6
CONTINUOUS
 62
7
 10
-26.000000
 20
87.199997
 40
4.800000
 50
298.954987
 51
0.000000
  0
ARC
  8
0
  6
CONTINUOUS
 62
7
 10
37.000000
 20
87.199997
 40
4.800000
 50
180.000000
 51
241.044998
  0
CIRCLE
  8
0
  6
CONTINUOUS
 62
2
 10
154.000000
 20
-31.000000
 40
2.500000
  0
CIRCLE
  8
0
  6
CONTINUOUS
 62
7
 10
154.000000
 20
-31.000000
 40
2.100000
  0
CIRCLE
  8
0
  6
CONTINUOUS
 62
2
 10
232.000000
 20
-31.000000
 40
2.500000
  0
CIRCLE
  8
0
  6
CONTINUOUS
 62
7
 10
232.000000
 20
-31.000000
 40
2.100000
  0
ARC
  8
0
  6
CONTINUOUS
 62
7
 10
154.000000
 20
-31.000000
 40
4.800000
 50
0.000000
 51
56.442600
  0
ARC
  8
0
  6
CONTINUOUS
 62
7
 10
168.000000
 20
-32.500000
 40
3.000000
 50
0.000000
 51
150.000000
  0
CIRCLE
  8
0
  6
CONTINUOUS
 62
2
 10
227.850006
 20
-20.200001
 40
1.000000
  0
CIRCLE
  8
0
  6
CONTINUOUS
 62
7
 10
217.850006
 20
-20.200001
 40
0.750000
  0
CIRCLE
  8
0
  6
CONTINUOUS
 62
7
 10
231.199997
 20
-20.500000
 40
1.250000
  0
CIRCLE
  8
0
  6
CONTINUOUS
 62
2
 10
168.000000
 20
-32.500000
 40
1.500000
  0
CIRCLE
  8
0
  6
CONTINUOUS
 62
2
 10
218.000000
 20
-32.500000
 40
1.500000
  0
CIRCLE
  8
0
  6
CONTINUOUS
 62
2
 10
231.199997
 20
-20.500000
 40
1.500000
  0
ARC
  8
0
  6
CONTINUOUS
 62
7
 10
232.000000
 20
-31.000000
 40
4.800000
 50
123.556999
 51
180.000000
  0
ARC
  8
0
  6
CONTINUOUS
 62
7
 10
218.000000
 20
-32.500000
 40
3.000010
 50
29.999901
 51
180.000000
  0
CIRCLE
  8
0
  6
CONTINUOUS
 62
7
 10
218.000000
 20
-32.500000
 40
1.250000
  0
CIRCLE
  8
0
  6
CONTINUOUS
 62
7
 10
227.850006
 20
-20.200001
 40
0.750000
  0
CIRCLE
  8
0
  6
CONTINUOUS
 62
2
 10
217.850006
 20
-20.200001
 40
1.000000
  0
CIRCLE
  8
0
  6
CONTINUOUS
 62
2
 10
224.699997
 20
-20.500000
 40
1.500000
  0
CIRCLE
  8
0
  6
CONTINUOUS
 62
7
 10
224.699997
 20
-20.500000
 40
1.250000
  0
CIRCLE
  8
0
  6
CONTINUOUS
 62
7
 10
168.000000
 20
-32.500000
 40
1.250000
  0
CIRCLE
  8
0
  6
CONTINUOUS
 62
2
 10
-26.000000
 20
-31.000000
 40
2.500000
  0
CIRCLE
  8
0
  6
CONTINUOUS
 62
7
 10
-26.000000
 20
-31.000000
 40
2.100000
  0
CIRCLE
  8
0
  6
CONTINUOUS
 62
2
 10
37.000000
 20
-31.000000
 40
2.500000
  0
CIRCLE
  8
0
  6
CONTINUOUS
 62
7
 10
37.000000
 20
-31.000000
 40
2.100000
  0
CIRCLE
  8
0
  6
CONTINUOUS
 62
2
 10
32.849998
 20
-20.200001
 40
1.000000
  0
CIRCLE
  8
0
  6
CONTINUOUS
 62
7
 10
22.850000
 20
-20.200001
 40
0.750000
  0
CIRCLE
  8
0
  6
CONTINUOUS
 62
7
 10
36.200001
 20
-20.500000
 40
1.250000
  0
CIRCLE
  8
0
  6
CONTINUOUS
 62
2
 10
-12.000000
 20
-32.500000
 40
1.500000
  0
CIRCLE
  8
0
  6
CONTINUOUS
 62
2
 10
23.000000
 20
-32.500000
 40
1.500000
  0
CIRCLE
  8
0
  6
CONTINUOUS
 62
2
 10
36.200001
 20
-20.500000
 40
1.500000
  0
CIRCLE
  8
0
  6
CONTINUOUS
 62
7
 10
23.000000
 20
-32.500000
 40
1.250000
  0
CIRCLE
  8
0
  6
CONTINUOUS
 62
7
 10
32.849998
 20
-20.200001
 40
0.750000
  0
CIRCLE
  8
0
  6
CONTINUOUS
 62
2
 10
22.850000
 20
-20.200001
 40
1.000000
  0
CIRCLE
  8
0
  6
CONTINUOUS
 62
2
 10
29.700001
 20
-20.500000
 40
1.500000
  0
CIRCLE
  8
0
  6
CONTINUOUS
 62
7
 10
29.700001
 20
-20.500000
 40
1.250000
  0
CIRCLE
  8
0
  6
CONTINUOUS
 62
7
 10
-12.000000
 20
-32.500000
 40
1.250000
  0
ARC
  8
0
  6
CONTINUOUS
 62
7
 10
37.000000
 20
-31.200001
 40
4.800000
 50
118.955002
 51
180.000000
  0
ARC
  8
0
  6
CONTINUOUS
 62
7
 10
23.000000
 20
-32.700001
 40
3.000000
 50
30.000000
 51
132.834000
  0
ARC
  8
0
  6
CONTINUOUS
 62
7
 10
-12.000000
 20
-32.700001
 40
3.000000
 50
47.166500
 51
150.000000
  0
ARC
  8
0
  6
CONTINUOUS
 62
7
 10
-26.000000
 20
-31.200001
 40
4.800000
 50
0.000000
 51
61.044701
  0
ARC
  8
0
  6
CONTINUOUS
 62
7
 10
170.199997
 20
83.500000
 40
1.500000
 50
90.000000
 51
180.000000
  0
CIRCLE
  8
0
  6
CONTINUOUS
 62
7
 10
115.500000
 20
48.000000
 40
1.800000
  0
ARC
  8
0
  6
CONTINUOUS
 62
7
 10
115.500000
 20
48.000000
 40
6.000000
 50
293.556000
 51
306.442993
  0
ARC
  8
0
  6
CONTINUOUS
 62
7
 10
115.500000
 20
48.000000
 40
6.000000
 50
113.556999
 51
126.444000
  0
ARC
  8
0
  6
CONTINUOUS
 62
7
 10
115.500000
 20
48.000000
 40
6.000000
 50
53.556499
 51
66.443497
  0
ARC
  8
0
  6
CONTINUOUS
 62
7
 10
115.500000
 20
48.000000
 40
6.000000
 50
233.556000
 51
246.442993
  0
CIRCLE
  8
0
  6
CONTINUOUS
 62
7
 10
115.500000
 20
48.000000
 40
4.000000
  0
ARC
  8
0
  6
CONTINUOUS
 62
7
 10
115.500000
 20
48.000000
 40
6.000000
 50
173.556000
 51
186.442993
  0
ARC
  8
0
  6
CONTINUOUS
 62
7
 10
115.500000
 20
48.000000
 40
6.000000
 50
353.556000
 51
6.443530
  0
ARC
  8
0
  6
CONTINUOUS
 62
7
 10
261.500000
 20
48.000000
 40
5.500000
 50
303.056000
 51
316.032990
  0
ARC
  8
0
  6
CONTINUOUS
 62
7
 10
261.500000
 20
48.000000
 40
5.500000
 50
332.963989
 51
204.619995
  0
CIRCLE
  8
0
  6
CONTINUOUS
 62
2
 10
-186.000000
 20
-68.000000
 40
2.000000
  0
CIRCLE
  8
0
  6
CONTINUOUS
 62
7
 10
-186.000000
 20
-68.000000
 40
2.500000
  0
CIRCLE
  8
0
  6
CONTINUOUS
 62
2
 10
-169.000000
 20
38.000000
 40
1.500000
  0
CIRCLE
  8
0
  6
CONTINUOUS
 62
7
 10
-187.000000
 20
38.000000
 40
1.250000
  0
CIRCLE
  8
0
  6
CONTINUOUS
 62
2
 10
-187.000000
 20
38.000000
 40
1.500000
  0
CIRCLE
  8
0
  6
CONTINUOUS
 62
7
 10
-183.000000
 20
38.500000
 40
1.600000
  0
CIRCLE
  8
0
  6
CONTINUOUS
 62
7
 10
-205.000000
 20
38.000000
 40
1.250000
  0
CIRCLE
  8
0
  6
CONTINUOUS
 62
2
 10
-205.000000
 20
38.000000
 40
1.500000
  0
CIRCLE
  8
0
  6
CONTINUOUS
 62
7
 10
-205.000000
 20
18.000000
 40
1.250000
  0
CIRCLE
  8
0
  6
CONTINUOUS
 62
2
 10
-205.000000
 20
18.000000
 40
1.500000
  0
CIRCLE
  8
0
  6
CONTINUOUS
 62
7
 10
-169.000000
 20
18.000000
 40
1.250000
  0
CIRCLE
  8
0
  6
CONTINUOUS
 62
2
 10
-169.000000
 20
18.000000
 40
1.500000
  0
CIRCLE
  8
0
  6
CONTINUOUS
 62
7
 10
-187.000000
 20
18.000000
 40
1.250000
  0
CIRCLE
  8
0
  6
CONTINUOUS
 62
2
 10
-187.000000
 20
18.000000
 40
1.500000
  0
CIRCLE
  8
0
  6
CONTINUOUS
 62
7
 10
-169.000000
 20
38.000000
 40
1.250000
  0
ARC
  8
0
  6
DASHED
 62
2
 10
-198.000000
 20
17.500000
 40
3.000000
 50
303.367004
 51
236.632996
  0
ARC
  8
0
  6
DASHED
 62
2
 10
-198.000000
 20
17.500000
 40
1.649990
 50
0.000000
 51
180.000000
  0
ARC
  8
0
  6
DASHED
 62
2
 10
-198.000000
 20
38.500000
 40
1.649990
 50
180.000000
 51
0.000000
  0
ARC
  8
0
  6
DASHED
 62
2
 10
-198.000000
 20
38.500000
 40
3.000000
 50
123.366997
 51
416.632996
  0
CIRCLE
  8
0
  6
DASHED
 62
2
 10
-166.000000
 20
38.500000
 40
3.000000
  0
CIRCLE
  8
0
  6
DASHED
 62
2
 10
-166.000000
 20
38.500000
 40
2.000000
  0
CIRCLE
  8
0
  6
DASHED
 62
2
 10
-166.000000
 20
38.500000
 40
1.650000
  0
CIRCLE
  8
0
  6
DASHED
 62
2
 10
-166.000000
 20
17.500000
 40
3.000000
  0
CIRCLE
  8
0
  6
DASHED
 62
2
 10
-166.000000
 20
17.500000
 40
2.000000
  0
CIRCLE
  8
0
  6
DASHED
 62
2
 10
-166.000000
 20
17.500000
 40
1.650000
  0
ARC
  8
0
  6
CONTINUOUS
 62
7
 10
-158.000000
 20
87.000000
 40
4.800000
 50
180.000000
 51
236.442993
  0
ARC
  8
0
  6
CONTINUOUS
 62
7
 10
-206.000000
 20
87.000000
 40
4.800000
 50
303.557007
 51
0.000000
  0
CIRCLE
  8
0
  6
CONTINUOUS
 62
2
 10
-172.149994
 20
76.199997
 40
1.000000
  0
CIRCLE
  8
0
  6
CONTINUOUS
 62
7
 10
-172.149994
 20
76.199997
 40
0.800000
  0
ARC
  8
0
  6
CONTINUOUS
 62
7
 10
-198.000000
 20
-68.000000
 40
1.649990
 50
180.000000
 51
0.000000
  0
ARC
  8
0
  6
CONTINUOUS
 62
7
 10
-198.000000
 20
-89.000000
 40
1.649990
 50
0.000000
 51
180.000000
  0
CIRCLE
  8
0
  6
CONTINUOUS
 62
7
 10
-186.000000
 20
-89.000000
 40
2.500000
  0
CIRCLE
  8
0
  6
CONTINUOUS
 62
7
 10
-166.000000
 20
-89.000000
 40
1.650000
  0
CIRCLE
  8
0
  6
CONTINUOUS
 62
2
 10
-166.000000
 20
-89.000000
 40
2.000000
  0
CIRCLE
  8
0
  6
CONTINUOUS
 62
7
 10
-186.000000
 20
-89.000000
 40
1.650000
  0
CIRCLE
  8
0
  6
CONTINUOUS
 62
2
 10
-186.000000
 20
-89.000000
 40
2.000000
  0
CIRCLE
  8
0
  6
CONTINUOUS
 62
7
 10
-166.000000
 20
-68.000000
 40
1.650000
  0
CIRCLE
  8
0
  6
CONTINUOUS
 62
2
 10
-166.000000
 20
-68.000000
 40
2.000000
  0
CIRCLE
  8
0
  6
CONTINUOUS
 62
7
 10
-186.000000
 20
-68.000000
 40
1.650000
  0
CIRCLE
  8
0
  6
CONTINUOUS
 62
2
 10
-206.000000
 20
-31.000000
 40
2.500000
  0
CIRCLE
  8
0
  6
CONTINUOUS
 62
7
 10
-206.000000
 20
-31.000000
 40
2.100000
  0
CIRCLE
  8
0
  6
CONTINUOUS
 62
2
 10
-158.000000
 20
-31.000000
 40
2.500000
  0
CIRCLE
  8
0
  6
CONTINUOUS
 62
7
 10
-158.000000
 20
-31.000000
 40
2.100000
  0
ARC
  8
0
  6
CONTINUOUS
 62
7
 10
-206.000000
 20
-31.000000
 40
4.800000
 50
0.000000
 51
56.442600
  0
ARC
  8
0
  6
CONTINUOUS
 62
7
 10
-192.000000
 20
-32.500000
 40
3.000000
 50
0.000000
 51
150.000000
  0
CIRCLE
  8
0
  6
CONTINUOUS
 62
2
 10
-162.149994
 20
-20.200001
 40
1.000000
  0
CIRCLE
  8
0
  6
CONTINUOUS
 62
7
 10
-172.149994
 20
-20.200001
 40
0.750000
  0
CIRCLE
  8
0
  6
CONTINUOUS
 62
7
 10
-158.800003
 20
-20.500000
 40
1.250000
  0
CIRCLE
  8
0
  6
CONTINUOUS
 62
2
 10
-192.000000
 20
-32.500000
 40
1.500000
  0
CIRCLE
  8
0
  6
CONTINUOUS
 62
2
 10
-172.000000
 20
-32.500000
 40
1.500000
  0
CIRCLE
  8
0
  6
CONTINUOUS
 62
2
 10
-158.800003
 20
-20.500000
 40
1.500000
  0
ARC
  8
0
  6
CONTINUOUS
 62
7
 10
-158.000000
 20
-31.000000
 40
4.800000
 50
123.556999
 51
180.000000
  0
ARC
  8
0
  6
CONTINUOUS
 62
7
 10
-172.000000
 20
-32.500000
 40
3.000010
 50
29.999901
 51
180.000000
  0
CIRCLE
  8
0
  6
CONTINUOUS
 62
7
 10
-172.000000
 20
-32.500000
 40
1.250000
  0
CIRCLE
  8
0
  6
CONTINUOUS
 62
7
 10
-162.149994
 20
-20.200001
 40
0.750000
  0
CIRCLE
  8
0
  6
CONTINUOUS
 62
2
 10
-172.149994
 20
-20.200001
 40
1.000000
  0
CIRCLE
  8
0
  6
CONTINUOUS
 62
2
 10
-165.300003
 20
-20.500000
 40
1.500000
  0
CIRCLE
  8
0
  6
CONTINUOUS
 62
7
 10
-165.300003
 20
-20.500000
 40
1.250000
  0
CIRCLE
  8
0
  6
CONTINUOUS
 62
7
 10
-192.000000
 20
-32.500000
 40
1.250000
  0
ARC
  8
0
  6
CONTINUOUS
 62
7
 10
-189.800003
 20
83.500000
 40
1.500000
 50
90.000000
 51
180.000000
  0
CIRCLE
  8
0
  6
CONTINUOUS
 62
7
 10
173.000000
 20
18.000000
 40
1.250000
  0
CIRCLE
  8
0
  6
CONTINUOUS
 62
2
 10
173.000000
 20
18.000000
 40
1.500000
  0
CIRCLE
  8
0
  6
CONTINUOUS
 62
7
 10
173.000000
 20
38.000000
 40
1.250000
  0
CIRCLE
  8
0
  6
CONTINUOUS
 62
2
 10
173.000000
 20
38.000000
 40
1.500000
  0
ARC
  8
0
  6
CONTINUOUS
 62
7
 10
-9.800020
 20
83.500000
 40
1.500000
 50
90.000000
 51
180.000000
  0
CIRCLE
  8
0
  6
CONTINUOUS
 62
2
 10
-67.000000
 20
28.000000
 40
2.000000
  0
CIRCLE
  8
0
  6
CONTINUOUS
 62
7
 10
-67.000000
 20
38.000000
 40
3.000000
  0
CIRCLE
  8
0
  6
CONTINUOUS
 62
7
 10
-67.000000
 20
28.000000
 40
1.650000
  0
CIRCLE
  8
0
  6
CONTINUOUS
 62
7
 10
-76.000000
 20
28.000000
 40
5.000000
  0
CIRCLE
  8
0
  6
CONTINUOUS
 62
7
 10
-67.000000
 20
18.000000
 40
3.000000
  0
CIRCLE
  8
0
  6
CONTINUOUS
 62
2
 10
-76.000000
 20
18.000000
 40
2.000000
  0
CIRCLE
  8
0
  6
CONTINUOUS
 62
7
 10
-76.000000
 20
18.000000
 40
1.650000
  0
CIRCLE
  8
0
  6
CONTINUOUS
 62
2
 10
-76.000000
 20
38.000000
 40
2.000000
  0
CIRCLE
  8
0
  6
CONTINUOUS
 62
7
 10
-76.000000
 20
38.000000
 40
1.650000
  0
CIRCLE
  8
0
  6
CONTINUOUS
 62
7
 10
-69.500000
 20
48.000000
 40
1.800000
  0
ARC
  8
0
  6
CONTINUOUS
 62
7
 10
-69.500000
 20
48.000000
 40
6.000000
 50
293.556000
 51
306.442993
  0
ARC
  8
0
  6
CONTINUOUS
 62
7
 10
-69.500000
 20
48.000000
 40
6.000000
 50
113.556999
 51
126.444000
  0
ARC
  8
0
  6
CONTINUOUS
 62
7
 10
-69.500000
 20
48.000000
 40
6.000000
 50
53.556499
 51
66.443497
  0
ARC
  8
0
  6
CONTINUOUS
 62
7
 10
-69.500000
 20
48.000000
 40
6.000000
 50
233.556000
 51
246.442993
  0
CIRCLE
  8
0
  6
CONTINUOUS
 62
7
 10
-69.500000
 20
48.000000
 40
4.000000
  0
ARC
  8
0
  6
CONTINUOUS
 62
7
 10
-69.500000
 20
48.000000
 40
6.000000
 50
173.556000
 51
186.442993
  0
ARC
  8
0
  6
CONTINUOUS
 62
7
 10
-69.500000
 20
48.000000
 40
6.000000
 50
353.556000
 51
6.443530
  0
CIRCLE
  8
0
  6
CONTINUOUS
 62
7
 10
78.000000
 20
28.000000
 40
5.400000
  0
ARC
  8
0
  6
CONTINUOUS
 62
7
 10
71.500000
 20
34.599998
 40
1.350000
 50
206.389999
 51
333.614014
  0
ARC
  8
0
  6
CONTINUOUS
 62
7
 10
71.500000
 20
21.400000
 40
1.350000
 50
26.389099
 51
153.613007
  0
ARC
  8
0
  6
CONTINUOUS
 62
7
 10
71.500000
 20
48.000000
 40
5.500000
 50
303.056000
 51
316.032990
  0
ARC
  8
0
  6
CONTINUOUS
 62
7
 10
71.500000
 20
48.000000
 40
5.500000
 50
332.963989
 51
204.619995
  0
CIRCLE
  8
0
  6
CONTINUOUS
 62
2
 10
-252.000000
 20
28.000000
 40
2.000000
  0
CIRCLE
  8
0
  6
CONTINUOUS
 62
7
 10
-252.000000
 20
38.000000
 40
3.000000
  0
CIRCLE
  8
0
  6
CONTINUOUS
 62
7
 10
-252.000000
 20
28.000000
 40
1.650000
  0
CIRCLE
  8
0
  6
CONTINUOUS
 62
7
 10
-261.000000
 20
28.000000
 40
5.000000
  0
CIRCLE
  8
0
  6
CONTINUOUS
 62
7
 10
-252.000000
 20
18.000000
 40
3.000000
  0
CIRCLE
  8
0
  6
CONTINUOUS
 62
2
 10
-261.000000
 20
18.000000
 40
2.000000
  0
CIRCLE
  8
0
  6
CONTINUOUS
 62
7
 10
-261.000000
 20
18.000000
 40
1.650000
  0
CIRCLE
  8
0
  6
CONTINUOUS
 62
2
 10
-261.000000
 20
38.000000
 40
2.000000
  0
CIRCLE
  8
0
  6
CONTINUOUS
 62
7
 10
-261.000000
 20
38.000000
 40
1.650000
  0
CIRCLE
  8
0
  6
CONTINUOUS
 62
7
 10
-254.500000
 20
48.000000
 40
1.800000
  0
ARC
  8
0
  6
CONTINUOUS
 62
7
 10
-254.500000
 20
48.000000
 40
6.000000
 50
293.556000
 51
306.442993
  0
ARC
  8
0
  6
CONTINUOUS
 62
7
 10
-254.500000
 20
48.000000
 40
6.000000
 50
113.556999
 51
126.444000
  0
ARC
  8
0
  6
CONTINUOUS
 62
7
 10
-254.500000
 20
48.000000
 40
6.000000
 50
53.556499
 51
66.443497
  0
ARC
  8
0
  6
CONTINUOUS
 62
7
 10
-254.500000
 20
48.000000
 40
6.000000
 50
233.556000
 51
246.442993
  0
CIRCLE
  8
0
  6
CONTINUOUS
 62
7
 10
-254.500000
 20
48.000000
 40
4.000000
  0
ARC
  8
0
  6
CONTINUOUS
 62
7
 10
-254.500000
 20
48.000000
 40
6.000000
 50
173.556000
 51
186.442993
  0
ARC
  8
0
  6
CONTINUOUS
 62
7
 10
-254.500000
 20
48.000000
 40
6.000000
 50
353.556000
 51
6.443530
  0
CIRCLE
  8
0
  6
CONTINUOUS
 62
7
 10
-117.000000
 20
28.000000
 40
5.400000
  0
ARC
  8
0
  6
CONTINUOUS
 62
7
 10
-123.500000
 20
34.599998
 40
1.350000
 50
206.389999
 51
333.614014
  0
ARC
  8
0
  6
CONTINUOUS
 62
7
 10
-123.500000
 20
21.400000
 40
1.350000
 50
26.389099
 51
153.613007
  0
ARC
  8
0
  6
CONTINUOUS
 62
7
 10
-123.500000
 20
48.000000
 40
5.500000
 50
303.056000
 51
316.032990
  0
ARC
  8
0
  6
CONTINUOUS
 62
7
 10
-123.500000
 20
48.000000
 40
5.500000
 50
332.963989
 51
204.619995
  0
CIRCLE
  8
0
  6
CONTINUOUS
 62
7
 10
-183.000000
 20
17.500000
 40
1.600000
  0
CIRCLE
  8
0
  6
CONTINUOUS
 62
7
 10
187.000000
 20
17.500000
 40
1.600000
  0
CIRCLE
  8
0
  6
CONTINUOUS
 62
7
 10
-3.000030
 20
17.500000
 40
1.600000
  0
TEXT
  8
0
 62
7
 10
202.930283
 20
183.925003
 40
6.300000
  1
Ver.1.0
 50
0.000000
 41
1.010330
 51
0.000000
  7
STANDARD
  0
TEXT
  8
0
 62
7
 10
172.714691
 20
-187.250000
 40
9.000000
  1
KOGANEI CORP.
 50
0.000000
 41
0.771524
 51
0.000000
  7
STANDARD
  0
TEXT
  8
0
 62
7
 10
-240.419724
 20
183.925003
 40
6.300000
  1
AP UNIT
 50
0.000000
 41
0.832036
 51
0.000000
  7
STANDARD
  0
TEXT
  8
0
 62
7
 10
106.166611
 20
158.925003
 40
6.300000
  1
MODEL:APU-SD10-45-TP-QY
 50
0.000000
 41
0.774953
 51
0.000000
  7
STANDARD
  0
TEXT
  8
0
 62
7
 10
-269.400391
 20
158.925003
 40
6.300000
  1
MODEL:APU-SD10-15-TP-QY
 50
0.000000
 41
0.787554
 51
0.000000
  7
STANDARD
  0
TEXT
  8
0
 62
7
 10
-81.617088
 20
158.925003
 40
6.300000
  1
MODEL:APU-SD10-30-TP-QY
 50
0.000000
 41
0.781203
 51
0.000000
  7
STANDARD
  0
ENDSEC
  0
EOF
