  0
SECTION
  2
HEADER
  0
ENDSEC
  0
SECTION
  2
TABLES
  0
TABLE
  2
LTYPE
 70
     4
  0
LTYPE
  2
CONTINUOUS
 70
    64
  3
Solid line
 72
    65
 73
     0
 40
0.000000
  0
LTYPE
  2
DASHED
 70
    64
  3
__ __ __ __ __ __ __ __ __ __ __ __ __ __ __
 72
    65
 73
     2
 40
3.500000
 49
2.000000
 49
-1.500000
  0
LTYPE
  2
CENTER
 70
    64
  3
____ _ ____ _ ____ _ ____ _ ____ _ ____ _ ____
 72
    65
 73
     4
 40
17.500000
 49
13.000000
 49
-1.500000
 49
1.500000
 49
-1.500000
  0
LTYPE
  2
PHANTOM
 70
    64
  3
_____ _ _ _____ _ _ _____ _ _ _____ _ _ ____  
 72
    65
 73
     6
 40
15.500000
 49
8.000000
 49
-1.500000
 49
1.500000
 49
-1.500000
 49
1.500000
 49
-1.500000
  0
ENDTAB
  0
TABLE
  2
LAYER
 70
     1
  0
LAYER
  2
0
 70
     0
 62
     7
  6
CONTINUOUS
  0
ENDTAB
  0
TABLE
  2
STYLE
 70
     1
  0
STYLE
  2
STANDARD
 70
     0
 40
0.000000
 41
1.000000
 50
0.000000
 71
     0
 42
0.200000
  3
txt
  4
BIGFONT
  0
ENDTAB
  0
TABLE
  2
VIEW
 70
     0
  0
ENDTAB
  0
ENDSEC
  0
SECTION
  2
BLOCKS
  0
ENDSEC
  0
SECTION
  2
ENTITIES
  0
LINE
  8
0
  6
CONTINUOUS
 62
7
 10
-281.250000
 20
195.500000
 11
282.100006
 21
195.500000
  0
LINE
  8
0
  6
CONTINUOUS
 62
7
 10
-281.250000
 20
195.500000
 11
-281.250000
 21
-195.000000
  0
LINE
  8
0
  6
CONTINUOUS
 62
7
 10
282.100006
 20
195.500000
 11
282.100006
 21
-195.000000
  0
LINE
  8
0
  6
CONTINUOUS
 62
7
 10
-281.250000
 20
-195.000000
 11
282.100006
 21
-195.000000
  0
LINE
  8
0
  6
CONTINUOUS
 62
7
 10
162.100006
 20
-175.000000
 11
162.100006
 21
-195.000000
  0
LINE
  8
0
  6
CONTINUOUS
 62
7
 10
162.100006
 20
-175.000000
 11
282.100006
 21
-175.000000
  0
LINE
  8
0
  6
CONTINUOUS
 62
7
 10
162.100006
 20
175.500000
 11
282.100006
 21
175.500000
  0
LINE
  8
0
  6
CONTINUOUS
 62
7
 10
-281.250000
 20
175.500000
 11
-161.250000
 21
175.500000
  0
LINE
  8
0
  6
CONTINUOUS
 62
7
 10
162.100006
 20
195.500000
 11
162.100006
 21
175.500000
  0
LINE
  8
0
  6
CONTINUOUS
 62
7
 10
-161.250000
 20
195.500000
 11
-161.250000
 21
175.500000
  0
LINE
  8
0
  6
CENTER
 62
2
 10
226.000000
 20
28.000000
 11
124.000000
 21
28.000000
  0
LINE
  8
0
  6
CONTINUOUS
 62
7
 10
222.699997
 20
41.500000
 11
125.000000
 21
41.500000
  0
LINE
  8
0
  6
CONTINUOUS
 62
7
 10
222.000000
 20
14.500000
 11
125.000000
 21
14.500000
  0
LINE
  8
0
  6
CONTINUOUS
 62
7
 10
222.000000
 20
21.000000
 11
133.000000
 21
21.000000
  0
LINE
  8
0
  6
CONTINUOUS
 62
7
 10
222.000000
 20
35.000000
 11
133.000000
 21
35.000000
  0
LINE
  8
0
  6
CONTINUOUS
 62
7
 10
225.000000
 20
14.000000
 11
150.649994
 21
14.000000
  0
LINE
  8
0
  6
CONTINUOUS
 62
7
 10
225.000000
 20
42.000000
 11
225.000000
 21
14.000000
  0
LINE
  8
0
  6
CONTINUOUS
 62
7
 10
133.000000
 20
41.500000
 11
133.000000
 21
14.500000
  0
LINE
  8
0
  6
CONTINUOUS
 62
7
 10
222.000000
 20
41.500000
 11
222.000000
 21
14.500000
  0
LINE
  8
0
  6
CONTINUOUS
 62
7
 10
135.000000
 20
14.500000
 11
135.000000
 21
14.000000
  0
LINE
  8
0
  6
CONTINUOUS
 62
7
 10
135.000000
 20
42.000000
 11
135.000000
 21
41.500000
  0
LINE
  8
0
  6
CONTINUOUS
 62
7
 10
147.350006
 20
14.000000
 11
147.350006
 21
14.500000
  0
LINE
  8
0
  6
CONTINUOUS
 62
7
 10
150.649994
 20
14.000000
 11
150.649994
 21
14.500000
  0
LINE
  8
0
  6
CONTINUOUS
 62
7
 10
150.649994
 20
41.500000
 11
150.649994
 21
42.000000
  0
LINE
  8
0
  6
CONTINUOUS
 62
7
 10
147.350006
 20
41.500000
 11
147.350006
 21
42.000000
  0
LINE
  8
0
  6
CONTINUOUS
 62
7
 10
147.350006
 20
14.000000
 11
135.000000
 21
14.000000
  0
LINE
  8
0
  6
CONTINUOUS
 62
7
 10
147.350006
 20
42.000000
 11
135.000000
 21
42.000000
  0
LINE
  8
0
  6
CONTINUOUS
 62
7
 10
125.000000
 20
41.500000
 11
125.000000
 21
14.500000
  0
LINE
  8
0
  6
CENTER
 62
2
 10
142.000000
 20
40.500000
 11
142.000000
 21
35.500000
  0
LINE
  8
0
  6
CENTER
 62
2
 10
139.500000
 20
38.000000
 11
144.500000
 21
38.000000
  0
LINE
  8
0
  6
CENTER
 62
2
 10
142.000000
 20
20.500000
 11
142.000000
 21
15.500000
  0
LINE
  8
0
  6
CENTER
 62
2
 10
139.500000
 20
18.000000
 11
144.500000
 21
18.000000
  0
LINE
  8
0
  6
CENTER
 62
2
 10
208.000000
 20
40.500000
 11
208.000000
 21
35.500000
  0
LINE
  8
0
  6
CENTER
 62
2
 10
205.500000
 20
38.000000
 11
210.500000
 21
38.000000
  0
LINE
  8
0
  6
CENTER
 62
2
 10
174.000000
 20
41.099998
 11
174.000000
 21
35.900002
  0
LINE
  8
0
  6
CENTER
 62
2
 10
171.399994
 20
38.500000
 11
176.600006
 21
38.500000
  0
LINE
  8
0
  6
CENTER
 62
2
 10
208.000000
 20
20.500000
 11
208.000000
 21
15.500000
  0
LINE
  8
0
  6
CENTER
 62
2
 10
205.500000
 20
18.000000
 11
210.500000
 21
18.000000
  0
LINE
  8
0
  6
CENTER
 62
2
 10
190.000000
 20
40.500000
 11
190.000000
 21
35.500000
  0
LINE
  8
0
  6
CENTER
 62
2
 10
187.500000
 20
38.000000
 11
192.500000
 21
38.000000
  0
LINE
  8
0
  6
CENTER
 62
2
 10
190.000000
 20
20.500000
 11
190.000000
 21
15.500000
  0
LINE
  8
0
  6
CENTER
 62
2
 10
187.500000
 20
18.000000
 11
192.500000
 21
18.000000
  0
LINE
  8
0
  6
CONTINUOUS
 62
7
 10
223.199997
 20
14.700000
 11
222.000000
 21
14.700000
  0
LINE
  8
0
  6
CONTINUOUS
 62
7
 10
223.199997
 20
19.250000
 11
223.199997
 21
14.700000
  0
LINE
  8
0
  6
CONTINUOUS
 62
7
 10
223.199997
 20
33.250000
 11
223.199997
 21
22.750000
  0
LINE
  8
0
  6
CONTINUOUS
 62
7
 10
222.600006
 20
33.250000
 11
222.600006
 21
36.750000
  0
LINE
  8
0
  6
CONTINUOUS
 62
7
 10
222.600006
 20
33.250000
 11
223.600006
 21
33.250000
  0
LINE
  8
0
  6
CONTINUOUS
 62
7
 10
223.600006
 20
33.250000
 11
223.600006
 21
36.750000
  0
LINE
  8
0
  6
CONTINUOUS
 62
7
 10
222.600006
 20
36.750000
 11
223.600006
 21
36.750000
  0
LINE
  8
0
  6
CONTINUOUS
 62
7
 10
223.199997
 20
36.750000
 11
223.199997
 21
41.299999
  0
LINE
  8
0
  6
CONTINUOUS
 62
7
 10
223.199997
 20
41.299999
 11
222.000000
 21
41.299999
  0
LINE
  8
0
  6
CONTINUOUS
 62
7
 10
137.100006
 20
42.599998
 11
137.100006
 21
42.000000
  0
LINE
  8
0
  6
CONTINUOUS
 62
7
 10
222.600006
 20
22.750000
 11
222.600006
 21
19.250000
  0
LINE
  8
0
  6
CONTINUOUS
 62
7
 10
222.600006
 20
22.750000
 11
223.600006
 21
22.750000
  0
LINE
  8
0
  6
CONTINUOUS
 62
7
 10
223.600006
 20
19.250000
 11
223.600006
 21
22.750000
  0
LINE
  8
0
  6
CONTINUOUS
 62
7
 10
222.600006
 20
19.250000
 11
223.600006
 21
19.250000
  0
LINE
  8
0
  6
DASHED
 62
2
 10
150.649994
 20
17.500000
 11
150.649994
 21
14.500000
  0
LINE
  8
0
  6
DASHED
 62
2
 10
147.350006
 20
17.500000
 11
147.350006
 21
14.500000
  0
LINE
  8
0
  6
DASHED
 62
2
 10
150.649994
 20
38.500000
 11
150.649994
 21
41.500000
  0
LINE
  8
0
  6
DASHED
 62
2
 10
147.350006
 20
38.500000
 11
147.350006
 21
41.500000
  0
LINE
  8
0
  6
CENTER
 62
2
 10
211.000000
 20
42.500000
 11
211.000000
 21
34.500000
  0
LINE
  8
0
  6
CENTER
 62
2
 10
207.000000
 20
38.500000
 11
215.000000
 21
38.500000
  0
LINE
  8
0
  6
CENTER
 62
2
 10
211.000000
 20
21.500000
 11
211.000000
 21
13.500000
  0
LINE
  8
0
  6
CENTER
 62
2
 10
207.000000
 20
17.500000
 11
215.000000
 21
17.500000
  0
LINE
  8
0
  6
CENTER
 62
2
 10
149.000000
 20
21.500000
 11
149.000000
 21
13.500000
  0
LINE
  8
0
  6
CENTER
 62
2
 10
145.000000
 20
17.500000
 11
153.000000
 21
17.500000
  0
LINE
  8
0
  6
CENTER
 62
2
 10
149.000000
 20
42.500000
 11
149.000000
 21
34.500000
  0
LINE
  8
0
  6
CENTER
 62
2
 10
145.000000
 20
38.500000
 11
153.000000
 21
38.500000
  0
LINE
  8
0
  6
CENTER
 62
2
 10
141.000000
 20
45.000099
 11
141.000000
 21
41.000000
  0
LINE
  8
0
  6
CONTINUOUS
 62
7
 10
145.000000
 20
42.599998
 11
145.000000
 21
42.000000
  0
LINE
  8
0
  6
CONTINUOUS
 62
7
 10
137.500000
 20
44.000099
 11
137.500000
 21
42.599998
  0
LINE
  8
0
  6
CONTINUOUS
 62
7
 10
144.500000
 20
44.000099
 11
144.500000
 21
42.599998
  0
LINE
  8
0
  6
CONTINUOUS
 62
7
 10
145.000000
 20
42.599998
 11
137.100006
 21
42.599998
  0
LINE
  8
0
  6
CENTER
 62
2
 10
123.000000
 20
38.000000
 11
127.000000
 21
38.000000
  0
LINE
  8
0
  6
CENTER
 62
2
 10
123.000000
 20
18.000000
 11
127.000000
 21
18.000000
  0
LINE
  8
0
  6
CONTINUOUS
 62
7
 10
118.000000
 20
41.500000
 11
118.000000
 21
35.000000
  0
LINE
  8
0
  6
CONTINUOUS
 62
7
 10
117.699997
 20
34.700001
 11
117.699997
 21
21.299999
  0
LINE
  8
0
  6
CONTINUOUS
 62
7
 10
118.000000
 20
14.500000
 11
118.000000
 21
21.000000
  0
LINE
  8
0
  6
CONTINUOUS
 62
7
 10
118.000000
 20
14.500000
 11
99.000000
 21
14.500000
  0
LINE
  8
0
  6
CONTINUOUS
 62
7
 10
118.000000
 20
41.500000
 11
99.000000
 21
41.500000
  0
LINE
  8
0
  6
CONTINUOUS
 62
7
 10
118.000000
 20
35.000000
 11
117.699997
 21
34.700001
  0
LINE
  8
0
  6
CONTINUOUS
 62
7
 10
118.000000
 20
21.000000
 11
117.699997
 21
21.299999
  0
LINE
  8
0
  6
CONTINUOUS
 62
7
 10
107.500000
 20
14.000000
 11
107.500000
 21
14.500000
  0
LINE
  8
0
  6
CONTINUOUS
 62
7
 10
98.000000
 20
14.000000
 11
98.000000
 21
42.000000
  0
LINE
  8
0
  6
CONTINUOUS
 62
7
 10
107.500000
 20
14.000000
 11
98.000000
 21
14.000000
  0
LINE
  8
0
  6
CONTINUOUS
 62
7
 10
99.000000
 20
14.500000
 11
99.000000
 21
41.500000
  0
LINE
  8
0
  6
CONTINUOUS
 62
7
 10
117.500000
 20
41.500000
 11
117.500000
 21
14.500000
  0
LINE
  8
0
  6
CONTINUOUS
 62
7
 10
117.500000
 20
42.000000
 11
98.000000
 21
42.000000
  0
LINE
  8
0
  6
CONTINUOUS
 62
7
 10
107.500000
 20
42.000000
 11
107.500000
 21
41.500000
  0
LINE
  8
0
  6
CONTINUOUS
 62
7
 10
99.458603
 20
45.500000
 11
99.458603
 21
42.599998
  0
LINE
  8
0
  6
CONTINUOUS
 62
7
 10
101.478996
 20
45.500000
 11
101.478996
 21
42.599998
  0
LINE
  8
0
  6
CONTINUOUS
 62
7
 10
105.521004
 20
45.500000
 11
105.521004
 21
42.599998
  0
LINE
  8
0
  6
CONTINUOUS
 62
7
 10
107.541000
 20
45.500000
 11
99.458603
 21
45.500000
  0
LINE
  8
0
  6
CONTINUOUS
 62
7
 10
107.541000
 20
45.500000
 11
107.541000
 21
42.599998
  0
LINE
  8
0
  6
CONTINUOUS
 62
7
 10
107.541000
 20
42.599998
 11
99.458603
 21
42.599998
  0
LINE
  8
0
  6
CONTINUOUS
 62
7
 10
107.400002
 20
42.599998
 11
107.400002
 21
42.000000
  0
LINE
  8
0
  6
CONTINUOUS
 62
7
 10
99.599998
 20
42.599998
 11
99.599998
 21
42.000000
  0
LINE
  8
0
  6
CENTER
 62
2
 10
105.000000
 20
41.000000
 11
105.000000
 21
15.000000
  0
LINE
  8
0
  6
CENTER
 62
2
 10
97.000000
 20
28.000000
 11
119.000000
 21
28.000000
  0
LINE
  8
0
  6
CENTER
 62
2
 10
114.000000
 20
31.000000
 11
114.000000
 21
25.000000
  0
LINE
  8
0
  6
CENTER
 62
2
 10
102.000000
 20
38.000000
 11
118.000000
 21
38.000000
  0
LINE
  8
0
  6
CENTER
 62
2
 10
114.000000
 20
42.000000
 11
114.000000
 21
34.000000
  0
LINE
  8
0
  6
CENTER
 62
2
 10
102.000000
 20
18.000000
 11
118.000000
 21
18.000000
  0
LINE
  8
0
  6
CENTER
 62
2
 10
114.000000
 20
22.000000
 11
114.000000
 21
14.000000
  0
LINE
  8
0
  6
CENTER
 62
2
 10
103.500000
 20
46.500000
 11
103.500000
 21
41.000000
  0
LINE
  8
0
  6
CONTINUOUS
 62
7
 10
133.000000
 20
91.500000
 11
133.000000
 21
83.000000
  0
LINE
  8
0
  6
CONTINUOUS
 62
7
 10
125.000000
 20
91.500000
 11
125.000000
 21
73.000000
  0
LINE
  8
0
  6
CONTINUOUS
 62
7
 10
133.000000
 20
89.500000
 11
135.000000
 21
89.500000
  0
LINE
  8
0
  6
CONTINUOUS
 62
7
 10
125.000000
 20
91.500000
 11
133.000000
 21
91.500000
  0
LINE
  8
0
  6
CONTINUOUS
 62
7
 10
125.000000
 20
73.000000
 11
133.000000
 21
73.000000
  0
LINE
  8
0
  6
CONTINUOUS
 62
7
 10
133.000000
 20
72.500000
 11
222.000000
 21
72.500000
  0
LINE
  8
0
  6
CONTINUOUS
 62
7
 10
135.000000
 20
92.500000
 11
135.000000
 21
83.000000
  0
LINE
  8
0
  6
CONTINUOUS
 62
7
 10
225.000000
 20
92.500000
 11
225.000000
 21
92.000000
  0
LINE
  8
0
  6
CONTINUOUS
 62
7
 10
135.000000
 20
92.500000
 11
225.000000
 21
92.500000
  0
LINE
  8
0
  6
DASHED
 62
2
 10
214.000000
 20
87.000000
 11
208.000000
 21
87.000000
  0
LINE
  8
0
  6
CONTINUOUS
 62
7
 10
131.199997
 20
83.000000
 11
149.500000
 21
83.000000
  0
LINE
  8
0
  6
DASHED
 62
2
 10
164.000000
 20
88.500000
 11
158.000000
 21
88.500000
  0
LINE
  8
0
  6
CONTINUOUS
 62
7
 10
162.199997
 20
82.500000
 11
222.699997
 21
82.500000
  0
LINE
  8
0
  6
CONTINUOUS
 62
7
 10
145.800003
 20
87.000000
 11
151.500000
 21
87.000000
  0
LINE
  8
0
  6
CONTINUOUS
 62
7
 10
222.000000
 20
82.500000
 11
222.000000
 21
82.000000
  0
LINE
  8
0
  6
CONTINUOUS
 62
7
 10
147.350006
 20
92.500000
 11
147.350006
 21
87.000000
  0
LINE
  8
0
  6
DASHED
 62
2
 10
146.000000
 20
87.500000
 11
147.350006
 21
87.500000
  0
LINE
  8
0
  6
CENTER
 62
2
 10
149.000000
 20
93.500000
 11
149.000000
 21
86.000000
  0
LINE
  8
0
  6
CONTINUOUS
 62
7
 10
150.649994
 20
92.500000
 11
150.649994
 21
87.000000
  0
LINE
  8
0
  6
CONTINUOUS
 62
7
 10
141.000000
 20
82.958603
 11
144.500000
 21
84.979301
  0
LINE
  8
0
  6
CONTINUOUS
 62
7
 10
144.500000
 20
89.020798
 11
144.500000
 21
84.979301
  0
LINE
  8
0
  6
CONTINUOUS
 62
7
 10
141.000000
 20
91.041397
 11
144.500000
 21
89.020599
  0
LINE
  8
0
  6
CONTINUOUS
 62
7
 10
137.500000
 20
89.020798
 11
141.000000
 21
91.041496
  0
LINE
  8
0
  6
CONTINUOUS
 62
7
 10
137.500000
 20
84.979301
 11
137.500000
 21
89.020798
  0
LINE
  8
0
  6
CONTINUOUS
 62
7
 10
144.500000
 20
87.500000
 11
137.500000
 21
87.500000
  0
LINE
  8
0
  6
CONTINUOUS
 62
7
 10
144.500000
 20
86.500000
 11
137.500000
 21
86.500000
  0
LINE
  8
0
  6
CONTINUOUS
 62
7
 10
137.500000
 20
84.979202
 11
141.000000
 21
82.958504
  0
LINE
  8
0
  6
CONTINUOUS
 62
7
 10
222.000000
 20
73.000000
 11
223.199997
 21
73.000000
  0
LINE
  8
0
  6
CONTINUOUS
 62
7
 10
223.199997
 20
73.500000
 11
223.199997
 21
73.000000
  0
LINE
  8
0
  6
CENTER
 62
2
 10
141.000000
 20
92.041496
 11
141.000000
 21
81.958603
  0
LINE
  8
0
  6
CENTER
 62
2
 10
135.959000
 20
87.000000
 11
146.041000
 21
87.000000
  0
LINE
  8
0
  6
CENTER
 62
2
 10
204.850006
 20
78.199997
 11
204.850006
 21
74.199997
  0
LINE
  8
0
  6
CENTER
 62
2
 10
202.850006
 20
76.199997
 11
206.850006
 21
76.199997
  0
LINE
  8
0
  6
CENTER
 62
2
 10
161.000000
 20
93.500000
 11
161.000000
 21
87.500000
  0
LINE
  8
0
  6
DASHED
 62
2
 10
159.000000
 20
90.900002
 11
159.000000
 21
88.500000
  0
LINE
  8
0
  6
DASHED
 62
2
 10
163.000000
 20
90.900002
 11
163.000000
 21
88.500000
  0
LINE
  8
0
  6
DASHED
 62
2
 10
158.500000
 20
92.500000
 11
158.500000
 21
90.900002
  0
LINE
  8
0
  6
DASHED
 62
2
 10
163.500000
 20
92.500000
 11
163.500000
 21
90.900002
  0
LINE
  8
0
  6
DASHED
 62
2
 10
209.000000
 20
92.500000
 11
209.000000
 21
87.500000
  0
LINE
  8
0
  6
CENTER
 62
2
 10
211.000000
 20
93.500000
 11
211.000000
 21
86.000000
  0
LINE
  8
0
  6
DASHED
 62
2
 10
208.000000
 20
87.500000
 11
208.000000
 21
86.992500
  0
LINE
  8
0
  6
DASHED
 62
2
 10
208.000000
 20
87.500000
 11
214.000000
 21
87.500000
  0
LINE
  8
0
  6
DASHED
 62
2
 10
214.000000
 20
87.500000
 11
214.000000
 21
87.000000
  0
LINE
  8
0
  6
DASHED
 62
2
 10
213.000000
 20
92.500000
 11
213.000000
 21
87.500000
  0
LINE
  8
0
  6
CENTER
 62
2
 10
142.000000
 20
74.500000
 11
142.000000
 21
70.500000
  0
LINE
  8
0
  6
CENTER
 62
2
 10
160.000000
 20
74.500000
 11
160.000000
 21
70.500000
  0
LINE
  8
0
  6
CENTER
 62
2
 10
208.000000
 20
74.500000
 11
208.000000
 21
70.500000
  0
LINE
  8
0
  6
CENTER
 62
2
 10
123.000000
 20
85.500000
 11
127.000000
 21
85.500000
  0
LINE
  8
0
  6
CENTER
 62
2
 10
123.000000
 20
76.500000
 11
127.000000
 21
76.500000
  0
LINE
  8
0
  6
DASHED
 62
2
 10
146.000000
 20
87.500000
 11
146.000000
 21
87.000000
  0
LINE
  8
0
  6
DASHED
 62
2
 10
152.000000
 20
87.500000
 11
152.000000
 21
87.000000
  0
LINE
  8
0
  6
CONTINUOUS
 62
7
 10
147.350006
 20
87.500000
 11
150.649994
 21
87.500000
  0
LINE
  8
0
  6
DASHED
 62
2
 10
150.649994
 20
87.500000
 11
152.000000
 21
87.500000
  0
LINE
  8
0
  6
CONTINUOUS
 62
7
 10
133.000000
 20
-92.000000
 11
133.000000
 21
-65.000000
  0
LINE
  8
0
  6
CONTINUOUS
 62
7
 10
150.649994
 20
-92.000000
 11
147.350006
 21
-92.000000
  0
LINE
  8
0
  6
CONTINUOUS
 62
7
 10
150.649994
 20
-65.000000
 11
147.350006
 21
-65.000000
  0
LINE
  8
0
  6
CONTINUOUS
 62
7
 10
135.000000
 20
-92.500000
 11
135.000000
 21
-64.500000
  0
LINE
  8
0
  6
CONTINUOUS
 62
7
 10
225.000000
 20
-64.500000
 11
150.649994
 21
-64.500000
  0
LINE
  8
0
  6
CONTINUOUS
 62
7
 10
225.000000
 20
-92.500000
 11
225.000000
 21
-64.500000
  0
LINE
  8
0
  6
CENTER
 62
2
 10
226.000000
 20
-78.500000
 11
124.000000
 21
-78.500000
  0
LINE
  8
0
  6
CONTINUOUS
 62
7
 10
236.500000
 20
-92.500000
 11
150.649994
 21
-92.500000
  0
LINE
  8
0
  6
CONTINUOUS
 62
7
 10
147.350006
 20
-64.500000
 11
135.000000
 21
-64.500000
  0
LINE
  8
0
  6
CONTINUOUS
 62
7
 10
147.350006
 20
-92.500000
 11
135.000000
 21
-92.500000
  0
LINE
  8
0
  6
CONTINUOUS
 62
7
 10
135.000000
 20
-65.000000
 11
125.000000
 21
-65.000000
  0
LINE
  8
0
  6
CONTINUOUS
 62
7
 10
135.000000
 20
-92.000000
 11
125.000000
 21
-92.000000
  0
LINE
  8
0
  6
CONTINUOUS
 62
7
 10
125.000000
 20
-92.000000
 11
125.000000
 21
-65.000000
  0
LINE
  8
0
  6
CONTINUOUS
 62
7
 10
135.000000
 20
-82.500000
 11
133.000000
 21
-82.500000
  0
LINE
  8
0
  6
CONTINUOUS
 62
7
 10
135.000000
 20
-74.500000
 11
133.000000
 21
-74.500000
  0
LINE
  8
0
  6
CONTINUOUS
 62
7
 10
144.500000
 20
-96.000000
 11
137.500000
 21
-96.000000
  0
LINE
  8
0
  6
CENTER
 62
2
 10
149.000000
 20
-65.349998
 11
149.000000
 21
-70.650002
  0
LINE
  8
0
  6
CENTER
 62
2
 10
146.350006
 20
-68.000000
 11
151.649994
 21
-68.000000
  0
LINE
  8
0
  6
CENTER
 62
2
 10
149.000000
 20
-86.349998
 11
149.000000
 21
-91.650002
  0
LINE
  8
0
  6
CENTER
 62
2
 10
146.350006
 20
-89.000000
 11
151.649994
 21
-89.000000
  0
LINE
  8
0
  6
CENTER
 62
2
 10
161.000000
 20
-85.500000
 11
161.000000
 21
-92.500000
  0
LINE
  8
0
  6
CENTER
 62
2
 10
157.500000
 20
-89.000000
 11
163.500000
 21
-89.000000
  0
LINE
  8
0
  6
CENTER
 62
2
 10
161.000000
 20
-64.500000
 11
161.000000
 21
-71.500000
  0
LINE
  8
0
  6
CENTER
 62
2
 10
157.500000
 20
-68.000000
 11
164.500000
 21
-68.000000
  0
LINE
  8
0
  6
CENTER
 62
2
 10
211.000000
 20
-65.000000
 11
211.000000
 21
-71.000000
  0
LINE
  8
0
  6
CENTER
 62
2
 10
208.000000
 20
-68.000000
 11
214.000000
 21
-68.000000
  0
LINE
  8
0
  6
CENTER
 62
2
 10
211.000000
 20
-86.000000
 11
211.000000
 21
-92.000000
  0
LINE
  8
0
  6
CENTER
 62
2
 10
208.000000
 20
-89.000000
 11
214.000000
 21
-89.000000
  0
LINE
  8
0
  6
CONTINUOUS
 62
7
 10
147.350006
 20
-64.500000
 11
147.350006
 21
-68.000000
  0
LINE
  8
0
  6
CONTINUOUS
 62
7
 10
150.649994
 20
-64.500000
 11
150.649994
 21
-68.000000
  0
LINE
  8
0
  6
CONTINUOUS
 62
7
 10
147.350006
 20
-89.000000
 11
147.350006
 21
-92.500000
  0
LINE
  8
0
  6
CONTINUOUS
 62
7
 10
150.649994
 20
-89.000000
 11
150.649994
 21
-92.500000
  0
LINE
  8
0
  6
CENTER
 62
2
 10
141.000000
 20
-91.500000
 11
141.000000
 21
-97.000000
  0
LINE
  8
0
  6
CONTINUOUS
 62
7
 10
144.899994
 20
-93.099998
 11
137.100006
 21
-93.099998
  0
LINE
  8
0
  6
CONTINUOUS
 62
7
 10
137.100006
 20
-92.500000
 11
137.100006
 21
-93.099998
  0
LINE
  8
0
  6
CONTINUOUS
 62
7
 10
144.899994
 20
-92.500000
 11
144.899994
 21
-93.099998
  0
LINE
  8
0
  6
CONTINUOUS
 62
7
 10
144.500000
 20
-93.099998
 11
144.500000
 21
-96.000000
  0
LINE
  8
0
  6
CONTINUOUS
 62
7
 10
137.500000
 20
-93.099998
 11
137.500000
 21
-96.000000
  0
LINE
  8
0
  6
CONTINUOUS
 62
7
 10
-46.000000
 20
-92.000000
 11
-46.000000
 21
-65.000000
  0
LINE
  8
0
  6
CONTINUOUS
 62
7
 10
-28.350000
 20
-92.000000
 11
-31.650000
 21
-92.000000
  0
LINE
  8
0
  6
CONTINUOUS
 62
7
 10
-28.350000
 20
-65.000000
 11
-31.650000
 21
-65.000000
  0
LINE
  8
0
  6
CONTINUOUS
 62
7
 10
-44.000000
 20
-92.500000
 11
-44.000000
 21
-64.500000
  0
LINE
  8
0
  6
CONTINUOUS
 62
7
 10
31.000000
 20
-64.500000
 11
-28.350000
 21
-64.500000
  0
LINE
  8
0
  6
CONTINUOUS
 62
7
 10
31.000000
 20
-92.500000
 11
31.000000
 21
-64.500000
  0
LINE
  8
0
  6
CENTER
 62
2
 10
32.000000
 20
-78.500000
 11
-55.000000
 21
-78.500000
  0
LINE
  8
0
  6
CONTINUOUS
 62
7
 10
42.500000
 20
-92.500000
 11
-28.350000
 21
-92.500000
  0
LINE
  8
0
  6
CONTINUOUS
 62
7
 10
-31.650000
 20
-64.500000
 11
-44.000000
 21
-64.500000
  0
LINE
  8
0
  6
CONTINUOUS
 62
7
 10
-31.650000
 20
-92.500000
 11
-44.000000
 21
-92.500000
  0
LINE
  8
0
  6
CONTINUOUS
 62
7
 10
-44.000000
 20
-65.000000
 11
-54.000000
 21
-65.000000
  0
LINE
  8
0
  6
CONTINUOUS
 62
7
 10
-44.000000
 20
-92.000000
 11
-54.000000
 21
-92.000000
  0
LINE
  8
0
  6
CONTINUOUS
 62
7
 10
-54.000000
 20
-92.000000
 11
-54.000000
 21
-65.000000
  0
LINE
  8
0
  6
CONTINUOUS
 62
7
 10
-44.000000
 20
-82.500000
 11
-46.000000
 21
-82.500000
  0
LINE
  8
0
  6
CONTINUOUS
 62
7
 10
-44.000000
 20
-74.500000
 11
-46.000000
 21
-74.500000
  0
LINE
  8
0
  6
CONTINUOUS
 62
7
 10
-34.500000
 20
-96.000000
 11
-41.500000
 21
-96.000000
  0
LINE
  8
0
  6
CENTER
 62
2
 10
-30.000000
 20
-65.349998
 11
-30.000000
 21
-70.650002
  0
LINE
  8
0
  6
CENTER
 62
2
 10
-32.650002
 20
-68.000000
 11
-27.350000
 21
-68.000000
  0
LINE
  8
0
  6
CENTER
 62
2
 10
-30.000000
 20
-86.349998
 11
-30.000000
 21
-91.650002
  0
LINE
  8
0
  6
CENTER
 62
2
 10
-32.650002
 20
-89.000000
 11
-27.350000
 21
-89.000000
  0
LINE
  8
0
  6
CENTER
 62
2
 10
-18.000000
 20
-85.500000
 11
-18.000000
 21
-92.500000
  0
LINE
  8
0
  6
CENTER
 62
2
 10
-21.500000
 20
-89.000000
 11
-14.500000
 21
-89.000000
  0
LINE
  8
0
  6
CENTER
 62
2
 10
-18.000000
 20
-64.500000
 11
-18.000000
 21
-71.500000
  0
LINE
  8
0
  6
CENTER
 62
2
 10
-21.500000
 20
-68.000000
 11
-14.500000
 21
-68.000000
  0
LINE
  8
0
  6
CENTER
 62
2
 10
17.000000
 20
-65.000000
 11
17.000000
 21
-71.000000
  0
LINE
  8
0
  6
CENTER
 62
2
 10
14.000000
 20
-68.000000
 11
20.000000
 21
-68.000000
  0
LINE
  8
0
  6
CENTER
 62
2
 10
17.000000
 20
-86.000000
 11
17.000000
 21
-92.000000
  0
LINE
  8
0
  6
CENTER
 62
2
 10
14.000000
 20
-89.000000
 11
20.000000
 21
-89.000000
  0
LINE
  8
0
  6
CONTINUOUS
 62
7
 10
-31.650000
 20
-64.500000
 11
-31.650000
 21
-68.000000
  0
LINE
  8
0
  6
CONTINUOUS
 62
7
 10
-28.350000
 20
-64.500000
 11
-28.350000
 21
-68.000000
  0
LINE
  8
0
  6
CONTINUOUS
 62
7
 10
-31.650000
 20
-89.000000
 11
-31.650000
 21
-92.500000
  0
LINE
  8
0
  6
CONTINUOUS
 62
7
 10
-28.350000
 20
-89.000000
 11
-28.350000
 21
-92.500000
  0
LINE
  8
0
  6
CENTER
 62
2
 10
-38.000000
 20
-91.500000
 11
-38.000000
 21
-97.000000
  0
LINE
  8
0
  6
CONTINUOUS
 62
7
 10
-34.099998
 20
-93.099998
 11
-41.900002
 21
-93.099998
  0
LINE
  8
0
  6
CONTINUOUS
 62
7
 10
-41.900002
 20
-92.500000
 11
-41.900002
 21
-93.099998
  0
LINE
  8
0
  6
CONTINUOUS
 62
7
 10
-34.099998
 20
-92.500000
 11
-34.099998
 21
-93.099998
  0
LINE
  8
0
  6
CONTINUOUS
 62
7
 10
-34.500000
 20
-93.099998
 11
-34.500000
 21
-96.000000
  0
LINE
  8
0
  6
CONTINUOUS
 62
7
 10
-41.500000
 20
-93.099998
 11
-41.500000
 21
-96.000000
  0
LINE
  8
0
  6
CENTER
 62
2
 10
32.000000
 20
28.000000
 11
-55.000000
 21
28.000000
  0
LINE
  8
0
  6
CONTINUOUS
 62
7
 10
28.700001
 20
41.500000
 11
-54.000000
 21
41.500000
  0
LINE
  8
0
  6
CONTINUOUS
 62
7
 10
28.000000
 20
14.500000
 11
-54.000000
 21
14.500000
  0
LINE
  8
0
  6
CONTINUOUS
 62
7
 10
28.000000
 20
21.000000
 11
-46.000000
 21
21.000000
  0
LINE
  8
0
  6
CONTINUOUS
 62
7
 10
28.000000
 20
35.000000
 11
-46.000000
 21
35.000000
  0
LINE
  8
0
  6
CONTINUOUS
 62
7
 10
31.000000
 20
14.000000
 11
-28.350000
 21
14.000000
  0
LINE
  8
0
  6
CONTINUOUS
 62
7
 10
31.000000
 20
42.000000
 11
31.000000
 21
14.000000
  0
LINE
  8
0
  6
CONTINUOUS
 62
7
 10
-46.000000
 20
41.500000
 11
-46.000000
 21
14.500000
  0
LINE
  8
0
  6
CONTINUOUS
 62
7
 10
28.000000
 20
41.500000
 11
28.000000
 21
14.500000
  0
LINE
  8
0
  6
CONTINUOUS
 62
7
 10
-44.000000
 20
14.500000
 11
-44.000000
 21
14.000000
  0
LINE
  8
0
  6
CONTINUOUS
 62
7
 10
-44.000000
 20
42.000000
 11
-44.000000
 21
41.500000
  0
LINE
  8
0
  6
CONTINUOUS
 62
7
 10
-31.650000
 20
14.000000
 11
-31.650000
 21
14.500000
  0
LINE
  8
0
  6
CONTINUOUS
 62
7
 10
-28.350000
 20
14.000000
 11
-28.350000
 21
14.500000
  0
LINE
  8
0
  6
CONTINUOUS
 62
7
 10
-28.350000
 20
41.500000
 11
-28.350000
 21
42.000000
  0
LINE
  8
0
  6
CONTINUOUS
 62
7
 10
-31.650000
 20
41.500000
 11
-31.650000
 21
42.000000
  0
LINE
  8
0
  6
CONTINUOUS
 62
7
 10
-31.650000
 20
14.000000
 11
-44.000000
 21
14.000000
  0
LINE
  8
0
  6
CONTINUOUS
 62
7
 10
-31.650000
 20
42.000000
 11
-44.000000
 21
42.000000
  0
LINE
  8
0
  6
CONTINUOUS
 62
7
 10
-54.000000
 20
41.500000
 11
-54.000000
 21
14.500000
  0
LINE
  8
0
  6
CENTER
 62
2
 10
-37.000000
 20
40.500000
 11
-37.000000
 21
35.500000
  0
LINE
  8
0
  6
CENTER
 62
2
 10
-39.500000
 20
38.000000
 11
-34.500000
 21
38.000000
  0
LINE
  8
0
  6
CENTER
 62
2
 10
-37.000000
 20
20.500000
 11
-37.000000
 21
15.500000
  0
LINE
  8
0
  6
CENTER
 62
2
 10
-39.500000
 20
18.000000
 11
-34.500000
 21
18.000000
  0
LINE
  8
0
  6
CENTER
 62
2
 10
14.000000
 20
40.500000
 11
14.000000
 21
35.500000
  0
LINE
  8
0
  6
CENTER
 62
2
 10
11.500000
 20
38.000000
 11
16.500000
 21
38.000000
  0
LINE
  8
0
  6
CENTER
 62
2
 10
-15.000000
 20
41.099998
 11
-15.000000
 21
35.900002
  0
LINE
  8
0
  6
CENTER
 62
2
 10
-17.600000
 20
38.500000
 11
-12.400000
 21
38.500000
  0
LINE
  8
0
  6
CENTER
 62
2
 10
14.000000
 20
20.500000
 11
14.000000
 21
15.500000
  0
LINE
  8
0
  6
CENTER
 62
2
 10
11.500000
 20
18.000000
 11
16.500000
 21
18.000000
  0
LINE
  8
0
  6
CENTER
 62
2
 10
-19.000000
 20
40.500000
 11
-19.000000
 21
35.500000
  0
LINE
  8
0
  6
CENTER
 62
2
 10
-21.500000
 20
38.000000
 11
-16.500000
 21
38.000000
  0
LINE
  8
0
  6
CENTER
 62
2
 10
-19.000000
 20
20.500000
 11
-19.000000
 21
15.500000
  0
LINE
  8
0
  6
CENTER
 62
2
 10
-21.500000
 20
18.000000
 11
-16.500000
 21
18.000000
  0
LINE
  8
0
  6
CONTINUOUS
 62
7
 10
29.200001
 20
14.700000
 11
28.000000
 21
14.700000
  0
LINE
  8
0
  6
CONTINUOUS
 62
7
 10
29.200001
 20
19.250000
 11
29.200001
 21
14.700000
  0
LINE
  8
0
  6
CONTINUOUS
 62
7
 10
29.200001
 20
33.250000
 11
29.200001
 21
22.750000
  0
LINE
  8
0
  6
CONTINUOUS
 62
7
 10
28.600000
 20
33.250000
 11
28.600000
 21
36.750000
  0
LINE
  8
0
  6
CONTINUOUS
 62
7
 10
28.600000
 20
33.250000
 11
29.600000
 21
33.250000
  0
LINE
  8
0
  6
CONTINUOUS
 62
7
 10
29.600000
 20
33.250000
 11
29.600000
 21
36.750000
  0
LINE
  8
0
  6
CONTINUOUS
 62
7
 10
28.600000
 20
36.750000
 11
29.600000
 21
36.750000
  0
LINE
  8
0
  6
CONTINUOUS
 62
7
 10
29.200001
 20
36.750000
 11
29.200001
 21
41.299999
  0
LINE
  8
0
  6
CONTINUOUS
 62
7
 10
29.200001
 20
41.299999
 11
28.000000
 21
41.299999
  0
LINE
  8
0
  6
CONTINUOUS
 62
7
 10
-41.900002
 20
42.599998
 11
-41.900002
 21
42.000000
  0
LINE
  8
0
  6
CONTINUOUS
 62
7
 10
28.600000
 20
22.750000
 11
28.600000
 21
19.250000
  0
LINE
  8
0
  6
CONTINUOUS
 62
7
 10
28.600000
 20
22.750000
 11
29.600000
 21
22.750000
  0
LINE
  8
0
  6
CONTINUOUS
 62
7
 10
29.600000
 20
19.250000
 11
29.600000
 21
22.750000
  0
LINE
  8
0
  6
CONTINUOUS
 62
7
 10
28.600000
 20
19.250000
 11
29.600000
 21
19.250000
  0
LINE
  8
0
  6
DASHED
 62
2
 10
-28.350000
 20
17.500000
 11
-28.350000
 21
14.500000
  0
LINE
  8
0
  6
DASHED
 62
2
 10
-31.650000
 20
17.500000
 11
-31.650000
 21
14.500000
  0
LINE
  8
0
  6
DASHED
 62
2
 10
-28.350000
 20
38.500000
 11
-28.350000
 21
41.500000
  0
LINE
  8
0
  6
DASHED
 62
2
 10
-31.650000
 20
38.500000
 11
-31.650000
 21
41.500000
  0
LINE
  8
0
  6
CENTER
 62
2
 10
17.000000
 20
42.500000
 11
17.000000
 21
34.500000
  0
LINE
  8
0
  6
CENTER
 62
2
 10
13.000000
 20
38.500000
 11
21.000000
 21
38.500000
  0
LINE
  8
0
  6
CENTER
 62
2
 10
17.000000
 20
21.500000
 11
17.000000
 21
13.500000
  0
LINE
  8
0
  6
CENTER
 62
2
 10
13.000000
 20
17.500000
 11
21.000000
 21
17.500000
  0
LINE
  8
0
  6
CENTER
 62
2
 10
-30.000000
 20
21.500000
 11
-30.000000
 21
13.500000
  0
LINE
  8
0
  6
CENTER
 62
2
 10
-34.000000
 20
17.500000
 11
-26.000000
 21
17.500000
  0
LINE
  8
0
  6
CENTER
 62
2
 10
-30.000000
 20
42.500000
 11
-30.000000
 21
34.500000
  0
LINE
  8
0
  6
CENTER
 62
2
 10
-34.000000
 20
38.500000
 11
-26.000000
 21
38.500000
  0
LINE
  8
0
  6
CENTER
 62
2
 10
-38.000000
 20
45.000000
 11
-38.000000
 21
41.000000
  0
LINE
  8
0
  6
CENTER
 62
2
 10
25.000000
 20
45.000000
 11
25.000000
 21
41.000000
  0
LINE
  8
0
  6
CONTINUOUS
 62
7
 10
-34.000000
 20
42.599998
 11
-34.000000
 21
42.000000
  0
LINE
  8
0
  6
CONTINUOUS
 62
7
 10
-41.500000
 20
44.000000
 11
-41.500000
 21
42.599998
  0
LINE
  8
0
  6
CONTINUOUS
 62
7
 10
-34.500000
 20
44.000000
 11
-34.500000
 21
42.599998
  0
LINE
  8
0
  6
CONTINUOUS
 62
7
 10
-34.000000
 20
42.599998
 11
-41.900002
 21
42.599998
  0
LINE
  8
0
  6
CENTER
 62
2
 10
-56.000000
 20
38.000000
 11
-52.000000
 21
38.000000
  0
LINE
  8
0
  6
CENTER
 62
2
 10
-56.000000
 20
18.000000
 11
-52.000000
 21
18.000000
  0
LINE
  8
0
  6
CENTER
 62
2
 10
-4.000020
 20
20.500000
 11
-4.000020
 21
15.500000
  0
LINE
  8
0
  6
CENTER
 62
2
 10
-6.500020
 20
18.000000
 11
-1.500020
 21
18.000000
  0
LINE
  8
0
  6
CENTER
 62
2
 10
-4.000020
 20
40.500000
 11
-4.000020
 21
35.500000
  0
LINE
  8
0
  6
CENTER
 62
2
 10
-6.500020
 20
38.000000
 11
-1.500020
 21
38.000000
  0
LINE
  8
0
  6
CONTINUOUS
 62
7
 10
-46.000000
 20
91.500000
 11
-46.000000
 21
83.000000
  0
LINE
  8
0
  6
CONTINUOUS
 62
7
 10
-54.000000
 20
91.500000
 11
-54.000000
 21
73.000000
  0
LINE
  8
0
  6
CONTINUOUS
 62
7
 10
-46.000000
 20
89.500000
 11
-44.000000
 21
89.500000
  0
LINE
  8
0
  6
CONTINUOUS
 62
7
 10
-54.000000
 20
91.500000
 11
-46.000000
 21
91.500000
  0
LINE
  8
0
  6
CONTINUOUS
 62
7
 10
-54.000000
 20
73.000000
 11
-46.000000
 21
73.000000
  0
LINE
  8
0
  6
CONTINUOUS
 62
7
 10
-46.000000
 20
72.500000
 11
28.000000
 21
72.500000
  0
LINE
  8
0
  6
CONTINUOUS
 62
7
 10
-44.000000
 20
92.500000
 11
-44.000000
 21
83.000000
  0
LINE
  8
0
  6
CONTINUOUS
 62
7
 10
31.000000
 20
92.500000
 11
31.000000
 21
92.000000
  0
LINE
  8
0
  6
CONTINUOUS
 62
7
 10
-44.000000
 20
92.500000
 11
31.000000
 21
92.500000
  0
LINE
  8
0
  6
CONTINUOUS
 62
7
 10
-47.799999
 20
83.000000
 11
-29.500000
 21
83.000000
  0
LINE
  8
0
  6
CONTINUOUS
 62
7
 10
-16.799999
 20
82.500000
 11
28.700001
 21
82.500000
  0
LINE
  8
0
  6
CONTINUOUS
 62
7
 10
28.000000
 20
82.500000
 11
28.000000
 21
82.000000
  0
LINE
  8
0
  6
CONTINUOUS
 62
7
 10
-38.000000
 20
82.958603
 11
-34.500000
 21
84.979301
  0
LINE
  8
0
  6
CONTINUOUS
 62
7
 10
-34.500000
 20
89.020798
 11
-34.500000
 21
84.979301
  0
LINE
  8
0
  6
CONTINUOUS
 62
7
 10
-38.000000
 20
91.041496
 11
-34.500000
 21
89.020798
  0
LINE
  8
0
  6
CONTINUOUS
 62
7
 10
-41.500000
 20
89.020798
 11
-38.000000
 21
91.041496
  0
LINE
  8
0
  6
CONTINUOUS
 62
7
 10
-41.500000
 20
84.979301
 11
-41.500000
 21
89.020798
  0
LINE
  8
0
  6
CONTINUOUS
 62
7
 10
-34.500000
 20
87.500000
 11
-41.500000
 21
87.500000
  0
LINE
  8
0
  6
CONTINUOUS
 62
7
 10
-34.500000
 20
86.500000
 11
-41.500000
 21
86.500000
  0
LINE
  8
0
  6
CONTINUOUS
 62
7
 10
-41.500000
 20
84.979301
 11
-38.000000
 21
82.958603
  0
LINE
  8
0
  6
CONTINUOUS
 62
7
 10
28.000000
 20
73.000000
 11
29.200001
 21
73.000000
  0
LINE
  8
0
  6
CONTINUOUS
 62
7
 10
29.200001
 20
73.500000
 11
29.200001
 21
73.000000
  0
LINE
  8
0
  6
CENTER
 62
2
 10
-38.000000
 20
92.041496
 11
-38.000000
 21
81.958603
  0
LINE
  8
0
  6
CENTER
 62
2
 10
-43.041500
 20
87.000000
 11
-32.958500
 21
87.000000
  0
LINE
  8
0
  6
CENTER
 62
2
 10
10.850000
 20
78.199997
 11
10.850000
 21
74.199997
  0
LINE
  8
0
  6
CENTER
 62
2
 10
8.849990
 20
76.199997
 11
12.850000
 21
76.199997
  0
LINE
  8
0
  6
CENTER
 62
2
 10
-18.000000
 20
93.500000
 11
-18.000000
 21
85.500000
  0
LINE
  8
0
  6
DASHED
 62
2
 10
-20.000000
 20
92.500000
 11
-20.000000
 21
86.500000
  0
LINE
  8
0
  6
DASHED
 62
2
 10
-16.000000
 20
92.500000
 11
-16.000000
 21
86.500000
  0
LINE
  8
0
  6
DASHED
 62
2
 10
15.000000
 20
92.500000
 11
15.000000
 21
87.500000
  0
LINE
  8
0
  6
CENTER
 62
2
 10
17.000000
 20
93.500000
 11
17.000000
 21
86.000000
  0
LINE
  8
0
  6
DASHED
 62
2
 10
14.000000
 20
87.500000
 11
14.000000
 21
87.199997
  0
LINE
  8
0
  6
DASHED
 62
2
 10
14.000000
 20
87.500000
 11
20.000000
 21
87.500000
  0
LINE
  8
0
  6
DASHED
 62
2
 10
20.000000
 20
87.500000
 11
20.000000
 21
87.199997
  0
LINE
  8
0
  6
DASHED
 62
2
 10
19.000000
 20
92.500000
 11
19.000000
 21
87.500000
  0
LINE
  8
0
  6
CENTER
 62
2
 10
-37.000000
 20
74.500000
 11
-37.000000
 21
70.500000
  0
LINE
  8
0
  6
CENTER
 62
2
 10
-19.000000
 20
74.500000
 11
-19.000000
 21
70.500000
  0
LINE
  8
0
  6
CENTER
 62
2
 10
14.000000
 20
74.500000
 11
14.000000
 21
70.500000
  0
LINE
  8
0
  6
CENTER
 62
2
 10
-56.000000
 20
85.500000
 11
-52.000000
 21
85.500000
  0
LINE
  8
0
  6
CENTER
 62
2
 10
-56.000000
 20
76.500000
 11
-52.000000
 21
76.500000
  0
LINE
  8
0
  6
CENTER
 62
2
 10
-4.000000
 20
74.500000
 11
-4.000000
 21
70.500000
  0
LINE
  8
0
  6
CONTINUOUS
 62
7
 10
-27.500000
 20
87.199997
 11
-33.200001
 21
87.199997
  0
LINE
  8
0
  6
DASHED
 62
2
 10
-33.000000
 20
87.500000
 11
-31.650000
 21
87.500000
  0
LINE
  8
0
  6
CONTINUOUS
 62
7
 10
-31.650000
 20
92.500000
 11
-31.650000
 21
87.199997
  0
LINE
  8
0
  6
CONTINUOUS
 62
7
 10
-28.350000
 20
92.500000
 11
-28.350000
 21
87.199997
  0
LINE
  8
0
  6
CENTER
 62
2
 10
-30.000000
 20
93.500000
 11
-30.000000
 21
86.000000
  0
LINE
  8
0
  6
DASHED
 62
2
 10
-15.000000
 20
86.500000
 11
-21.000000
 21
86.500000
  0
LINE
  8
0
  6
DASHED
 62
2
 10
20.000000
 20
87.199997
 11
14.000000
 21
87.199997
  0
LINE
  8
0
  6
CONTINUOUS
 62
7
 10
133.000000
 20
-35.500000
 11
133.000000
 21
-16.500000
  0
LINE
  8
0
  6
CONTINUOUS
 62
7
 10
125.000000
 20
-35.500000
 11
125.000000
 21
-17.000000
  0
LINE
  8
0
  6
CONTINUOUS
 62
7
 10
133.000000
 20
-33.500000
 11
135.000000
 21
-33.500000
  0
LINE
  8
0
  6
CONTINUOUS
 62
7
 10
125.000000
 20
-35.500000
 11
133.000000
 21
-35.500000
  0
LINE
  8
0
  6
CONTINUOUS
 62
7
 10
125.000000
 20
-17.000000
 11
133.000000
 21
-17.000000
  0
LINE
  8
0
  6
CONTINUOUS
 62
7
 10
133.000000
 20
-16.500000
 11
222.000000
 21
-16.500000
  0
LINE
  8
0
  6
CONTINUOUS
 62
7
 10
135.000000
 20
-36.500000
 11
135.000000
 21
-26.500000
  0
LINE
  8
0
  6
CONTINUOUS
 62
7
 10
225.000000
 20
-36.500000
 11
225.000000
 21
-21.000000
  0
LINE
  8
0
  6
CONTINUOUS
 62
7
 10
135.000000
 20
-36.500000
 11
225.000000
 21
-36.500000
  0
LINE
  8
0
  6
CONTINUOUS
 62
7
 10
214.199997
 20
-31.000000
 11
207.598007
 21
-31.000000
  0
LINE
  8
0
  6
CONTINUOUS
 62
7
 10
135.000000
 20
-27.000000
 11
225.000000
 21
-27.000000
  0
LINE
  8
0
  6
CONTINUOUS
 62
7
 10
202.000000
 20
-32.500000
 11
158.000000
 21
-32.500000
  0
LINE
  8
0
  6
CONTINUOUS
 62
7
 10
133.000000
 20
-26.500000
 11
223.199997
 21
-26.500000
  0
LINE
  8
0
  6
CONTINUOUS
 62
7
 10
145.800003
 20
-31.000000
 11
152.401993
 21
-31.000000
  0
LINE
  8
0
  6
CONTINUOUS
 62
7
 10
223.600006
 20
-21.000000
 11
225.000000
 21
-21.000000
  0
LINE
  8
0
  6
CONTINUOUS
 62
7
 10
223.199997
 20
-21.903400
 11
225.000000
 21
-21.903400
  0
LINE
  8
0
  6
CONTINUOUS
 62
7
 10
223.199997
 20
-24.096600
 11
225.000000
 21
-24.096600
  0
LINE
  8
0
  6
CONTINUOUS
 62
7
 10
222.000000
 20
-26.500000
 11
222.000000
 21
-16.500000
  0
LINE
  8
0
  6
CONTINUOUS
 62
7
 10
147.350006
 20
-36.500000
 11
147.350006
 21
-31.000000
  0
LINE
  8
0
  6
DASHED
 62
2
 10
146.000000
 20
-31.500000
 11
147.350006
 21
-31.500000
  0
LINE
  8
0
  6
CENTER
 62
2
 10
149.000000
 20
-37.500000
 11
149.000000
 21
-30.000000
  0
LINE
  8
0
  6
CONTINUOUS
 62
7
 10
150.649994
 20
-36.500000
 11
150.649994
 21
-31.000000
  0
LINE
  8
0
  6
CONTINUOUS
 62
7
 10
222.000000
 20
-17.000000
 11
223.199997
 21
-17.000000
  0
LINE
  8
0
  6
CONTINUOUS
 62
7
 10
223.199997
 20
-26.500000
 11
223.199997
 21
-17.000000
  0
LINE
  8
0
  6
CONTINUOUS
 62
7
 10
223.600006
 20
-21.250000
 11
223.600006
 21
-17.750000
  0
LINE
  8
0
  6
CONTINUOUS
 62
7
 10
223.199997
 20
-17.750000
 11
223.600006
 21
-17.750000
  0
LINE
  8
0
  6
CONTINUOUS
 62
7
 10
223.199997
 20
-21.250000
 11
223.600006
 21
-21.250000
  0
LINE
  8
0
  6
CENTER
 62
2
 10
141.000000
 20
-27.500000
 11
141.000000
 21
-34.500000
  0
LINE
  8
0
  6
CENTER
 62
2
 10
137.500000
 20
-31.000000
 11
144.500000
 21
-31.000000
  0
LINE
  8
0
  6
CENTER
 62
2
 10
155.000000
 20
-30.000000
 11
155.000000
 21
-35.000000
  0
LINE
  8
0
  6
CENTER
 62
2
 10
152.500000
 20
-32.500000
 11
157.500000
 21
-32.500000
  0
LINE
  8
0
  6
CENTER
 62
2
 10
205.000000
 20
-30.000000
 11
205.000000
 21
-35.000000
  0
LINE
  8
0
  6
CENTER
 62
2
 10
202.500000
 20
-32.500000
 11
207.500000
 21
-32.500000
  0
LINE
  8
0
  6
CENTER
 62
2
 10
204.850006
 20
-18.200001
 11
204.850006
 21
-22.200001
  0
LINE
  8
0
  6
CENTER
 62
2
 10
202.850006
 20
-20.200001
 11
206.850006
 21
-20.200001
  0
LINE
  8
0
  6
CENTER
 62
2
 10
211.699997
 20
-18.000000
 11
211.699997
 21
-23.000000
  0
LINE
  8
0
  6
CENTER
 62
2
 10
209.199997
 20
-20.500000
 11
214.199997
 21
-20.500000
  0
LINE
  8
0
  6
CENTER
 62
2
 10
214.850006
 20
-18.200001
 11
214.850006
 21
-22.200001
  0
LINE
  8
0
  6
CENTER
 62
2
 10
212.850006
 20
-20.200001
 11
216.850006
 21
-20.200001
  0
LINE
  8
0
  6
CENTER
 62
2
 10
218.199997
 20
-18.000000
 11
218.199997
 21
-23.000000
  0
LINE
  8
0
  6
CENTER
 62
2
 10
215.699997
 20
-20.500000
 11
220.699997
 21
-20.500000
  0
LINE
  8
0
  6
CENTER
 62
2
 10
219.000000
 20
-27.500000
 11
219.000000
 21
-34.500000
  0
LINE
  8
0
  6
CENTER
 62
2
 10
215.500000
 20
-31.000000
 11
222.500000
 21
-31.000000
  0
LINE
  8
0
  6
CENTER
 62
2
 10
161.000000
 20
-37.500000
 11
161.000000
 21
-31.500000
  0
LINE
  8
0
  6
DASHED
 62
2
 10
159.000000
 20
-34.900002
 11
159.000000
 21
-32.500000
  0
LINE
  8
0
  6
DASHED
 62
2
 10
163.000000
 20
-34.900002
 11
163.000000
 21
-32.500000
  0
LINE
  8
0
  6
DASHED
 62
2
 10
158.500000
 20
-36.500000
 11
158.500000
 21
-34.900002
  0
LINE
  8
0
  6
DASHED
 62
2
 10
163.500000
 20
-36.500000
 11
163.500000
 21
-34.900002
  0
LINE
  8
0
  6
DASHED
 62
2
 10
158.500000
 20
-34.900002
 11
163.500000
 21
-34.900002
  0
LINE
  8
0
  6
DASHED
 62
2
 10
209.000000
 20
-36.500000
 11
209.000000
 21
-31.500000
  0
LINE
  8
0
  6
CENTER
 62
2
 10
211.000000
 20
-37.500000
 11
211.000000
 21
-30.000000
  0
LINE
  8
0
  6
DASHED
 62
2
 10
208.000000
 20
-31.500000
 11
208.000000
 21
-30.992399
  0
LINE
  8
0
  6
DASHED
 62
2
 10
208.000000
 20
-31.500000
 11
214.000000
 21
-31.500000
  0
LINE
  8
0
  6
DASHED
 62
2
 10
214.000000
 20
-31.500000
 11
214.000000
 21
-31.000000
  0
LINE
  8
0
  6
DASHED
 62
2
 10
213.000000
 20
-36.500000
 11
213.000000
 21
-31.500000
  0
LINE
  8
0
  6
CENTER
 62
2
 10
142.000000
 20
-14.500000
 11
142.000000
 21
-18.500000
  0
LINE
  8
0
  6
CENTER
 62
2
 10
160.000000
 20
-14.500000
 11
160.000000
 21
-18.500000
  0
LINE
  8
0
  6
CENTER
 62
2
 10
208.000000
 20
-14.500000
 11
208.000000
 21
-18.500000
  0
LINE
  8
0
  6
CENTER
 62
2
 10
123.000000
 20
-29.500000
 11
127.000000
 21
-29.500000
  0
LINE
  8
0
  6
CENTER
 62
2
 10
123.000000
 20
-20.500000
 11
127.000000
 21
-20.500000
  0
LINE
  8
0
  6
DASHED
 62
2
 10
146.000000
 20
-31.500000
 11
146.000000
 21
-31.000000
  0
LINE
  8
0
  6
DASHED
 62
2
 10
152.000000
 20
-31.500000
 11
152.000000
 21
-31.000000
  0
LINE
  8
0
  6
CONTINUOUS
 62
7
 10
147.350006
 20
-31.500000
 11
150.649994
 21
-31.500000
  0
LINE
  8
0
  6
DASHED
 62
2
 10
150.649994
 20
-31.500000
 11
152.000000
 21
-31.500000
  0
LINE
  8
0
  6
CONTINUOUS
 62
7
 10
-46.000000
 20
-35.500000
 11
-46.000000
 21
-16.500000
  0
LINE
  8
0
  6
CONTINUOUS
 62
7
 10
-54.000000
 20
-35.500000
 11
-54.000000
 21
-17.000000
  0
LINE
  8
0
  6
CONTINUOUS
 62
7
 10
-46.000000
 20
-33.500000
 11
-44.000000
 21
-33.500000
  0
LINE
  8
0
  6
CONTINUOUS
 62
7
 10
-54.000000
 20
-35.500000
 11
-46.000000
 21
-35.500000
  0
LINE
  8
0
  6
CONTINUOUS
 62
7
 10
-54.000000
 20
-17.000000
 11
-46.000000
 21
-17.000000
  0
LINE
  8
0
  6
CONTINUOUS
 62
7
 10
-46.000000
 20
-16.500000
 11
28.000000
 21
-16.500000
  0
LINE
  8
0
  6
CONTINUOUS
 62
7
 10
-44.000000
 20
-36.500000
 11
-44.000000
 21
-26.500000
  0
LINE
  8
0
  6
CONTINUOUS
 62
7
 10
31.000000
 20
-36.500000
 11
31.000000
 21
-21.000000
  0
LINE
  8
0
  6
CONTINUOUS
 62
7
 10
-44.000000
 20
-36.500000
 11
31.000000
 21
-36.500000
  0
LINE
  8
0
  6
CONTINUOUS
 62
7
 10
-44.000000
 20
-27.000000
 11
31.000000
 21
-27.000000
  0
LINE
  8
0
  6
CONTINUOUS
 62
7
 10
-46.000000
 20
-26.500000
 11
29.200001
 21
-26.500000
  0
LINE
  8
0
  6
CONTINUOUS
 62
7
 10
29.600000
 20
-21.000000
 11
31.000000
 21
-21.000000
  0
LINE
  8
0
  6
CONTINUOUS
 62
7
 10
29.200001
 20
-21.903400
 11
31.000000
 21
-21.903400
  0
LINE
  8
0
  6
CONTINUOUS
 62
7
 10
29.200001
 20
-24.096600
 11
31.000000
 21
-24.096600
  0
LINE
  8
0
  6
CONTINUOUS
 62
7
 10
28.000000
 20
-26.500000
 11
28.000000
 21
-16.500000
  0
LINE
  8
0
  6
CONTINUOUS
 62
7
 10
-31.650000
 20
-36.500000
 11
-31.650000
 21
-31.200001
  0
LINE
  8
0
  6
DASHED
 62
2
 10
-33.000000
 20
-31.500000
 11
-31.650000
 21
-31.500000
  0
LINE
  8
0
  6
CENTER
 62
2
 10
-30.000000
 20
-37.500000
 11
-30.000000
 21
-30.200001
  0
LINE
  8
0
  6
CONTINUOUS
 62
7
 10
-28.350000
 20
-36.500000
 11
-28.350000
 21
-31.200001
  0
LINE
  8
0
  6
CONTINUOUS
 62
7
 10
28.000000
 20
-17.000000
 11
29.200001
 21
-17.000000
  0
LINE
  8
0
  6
CONTINUOUS
 62
7
 10
29.200001
 20
-26.500000
 11
29.200001
 21
-17.000000
  0
LINE
  8
0
  6
CONTINUOUS
 62
7
 10
29.600000
 20
-21.250000
 11
29.600000
 21
-17.750000
  0
LINE
  8
0
  6
CONTINUOUS
 62
7
 10
29.200001
 20
-17.750000
 11
29.600000
 21
-17.750000
  0
LINE
  8
0
  6
CONTINUOUS
 62
7
 10
29.200001
 20
-21.250000
 11
29.600000
 21
-21.250000
  0
LINE
  8
0
  6
CENTER
 62
2
 10
-38.000000
 20
-27.500000
 11
-38.000000
 21
-34.500000
  0
LINE
  8
0
  6
CENTER
 62
2
 10
-41.500000
 20
-31.000000
 11
-34.500000
 21
-31.000000
  0
LINE
  8
0
  6
CENTER
 62
2
 10
-24.000000
 20
-30.000000
 11
-24.000000
 21
-35.000000
  0
LINE
  8
0
  6
CENTER
 62
2
 10
-26.500000
 20
-32.500000
 11
-21.500000
 21
-32.500000
  0
LINE
  8
0
  6
CENTER
 62
2
 10
11.000000
 20
-30.000000
 11
11.000000
 21
-35.000000
  0
LINE
  8
0
  6
CENTER
 62
2
 10
8.500000
 20
-32.500000
 11
13.500000
 21
-32.500000
  0
LINE
  8
0
  6
CENTER
 62
2
 10
10.850000
 20
-18.200001
 11
10.850000
 21
-22.200001
  0
LINE
  8
0
  6
CENTER
 62
2
 10
8.849990
 20
-20.200001
 11
12.850000
 21
-20.200001
  0
LINE
  8
0
  6
CENTER
 62
2
 10
17.700001
 20
-18.000000
 11
17.700001
 21
-23.000000
  0
LINE
  8
0
  6
CENTER
 62
2
 10
15.200000
 20
-20.500000
 11
20.200001
 21
-20.500000
  0
LINE
  8
0
  6
CENTER
 62
2
 10
20.850000
 20
-18.200001
 11
20.850000
 21
-22.200001
  0
LINE
  8
0
  6
CENTER
 62
2
 10
18.850000
 20
-20.200001
 11
22.850000
 21
-20.200001
  0
LINE
  8
0
  6
CENTER
 62
2
 10
24.200001
 20
-18.000000
 11
24.200001
 21
-23.000000
  0
LINE
  8
0
  6
CENTER
 62
2
 10
21.700001
 20
-20.500000
 11
26.700001
 21
-20.500000
  0
LINE
  8
0
  6
CENTER
 62
2
 10
25.000000
 20
-27.500000
 11
25.000000
 21
-34.500000
  0
LINE
  8
0
  6
CENTER
 62
2
 10
21.500000
 20
-31.000000
 11
28.500000
 21
-31.000000
  0
LINE
  8
0
  6
CENTER
 62
2
 10
-18.000000
 20
-37.500000
 11
-18.000000
 21
-29.500000
  0
LINE
  8
0
  6
DASHED
 62
2
 10
-20.000000
 20
-36.500000
 11
-20.000000
 21
-30.500000
  0
LINE
  8
0
  6
DASHED
 62
2
 10
-16.000000
 20
-36.500000
 11
-16.000000
 21
-30.500000
  0
LINE
  8
0
  6
DASHED
 62
2
 10
15.000000
 20
-36.500000
 11
15.000000
 21
-31.500000
  0
LINE
  8
0
  6
CENTER
 62
2
 10
17.000000
 20
-37.500000
 11
17.000000
 21
-30.200001
  0
LINE
  8
0
  6
DASHED
 62
2
 10
14.000000
 20
-31.500000
 11
14.000000
 21
-31.200001
  0
LINE
  8
0
  6
DASHED
 62
2
 10
14.000000
 20
-31.500000
 11
20.000000
 21
-31.500000
  0
LINE
  8
0
  6
DASHED
 62
2
 10
20.000000
 20
-31.500000
 11
20.000000
 21
-31.200001
  0
LINE
  8
0
  6
DASHED
 62
2
 10
19.000000
 20
-36.500000
 11
19.000000
 21
-31.500000
  0
LINE
  8
0
  6
CENTER
 62
2
 10
-37.000000
 20
-14.500000
 11
-37.000000
 21
-18.500000
  0
LINE
  8
0
  6
CENTER
 62
2
 10
-19.000000
 20
-14.500000
 11
-19.000000
 21
-18.500000
  0
LINE
  8
0
  6
CENTER
 62
2
 10
14.000000
 20
-14.500000
 11
14.000000
 21
-18.500000
  0
LINE
  8
0
  6
CENTER
 62
2
 10
-56.000000
 20
-29.500000
 11
-52.000000
 21
-29.500000
  0
LINE
  8
0
  6
CENTER
 62
2
 10
-56.000000
 20
-20.500000
 11
-52.000000
 21
-20.500000
  0
LINE
  8
0
  6
CENTER
 62
2
 10
-4.000000
 20
-14.500000
 11
-4.000000
 21
-18.500000
  0
LINE
  8
0
  6
CONTINUOUS
 62
7
 10
13.598100
 20
-31.200001
 11
20.200001
 21
-31.200001
  0
LINE
  8
0
  6
CONTINUOUS
 62
7
 10
-21.960400
 20
-30.500000
 11
8.960390
 21
-30.500000
  0
LINE
  8
0
  6
CONTINUOUS
 62
7
 10
-33.200001
 20
-31.200001
 11
-26.598101
 21
-31.200001
  0
LINE
  8
0
  6
CONTINUOUS
 62
7
 10
-38.000000
 20
-93.099998
 11
-38.000000
 21
-96.000000
  0
LINE
  8
0
  6
CONTINUOUS
 62
7
 10
141.000000
 20
-93.099998
 11
141.000000
 21
-96.000000
  0
LINE
  8
0
  6
DASHED
 62
2
 10
-33.000000
 20
87.500000
 11
-33.000000
 21
87.199997
  0
LINE
  8
0
  6
DASHED
 62
2
 10
-27.000000
 20
87.500000
 11
-27.000000
 21
87.199997
  0
LINE
  8
0
  6
CONTINUOUS
 62
7
 10
-31.650000
 20
87.500000
 11
-28.350000
 21
87.500000
  0
LINE
  8
0
  6
DASHED
 62
2
 10
-28.350000
 20
87.500000
 11
-27.000000
 21
87.500000
  0
LINE
  8
0
  6
DASHED
 62
2
 10
-27.000000
 20
-31.500000
 11
-27.000000
 21
-31.200001
  0
LINE
  8
0
  6
CONTINUOUS
 62
7
 10
-31.650000
 20
-31.500000
 11
-28.350000
 21
-31.500000
  0
LINE
  8
0
  6
DASHED
 62
2
 10
-28.350000
 20
-31.500000
 11
-27.000000
 21
-31.500000
  0
LINE
  8
0
  6
DASHED
 62
2
 10
-33.000000
 20
-31.500000
 11
-33.000000
 21
-31.200001
  0
LINE
  8
0
  6
CONTINUOUS
 62
7
 10
151.500000
 20
92.000000
 11
236.500000
 21
92.000000
  0
LINE
  8
0
  6
CONTINUOUS
 62
7
 10
151.500000
 20
92.000000
 11
151.500000
 21
73.000000
  0
LINE
  8
0
  6
CONTINUOUS
 62
7
 10
149.500000
 20
73.000000
 11
155.699997
 21
73.000000
  0
LINE
  8
0
  6
CONTINUOUS
 62
7
 10
207.199997
 20
82.000000
 11
222.699997
 21
82.000000
  0
LINE
  8
0
  6
CONTINUOUS
 62
7
 10
207.199997
 20
74.000000
 11
222.699997
 21
74.000000
  0
LINE
  8
0
  6
CONTINUOUS
 62
7
 10
207.199997
 20
74.000000
 11
207.199997
 21
82.000000
  0
LINE
  8
0
  6
CONTINUOUS
 62
7
 10
157.199997
 20
85.000000
 11
230.800003
 21
85.000000
  0
LINE
  8
0
  6
CONTINUOUS
 62
7
 10
156.199997
 20
84.500000
 11
162.199997
 21
84.500000
  0
LINE
  8
0
  6
CONTINUOUS
 62
7
 10
162.199997
 20
73.500000
 11
162.199997
 21
84.500000
  0
LINE
  8
0
  6
CONTINUOUS
 62
7
 10
162.199997
 20
80.000000
 11
166.199997
 21
80.000000
  0
LINE
  8
0
  6
CONTINUOUS
 62
7
 10
166.199997
 20
78.000000
 11
166.199997
 21
80.000000
  0
LINE
  8
0
  6
CONTINUOUS
 62
7
 10
162.199997
 20
78.000000
 11
166.199997
 21
78.000000
  0
LINE
  8
0
  6
CENTER
 62
2
 10
129.199997
 20
79.000000
 11
167.199997
 21
79.000000
  0
LINE
  8
0
  6
CONTINUOUS
 62
7
 10
156.199997
 20
73.500000
 11
162.199997
 21
73.500000
  0
LINE
  8
0
  6
CONTINUOUS
 62
7
 10
155.699997
 20
73.000000
 11
155.699997
 21
83.500000
  0
LINE
  8
0
  6
CONTINUOUS
 62
7
 10
156.199997
 20
73.500000
 11
156.199997
 21
84.500000
  0
LINE
  8
0
  6
CONTINUOUS
 62
7
 10
149.500000
 20
85.000000
 11
151.500000
 21
85.000000
  0
LINE
  8
0
  6
CONTINUOUS
 62
7
 10
149.500000
 20
73.000000
 11
149.500000
 21
85.000000
  0
LINE
  8
0
  6
CONTINUOUS
 62
7
 10
149.500000
 20
82.564201
 11
151.500000
 21
82.564201
  0
LINE
  8
0
  6
CONTINUOUS
 62
7
 10
149.500000
 20
81.397903
 11
151.500000
 21
81.397903
  0
LINE
  8
0
  6
CONTINUOUS
 62
7
 10
149.500000
 20
76.602097
 11
151.500000
 21
76.602097
  0
LINE
  8
0
  6
CONTINUOUS
 62
7
 10
149.500000
 20
75.435898
 11
151.500000
 21
75.435898
  0
LINE
  8
0
  6
CONTINUOUS
 62
2
 10
156.199997
 20
75.699997
 11
155.699997
 21
75.699997
  0
LINE
  8
0
  6
CONTINUOUS
 62
7
 10
156.199997
 20
75.000000
 11
155.699997
 21
75.000000
  0
LINE
  8
0
  6
CONTINUOUS
 62
2
 10
156.199997
 20
82.300003
 11
155.699997
 21
82.300003
  0
LINE
  8
0
  6
CONTINUOUS
 62
7
 10
156.199997
 20
83.000000
 11
155.699997
 21
83.000000
  0
LINE
  8
0
  6
CONTINUOUS
 62
7
 10
131.199997
 20
75.000000
 11
131.199997
 21
83.000000
  0
LINE
  8
0
  6
CONTINUOUS
 62
7
 10
131.199997
 20
82.300003
 11
130.199997
 21
82.300003
  0
LINE
  8
0
  6
CONTINUOUS
 62
7
 10
130.199997
 20
79.750000
 11
130.199997
 21
82.300003
  0
LINE
  8
0
  6
CONTINUOUS
 62
7
 10
131.199997
 20
79.750000
 11
130.199997
 21
79.750000
  0
LINE
  8
0
  6
CONTINUOUS
 62
7
 10
131.199997
 20
78.250000
 11
130.199997
 21
78.250000
  0
LINE
  8
0
  6
CONTINUOUS
 62
7
 10
130.199997
 20
75.699997
 11
130.199997
 21
78.250000
  0
LINE
  8
0
  6
CONTINUOUS
 62
7
 10
131.199997
 20
75.699997
 11
130.199997
 21
75.699997
  0
LINE
  8
0
  6
CONTINUOUS
 62
7
 10
149.500000
 20
75.000000
 11
131.199997
 21
75.000000
  0
LINE
  8
0
  6
CONTINUOUS
 62
2
 10
149.500000
 20
75.699997
 11
131.199997
 21
75.699997
  0
LINE
  8
0
  6
CONTINUOUS
 62
2
 10
149.500000
 20
82.300003
 11
131.199997
 21
82.300003
  0
LINE
  8
0
  6
CONTINUOUS
 62
7
 10
162.199997
 20
83.000000
 11
222.699997
 21
83.000000
  0
LINE
  8
0
  6
CONTINUOUS
 62
7
 10
133.000000
 20
75.000000
 11
133.000000
 21
72.500000
  0
LINE
  8
0
  6
CONTINUOUS
 62
7
 10
222.000000
 20
74.000000
 11
222.000000
 21
72.500000
  0
LINE
  8
0
  6
CONTINUOUS
 62
7
 10
207.199997
 20
41.500099
 11
207.199997
 21
50.500000
  0
LINE
  8
0
  6
CONTINUOUS
 62
7
 10
222.699997
 20
50.500000
 11
207.199997
 21
50.500000
  0
LINE
  8
0
  6
CONTINUOUS
 62
7
 10
222.699997
 20
41.500099
 11
222.699997
 21
53.500000
  0
LINE
  8
0
  6
CONTINUOUS
 62
7
 10
151.500000
 20
42.000000
 11
151.500000
 21
54.000000
  0
LINE
  8
0
  6
CONTINUOUS
 62
7
 10
162.199997
 20
42.500000
 11
162.199997
 21
53.500000
  0
LINE
  8
0
  6
CENTER
 62
2
 10
129.199997
 20
48.000000
 11
167.199997
 21
48.000000
  0
LINE
  8
0
  6
CONTINUOUS
 62
7
 10
156.199997
 20
53.500000
 11
162.199997
 21
53.500000
  0
LINE
  8
0
  6
CONTINUOUS
 62
7
 10
156.199997
 20
42.500000
 11
162.199997
 21
42.500000
  0
LINE
  8
0
  6
CONTINUOUS
 62
7
 10
156.199997
 20
42.500000
 11
156.199997
 21
53.500000
  0
LINE
  8
0
  6
CONTINUOUS
 62
7
 10
162.199997
 20
47.000000
 11
166.199997
 21
47.000000
  0
LINE
  8
0
  6
CONTINUOUS
 62
7
 10
162.199997
 20
49.000099
 11
166.199997
 21
49.000099
  0
LINE
  8
0
  6
CONTINUOUS
 62
7
 10
166.199997
 20
47.000000
 11
166.199997
 21
49.000099
  0
LINE
  8
0
  6
CONTINUOUS
 62
2
 10
156.199997
 20
51.299999
 11
155.699997
 21
51.299999
  0
LINE
  8
0
  6
CONTINUOUS
 62
7
 10
156.199997
 20
44.000099
 11
155.699997
 21
44.000099
  0
LINE
  8
0
  6
CONTINUOUS
 62
7
 10
131.199997
 20
44.700001
 11
130.199997
 21
44.700001
  0
LINE
  8
0
  6
CONTINUOUS
 62
7
 10
156.199997
 20
52.000000
 11
155.699997
 21
52.000000
  0
LINE
  8
0
  6
CONTINUOUS
 62
7
 10
131.199997
 20
44.000099
 11
131.199997
 21
52.000000
  0
LINE
  8
0
  6
CONTINUOUS
 62
7
 10
130.199997
 20
44.700001
 11
130.199997
 21
51.299999
  0
LINE
  8
0
  6
CONTINUOUS
 62
7
 10
131.199997
 20
51.299999
 11
130.199997
 21
51.299999
  0
LINE
  8
0
  6
CONTINUOUS
 62
2
 10
156.199997
 20
44.700001
 11
155.699997
 21
44.700001
  0
LINE
  8
0
  6
CONTINUOUS
 62
7
 10
236.500000
 20
54.000000
 11
151.500000
 21
54.000000
  0
LINE
  8
0
  6
CONTINUOUS
 62
7
 10
155.699997
 20
42.000000
 11
155.699997
 21
54.000000
  0
LINE
  8
0
  6
CONTINUOUS
 62
7
 10
151.500000
 20
42.500000
 11
149.500000
 21
42.500000
  0
LINE
  8
0
  6
CONTINUOUS
 62
7
 10
149.500000
 20
53.500000
 11
149.500000
 21
42.500000
  0
LINE
  8
0
  6
CONTINUOUS
 62
7
 10
151.500000
 20
43.173401
 11
149.500000
 21
43.173401
  0
LINE
  8
0
  6
CONTINUOUS
 62
7
 10
151.500000
 20
47.326698
 11
149.500000
 21
47.326698
  0
LINE
  8
0
  6
CONTINUOUS
 62
7
 10
151.500000
 20
48.673401
 11
149.500000
 21
48.673401
  0
LINE
  8
0
  6
CONTINUOUS
 62
7
 10
151.500000
 20
52.826698
 11
149.500000
 21
52.826698
  0
LINE
  8
0
  6
CONTINUOUS
 62
7
 10
151.500000
 20
53.500000
 11
149.500000
 21
53.500000
  0
LINE
  8
0
  6
CONTINUOUS
 62
7
 10
149.500000
 20
44.000099
 11
131.199997
 21
44.000099
  0
LINE
  8
0
  6
CONTINUOUS
 62
2
 10
149.500000
 20
44.700001
 11
131.199997
 21
44.700001
  0
LINE
  8
0
  6
CONTINUOUS
 62
2
 10
149.500000
 20
51.299999
 11
131.199997
 21
51.299999
  0
LINE
  8
0
  6
CONTINUOUS
 62
7
 10
149.500000
 20
52.000000
 11
131.199997
 21
52.000000
  0
LINE
  8
0
  6
CONTINUOUS
 62
7
 10
141.000000
 20
44.000099
 11
141.000000
 21
42.599998
  0
LINE
  8
0
  6
CONTINUOUS
 62
7
 10
207.199997
 20
42.000000
 11
150.649994
 21
42.000000
  0
LINE
  8
0
  6
CONTINUOUS
 62
7
 10
108.500000
 20
42.000000
 11
108.500000
 21
41.500099
  0
LINE
  8
0
  6
CONTINUOUS
 62
7
 10
116.500000
 20
42.000000
 11
116.500000
 21
41.500099
  0
LINE
  8
0
  6
CONTINUOUS
 62
7
 10
98.500000
 20
54.000000
 11
98.500000
 21
42.000000
  0
LINE
  8
0
  6
CONTINUOUS
 62
7
 10
117.500000
 20
54.000000
 11
117.500000
 21
42.000000
  0
LINE
  8
0
  6
CONTINUOUS
 62
7
 10
98.500000
 20
54.000000
 11
117.500000
 21
54.000000
  0
LINE
  8
0
  6
CONTINUOUS
 62
7
 10
105.538002
 20
47.326698
 11
106.592003
 21
45.500000
  0
LINE
  8
0
  6
CONTINUOUS
 62
7
 10
107.935997
 20
52.826599
 11
105.538002
 21
48.673302
  0
LINE
  8
0
  6
CONTINUOUS
 62
7
 10
113.898003
 20
53.500000
 11
109.101997
 21
53.500000
  0
LINE
  8
0
  6
CONTINUOUS
 62
7
 10
117.461998
 20
48.673302
 11
115.064003
 21
52.826599
  0
LINE
  8
0
  6
CONTINUOUS
 62
7
 10
115.064003
 20
43.173302
 11
117.461998
 21
47.326599
  0
LINE
  8
0
  6
CONTINUOUS
 62
7
 10
113.898003
 20
42.500000
 11
109.101997
 21
42.500000
  0
LINE
  8
0
  6
CONTINUOUS
 62
7
 10
110.750000
 20
46.363701
 11
110.750000
 21
44.070999
  0
LINE
  8
0
  6
CONTINUOUS
 62
7
 10
112.250000
 20
46.363701
 11
112.250000
 21
44.070999
  0
LINE
  8
0
  6
CONTINUOUS
 62
7
 10
112.250000
 20
51.929100
 11
112.250000
 21
49.636299
  0
LINE
  8
0
  6
CONTINUOUS
 62
7
 10
110.750000
 20
51.929100
 11
110.750000
 21
49.636299
  0
LINE
  8
0
  6
CENTER
 62
2
 10
118.500000
 20
48.000000
 11
104.500000
 21
48.000000
  0
LINE
  8
0
  6
CENTER
 62
2
 10
111.500000
 20
41.000000
 11
111.500000
 21
55.000000
  0
LINE
  8
0
  6
CONTINUOUS
 62
7
 10
107.541000
 20
43.856400
 11
107.935997
 21
43.173401
  0
LINE
  8
0
  6
CONTINUOUS
 62
7
 10
236.500000
 20
-104.500000
 11
151.500000
 21
-104.500000
  0
LINE
  8
0
  6
CONTINUOUS
 62
7
 10
151.500000
 20
-92.500000
 11
151.500000
 21
-104.500000
  0
LINE
  8
0
  6
CENTER
 62
2
 10
129.199997
 20
-98.500000
 11
152.500000
 21
-98.500000
  0
LINE
  8
0
  6
CONTINUOUS
 62
7
 10
151.500000
 20
-93.000000
 11
149.500000
 21
-93.000000
  0
LINE
  8
0
  6
CONTINUOUS
 62
7
 10
149.500000
 20
-104.000000
 11
149.500000
 21
-93.000000
  0
LINE
  8
0
  6
CONTINUOUS
 62
7
 10
151.500000
 20
-93.673302
 11
149.500000
 21
-93.673302
  0
LINE
  8
0
  6
CONTINUOUS
 62
7
 10
151.500000
 20
-97.826599
 11
149.500000
 21
-97.826599
  0
LINE
  8
0
  6
CONTINUOUS
 62
7
 10
151.500000
 20
-99.173302
 11
149.500000
 21
-99.173302
  0
LINE
  8
0
  6
CONTINUOUS
 62
7
 10
151.500000
 20
-103.327003
 11
149.500000
 21
-103.327003
  0
LINE
  8
0
  6
CONTINUOUS
 62
7
 10
151.500000
 20
-104.000000
 11
149.500000
 21
-104.000000
  0
LINE
  8
0
  6
CONTINUOUS
 62
7
 10
149.500000
 20
-94.500000
 11
144.500000
 21
-94.500000
  0
LINE
  8
0
  6
CONTINUOUS
 62
2
 10
149.500000
 20
-95.199997
 11
144.500000
 21
-95.199997
  0
LINE
  8
0
  6
CONTINUOUS
 62
2
 10
149.500000
 20
-101.800003
 11
131.199997
 21
-101.800003
  0
LINE
  8
0
  6
CONTINUOUS
 62
7
 10
149.500000
 20
-102.500000
 11
131.199997
 21
-102.500000
  0
LINE
  8
0
  6
CONTINUOUS
 62
7
 10
131.199997
 20
-95.199997
 11
130.199997
 21
-95.199997
  0
LINE
  8
0
  6
CONTINUOUS
 62
7
 10
131.199997
 20
-94.500000
 11
131.199997
 21
-102.500000
  0
LINE
  8
0
  6
CONTINUOUS
 62
7
 10
130.199997
 20
-95.199997
 11
130.199997
 21
-101.800003
  0
LINE
  8
0
  6
CONTINUOUS
 62
7
 10
131.199997
 20
-101.800003
 11
130.199997
 21
-101.800003
  0
LINE
  8
0
  6
CONTINUOUS
 62
7
 10
137.500000
 20
-94.500000
 11
131.199997
 21
-94.500000
  0
LINE
  8
0
  6
CONTINUOUS
 62
2
 10
137.500000
 20
-95.199997
 11
131.199997
 21
-95.199997
  0
LINE
  8
0
  6
CENTER
 62
2
 10
-166.000000
 20
28.000000
 11
-238.000000
 21
28.000000
  0
LINE
  8
0
  6
CONTINUOUS
 62
7
 10
-169.300003
 20
41.500000
 11
-237.000000
 21
41.500000
  0
LINE
  8
0
  6
CONTINUOUS
 62
7
 10
-170.000000
 20
14.500000
 11
-237.000000
 21
14.500000
  0
LINE
  8
0
  6
CONTINUOUS
 62
7
 10
-170.000000
 20
21.000000
 11
-229.000000
 21
21.000000
  0
LINE
  8
0
  6
CONTINUOUS
 62
7
 10
-170.000000
 20
35.000000
 11
-229.000000
 21
35.000000
  0
LINE
  8
0
  6
CONTINUOUS
 62
7
 10
-167.000000
 20
14.000000
 11
-211.350006
 21
14.000000
  0
LINE
  8
0
  6
CONTINUOUS
 62
7
 10
-167.000000
 20
42.000000
 11
-167.000000
 21
14.000000
  0
LINE
  8
0
  6
CONTINUOUS
 62
7
 10
-229.000000
 20
41.500000
 11
-229.000000
 21
14.500000
  0
LINE
  8
0
  6
CONTINUOUS
 62
7
 10
-170.000000
 20
41.500000
 11
-170.000000
 21
14.500000
  0
LINE
  8
0
  6
CONTINUOUS
 62
7
 10
-227.000000
 20
14.500000
 11
-227.000000
 21
14.000000
  0
LINE
  8
0
  6
CONTINUOUS
 62
7
 10
-227.000000
 20
42.000000
 11
-227.000000
 21
41.500000
  0
LINE
  8
0
  6
CONTINUOUS
 62
7
 10
-214.649994
 20
14.000000
 11
-214.649994
 21
14.500000
  0
LINE
  8
0
  6
CONTINUOUS
 62
7
 10
-211.350006
 20
14.000000
 11
-211.350006
 21
14.500000
  0
LINE
  8
0
  6
CONTINUOUS
 62
7
 10
-211.350006
 20
41.500000
 11
-211.350006
 21
42.000000
  0
LINE
  8
0
  6
CONTINUOUS
 62
7
 10
-214.649994
 20
41.500000
 11
-214.649994
 21
42.000000
  0
LINE
  8
0
  6
CONTINUOUS
 62
7
 10
-214.649994
 20
14.000000
 11
-227.000000
 21
14.000000
  0
LINE
  8
0
  6
CONTINUOUS
 62
7
 10
-214.649994
 20
42.000000
 11
-227.000000
 21
42.000000
  0
LINE
  8
0
  6
CONTINUOUS
 62
7
 10
-237.000000
 20
41.500000
 11
-237.000000
 21
14.500000
  0
LINE
  8
0
  6
CENTER
 62
2
 10
-220.000000
 20
40.500000
 11
-220.000000
 21
35.500000
  0
LINE
  8
0
  6
CENTER
 62
2
 10
-222.500000
 20
38.000000
 11
-217.500000
 21
38.000000
  0
LINE
  8
0
  6
CENTER
 62
2
 10
-220.000000
 20
20.500000
 11
-220.000000
 21
15.500000
  0
LINE
  8
0
  6
CENTER
 62
2
 10
-222.500000
 20
18.000000
 11
-217.500000
 21
18.000000
  0
LINE
  8
0
  6
CENTER
 62
2
 10
-184.000000
 20
40.500000
 11
-184.000000
 21
35.500000
  0
LINE
  8
0
  6
CENTER
 62
2
 10
-186.500000
 20
38.000000
 11
-181.500000
 21
38.000000
  0
LINE
  8
0
  6
CENTER
 62
2
 10
-198.000000
 20
41.099998
 11
-198.000000
 21
35.900002
  0
LINE
  8
0
  6
CENTER
 62
2
 10
-200.600006
 20
38.500000
 11
-195.399994
 21
38.500000
  0
LINE
  8
0
  6
CENTER
 62
2
 10
-184.000000
 20
20.500000
 11
-184.000000
 21
15.500000
  0
LINE
  8
0
  6
CENTER
 62
2
 10
-186.500000
 20
18.000000
 11
-181.500000
 21
18.000000
  0
LINE
  8
0
  6
CENTER
 62
2
 10
-202.000000
 20
40.500000
 11
-202.000000
 21
35.500000
  0
LINE
  8
0
  6
CENTER
 62
2
 10
-204.500000
 20
38.000000
 11
-199.500000
 21
38.000000
  0
LINE
  8
0
  6
CENTER
 62
2
 10
-202.000000
 20
20.500000
 11
-202.000000
 21
15.500000
  0
LINE
  8
0
  6
CENTER
 62
2
 10
-204.500000
 20
18.000000
 11
-199.500000
 21
18.000000
  0
LINE
  8
0
  6
CONTINUOUS
 62
7
 10
-168.800003
 20
14.700000
 11
-170.000000
 21
14.700000
  0
LINE
  8
0
  6
CONTINUOUS
 62
7
 10
-168.800003
 20
19.250000
 11
-168.800003
 21
14.700000
  0
LINE
  8
0
  6
CONTINUOUS
 62
7
 10
-168.800003
 20
33.250000
 11
-168.800003
 21
22.750000
  0
LINE
  8
0
  6
CONTINUOUS
 62
7
 10
-169.399994
 20
33.250000
 11
-169.399994
 21
36.750000
  0
LINE
  8
0
  6
CONTINUOUS
 62
7
 10
-169.399994
 20
33.250000
 11
-168.399994
 21
33.250000
  0
LINE
  8
0
  6
CONTINUOUS
 62
7
 10
-168.399994
 20
33.250000
 11
-168.399994
 21
36.750000
  0
LINE
  8
0
  6
CONTINUOUS
 62
7
 10
-169.399994
 20
36.750000
 11
-168.399994
 21
36.750000
  0
LINE
  8
0
  6
CONTINUOUS
 62
7
 10
-168.800003
 20
36.750000
 11
-168.800003
 21
41.299999
  0
LINE
  8
0
  6
CONTINUOUS
 62
7
 10
-168.800003
 20
41.299999
 11
-170.000000
 21
41.299999
  0
LINE
  8
0
  6
CONTINUOUS
 62
7
 10
-224.899994
 20
42.599998
 11
-224.899994
 21
42.000000
  0
LINE
  8
0
  6
CONTINUOUS
 62
7
 10
-169.399994
 20
22.750000
 11
-169.399994
 21
19.250000
  0
LINE
  8
0
  6
CONTINUOUS
 62
7
 10
-169.399994
 20
22.750000
 11
-168.399994
 21
22.750000
  0
LINE
  8
0
  6
CONTINUOUS
 62
7
 10
-168.399994
 20
19.250000
 11
-168.399994
 21
22.750000
  0
LINE
  8
0
  6
CONTINUOUS
 62
7
 10
-169.399994
 20
19.250000
 11
-168.399994
 21
19.250000
  0
LINE
  8
0
  6
DASHED
 62
2
 10
-211.350006
 20
17.500000
 11
-211.350006
 21
14.500000
  0
LINE
  8
0
  6
DASHED
 62
2
 10
-214.649994
 20
17.500000
 11
-214.649994
 21
14.500000
  0
LINE
  8
0
  6
DASHED
 62
2
 10
-211.350006
 20
38.500000
 11
-211.350006
 21
41.500000
  0
LINE
  8
0
  6
DASHED
 62
2
 10
-214.649994
 20
38.500000
 11
-214.649994
 21
41.500000
  0
LINE
  8
0
  6
CENTER
 62
2
 10
-181.000000
 20
42.500000
 11
-181.000000
 21
34.500000
  0
LINE
  8
0
  6
CENTER
 62
2
 10
-185.000000
 20
38.500000
 11
-177.000000
 21
38.500000
  0
LINE
  8
0
  6
CENTER
 62
2
 10
-181.000000
 20
21.500000
 11
-181.000000
 21
13.500000
  0
LINE
  8
0
  6
CENTER
 62
2
 10
-185.000000
 20
17.500000
 11
-177.000000
 21
17.500000
  0
LINE
  8
0
  6
CENTER
 62
2
 10
-213.000000
 20
21.500000
 11
-213.000000
 21
13.500000
  0
LINE
  8
0
  6
CENTER
 62
2
 10
-217.000000
 20
17.500000
 11
-209.000000
 21
17.500000
  0
LINE
  8
0
  6
CENTER
 62
2
 10
-213.000000
 20
42.500000
 11
-213.000000
 21
34.500000
  0
LINE
  8
0
  6
CENTER
 62
2
 10
-217.000000
 20
38.500000
 11
-209.000000
 21
38.500000
  0
LINE
  8
0
  6
CENTER
 62
2
 10
-221.000000
 20
45.000099
 11
-221.000000
 21
41.000000
  0
LINE
  8
0
  6
CONTINUOUS
 62
7
 10
-217.000000
 20
42.599998
 11
-217.000000
 21
42.000000
  0
LINE
  8
0
  6
CONTINUOUS
 62
7
 10
-224.500000
 20
44.000099
 11
-224.500000
 21
42.599998
  0
LINE
  8
0
  6
CONTINUOUS
 62
7
 10
-217.500000
 20
44.000099
 11
-217.500000
 21
42.599998
  0
LINE
  8
0
  6
CONTINUOUS
 62
7
 10
-217.000000
 20
42.599998
 11
-224.899994
 21
42.599998
  0
LINE
  8
0
  6
CENTER
 62
2
 10
-239.000000
 20
38.000000
 11
-235.000000
 21
38.000000
  0
LINE
  8
0
  6
CENTER
 62
2
 10
-239.000000
 20
18.000000
 11
-235.000000
 21
18.000000
  0
LINE
  8
0
  6
CONTINUOUS
 62
7
 10
-229.000000
 20
91.500000
 11
-229.000000
 21
83.000000
  0
LINE
  8
0
  6
CONTINUOUS
 62
7
 10
-237.000000
 20
91.500000
 11
-237.000000
 21
73.000000
  0
LINE
  8
0
  6
CONTINUOUS
 62
7
 10
-229.000000
 20
89.500000
 11
-227.000000
 21
89.500000
  0
LINE
  8
0
  6
CONTINUOUS
 62
7
 10
-237.000000
 20
91.500000
 11
-229.000000
 21
91.500000
  0
LINE
  8
0
  6
CONTINUOUS
 62
7
 10
-237.000000
 20
73.000000
 11
-229.000000
 21
73.000000
  0
LINE
  8
0
  6
CONTINUOUS
 62
7
 10
-229.000000
 20
72.500000
 11
-170.000000
 21
72.500000
  0
LINE
  8
0
  6
CONTINUOUS
 62
7
 10
-227.000000
 20
92.500000
 11
-227.000000
 21
83.000000
  0
LINE
  8
0
  6
CONTINUOUS
 62
7
 10
-167.000000
 20
92.500000
 11
-167.000000
 21
92.000000
  0
LINE
  8
0
  6
CONTINUOUS
 62
7
 10
-227.000000
 20
92.500000
 11
-167.000000
 21
92.500000
  0
LINE
  8
0
  6
DASHED
 62
2
 10
-178.000000
 20
87.000000
 11
-184.000000
 21
87.000000
  0
LINE
  8
0
  6
CONTINUOUS
 62
7
 10
-230.800003
 20
83.000000
 11
-212.500000
 21
83.000000
  0
LINE
  8
0
  6
DASHED
 62
2
 10
-198.000000
 20
88.500000
 11
-204.000000
 21
88.500000
  0
LINE
  8
0
  6
CONTINUOUS
 62
7
 10
-199.800003
 20
82.500000
 11
-169.300003
 21
82.500000
  0
LINE
  8
0
  6
CONTINUOUS
 62
7
 10
-216.199997
 20
87.000000
 11
-210.500000
 21
87.000000
  0
LINE
  8
0
  6
CONTINUOUS
 62
7
 10
-170.000000
 20
82.500000
 11
-170.000000
 21
82.000000
  0
LINE
  8
0
  6
CONTINUOUS
 62
7
 10
-214.649994
 20
92.500000
 11
-214.649994
 21
87.000000
  0
LINE
  8
0
  6
DASHED
 62
2
 10
-216.000000
 20
87.500000
 11
-214.649994
 21
87.500000
  0
LINE
  8
0
  6
CENTER
 62
2
 10
-213.000000
 20
93.500000
 11
-213.000000
 21
86.000000
  0
LINE
  8
0
  6
CONTINUOUS
 62
7
 10
-211.350006
 20
92.500000
 11
-211.350006
 21
87.000000
  0
LINE
  8
0
  6
CONTINUOUS
 62
7
 10
-221.000000
 20
82.958603
 11
-217.500000
 21
84.979301
  0
LINE
  8
0
  6
CONTINUOUS
 62
7
 10
-217.500000
 20
89.020798
 11
-217.500000
 21
84.979301
  0
LINE
  8
0
  6
CONTINUOUS
 62
7
 10
-221.000000
 20
91.041496
 11
-217.500000
 21
89.020798
  0
LINE
  8
0
  6
CONTINUOUS
 62
7
 10
-224.500000
 20
89.020699
 11
-221.000000
 21
91.041496
  0
LINE
  8
0
  6
CONTINUOUS
 62
7
 10
-224.500000
 20
84.979301
 11
-224.500000
 21
89.020798
  0
LINE
  8
0
  6
CONTINUOUS
 62
7
 10
-217.500000
 20
87.500000
 11
-224.500000
 21
87.500000
  0
LINE
  8
0
  6
CONTINUOUS
 62
7
 10
-217.500000
 20
86.500000
 11
-224.500000
 21
86.500000
  0
LINE
  8
0
  6
CONTINUOUS
 62
7
 10
-224.500000
 20
84.979301
 11
-221.000000
 21
82.958603
  0
LINE
  8
0
  6
CONTINUOUS
 62
7
 10
-170.000000
 20
73.000000
 11
-168.800003
 21
73.000000
  0
LINE
  8
0
  6
CONTINUOUS
 62
7
 10
-168.800003
 20
73.500000
 11
-168.800003
 21
73.000000
  0
LINE
  8
0
  6
CENTER
 62
2
 10
-221.000000
 20
92.041496
 11
-221.000000
 21
81.958603
  0
LINE
  8
0
  6
CENTER
 62
2
 10
-226.041000
 20
87.000000
 11
-215.959000
 21
87.000000
  0
LINE
  8
0
  6
CENTER
 62
2
 10
-187.149994
 20
78.199997
 11
-187.149994
 21
74.199997
  0
LINE
  8
0
  6
CENTER
 62
2
 10
-189.149994
 20
76.199997
 11
-185.149994
 21
76.199997
  0
LINE
  8
0
  6
CENTER
 62
2
 10
-201.000000
 20
93.500000
 11
-201.000000
 21
87.500000
  0
LINE
  8
0
  6
DASHED
 62
2
 10
-203.000000
 20
90.900002
 11
-203.000000
 21
88.500000
  0
LINE
  8
0
  6
DASHED
 62
2
 10
-199.000000
 20
90.900002
 11
-199.000000
 21
88.500000
  0
LINE
  8
0
  6
DASHED
 62
2
 10
-203.500000
 20
92.500000
 11
-203.500000
 21
90.900002
  0
LINE
  8
0
  6
DASHED
 62
2
 10
-198.500000
 20
92.500000
 11
-198.500000
 21
90.900002
  0
LINE
  8
0
  6
DASHED
 62
2
 10
-183.000000
 20
92.500000
 11
-183.000000
 21
87.500000
  0
LINE
  8
0
  6
CENTER
 62
2
 10
-181.000000
 20
93.500000
 11
-181.000000
 21
86.000000
  0
LINE
  8
0
  6
DASHED
 62
2
 10
-184.000000
 20
87.500000
 11
-184.000000
 21
86.992500
  0
LINE
  8
0
  6
DASHED
 62
2
 10
-184.000000
 20
87.500000
 11
-178.000000
 21
87.500000
  0
LINE
  8
0
  6
DASHED
 62
2
 10
-178.000000
 20
87.500000
 11
-178.000000
 21
87.000000
  0
LINE
  8
0
  6
DASHED
 62
2
 10
-179.000000
 20
92.500000
 11
-179.000000
 21
87.500000
  0
LINE
  8
0
  6
CENTER
 62
2
 10
-220.000000
 20
74.500000
 11
-220.000000
 21
70.500000
  0
LINE
  8
0
  6
CENTER
 62
2
 10
-202.000000
 20
74.500000
 11
-202.000000
 21
70.500000
  0
LINE
  8
0
  6
CENTER
 62
2
 10
-184.000000
 20
74.500000
 11
-184.000000
 21
70.500000
  0
LINE
  8
0
  6
CENTER
 62
2
 10
-239.000000
 20
85.500000
 11
-235.000000
 21
85.500000
  0
LINE
  8
0
  6
CENTER
 62
2
 10
-239.000000
 20
76.500000
 11
-235.000000
 21
76.500000
  0
LINE
  8
0
  6
DASHED
 62
2
 10
-216.000000
 20
87.500000
 11
-216.000000
 21
87.000000
  0
LINE
  8
0
  6
DASHED
 62
2
 10
-210.000000
 20
87.500000
 11
-210.000000
 21
87.000000
  0
LINE
  8
0
  6
CONTINUOUS
 62
7
 10
-214.649994
 20
87.500000
 11
-211.350006
 21
87.500000
  0
LINE
  8
0
  6
DASHED
 62
2
 10
-211.350006
 20
87.500000
 11
-210.000000
 21
87.500000
  0
LINE
  8
0
  6
CONTINUOUS
 62
7
 10
-229.000000
 20
-92.000000
 11
-229.000000
 21
-65.000000
  0
LINE
  8
0
  6
CONTINUOUS
 62
7
 10
-211.350006
 20
-92.000000
 11
-214.649994
 21
-92.000000
  0
LINE
  8
0
  6
CONTINUOUS
 62
7
 10
-211.350006
 20
-65.000000
 11
-214.649994
 21
-65.000000
  0
LINE
  8
0
  6
CONTINUOUS
 62
7
 10
-227.000000
 20
-92.500000
 11
-227.000000
 21
-64.500000
  0
LINE
  8
0
  6
CONTINUOUS
 62
7
 10
-167.000000
 20
-64.500000
 11
-211.350006
 21
-64.500000
  0
LINE
  8
0
  6
CONTINUOUS
 62
7
 10
-167.000000
 20
-92.500000
 11
-167.000000
 21
-64.500000
  0
LINE
  8
0
  6
CENTER
 62
2
 10
-166.000000
 20
-78.500000
 11
-238.000000
 21
-78.500000
  0
LINE
  8
0
  6
CONTINUOUS
 62
7
 10
-214.649994
 20
-64.500000
 11
-227.000000
 21
-64.500000
  0
LINE
  8
0
  6
CONTINUOUS
 62
7
 10
-214.649994
 20
-92.500000
 11
-227.000000
 21
-92.500000
  0
LINE
  8
0
  6
CONTINUOUS
 62
7
 10
-227.000000
 20
-65.000000
 11
-237.000000
 21
-65.000000
  0
LINE
  8
0
  6
CONTINUOUS
 62
7
 10
-227.000000
 20
-92.000000
 11
-237.000000
 21
-92.000000
  0
LINE
  8
0
  6
CONTINUOUS
 62
7
 10
-237.000000
 20
-92.000000
 11
-237.000000
 21
-65.000000
  0
LINE
  8
0
  6
CONTINUOUS
 62
7
 10
-227.000000
 20
-82.500000
 11
-229.000000
 21
-82.500000
  0
LINE
  8
0
  6
CONTINUOUS
 62
7
 10
-227.000000
 20
-74.500000
 11
-229.000000
 21
-74.500000
  0
LINE
  8
0
  6
CONTINUOUS
 62
7
 10
-217.500000
 20
-96.000000
 11
-224.500000
 21
-96.000000
  0
LINE
  8
0
  6
CENTER
 62
2
 10
-213.000000
 20
-65.349998
 11
-213.000000
 21
-70.650002
  0
LINE
  8
0
  6
CENTER
 62
2
 10
-215.649994
 20
-68.000000
 11
-210.350006
 21
-68.000000
  0
LINE
  8
0
  6
CENTER
 62
2
 10
-213.000000
 20
-86.349998
 11
-213.000000
 21
-91.650002
  0
LINE
  8
0
  6
CENTER
 62
2
 10
-215.649994
 20
-89.000000
 11
-210.350006
 21
-89.000000
  0
LINE
  8
0
  6
CENTER
 62
2
 10
-201.000000
 20
-85.500000
 11
-201.000000
 21
-92.500000
  0
LINE
  8
0
  6
CENTER
 62
2
 10
-204.500000
 20
-89.000000
 11
-197.500000
 21
-89.000000
  0
LINE
  8
0
  6
CENTER
 62
2
 10
-201.000000
 20
-64.500000
 11
-201.000000
 21
-71.500000
  0
LINE
  8
0
  6
CENTER
 62
2
 10
-204.500000
 20
-68.000000
 11
-197.500000
 21
-68.000000
  0
LINE
  8
0
  6
CENTER
 62
2
 10
-181.000000
 20
-65.000000
 11
-181.000000
 21
-71.000000
  0
LINE
  8
0
  6
CENTER
 62
2
 10
-184.000000
 20
-68.000000
 11
-178.000000
 21
-68.000000
  0
LINE
  8
0
  6
CENTER
 62
2
 10
-181.000000
 20
-86.000000
 11
-181.000000
 21
-92.000000
  0
LINE
  8
0
  6
CENTER
 62
2
 10
-184.000000
 20
-89.000000
 11
-178.000000
 21
-89.000000
  0
LINE
  8
0
  6
CONTINUOUS
 62
7
 10
-214.649994
 20
-64.500000
 11
-214.649994
 21
-68.000000
  0
LINE
  8
0
  6
CONTINUOUS
 62
7
 10
-211.350006
 20
-64.500000
 11
-211.350006
 21
-68.000000
  0
LINE
  8
0
  6
CONTINUOUS
 62
7
 10
-214.649994
 20
-89.000000
 11
-214.649994
 21
-92.500000
  0
LINE
  8
0
  6
CONTINUOUS
 62
7
 10
-211.350006
 20
-89.000000
 11
-211.350006
 21
-92.500000
  0
LINE
  8
0
  6
CENTER
 62
2
 10
-221.000000
 20
-91.500000
 11
-221.000000
 21
-97.000000
  0
LINE
  8
0
  6
CONTINUOUS
 62
7
 10
-217.100006
 20
-93.099998
 11
-224.899994
 21
-93.099998
  0
LINE
  8
0
  6
CONTINUOUS
 62
7
 10
-224.899994
 20
-92.500000
 11
-224.899994
 21
-93.099998
  0
LINE
  8
0
  6
CONTINUOUS
 62
7
 10
-217.100006
 20
-92.500000
 11
-217.100006
 21
-93.099998
  0
LINE
  8
0
  6
CONTINUOUS
 62
7
 10
-217.500000
 20
-93.099998
 11
-217.500000
 21
-96.000000
  0
LINE
  8
0
  6
CONTINUOUS
 62
7
 10
-224.500000
 20
-93.099998
 11
-224.500000
 21
-96.000000
  0
LINE
  8
0
  6
CONTINUOUS
 62
7
 10
-229.000000
 20
-35.500000
 11
-229.000000
 21
-16.500000
  0
LINE
  8
0
  6
CONTINUOUS
 62
7
 10
-237.000000
 20
-35.500000
 11
-237.000000
 21
-17.000000
  0
LINE
  8
0
  6
CONTINUOUS
 62
7
 10
-229.000000
 20
-33.500000
 11
-227.000000
 21
-33.500000
  0
LINE
  8
0
  6
CONTINUOUS
 62
7
 10
-237.000000
 20
-35.500000
 11
-229.000000
 21
-35.500000
  0
LINE
  8
0
  6
CONTINUOUS
 62
7
 10
-237.000000
 20
-17.000000
 11
-229.000000
 21
-17.000000
  0
LINE
  8
0
  6
CONTINUOUS
 62
7
 10
-229.000000
 20
-16.500000
 11
-170.000000
 21
-16.500000
  0
LINE
  8
0
  6
CONTINUOUS
 62
7
 10
-227.000000
 20
-36.500000
 11
-227.000000
 21
-26.500000
  0
LINE
  8
0
  6
CONTINUOUS
 62
7
 10
-167.000000
 20
-36.500000
 11
-167.000000
 21
-21.000000
  0
LINE
  8
0
  6
CONTINUOUS
 62
7
 10
-227.000000
 20
-36.500000
 11
-167.000000
 21
-36.500000
  0
LINE
  8
0
  6
CONTINUOUS
 62
7
 10
-177.800003
 20
-31.000000
 11
-184.401993
 21
-31.000000
  0
LINE
  8
0
  6
CONTINUOUS
 62
7
 10
-227.000000
 20
-27.000000
 11
-167.000000
 21
-27.000000
  0
LINE
  8
0
  6
CONTINUOUS
 62
7
 10
-190.000000
 20
-32.500000
 11
-204.000000
 21
-32.500000
  0
LINE
  8
0
  6
CONTINUOUS
 62
7
 10
-229.000000
 20
-26.500000
 11
-168.800003
 21
-26.500000
  0
LINE
  8
0
  6
CONTINUOUS
 62
7
 10
-216.199997
 20
-31.000000
 11
-209.598007
 21
-31.000000
  0
LINE
  8
0
  6
CONTINUOUS
 62
7
 10
-168.399994
 20
-21.000000
 11
-167.000000
 21
-21.000000
  0
LINE
  8
0
  6
CONTINUOUS
 62
7
 10
-168.800003
 20
-21.903400
 11
-167.000000
 21
-21.903400
  0
LINE
  8
0
  6
CONTINUOUS
 62
7
 10
-168.800003
 20
-24.096600
 11
-167.000000
 21
-24.096600
  0
LINE
  8
0
  6
CONTINUOUS
 62
7
 10
-170.000000
 20
-26.500000
 11
-170.000000
 21
-16.500000
  0
LINE
  8
0
  6
CONTINUOUS
 62
7
 10
-214.649994
 20
-36.500000
 11
-214.649994
 21
-31.000000
  0
LINE
  8
0
  6
DASHED
 62
2
 10
-216.000000
 20
-31.500000
 11
-214.649994
 21
-31.500000
  0
LINE
  8
0
  6
CENTER
 62
2
 10
-213.000000
 20
-37.500000
 11
-213.000000
 21
-30.000000
  0
LINE
  8
0
  6
CONTINUOUS
 62
7
 10
-211.350006
 20
-36.500000
 11
-211.350006
 21
-31.000000
  0
LINE
  8
0
  6
CONTINUOUS
 62
7
 10
-170.000000
 20
-17.000000
 11
-168.800003
 21
-17.000000
  0
LINE
  8
0
  6
CONTINUOUS
 62
7
 10
-168.800003
 20
-26.500000
 11
-168.800003
 21
-17.000000
  0
LINE
  8
0
  6
CONTINUOUS
 62
7
 10
-168.399994
 20
-21.250000
 11
-168.399994
 21
-17.750000
  0
LINE
  8
0
  6
CONTINUOUS
 62
7
 10
-168.800003
 20
-17.750000
 11
-168.399994
 21
-17.750000
  0
LINE
  8
0
  6
CONTINUOUS
 62
7
 10
-168.800003
 20
-21.250000
 11
-168.399994
 21
-21.250000
  0
LINE
  8
0
  6
CENTER
 62
2
 10
-221.000000
 20
-27.500000
 11
-221.000000
 21
-34.500000
  0
LINE
  8
0
  6
CENTER
 62
2
 10
-224.500000
 20
-31.000000
 11
-217.500000
 21
-31.000000
  0
LINE
  8
0
  6
CENTER
 62
2
 10
-207.000000
 20
-30.000000
 11
-207.000000
 21
-35.000000
  0
LINE
  8
0
  6
CENTER
 62
2
 10
-209.500000
 20
-32.500000
 11
-204.500000
 21
-32.500000
  0
LINE
  8
0
  6
CENTER
 62
2
 10
-187.000000
 20
-30.000000
 11
-187.000000
 21
-35.000000
  0
LINE
  8
0
  6
CENTER
 62
2
 10
-189.500000
 20
-32.500000
 11
-184.500000
 21
-32.500000
  0
LINE
  8
0
  6
CENTER
 62
2
 10
-187.149994
 20
-18.200001
 11
-187.149994
 21
-22.200001
  0
LINE
  8
0
  6
CENTER
 62
2
 10
-189.149994
 20
-20.200001
 11
-185.149994
 21
-20.200001
  0
LINE
  8
0
  6
CENTER
 62
2
 10
-180.300003
 20
-18.000000
 11
-180.300003
 21
-23.000000
  0
LINE
  8
0
  6
CENTER
 62
2
 10
-182.800003
 20
-20.500000
 11
-177.800003
 21
-20.500000
  0
LINE
  8
0
  6
CENTER
 62
2
 10
-177.149994
 20
-18.200001
 11
-177.149994
 21
-22.200001
  0
LINE
  8
0
  6
CENTER
 62
2
 10
-179.149994
 20
-20.200001
 11
-175.149994
 21
-20.200001
  0
LINE
  8
0
  6
CENTER
 62
2
 10
-173.800003
 20
-18.000000
 11
-173.800003
 21
-23.000000
  0
LINE
  8
0
  6
CENTER
 62
2
 10
-176.300003
 20
-20.500000
 11
-171.300003
 21
-20.500000
  0
LINE
  8
0
  6
CENTER
 62
2
 10
-173.000000
 20
-27.500000
 11
-173.000000
 21
-34.500000
  0
LINE
  8
0
  6
CENTER
 62
2
 10
-176.500000
 20
-31.000000
 11
-169.500000
 21
-31.000000
  0
LINE
  8
0
  6
CENTER
 62
2
 10
-201.000000
 20
-37.500000
 11
-201.000000
 21
-31.500000
  0
LINE
  8
0
  6
DASHED
 62
2
 10
-203.000000
 20
-34.900002
 11
-203.000000
 21
-32.500000
  0
LINE
  8
0
  6
DASHED
 62
2
 10
-199.000000
 20
-34.900002
 11
-199.000000
 21
-32.500000
  0
LINE
  8
0
  6
DASHED
 62
2
 10
-203.500000
 20
-36.500000
 11
-203.500000
 21
-34.900002
  0
LINE
  8
0
  6
DASHED
 62
2
 10
-198.500000
 20
-36.500000
 11
-198.500000
 21
-34.900002
  0
LINE
  8
0
  6
DASHED
 62
2
 10
-203.500000
 20
-34.900002
 11
-198.500000
 21
-34.900002
  0
LINE
  8
0
  6
DASHED
 62
2
 10
-183.000000
 20
-36.500000
 11
-183.000000
 21
-31.500000
  0
LINE
  8
0
  6
CENTER
 62
2
 10
-181.000000
 20
-37.500000
 11
-181.000000
 21
-30.000000
  0
LINE
  8
0
  6
DASHED
 62
2
 10
-184.000000
 20
-31.500000
 11
-184.000000
 21
-30.992399
  0
LINE
  8
0
  6
DASHED
 62
2
 10
-184.000000
 20
-31.500000
 11
-178.000000
 21
-31.500000
  0
LINE
  8
0
  6
DASHED
 62
2
 10
-178.000000
 20
-31.500000
 11
-178.000000
 21
-31.000000
  0
LINE
  8
0
  6
DASHED
 62
2
 10
-179.000000
 20
-36.500000
 11
-179.000000
 21
-31.500000
  0
LINE
  8
0
  6
CENTER
 62
2
 10
-220.000000
 20
-14.500000
 11
-220.000000
 21
-18.500000
  0
LINE
  8
0
  6
CENTER
 62
2
 10
-202.000000
 20
-14.500000
 11
-202.000000
 21
-18.500000
  0
LINE
  8
0
  6
CENTER
 62
2
 10
-184.000000
 20
-14.500000
 11
-184.000000
 21
-18.500000
  0
LINE
  8
0
  6
CENTER
 62
2
 10
-239.000000
 20
-29.500000
 11
-235.000000
 21
-29.500000
  0
LINE
  8
0
  6
CENTER
 62
2
 10
-239.000000
 20
-20.500000
 11
-235.000000
 21
-20.500000
  0
LINE
  8
0
  6
DASHED
 62
2
 10
-216.000000
 20
-31.500000
 11
-216.000000
 21
-31.000000
  0
LINE
  8
0
  6
DASHED
 62
2
 10
-210.000000
 20
-31.500000
 11
-210.000000
 21
-31.000000
  0
LINE
  8
0
  6
CONTINUOUS
 62
7
 10
-214.649994
 20
-31.500000
 11
-211.350006
 21
-31.500000
  0
LINE
  8
0
  6
DASHED
 62
2
 10
-211.350006
 20
-31.500000
 11
-210.000000
 21
-31.500000
  0
LINE
  8
0
  6
CONTINUOUS
 62
7
 10
-221.000000
 20
-93.099998
 11
-221.000000
 21
-96.000000
  0
LINE
  8
0
  6
CONTINUOUS
 62
7
 10
-210.500000
 20
92.000000
 11
-155.500000
 21
92.000000
  0
LINE
  8
0
  6
CONTINUOUS
 62
7
 10
-210.500000
 20
92.000000
 11
-210.500000
 21
73.000000
  0
LINE
  8
0
  6
CONTINUOUS
 62
7
 10
-212.500000
 20
73.000000
 11
-206.300003
 21
73.000000
  0
LINE
  8
0
  6
CONTINUOUS
 62
7
 10
-184.800003
 20
82.000000
 11
-169.300003
 21
82.000000
  0
LINE
  8
0
  6
CONTINUOUS
 62
7
 10
-184.800003
 20
74.000000
 11
-169.300003
 21
74.000000
  0
LINE
  8
0
  6
CONTINUOUS
 62
7
 10
-184.800003
 20
74.000000
 11
-184.800003
 21
82.000000
  0
LINE
  8
0
  6
CONTINUOUS
 62
7
 10
-204.800003
 20
85.000000
 11
-161.199997
 21
85.000000
  0
LINE
  8
0
  6
CONTINUOUS
 62
7
 10
-205.800003
 20
84.500000
 11
-199.800003
 21
84.500000
  0
LINE
  8
0
  6
CONTINUOUS
 62
7
 10
-199.800003
 20
73.500000
 11
-199.800003
 21
84.500000
  0
LINE
  8
0
  6
CONTINUOUS
 62
7
 10
-199.800003
 20
80.000000
 11
-195.800003
 21
80.000000
  0
LINE
  8
0
  6
CONTINUOUS
 62
7
 10
-195.800003
 20
78.000000
 11
-195.800003
 21
80.000000
  0
LINE
  8
0
  6
CONTINUOUS
 62
7
 10
-199.800003
 20
78.000000
 11
-195.800003
 21
78.000000
  0
LINE
  8
0
  6
CENTER
 62
2
 10
-232.800003
 20
79.000000
 11
-194.800003
 21
79.000000
  0
LINE
  8
0
  6
CONTINUOUS
 62
7
 10
-205.800003
 20
73.500000
 11
-199.800003
 21
73.500000
  0
LINE
  8
0
  6
CONTINUOUS
 62
7
 10
-206.300003
 20
73.000000
 11
-206.300003
 21
83.500000
  0
LINE
  8
0
  6
CONTINUOUS
 62
7
 10
-205.800003
 20
73.500000
 11
-205.800003
 21
84.500000
  0
LINE
  8
0
  6
CONTINUOUS
 62
7
 10
-212.500000
 20
85.000000
 11
-210.500000
 21
85.000000
  0
LINE
  8
0
  6
CONTINUOUS
 62
7
 10
-212.500000
 20
73.000000
 11
-212.500000
 21
85.000000
  0
LINE
  8
0
  6
CONTINUOUS
 62
7
 10
-212.500000
 20
82.564201
 11
-210.500000
 21
82.564201
  0
LINE
  8
0
  6
CONTINUOUS
 62
7
 10
-212.500000
 20
81.397903
 11
-210.500000
 21
81.397903
  0
LINE
  8
0
  6
CONTINUOUS
 62
7
 10
-212.500000
 20
76.602097
 11
-210.500000
 21
76.602097
  0
LINE
  8
0
  6
CONTINUOUS
 62
7
 10
-212.500000
 20
75.435898
 11
-210.500000
 21
75.435898
  0
LINE
  8
0
  6
CONTINUOUS
 62
2
 10
-205.800003
 20
75.699997
 11
-206.300003
 21
75.699997
  0
LINE
  8
0
  6
CONTINUOUS
 62
7
 10
-205.800003
 20
75.000000
 11
-206.300003
 21
75.000000
  0
LINE
  8
0
  6
CONTINUOUS
 62
2
 10
-205.800003
 20
82.300003
 11
-206.300003
 21
82.300003
  0
LINE
  8
0
  6
CONTINUOUS
 62
7
 10
-205.800003
 20
83.000000
 11
-206.300003
 21
83.000000
  0
LINE
  8
0
  6
CONTINUOUS
 62
7
 10
-230.800003
 20
75.000000
 11
-230.800003
 21
83.000000
  0
LINE
  8
0
  6
CONTINUOUS
 62
7
 10
-230.800003
 20
82.300003
 11
-231.800003
 21
82.300003
  0
LINE
  8
0
  6
CONTINUOUS
 62
7
 10
-231.800003
 20
79.750000
 11
-231.800003
 21
82.300003
  0
LINE
  8
0
  6
CONTINUOUS
 62
7
 10
-230.800003
 20
79.750000
 11
-231.800003
 21
79.750000
  0
LINE
  8
0
  6
CONTINUOUS
 62
7
 10
-230.800003
 20
78.250000
 11
-231.800003
 21
78.250000
  0
LINE
  8
0
  6
CONTINUOUS
 62
7
 10
-231.800003
 20
75.699997
 11
-231.800003
 21
78.250000
  0
LINE
  8
0
  6
CONTINUOUS
 62
7
 10
-230.800003
 20
75.699997
 11
-231.800003
 21
75.699997
  0
LINE
  8
0
  6
CONTINUOUS
 62
7
 10
-212.500000
 20
75.000000
 11
-230.800003
 21
75.000000
  0
LINE
  8
0
  6
CONTINUOUS
 62
2
 10
-212.500000
 20
75.699997
 11
-230.800003
 21
75.699997
  0
LINE
  8
0
  6
CONTINUOUS
 62
2
 10
-212.500000
 20
82.300003
 11
-230.800003
 21
82.300003
  0
LINE
  8
0
  6
CONTINUOUS
 62
7
 10
-199.800003
 20
83.000000
 11
-169.300003
 21
83.000000
  0
LINE
  8
0
  6
CONTINUOUS
 62
7
 10
-229.000000
 20
75.000000
 11
-229.000000
 21
72.500000
  0
LINE
  8
0
  6
CONTINUOUS
 62
7
 10
-170.000000
 20
74.000000
 11
-170.000000
 21
72.500000
  0
LINE
  8
0
  6
CONTINUOUS
 62
7
 10
-184.800003
 20
41.500099
 11
-184.800003
 21
50.500000
  0
LINE
  8
0
  6
CONTINUOUS
 62
7
 10
-169.300003
 20
50.500000
 11
-184.800003
 21
50.500000
  0
LINE
  8
0
  6
CONTINUOUS
 62
7
 10
-169.300003
 20
41.500099
 11
-169.300003
 21
53.500000
  0
LINE
  8
0
  6
CONTINUOUS
 62
7
 10
-210.500000
 20
42.000000
 11
-210.500000
 21
54.000000
  0
LINE
  8
0
  6
CONTINUOUS
 62
7
 10
-199.800003
 20
42.500000
 11
-199.800003
 21
53.500000
  0
LINE
  8
0
  6
CENTER
 62
2
 10
-232.800003
 20
48.000000
 11
-194.800003
 21
48.000000
  0
LINE
  8
0
  6
CONTINUOUS
 62
7
 10
-205.800003
 20
53.500000
 11
-199.800003
 21
53.500000
  0
LINE
  8
0
  6
CONTINUOUS
 62
7
 10
-205.800003
 20
42.500000
 11
-199.800003
 21
42.500000
  0
LINE
  8
0
  6
CONTINUOUS
 62
7
 10
-205.800003
 20
42.500000
 11
-205.800003
 21
53.500000
  0
LINE
  8
0
  6
CONTINUOUS
 62
7
 10
-199.800003
 20
47.000000
 11
-195.800003
 21
47.000000
  0
LINE
  8
0
  6
CONTINUOUS
 62
7
 10
-199.800003
 20
49.000099
 11
-195.800003
 21
49.000099
  0
LINE
  8
0
  6
CONTINUOUS
 62
7
 10
-195.800003
 20
47.000000
 11
-195.800003
 21
49.000099
  0
LINE
  8
0
  6
CONTINUOUS
 62
2
 10
-205.800003
 20
51.299999
 11
-206.300003
 21
51.299999
  0
LINE
  8
0
  6
CONTINUOUS
 62
7
 10
-205.800003
 20
44.000099
 11
-206.300003
 21
44.000099
  0
LINE
  8
0
  6
CONTINUOUS
 62
7
 10
-230.800003
 20
44.700001
 11
-231.800003
 21
44.700001
  0
LINE
  8
0
  6
CONTINUOUS
 62
7
 10
-205.800003
 20
52.000000
 11
-206.300003
 21
52.000000
  0
LINE
  8
0
  6
CONTINUOUS
 62
7
 10
-230.800003
 20
44.000099
 11
-230.800003
 21
52.000000
  0
LINE
  8
0
  6
CONTINUOUS
 62
7
 10
-231.800003
 20
44.700001
 11
-231.800003
 21
51.299999
  0
LINE
  8
0
  6
CONTINUOUS
 62
7
 10
-230.800003
 20
51.299999
 11
-231.800003
 21
51.299999
  0
LINE
  8
0
  6
CONTINUOUS
 62
2
 10
-205.800003
 20
44.700001
 11
-206.300003
 21
44.700001
  0
LINE
  8
0
  6
CONTINUOUS
 62
7
 10
-155.500000
 20
54.000000
 11
-210.500000
 21
54.000000
  0
LINE
  8
0
  6
CONTINUOUS
 62
7
 10
-206.300003
 20
42.000000
 11
-206.300003
 21
54.000000
  0
LINE
  8
0
  6
CONTINUOUS
 62
7
 10
-210.500000
 20
42.500000
 11
-212.500000
 21
42.500000
  0
LINE
  8
0
  6
CONTINUOUS
 62
7
 10
-212.500000
 20
53.500000
 11
-212.500000
 21
42.500000
  0
LINE
  8
0
  6
CONTINUOUS
 62
7
 10
-210.500000
 20
43.173401
 11
-212.500000
 21
43.173401
  0
LINE
  8
0
  6
CONTINUOUS
 62
7
 10
-210.500000
 20
47.326698
 11
-212.500000
 21
47.326698
  0
LINE
  8
0
  6
CONTINUOUS
 62
7
 10
-210.500000
 20
48.673401
 11
-212.500000
 21
48.673401
  0
LINE
  8
0
  6
CONTINUOUS
 62
7
 10
-210.500000
 20
52.826698
 11
-212.500000
 21
52.826698
  0
LINE
  8
0
  6
CONTINUOUS
 62
7
 10
-210.500000
 20
53.500000
 11
-212.500000
 21
53.500000
  0
LINE
  8
0
  6
CONTINUOUS
 62
7
 10
-212.500000
 20
44.000099
 11
-230.800003
 21
44.000099
  0
LINE
  8
0
  6
CONTINUOUS
 62
2
 10
-212.500000
 20
44.700001
 11
-230.800003
 21
44.700001
  0
LINE
  8
0
  6
CONTINUOUS
 62
2
 10
-212.500000
 20
51.299999
 11
-230.800003
 21
51.299999
  0
LINE
  8
0
  6
CONTINUOUS
 62
7
 10
-212.500000
 20
52.000000
 11
-230.800003
 21
52.000000
  0
LINE
  8
0
  6
CONTINUOUS
 62
7
 10
-221.000000
 20
44.000099
 11
-221.000000
 21
42.599998
  0
LINE
  8
0
  6
CONTINUOUS
 62
7
 10
-184.800003
 20
42.000000
 11
-211.350006
 21
42.000000
  0
LINE
  8
0
  6
CONTINUOUS
 62
7
 10
-210.500000
 20
-92.500000
 11
-210.500000
 21
-104.500000
  0
LINE
  8
0
  6
CENTER
 62
2
 10
-232.800003
 20
-98.500000
 11
-209.500000
 21
-98.500000
  0
LINE
  8
0
  6
CONTINUOUS
 62
7
 10
-210.500000
 20
-93.000000
 11
-212.500000
 21
-93.000000
  0
LINE
  8
0
  6
CONTINUOUS
 62
7
 10
-212.500000
 20
-104.000000
 11
-212.500000
 21
-93.000000
  0
LINE
  8
0
  6
CONTINUOUS
 62
7
 10
-210.500000
 20
-93.673302
 11
-212.500000
 21
-93.673302
  0
LINE
  8
0
  6
CONTINUOUS
 62
7
 10
-210.500000
 20
-97.826599
 11
-212.500000
 21
-97.826599
  0
LINE
  8
0
  6
CONTINUOUS
 62
7
 10
-210.500000
 20
-99.173302
 11
-212.500000
 21
-99.173302
  0
LINE
  8
0
  6
CONTINUOUS
 62
7
 10
-210.500000
 20
-103.327003
 11
-212.500000
 21
-103.327003
  0
LINE
  8
0
  6
CONTINUOUS
 62
7
 10
-210.500000
 20
-104.000000
 11
-212.500000
 21
-104.000000
  0
LINE
  8
0
  6
CONTINUOUS
 62
7
 10
-212.500000
 20
-94.500000
 11
-217.500000
 21
-94.500000
  0
LINE
  8
0
  6
CONTINUOUS
 62
2
 10
-212.500000
 20
-95.199997
 11
-217.500000
 21
-95.199997
  0
LINE
  8
0
  6
CONTINUOUS
 62
2
 10
-212.500000
 20
-101.800003
 11
-230.800003
 21
-101.800003
  0
LINE
  8
0
  6
CONTINUOUS
 62
7
 10
-212.500000
 20
-102.500000
 11
-230.800003
 21
-102.500000
  0
LINE
  8
0
  6
CONTINUOUS
 62
7
 10
-230.800003
 20
-95.199997
 11
-231.800003
 21
-95.199997
  0
LINE
  8
0
  6
CONTINUOUS
 62
7
 10
-230.800003
 20
-94.500000
 11
-230.800003
 21
-102.500000
  0
LINE
  8
0
  6
CONTINUOUS
 62
7
 10
-231.800003
 20
-95.199997
 11
-231.800003
 21
-101.800003
  0
LINE
  8
0
  6
CONTINUOUS
 62
7
 10
-230.800003
 20
-101.800003
 11
-231.800003
 21
-101.800003
  0
LINE
  8
0
  6
CONTINUOUS
 62
7
 10
-224.500000
 20
-94.500000
 11
-230.800003
 21
-94.500000
  0
LINE
  8
0
  6
CONTINUOUS
 62
2
 10
-224.500000
 20
-95.199997
 11
-230.800003
 21
-95.199997
  0
LINE
  8
0
  6
CENTER
 62
2
 10
190.000000
 20
74.500000
 11
190.000000
 21
70.500000
  0
LINE
  8
0
  6
CENTER
 62
2
 10
160.000000
 20
20.500000
 11
160.000000
 21
15.500000
  0
LINE
  8
0
  6
CENTER
 62
2
 10
157.500000
 20
18.000000
 11
162.500000
 21
18.000000
  0
LINE
  8
0
  6
CENTER
 62
2
 10
160.000000
 20
40.500000
 11
160.000000
 21
35.500000
  0
LINE
  8
0
  6
CENTER
 62
2
 10
157.500000
 20
38.000000
 11
162.500000
 21
38.000000
  0
LINE
  8
0
  6
CONTINUOUS
 62
7
 10
-27.500000
 20
92.000000
 11
42.500000
 21
92.000000
  0
LINE
  8
0
  6
CONTINUOUS
 62
7
 10
-27.500000
 20
92.000000
 11
-27.500000
 21
73.000000
  0
LINE
  8
0
  6
CONTINUOUS
 62
7
 10
-29.500000
 20
73.000000
 11
-23.299999
 21
73.000000
  0
LINE
  8
0
  6
CONTINUOUS
 62
7
 10
13.200000
 20
82.000000
 11
28.700001
 21
82.000000
  0
LINE
  8
0
  6
CONTINUOUS
 62
7
 10
28.700001
 20
74.000000
 11
28.700001
 21
82.000000
  0
LINE
  8
0
  6
CONTINUOUS
 62
7
 10
13.200000
 20
74.000000
 11
28.700001
 21
74.000000
  0
LINE
  8
0
  6
CONTINUOUS
 62
7
 10
13.200000
 20
74.000000
 11
13.200000
 21
82.000000
  0
LINE
  8
0
  6
CONTINUOUS
 62
7
 10
-21.799999
 20
85.000000
 11
36.799999
 21
85.000000
  0
LINE
  8
0
  6
CONTINUOUS
 62
7
 10
-22.799999
 20
84.500000
 11
-16.799999
 21
84.500000
  0
LINE
  8
0
  6
CONTINUOUS
 62
7
 10
-16.799999
 20
73.500000
 11
-16.799999
 21
84.500000
  0
LINE
  8
0
  6
CONTINUOUS
 62
7
 10
-16.799999
 20
80.000000
 11
-12.800000
 21
80.000000
  0
LINE
  8
0
  6
CONTINUOUS
 62
7
 10
-12.800000
 20
78.000000
 11
-12.800000
 21
80.000000
  0
LINE
  8
0
  6
CONTINUOUS
 62
7
 10
-16.799999
 20
78.000000
 11
-12.800000
 21
78.000000
  0
LINE
  8
0
  6
CENTER
 62
2
 10
-49.799999
 20
79.000000
 11
-11.800000
 21
79.000000
  0
LINE
  8
0
  6
CONTINUOUS
 62
7
 10
-22.799999
 20
73.500000
 11
-16.799999
 21
73.500000
  0
LINE
  8
0
  6
CONTINUOUS
 62
7
 10
-23.299999
 20
73.000000
 11
-23.299999
 21
83.500000
  0
LINE
  8
0
  6
CONTINUOUS
 62
7
 10
-22.799999
 20
73.500000
 11
-22.799999
 21
84.500000
  0
LINE
  8
0
  6
CONTINUOUS
 62
7
 10
-29.500000
 20
85.000000
 11
-27.500000
 21
85.000000
  0
LINE
  8
0
  6
CONTINUOUS
 62
7
 10
-29.500000
 20
73.000000
 11
-29.500000
 21
85.000000
  0
LINE
  8
0
  6
CONTINUOUS
 62
7
 10
-29.500000
 20
82.564201
 11
-27.500000
 21
82.564201
  0
LINE
  8
0
  6
CONTINUOUS
 62
7
 10
-29.500000
 20
81.397903
 11
-27.500000
 21
81.397903
  0
LINE
  8
0
  6
CONTINUOUS
 62
7
 10
-29.500000
 20
76.602097
 11
-27.500000
 21
76.602097
  0
LINE
  8
0
  6
CONTINUOUS
 62
7
 10
-29.500000
 20
75.435898
 11
-27.500000
 21
75.435898
  0
LINE
  8
0
  6
CONTINUOUS
 62
2
 10
-22.799999
 20
75.699997
 11
-23.299999
 21
75.699997
  0
LINE
  8
0
  6
CONTINUOUS
 62
7
 10
-22.799999
 20
75.000000
 11
-23.299999
 21
75.000000
  0
LINE
  8
0
  6
CONTINUOUS
 62
2
 10
-22.799999
 20
82.300003
 11
-23.299999
 21
82.300003
  0
LINE
  8
0
  6
CONTINUOUS
 62
7
 10
-22.799999
 20
83.000000
 11
-23.299999
 21
83.000000
  0
LINE
  8
0
  6
CONTINUOUS
 62
7
 10
-47.799999
 20
75.000000
 11
-47.799999
 21
83.000000
  0
LINE
  8
0
  6
CONTINUOUS
 62
7
 10
-47.799999
 20
82.300003
 11
-48.799999
 21
82.300003
  0
LINE
  8
0
  6
CONTINUOUS
 62
7
 10
-48.799999
 20
79.750000
 11
-48.799999
 21
82.300003
  0
LINE
  8
0
  6
CONTINUOUS
 62
7
 10
-47.799999
 20
79.750000
 11
-48.799999
 21
79.750000
  0
LINE
  8
0
  6
CONTINUOUS
 62
7
 10
-47.799999
 20
78.250000
 11
-48.799999
 21
78.250000
  0
LINE
  8
0
  6
CONTINUOUS
 62
7
 10
-48.799999
 20
75.699997
 11
-48.799999
 21
78.250000
  0
LINE
  8
0
  6
CONTINUOUS
 62
7
 10
-47.799999
 20
75.699997
 11
-48.799999
 21
75.699997
  0
LINE
  8
0
  6
CONTINUOUS
 62
7
 10
-29.500000
 20
75.000000
 11
-47.799999
 21
75.000000
  0
LINE
  8
0
  6
CONTINUOUS
 62
2
 10
-29.500000
 20
75.699997
 11
-47.799999
 21
75.699997
  0
LINE
  8
0
  6
CONTINUOUS
 62
2
 10
-29.500000
 20
82.300003
 11
-47.799999
 21
82.300003
  0
LINE
  8
0
  6
CONTINUOUS
 62
7
 10
-46.000000
 20
75.000000
 11
-46.000000
 21
72.500000
  0
LINE
  8
0
  6
CONTINUOUS
 62
7
 10
-16.799999
 20
83.000000
 11
28.700001
 21
83.000000
  0
LINE
  8
0
  6
CONTINUOUS
 62
7
 10
28.000000
 20
74.000000
 11
28.000000
 21
72.500000
  0
LINE
  8
0
  6
CONTINUOUS
 62
7
 10
-66.000000
 20
41.500000
 11
-66.000000
 21
35.000000
  0
LINE
  8
0
  6
CONTINUOUS
 62
7
 10
-66.300003
 20
34.700001
 11
-66.300003
 21
21.299999
  0
LINE
  8
0
  6
CONTINUOUS
 62
7
 10
-66.000000
 20
14.500000
 11
-66.000000
 21
21.000000
  0
LINE
  8
0
  6
CONTINUOUS
 62
7
 10
-66.000000
 20
14.500000
 11
-85.000000
 21
14.500000
  0
LINE
  8
0
  6
CONTINUOUS
 62
7
 10
-66.000000
 20
41.500000
 11
-85.000000
 21
41.500000
  0
LINE
  8
0
  6
CONTINUOUS
 62
7
 10
-66.000000
 20
35.000000
 11
-66.300003
 21
34.700001
  0
LINE
  8
0
  6
CONTINUOUS
 62
7
 10
-66.000000
 20
21.000000
 11
-66.300003
 21
21.299999
  0
LINE
  8
0
  6
CONTINUOUS
 62
7
 10
-76.500000
 20
14.000000
 11
-76.500000
 21
14.500000
  0
LINE
  8
0
  6
CONTINUOUS
 62
7
 10
-86.000000
 20
14.000000
 11
-86.000000
 21
42.000000
  0
LINE
  8
0
  6
CONTINUOUS
 62
7
 10
-76.500000
 20
14.000000
 11
-86.000000
 21
14.000000
  0
LINE
  8
0
  6
CONTINUOUS
 62
7
 10
-85.000000
 20
14.500000
 11
-85.000000
 21
41.500000
  0
LINE
  8
0
  6
CONTINUOUS
 62
7
 10
-66.500000
 20
41.500000
 11
-66.500000
 21
14.500000
  0
LINE
  8
0
  6
CONTINUOUS
 62
7
 10
-66.500000
 20
42.000000
 11
-86.000000
 21
42.000000
  0
LINE
  8
0
  6
CONTINUOUS
 62
7
 10
-76.500000
 20
42.000000
 11
-76.500000
 21
41.500000
  0
LINE
  8
0
  6
CONTINUOUS
 62
7
 10
-84.541397
 20
45.500000
 11
-84.541397
 21
42.599998
  0
LINE
  8
0
  6
CONTINUOUS
 62
7
 10
-82.520699
 20
45.500000
 11
-82.520699
 21
42.599998
  0
LINE
  8
0
  6
CONTINUOUS
 62
7
 10
-78.479301
 20
45.500000
 11
-78.479301
 21
42.599998
  0
LINE
  8
0
  6
CONTINUOUS
 62
7
 10
-76.458504
 20
45.500000
 11
-84.541397
 21
45.500000
  0
LINE
  8
0
  6
CONTINUOUS
 62
7
 10
-76.458504
 20
45.500000
 11
-76.458504
 21
42.599998
  0
LINE
  8
0
  6
CONTINUOUS
 62
7
 10
-76.458504
 20
42.599998
 11
-84.541397
 21
42.599998
  0
LINE
  8
0
  6
CONTINUOUS
 62
7
 10
-76.599998
 20
42.599998
 11
-76.599998
 21
42.000000
  0
LINE
  8
0
  6
CONTINUOUS
 62
7
 10
-84.400002
 20
42.599998
 11
-84.400002
 21
42.000000
  0
LINE
  8
0
  6
CENTER
 62
2
 10
-79.000000
 20
41.000000
 11
-79.000000
 21
15.000000
  0
LINE
  8
0
  6
CENTER
 62
2
 10
-87.000000
 20
28.000000
 11
-65.000000
 21
28.000000
  0
LINE
  8
0
  6
CENTER
 62
2
 10
-70.000000
 20
31.000000
 11
-70.000000
 21
25.000000
  0
LINE
  8
0
  6
CENTER
 62
2
 10
-82.000000
 20
38.000000
 11
-66.000000
 21
38.000000
  0
LINE
  8
0
  6
CENTER
 62
2
 10
-70.000000
 20
42.000000
 11
-70.000000
 21
34.000000
  0
LINE
  8
0
  6
CENTER
 62
2
 10
-82.000000
 20
18.000000
 11
-66.000000
 21
18.000000
  0
LINE
  8
0
  6
CENTER
 62
2
 10
-70.000000
 20
22.000000
 11
-70.000000
 21
14.000000
  0
LINE
  8
0
  6
CENTER
 62
2
 10
-80.500000
 20
46.500000
 11
-80.500000
 21
41.000000
  0
LINE
  8
0
  6
CONTINUOUS
 62
7
 10
-75.500000
 20
42.000000
 11
-75.500000
 21
41.500000
  0
LINE
  8
0
  6
CONTINUOUS
 62
7
 10
-67.500000
 20
42.000000
 11
-67.500000
 21
41.500000
  0
LINE
  8
0
  6
CONTINUOUS
 62
7
 10
-85.500000
 20
54.000000
 11
-85.500000
 21
42.000000
  0
LINE
  8
0
  6
CONTINUOUS
 62
7
 10
-66.500000
 20
54.000000
 11
-66.500000
 21
42.000000
  0
LINE
  8
0
  6
CONTINUOUS
 62
7
 10
-85.500000
 20
54.000000
 11
-66.500000
 21
54.000000
  0
LINE
  8
0
  6
CONTINUOUS
 62
7
 10
-78.462097
 20
47.326698
 11
-77.407501
 21
45.500099
  0
LINE
  8
0
  6
CONTINUOUS
 62
7
 10
-76.064201
 20
52.826599
 11
-78.462097
 21
48.673302
  0
LINE
  8
0
  6
CONTINUOUS
 62
7
 10
-70.102097
 20
53.500000
 11
-74.897903
 21
53.500000
  0
LINE
  8
0
  6
CONTINUOUS
 62
7
 10
-66.537903
 20
48.673401
 11
-68.935799
 21
52.826698
  0
LINE
  8
0
  6
CONTINUOUS
 62
7
 10
-68.935799
 20
43.173302
 11
-66.537903
 21
47.326599
  0
LINE
  8
0
  6
CONTINUOUS
 62
7
 10
-70.102097
 20
42.500000
 11
-74.897903
 21
42.500000
  0
LINE
  8
0
  6
CONTINUOUS
 62
7
 10
-73.250000
 20
46.363701
 11
-73.250000
 21
44.070999
  0
LINE
  8
0
  6
CONTINUOUS
 62
7
 10
-71.750000
 20
46.363701
 11
-71.750000
 21
44.070999
  0
LINE
  8
0
  6
CONTINUOUS
 62
7
 10
-71.750000
 20
51.929100
 11
-71.750000
 21
49.636299
  0
LINE
  8
0
  6
CONTINUOUS
 62
7
 10
-73.250000
 20
51.929100
 11
-73.250000
 21
49.636299
  0
LINE
  8
0
  6
CENTER
 62
2
 10
-65.500000
 20
48.000000
 11
-79.500000
 21
48.000000
  0
LINE
  8
0
  6
CENTER
 62
2
 10
-72.500000
 20
41.000000
 11
-72.500000
 21
55.000000
  0
LINE
  8
0
  6
CONTINUOUS
 62
7
 10
-76.458504
 20
43.856499
 11
-76.064201
 21
43.173401
  0
LINE
  8
0
  6
CONTINUOUS
 62
7
 10
-251.000000
 20
41.500000
 11
-251.000000
 21
35.000000
  0
LINE
  8
0
  6
CONTINUOUS
 62
7
 10
-251.300003
 20
34.700001
 11
-251.300003
 21
21.299999
  0
LINE
  8
0
  6
CONTINUOUS
 62
7
 10
-251.000000
 20
14.500000
 11
-251.000000
 21
21.000000
  0
LINE
  8
0
  6
CONTINUOUS
 62
7
 10
-251.000000
 20
14.500000
 11
-270.000000
 21
14.500000
  0
LINE
  8
0
  6
CONTINUOUS
 62
7
 10
-251.000000
 20
41.500000
 11
-270.000000
 21
41.500000
  0
LINE
  8
0
  6
CONTINUOUS
 62
7
 10
-251.000000
 20
35.000000
 11
-251.300003
 21
34.700001
  0
LINE
  8
0
  6
CONTINUOUS
 62
7
 10
-251.000000
 20
21.000099
 11
-251.300003
 21
21.300100
  0
LINE
  8
0
  6
CONTINUOUS
 62
7
 10
-261.500000
 20
14.000000
 11
-261.500000
 21
14.500000
  0
LINE
  8
0
  6
CONTINUOUS
 62
7
 10
-271.000000
 20
14.000000
 11
-271.000000
 21
42.000000
  0
LINE
  8
0
  6
CONTINUOUS
 62
7
 10
-261.500000
 20
14.000000
 11
-271.000000
 21
14.000000
  0
LINE
  8
0
  6
CONTINUOUS
 62
7
 10
-270.000000
 20
14.500000
 11
-270.000000
 21
41.500000
  0
LINE
  8
0
  6
CONTINUOUS
 62
7
 10
-251.500000
 20
41.500000
 11
-251.500000
 21
14.500000
  0
LINE
  8
0
  6
CONTINUOUS
 62
7
 10
-251.500000
 20
42.000000
 11
-271.000000
 21
42.000000
  0
LINE
  8
0
  6
CONTINUOUS
 62
7
 10
-261.500000
 20
42.000000
 11
-261.500000
 21
41.500000
  0
LINE
  8
0
  6
CONTINUOUS
 62
7
 10
-269.540985
 20
45.500000
 11
-269.540985
 21
42.599998
  0
LINE
  8
0
  6
CONTINUOUS
 62
7
 10
-267.520996
 20
45.500000
 11
-267.520996
 21
42.599998
  0
LINE
  8
0
  6
CONTINUOUS
 62
7
 10
-263.479004
 20
45.500000
 11
-263.479004
 21
42.599998
  0
LINE
  8
0
  6
CONTINUOUS
 62
7
 10
-261.459015
 20
45.500000
 11
-269.540985
 21
45.500000
  0
LINE
  8
0
  6
CONTINUOUS
 62
7
 10
-261.459015
 20
45.500000
 11
-261.459015
 21
42.599998
  0
LINE
  8
0
  6
CONTINUOUS
 62
7
 10
-261.459015
 20
42.599998
 11
-269.540985
 21
42.599998
  0
LINE
  8
0
  6
CONTINUOUS
 62
7
 10
-261.600006
 20
42.599998
 11
-261.600006
 21
42.000000
  0
LINE
  8
0
  6
CONTINUOUS
 62
7
 10
-269.399994
 20
42.599998
 11
-269.399994
 21
42.000000
  0
LINE
  8
0
  6
CENTER
 62
2
 10
-264.000000
 20
41.000000
 11
-264.000000
 21
15.000000
  0
LINE
  8
0
  6
CENTER
 62
2
 10
-272.000000
 20
28.000000
 11
-250.000000
 21
28.000000
  0
LINE
  8
0
  6
CENTER
 62
2
 10
-255.000000
 20
31.000000
 11
-255.000000
 21
25.000000
  0
LINE
  8
0
  6
CENTER
 62
2
 10
-267.000000
 20
38.000000
 11
-251.000000
 21
38.000000
  0
LINE
  8
0
  6
CENTER
 62
2
 10
-255.000000
 20
42.000000
 11
-255.000000
 21
34.000000
  0
LINE
  8
0
  6
CENTER
 62
2
 10
-267.000000
 20
18.000000
 11
-251.000000
 21
18.000000
  0
LINE
  8
0
  6
CENTER
 62
2
 10
-255.000000
 20
22.000000
 11
-255.000000
 21
14.000000
  0
LINE
  8
0
  6
CENTER
 62
2
 10
-265.500000
 20
46.500000
 11
-265.500000
 21
41.000000
  0
LINE
  8
0
  6
CONTINUOUS
 62
7
 10
-260.500000
 20
42.000000
 11
-260.500000
 21
41.500099
  0
LINE
  8
0
  6
CONTINUOUS
 62
7
 10
-252.500000
 20
42.000000
 11
-252.500000
 21
41.500099
  0
LINE
  8
0
  6
CONTINUOUS
 62
7
 10
-270.500000
 20
54.000000
 11
-270.500000
 21
42.000000
  0
LINE
  8
0
  6
CONTINUOUS
 62
7
 10
-251.500000
 20
54.000000
 11
-251.500000
 21
42.000000
  0
LINE
  8
0
  6
CONTINUOUS
 62
7
 10
-270.500000
 20
54.000000
 11
-251.500000
 21
54.000000
  0
LINE
  8
0
  6
CONTINUOUS
 62
7
 10
-263.462006
 20
47.326698
 11
-262.407990
 21
45.500099
  0
LINE
  8
0
  6
CONTINUOUS
 62
7
 10
-261.063995
 20
52.826698
 11
-263.462006
 21
48.673302
  0
LINE
  8
0
  6
CONTINUOUS
 62
7
 10
-255.102005
 20
53.500000
 11
-259.898010
 21
53.500000
  0
LINE
  8
0
  6
CONTINUOUS
 62
7
 10
-251.537994
 20
48.673401
 11
-253.936005
 21
52.826698
  0
LINE
  8
0
  6
CONTINUOUS
 62
7
 10
-253.936005
 20
43.173302
 11
-251.537994
 21
47.326599
  0
LINE
  8
0
  6
CONTINUOUS
 62
7
 10
-255.102005
 20
42.500000
 11
-259.898010
 21
42.500000
  0
LINE
  8
0
  6
CONTINUOUS
 62
7
 10
-258.250000
 20
46.363701
 11
-258.250000
 21
44.070999
  0
LINE
  8
0
  6
CONTINUOUS
 62
7
 10
-256.750000
 20
46.363701
 11
-256.750000
 21
44.070999
  0
LINE
  8
0
  6
CONTINUOUS
 62
7
 10
-256.750000
 20
51.929100
 11
-256.750000
 21
49.636299
  0
LINE
  8
0
  6
CONTINUOUS
 62
7
 10
-258.250000
 20
51.929100
 11
-258.250000
 21
49.636299
  0
LINE
  8
0
  6
CENTER
 62
2
 10
-250.500000
 20
48.000000
 11
-264.500000
 21
48.000000
  0
LINE
  8
0
  6
CENTER
 62
2
 10
-257.500000
 20
41.000000
 11
-257.500000
 21
55.000000
  0
LINE
  8
0
  6
CONTINUOUS
 62
7
 10
71.792900
 20
48.707199
 11
73.207100
 21
47.292900
  0
LINE
  8
0
  6
CONTINUOUS
 62
7
 10
-261.459015
 20
43.856400
 11
-261.063995
 21
43.173401
  0
LINE
  8
0
  6
CONTINUOUS
 62
7
 10
269.500000
 20
14.000000
 11
279.000000
 21
14.000000
  0
LINE
  8
0
  6
CENTER
 62
2
 10
272.000000
 20
34.400002
 11
272.000000
 21
21.600000
  0
LINE
  8
0
  6
CENTER
 62
2
 10
258.000000
 20
28.000000
 11
280.000000
 21
28.000000
  0
LINE
  8
0
  6
CONTINUOUS
 62
7
 10
263.500000
 20
34.000000
 11
263.500000
 21
22.000000
  0
LINE
  8
0
  6
CONTINUOUS
 62
7
 10
266.709015
 20
34.000000
 11
269.500000
 21
34.000000
  0
LINE
  8
0
  6
CONTINUOUS
 62
7
 10
263.500000
 20
34.000000
 11
264.290985
 21
34.000000
  0
LINE
  8
0
  6
CONTINUOUS
 62
7
 10
266.709015
 20
22.000000
 11
269.500000
 21
22.000000
  0
LINE
  8
0
  6
CONTINUOUS
 62
7
 10
263.500000
 20
22.000000
 11
264.290985
 21
22.000000
  0
LINE
  8
0
  6
CONTINUOUS
 62
7
 10
269.500000
 20
14.000000
 11
269.500000
 21
22.000000
  0
LINE
  8
0
  6
CONTINUOUS
 62
7
 10
279.000000
 20
14.000000
 11
279.000000
 21
42.000000
  0
LINE
  8
0
  6
CONTINUOUS
 62
7
 10
269.500000
 20
42.000000
 11
269.500000
 21
34.000000
  0
LINE
  8
0
  6
CONTINUOUS
 62
7
 10
259.299988
 20
34.700001
 11
259.299988
 21
21.299999
  0
LINE
  8
0
  6
CONTINUOUS
 62
7
 10
259.000000
 20
14.500000
 11
259.000000
 21
21.000000
  0
LINE
  8
0
  6
CONTINUOUS
 62
7
 10
259.000000
 20
14.500000
 11
269.500000
 21
14.500000
  0
LINE
  8
0
  6
CONTINUOUS
 62
7
 10
269.000000
 20
14.500000
 11
269.000000
 21
22.000000
  0
LINE
  8
0
  6
CONTINUOUS
 62
7
 10
259.000000
 20
21.000099
 11
259.299988
 21
21.300100
  0
LINE
  8
0
  6
CONTINUOUS
 62
7
 10
259.000000
 20
41.500000
 11
259.000000
 21
35.000000
  0
LINE
  8
0
  6
CONTINUOUS
 62
7
 10
259.000000
 20
34.999901
 11
259.299988
 21
34.699902
  0
LINE
  8
0
  6
CONTINUOUS
 62
7
 10
269.000000
 20
41.500000
 11
269.000000
 21
34.000000
  0
LINE
  8
0
  6
CONTINUOUS
 62
7
 10
259.000000
 20
41.500000
 11
269.500000
 21
41.500000
  0
LINE
  8
0
  6
CENTER
 62
2
 10
277.000000
 20
38.500000
 11
281.000000
 21
38.500000
  0
LINE
  8
0
  6
CENTER
 62
2
 10
277.000000
 20
17.500000
 11
281.000000
 21
17.500000
  0
LINE
  8
0
  6
CENTER
 62
2
 10
257.000000
 20
38.000000
 11
261.000000
 21
38.000000
  0
LINE
  8
0
  6
CENTER
 62
2
 10
257.000000
 20
18.000000
 11
261.000000
 21
18.000000
  0
LINE
  8
0
  6
CONTINUOUS
 62
7
 10
268.500000
 20
42.000000
 11
268.500000
 21
41.500000
  0
LINE
  8
0
  6
CONTINUOUS
 62
7
 10
260.500000
 20
42.000000
 11
260.500000
 21
41.500099
  0
LINE
  8
0
  6
CONTINUOUS
 62
7
 10
259.500000
 20
54.000000
 11
259.500000
 21
42.000000
  0
LINE
  8
0
  6
CONTINUOUS
 62
7
 10
278.500000
 20
54.000000
 11
259.500000
 21
54.000000
  0
LINE
  8
0
  6
CONTINUOUS
 62
7
 10
278.500000
 20
54.000000
 11
278.500000
 21
42.000000
  0
LINE
  8
0
  6
CENTER
 62
2
 10
265.500000
 20
41.000000
 11
265.500000
 21
55.000000
  0
LINE
  8
0
  6
CENTER
 62
2
 10
258.500000
 20
48.000000
 11
272.500000
 21
48.000000
  0
LINE
  8
0
  6
CONTINUOUS
 62
7
 10
259.500000
 20
42.000000
 11
279.000000
 21
42.000000
  0
LINE
  8
0
  6
CONTINUOUS
 62
7
 10
13.200000
 20
41.500000
 11
13.200000
 21
50.500000
  0
LINE
  8
0
  6
CONTINUOUS
 62
7
 10
28.700001
 20
50.500000
 11
13.200000
 21
50.500000
  0
LINE
  8
0
  6
CONTINUOUS
 62
7
 10
28.700001
 20
41.500000
 11
28.700001
 21
53.500000
  0
LINE
  8
0
  6
CONTINUOUS
 62
7
 10
-27.500000
 20
42.000000
 11
-27.500000
 21
54.000000
  0
LINE
  8
0
  6
CONTINUOUS
 62
7
 10
-16.799999
 20
42.500000
 11
-16.799999
 21
53.500000
  0
LINE
  8
0
  6
CENTER
 62
2
 10
-49.799999
 20
48.000000
 11
-11.800000
 21
48.000000
  0
LINE
  8
0
  6
CONTINUOUS
 62
7
 10
-22.799999
 20
53.500000
 11
-16.799999
 21
53.500000
  0
LINE
  8
0
  6
CONTINUOUS
 62
7
 10
-22.799999
 20
42.500000
 11
-16.799999
 21
42.500000
  0
LINE
  8
0
  6
CONTINUOUS
 62
7
 10
-22.799999
 20
42.500000
 11
-22.799999
 21
53.500000
  0
LINE
  8
0
  6
CONTINUOUS
 62
7
 10
-16.799999
 20
47.000000
 11
-12.800000
 21
47.000000
  0
LINE
  8
0
  6
CONTINUOUS
 62
7
 10
-16.799999
 20
49.000000
 11
-12.800000
 21
49.000000
  0
LINE
  8
0
  6
CONTINUOUS
 62
7
 10
-12.800000
 20
47.000000
 11
-12.800000
 21
49.000000
  0
LINE
  8
0
  6
CONTINUOUS
 62
2
 10
-22.799999
 20
51.299999
 11
-23.299999
 21
51.299999
  0
LINE
  8
0
  6
CONTINUOUS
 62
7
 10
-22.799999
 20
44.000000
 11
-23.299999
 21
44.000000
  0
LINE
  8
0
  6
CONTINUOUS
 62
7
 10
-47.799999
 20
44.700001
 11
-48.799999
 21
44.700001
  0
LINE
  8
0
  6
CONTINUOUS
 62
7
 10
-22.799999
 20
52.000000
 11
-23.299999
 21
52.000000
  0
LINE
  8
0
  6
CONTINUOUS
 62
7
 10
-47.799999
 20
44.000000
 11
-47.799999
 21
52.000000
  0
LINE
  8
0
  6
CONTINUOUS
 62
7
 10
-48.799999
 20
44.700001
 11
-48.799999
 21
51.299999
  0
LINE
  8
0
  6
CONTINUOUS
 62
7
 10
-47.799999
 20
51.299999
 11
-48.799999
 21
51.299999
  0
LINE
  8
0
  6
CONTINUOUS
 62
2
 10
-22.799999
 20
44.700001
 11
-23.299999
 21
44.700001
  0
LINE
  8
0
  6
CONTINUOUS
 62
7
 10
42.500000
 20
54.000000
 11
-27.500000
 21
54.000000
  0
LINE
  8
0
  6
CONTINUOUS
 62
7
 10
-23.299999
 20
42.000000
 11
-23.299999
 21
54.000000
  0
LINE
  8
0
  6
CONTINUOUS
 62
7
 10
-27.500000
 20
42.500000
 11
-29.500000
 21
42.500000
  0
LINE
  8
0
  6
CONTINUOUS
 62
7
 10
-29.500000
 20
53.500000
 11
-29.500000
 21
42.500000
  0
LINE
  8
0
  6
CONTINUOUS
 62
7
 10
-27.500000
 20
43.173401
 11
-29.500000
 21
43.173401
  0
LINE
  8
0
  6
CONTINUOUS
 62
7
 10
-27.500000
 20
47.326698
 11
-29.500000
 21
47.326698
  0
LINE
  8
0
  6
CONTINUOUS
 62
7
 10
-27.500000
 20
48.673401
 11
-29.500000
 21
48.673401
  0
LINE
  8
0
  6
CONTINUOUS
 62
7
 10
-27.500000
 20
52.826698
 11
-29.500000
 21
52.826698
  0
LINE
  8
0
  6
CONTINUOUS
 62
7
 10
-27.500000
 20
53.500000
 11
-29.500000
 21
53.500000
  0
LINE
  8
0
  6
CONTINUOUS
 62
7
 10
-29.500000
 20
44.000000
 11
-47.799999
 21
44.000000
  0
LINE
  8
0
  6
CONTINUOUS
 62
2
 10
-29.500000
 20
44.700001
 11
-47.799999
 21
44.700001
  0
LINE
  8
0
  6
CONTINUOUS
 62
2
 10
-29.500000
 20
51.299999
 11
-47.799999
 21
51.299999
  0
LINE
  8
0
  6
CONTINUOUS
 62
7
 10
-29.500000
 20
52.000000
 11
-47.799999
 21
52.000000
  0
LINE
  8
0
  6
CONTINUOUS
 62
7
 10
13.200000
 20
42.000000
 11
-28.350000
 21
42.000000
  0
LINE
  8
0
  6
CONTINUOUS
 62
7
 10
-38.000000
 20
44.000000
 11
-38.000000
 21
42.599998
  0
LINE
  8
0
  6
CONTINUOUS
 62
7
 10
-27.500000
 20
-92.500000
 11
-27.500000
 21
-104.500000
  0
LINE
  8
0
  6
CENTER
 62
2
 10
-49.799999
 20
-98.500000
 11
-26.500000
 21
-98.500000
  0
LINE
  8
0
  6
CONTINUOUS
 62
7
 10
42.500000
 20
-104.500000
 11
-27.500000
 21
-104.500000
  0
LINE
  8
0
  6
CONTINUOUS
 62
7
 10
-27.500000
 20
-93.000000
 11
-29.500000
 21
-93.000000
  0
LINE
  8
0
  6
CONTINUOUS
 62
7
 10
-29.500000
 20
-104.000000
 11
-29.500000
 21
-93.000000
  0
LINE
  8
0
  6
CONTINUOUS
 62
7
 10
-27.500000
 20
-93.673302
 11
-29.500000
 21
-93.673302
  0
LINE
  8
0
  6
CONTINUOUS
 62
7
 10
-27.500000
 20
-97.826599
 11
-29.500000
 21
-97.826599
  0
LINE
  8
0
  6
CONTINUOUS
 62
7
 10
-27.500000
 20
-99.173302
 11
-29.500000
 21
-99.173302
  0
LINE
  8
0
  6
CONTINUOUS
 62
7
 10
-27.500000
 20
-103.327003
 11
-29.500000
 21
-103.327003
  0
LINE
  8
0
  6
CONTINUOUS
 62
7
 10
-27.500000
 20
-104.000000
 11
-29.500000
 21
-104.000000
  0
LINE
  8
0
  6
CONTINUOUS
 62
7
 10
-29.500000
 20
-94.500000
 11
-34.500000
 21
-94.500000
  0
LINE
  8
0
  6
CONTINUOUS
 62
2
 10
-29.500000
 20
-95.199997
 11
-34.500000
 21
-95.199997
  0
LINE
  8
0
  6
CONTINUOUS
 62
2
 10
-29.500000
 20
-101.800003
 11
-47.799999
 21
-101.800003
  0
LINE
  8
0
  6
CONTINUOUS
 62
7
 10
-29.500000
 20
-102.500000
 11
-47.799999
 21
-102.500000
  0
LINE
  8
0
  6
CONTINUOUS
 62
7
 10
-47.799999
 20
-95.199997
 11
-48.799999
 21
-95.199997
  0
LINE
  8
0
  6
CONTINUOUS
 62
7
 10
-47.799999
 20
-94.500000
 11
-47.799999
 21
-102.500000
  0
LINE
  8
0
  6
CONTINUOUS
 62
7
 10
-48.799999
 20
-95.199997
 11
-48.799999
 21
-101.800003
  0
LINE
  8
0
  6
CONTINUOUS
 62
7
 10
-47.799999
 20
-101.800003
 11
-48.799999
 21
-101.800003
  0
LINE
  8
0
  6
CONTINUOUS
 62
7
 10
-41.500000
 20
-94.500000
 11
-47.799999
 21
-94.500000
  0
LINE
  8
0
  6
CONTINUOUS
 62
2
 10
-41.500000
 20
-95.199997
 11
-47.799999
 21
-95.199997
  0
LINE
  8
0
  6
CONTINUOUS
 62
7
 10
-155.500000
 20
42.000000
 11
-169.300003
 21
42.000000
  0
LINE
  8
0
  6
CONTINUOUS
 62
7
 10
-163.300003
 20
42.500000
 11
-163.300003
 21
53.500000
  0
LINE
  8
0
  6
CONTINUOUS
 62
7
 10
-169.300003
 20
53.500000
 11
-163.300003
 21
53.500000
  0
LINE
  8
0
  6
CONTINUOUS
 62
7
 10
-169.300003
 20
42.500000
 11
-163.300003
 21
42.500000
  0
LINE
  8
0
  6
CONTINUOUS
 62
7
 10
-163.300003
 20
52.000000
 11
-159.699997
 21
52.000000
  0
LINE
  8
0
  6
CONTINUOUS
 62
7
 10
-163.300003
 20
44.000099
 11
-159.699997
 21
44.000099
  0
LINE
  8
0
  6
CENTER
 62
2
 10
-170.300003
 20
48.000000
 11
-136.300003
 21
48.000000
  0
LINE
  8
0
  6
CONTINUOUS
 62
2
 10
-163.300003
 20
44.700001
 11
-159.699997
 21
44.700001
  0
LINE
  8
0
  6
CONTINUOUS
 62
7
 10
-153.500000
 20
52.000000
 11
-138.300003
 21
52.000000
  0
LINE
  8
0
  6
CONTINUOUS
 62
7
 10
-138.300003
 20
51.299999
 11
-137.300003
 21
51.299999
  0
LINE
  8
0
  6
CONTINUOUS
 62
7
 10
-153.500000
 20
44.000099
 11
-138.300003
 21
44.000099
  0
LINE
  8
0
  6
CONTINUOUS
 62
7
 10
-138.300003
 20
52.000000
 11
-138.300003
 21
44.000099
  0
LINE
  8
0
  6
CONTINUOUS
 62
7
 10
-137.300003
 20
51.299999
 11
-137.300003
 21
44.700001
  0
LINE
  8
0
  6
CONTINUOUS
 62
7
 10
-138.300003
 20
44.700001
 11
-137.300003
 21
44.700001
  0
LINE
  8
0
  6
CONTINUOUS
 62
2
 10
-163.300003
 20
51.299999
 11
-159.699997
 21
51.299999
  0
LINE
  8
0
  6
CONTINUOUS
 62
7
 10
-155.500000
 20
54.000000
 11
-155.500000
 21
42.000000
  0
LINE
  8
0
  6
CONTINUOUS
 62
7
 10
-159.699997
 20
54.000000
 11
-159.699997
 21
42.000000
  0
LINE
  8
0
  6
CONTINUOUS
 62
7
 10
-155.500000
 20
53.500000
 11
-153.500000
 21
53.500000
  0
LINE
  8
0
  6
CONTINUOUS
 62
7
 10
-153.500000
 20
42.500000
 11
-153.500000
 21
53.500000
  0
LINE
  8
0
  6
CONTINUOUS
 62
7
 10
-155.500000
 20
52.826698
 11
-153.500000
 21
52.826698
  0
LINE
  8
0
  6
CONTINUOUS
 62
7
 10
-155.500000
 20
48.673401
 11
-153.500000
 21
48.673401
  0
LINE
  8
0
  6
CONTINUOUS
 62
7
 10
-155.500000
 20
47.326698
 11
-153.500000
 21
47.326698
  0
LINE
  8
0
  6
CONTINUOUS
 62
7
 10
-155.500000
 20
43.173401
 11
-153.500000
 21
43.173401
  0
LINE
  8
0
  6
CONTINUOUS
 62
7
 10
-155.500000
 20
42.500000
 11
-153.500000
 21
42.500000
  0
LINE
  8
0
  6
CONTINUOUS
 62
2
 10
-153.500000
 20
44.700001
 11
-138.300003
 21
44.700001
  0
LINE
  8
0
  6
CONTINUOUS
 62
2
 10
-153.500000
 20
51.299999
 11
-138.300003
 21
51.299999
  0
LINE
  8
0
  6
CONTINUOUS
 62
7
 10
236.500000
 20
42.000000
 11
222.699997
 21
42.000000
  0
LINE
  8
0
  6
CONTINUOUS
 62
7
 10
228.699997
 20
42.500000
 11
228.699997
 21
53.500000
  0
LINE
  8
0
  6
CONTINUOUS
 62
7
 10
222.699997
 20
53.500000
 11
228.699997
 21
53.500000
  0
LINE
  8
0
  6
CONTINUOUS
 62
7
 10
222.699997
 20
42.500000
 11
228.699997
 21
42.500000
  0
LINE
  8
0
  6
CONTINUOUS
 62
7
 10
228.699997
 20
52.000000
 11
232.300003
 21
52.000000
  0
LINE
  8
0
  6
CONTINUOUS
 62
7
 10
228.699997
 20
44.000099
 11
232.300003
 21
44.000099
  0
LINE
  8
0
  6
CENTER
 62
2
 10
221.699997
 20
48.000000
 11
255.699997
 21
48.000000
  0
LINE
  8
0
  6
CONTINUOUS
 62
2
 10
228.699997
 20
44.700001
 11
232.300003
 21
44.700001
  0
LINE
  8
0
  6
CONTINUOUS
 62
7
 10
238.500000
 20
52.000000
 11
253.699997
 21
52.000000
  0
LINE
  8
0
  6
CONTINUOUS
 62
7
 10
253.699997
 20
51.299999
 11
254.699997
 21
51.299999
  0
LINE
  8
0
  6
CONTINUOUS
 62
7
 10
238.500000
 20
44.000099
 11
253.699997
 21
44.000099
  0
LINE
  8
0
  6
CONTINUOUS
 62
7
 10
253.699997
 20
52.000000
 11
253.699997
 21
44.000099
  0
LINE
  8
0
  6
CONTINUOUS
 62
7
 10
254.699997
 20
51.299999
 11
254.699997
 21
44.700001
  0
LINE
  8
0
  6
CONTINUOUS
 62
7
 10
253.699997
 20
44.700001
 11
254.699997
 21
44.700001
  0
LINE
  8
0
  6
CONTINUOUS
 62
2
 10
228.699997
 20
51.299999
 11
232.300003
 21
51.299999
  0
LINE
  8
0
  6
CONTINUOUS
 62
7
 10
236.500000
 20
54.000000
 11
236.500000
 21
42.000000
  0
LINE
  8
0
  6
CONTINUOUS
 62
7
 10
232.300003
 20
54.000000
 11
232.300003
 21
42.000000
  0
LINE
  8
0
  6
CONTINUOUS
 62
7
 10
236.500000
 20
53.500000
 11
238.500000
 21
53.500000
  0
LINE
  8
0
  6
CONTINUOUS
 62
7
 10
238.500000
 20
42.500000
 11
238.500000
 21
53.500000
  0
LINE
  8
0
  6
CONTINUOUS
 62
7
 10
236.500000
 20
52.826698
 11
238.500000
 21
52.826698
  0
LINE
  8
0
  6
CONTINUOUS
 62
7
 10
236.500000
 20
48.673401
 11
238.500000
 21
48.673401
  0
LINE
  8
0
  6
CONTINUOUS
 62
7
 10
236.500000
 20
47.326698
 11
238.500000
 21
47.326698
  0
LINE
  8
0
  6
CONTINUOUS
 62
7
 10
236.500000
 20
43.173401
 11
238.500000
 21
43.173401
  0
LINE
  8
0
  6
CONTINUOUS
 62
7
 10
236.500000
 20
42.500000
 11
238.500000
 21
42.500000
  0
LINE
  8
0
  6
CONTINUOUS
 62
2
 10
238.500000
 20
44.700001
 11
253.699997
 21
44.700001
  0
LINE
  8
0
  6
CONTINUOUS
 62
2
 10
238.500000
 20
51.299999
 11
253.699997
 21
51.299999
  0
LINE
  8
0
  6
CONTINUOUS
 62
7
 10
42.500000
 20
42.000000
 11
28.700001
 21
42.000000
  0
LINE
  8
0
  6
CONTINUOUS
 62
7
 10
34.700001
 20
42.500000
 11
34.700001
 21
53.500000
  0
LINE
  8
0
  6
CONTINUOUS
 62
7
 10
28.700001
 20
53.500000
 11
34.700001
 21
53.500000
  0
LINE
  8
0
  6
CONTINUOUS
 62
7
 10
28.700001
 20
42.500000
 11
34.700001
 21
42.500000
  0
LINE
  8
0
  6
CONTINUOUS
 62
7
 10
34.700001
 20
52.000000
 11
38.299999
 21
52.000000
  0
LINE
  8
0
  6
CONTINUOUS
 62
7
 10
34.700001
 20
44.000099
 11
38.299999
 21
44.000099
  0
LINE
  8
0
  6
CENTER
 62
2
 10
27.700001
 20
48.000000
 11
61.700001
 21
48.000000
  0
LINE
  8
0
  6
CONTINUOUS
 62
2
 10
34.700001
 20
44.700001
 11
38.299999
 21
44.700001
  0
LINE
  8
0
  6
CONTINUOUS
 62
7
 10
44.500000
 20
52.000000
 11
59.700001
 21
52.000000
  0
LINE
  8
0
  6
CONTINUOUS
 62
7
 10
59.700001
 20
51.299999
 11
60.700001
 21
51.299999
  0
LINE
  8
0
  6
CONTINUOUS
 62
7
 10
44.500000
 20
44.000099
 11
59.700001
 21
44.000099
  0
LINE
  8
0
  6
CONTINUOUS
 62
7
 10
59.700001
 20
52.000000
 11
59.700001
 21
44.000099
  0
LINE
  8
0
  6
CONTINUOUS
 62
7
 10
60.700001
 20
51.299999
 11
60.700001
 21
44.700001
  0
LINE
  8
0
  6
CONTINUOUS
 62
7
 10
59.700001
 20
44.700001
 11
60.700001
 21
44.700001
  0
LINE
  8
0
  6
CONTINUOUS
 62
2
 10
34.700001
 20
51.299999
 11
38.299999
 21
51.299999
  0
LINE
  8
0
  6
CONTINUOUS
 62
7
 10
42.500000
 20
54.000000
 11
42.500000
 21
42.000000
  0
LINE
  8
0
  6
CONTINUOUS
 62
7
 10
38.299999
 20
54.000000
 11
38.299999
 21
42.000000
  0
LINE
  8
0
  6
CONTINUOUS
 62
7
 10
42.500000
 20
53.500000
 11
44.500000
 21
53.500000
  0
LINE
  8
0
  6
CONTINUOUS
 62
7
 10
44.500000
 20
42.500000
 11
44.500000
 21
53.500000
  0
LINE
  8
0
  6
CONTINUOUS
 62
7
 10
42.500000
 20
52.826698
 11
44.500000
 21
52.826698
  0
LINE
  8
0
  6
CONTINUOUS
 62
7
 10
42.500000
 20
48.673401
 11
44.500000
 21
48.673401
  0
LINE
  8
0
  6
CONTINUOUS
 62
7
 10
42.500000
 20
47.326698
 11
44.500000
 21
47.326698
  0
LINE
  8
0
  6
CONTINUOUS
 62
7
 10
42.500000
 20
43.173401
 11
44.500000
 21
43.173401
  0
LINE
  8
0
  6
CONTINUOUS
 62
7
 10
42.500000
 20
42.500000
 11
44.500000
 21
42.500000
  0
LINE
  8
0
  6
CONTINUOUS
 62
2
 10
44.500000
 20
44.700001
 11
59.700001
 21
44.700001
  0
LINE
  8
0
  6
CONTINUOUS
 62
2
 10
44.500000
 20
51.299999
 11
59.700001
 21
51.299999
  0
LINE
  8
0
  6
CONTINUOUS
 62
7
 10
-168.800003
 20
73.250000
 11
-168.800003
 21
73.250000
  0
LINE
  8
0
  6
CONTINUOUS
 62
7
 10
-159.699997
 20
73.000000
 11
-153.500000
 21
73.000000
  0
LINE
  8
0
  6
CONTINUOUS
 62
7
 10
-169.300003
 20
73.500000
 11
-169.300003
 21
84.500000
  0
LINE
  8
0
  6
CONTINUOUS
 62
7
 10
-153.500000
 20
73.000000
 11
-153.500000
 21
85.000000
  0
LINE
  8
0
  6
CONTINUOUS
 62
7
 10
-155.500000
 20
75.435799
 11
-153.500000
 21
75.435799
  0
LINE
  8
0
  6
CONTINUOUS
 62
7
 10
-155.500000
 20
76.602097
 11
-153.500000
 21
76.602097
  0
LINE
  8
0
  6
CONTINUOUS
 62
7
 10
-155.500000
 20
81.397903
 11
-153.500000
 21
81.397903
  0
LINE
  8
0
  6
CONTINUOUS
 62
7
 10
-155.500000
 20
82.564201
 11
-153.500000
 21
82.564201
  0
LINE
  8
0
  6
CONTINUOUS
 62
7
 10
-155.500000
 20
85.000000
 11
-153.500000
 21
85.000000
  0
LINE
  8
0
  6
CONTINUOUS
 62
7
 10
-159.699997
 20
73.000000
 11
-159.699997
 21
83.500000
  0
LINE
  8
0
  6
CONTINUOUS
 62
7
 10
-155.500000
 20
73.000000
 11
-155.500000
 21
92.000000
  0
LINE
  8
0
  6
CONTINUOUS
 62
7
 10
-138.300003
 20
79.750000
 11
-137.300003
 21
79.750000
  0
LINE
  8
0
  6
CONTINUOUS
 62
7
 10
-137.300003
 20
82.300003
 11
-137.300003
 21
79.750000
  0
LINE
  8
0
  6
CONTINUOUS
 62
7
 10
-138.300003
 20
78.250000
 11
-137.300003
 21
78.250000
  0
LINE
  8
0
  6
CONTINUOUS
 62
7
 10
-169.300003
 20
84.500000
 11
-163.300003
 21
84.500000
  0
LINE
  8
0
  6
CONTINUOUS
 62
7
 10
-169.300003
 20
73.500000
 11
-163.300003
 21
73.500000
  0
LINE
  8
0
  6
CONTINUOUS
 62
7
 10
-163.300003
 20
73.500000
 11
-163.300003
 21
84.500000
  0
LINE
  8
0
  6
CONTINUOUS
 62
7
 10
-163.300003
 20
83.000000
 11
-159.699997
 21
83.000000
  0
LINE
  8
0
  6
CONTINUOUS
 62
7
 10
-163.300003
 20
75.000000
 11
-159.699997
 21
75.000000
  0
LINE
  8
0
  6
CONTINUOUS
 62
2
 10
-163.300003
 20
75.699997
 11
-159.699997
 21
75.699997
  0
LINE
  8
0
  6
CONTINUOUS
 62
7
 10
-153.500000
 20
75.000000
 11
-138.300003
 21
75.000000
  0
LINE
  8
0
  6
CONTINUOUS
 62
7
 10
-138.300003
 20
83.000000
 11
-138.300003
 21
75.000000
  0
LINE
  8
0
  6
CONTINUOUS
 62
7
 10
-138.300003
 20
75.699997
 11
-137.300003
 21
75.699997
  0
LINE
  8
0
  6
CONTINUOUS
 62
7
 10
-137.300003
 20
78.250000
 11
-137.300003
 21
75.699997
  0
LINE
  8
0
  6
CONTINUOUS
 62
7
 10
-138.300003
 20
82.300003
 11
-137.300003
 21
82.300003
  0
LINE
  8
0
  6
CONTINUOUS
 62
2
 10
-163.300003
 20
82.300003
 11
-159.699997
 21
82.300003
  0
LINE
  8
0
  6
CONTINUOUS
 62
7
 10
-153.500000
 20
83.000000
 11
-138.300003
 21
83.000000
  0
LINE
  8
0
  6
CENTER
 62
2
 10
-170.300003
 20
79.000000
 11
-136.300003
 21
79.000000
  0
LINE
  8
0
  6
CONTINUOUS
 62
2
 10
-153.500000
 20
82.300003
 11
-138.300003
 21
82.300003
  0
LINE
  8
0
  6
CONTINUOUS
 62
2
 10
-153.500000
 20
75.699997
 11
-138.300003
 21
75.699997
  0
LINE
  8
0
  6
CONTINUOUS
 62
7
 10
-167.000000
 20
85.000000
 11
-167.000000
 21
84.500000
  0
LINE
  8
0
  6
CONTINUOUS
 62
7
 10
259.537994
 20
48.673401
 11
261.936005
 21
52.826698
  0
LINE
  8
0
  6
CONTINUOUS
 62
7
 10
261.936005
 20
43.173302
 11
259.537994
 21
47.326599
  0
LINE
  8
0
  6
CONTINUOUS
 62
7
 10
266.250000
 20
46.363701
 11
266.250000
 21
44.070999
  0
LINE
  8
0
  6
CONTINUOUS
 62
7
 10
264.750000
 20
46.363701
 11
264.750000
 21
44.070999
  0
LINE
  8
0
  6
CONTINUOUS
 62
7
 10
264.750000
 20
51.929100
 11
264.750000
 21
49.636299
  0
LINE
  8
0
  6
CONTINUOUS
 62
7
 10
266.250000
 20
51.929100
 11
266.250000
 21
49.636299
  0
LINE
  8
0
  6
CENTER
 62
2
 10
258.500000
 20
48.000000
 11
272.500000
 21
48.000000
  0
LINE
  8
0
  6
CENTER
 62
2
 10
265.500000
 20
41.000000
 11
265.500000
 21
55.000000
  0
LINE
  8
0
  6
CONTINUOUS
 62
7
 10
271.462006
 20
47.326801
 11
269.063995
 21
43.173500
  0
LINE
  8
0
  6
CONTINUOUS
 62
7
 10
269.063995
 20
52.826599
 11
271.462006
 21
48.673302
  0
LINE
  8
0
  6
CONTINUOUS
 62
7
 10
263.101990
 20
53.500000
 11
267.898010
 21
53.500000
  0
LINE
  8
0
  6
CONTINUOUS
 62
7
 10
263.101990
 20
42.500000
 11
267.898010
 21
42.500000
  0
LINE
  8
0
  6
CONTINUOUS
 62
7
 10
76.500000
 20
14.000000
 11
86.000000
 21
14.000000
  0
LINE
  8
0
  6
CENTER
 62
2
 10
79.000000
 20
34.400002
 11
79.000000
 21
21.600000
  0
LINE
  8
0
  6
CENTER
 62
2
 10
65.000000
 20
28.000000
 11
87.000000
 21
28.000000
  0
LINE
  8
0
  6
CONTINUOUS
 62
7
 10
70.500000
 20
34.000000
 11
70.500000
 21
22.000000
  0
LINE
  8
0
  6
CONTINUOUS
 62
7
 10
73.709396
 20
34.000000
 11
76.500000
 21
34.000000
  0
LINE
  8
0
  6
CONTINUOUS
 62
7
 10
70.500000
 20
34.000000
 11
71.290604
 21
34.000000
  0
LINE
  8
0
  6
CONTINUOUS
 62
7
 10
73.709297
 20
22.000000
 11
76.500000
 21
22.000000
  0
LINE
  8
0
  6
CONTINUOUS
 62
7
 10
70.500000
 20
22.000000
 11
71.290703
 21
22.000000
  0
LINE
  8
0
  6
CONTINUOUS
 62
7
 10
76.500000
 20
14.000000
 11
76.500000
 21
22.000000
  0
LINE
  8
0
  6
CONTINUOUS
 62
7
 10
86.000000
 20
14.000000
 11
86.000000
 21
42.000000
  0
LINE
  8
0
  6
CONTINUOUS
 62
7
 10
76.500000
 20
42.000000
 11
76.500000
 21
34.000000
  0
LINE
  8
0
  6
CONTINUOUS
 62
7
 10
66.300003
 20
34.700001
 11
66.300003
 21
21.299999
  0
LINE
  8
0
  6
CONTINUOUS
 62
7
 10
66.000000
 20
14.500000
 11
66.000000
 21
21.000000
  0
LINE
  8
0
  6
CONTINUOUS
 62
7
 10
66.000000
 20
14.500000
 11
76.500000
 21
14.500000
  0
LINE
  8
0
  6
CONTINUOUS
 62
7
 10
76.000000
 20
14.500000
 11
76.000000
 21
22.000000
  0
LINE
  8
0
  6
CONTINUOUS
 62
7
 10
66.000000
 20
21.000000
 11
66.300003
 21
21.299999
  0
LINE
  8
0
  6
CONTINUOUS
 62
7
 10
66.000000
 20
41.500000
 11
66.000000
 21
35.000000
  0
LINE
  8
0
  6
CONTINUOUS
 62
7
 10
66.000000
 20
35.000000
 11
66.300003
 21
34.700001
  0
LINE
  8
0
  6
CONTINUOUS
 62
7
 10
76.000000
 20
41.500000
 11
76.000000
 21
34.000000
  0
LINE
  8
0
  6
CONTINUOUS
 62
7
 10
66.000000
 20
41.500000
 11
76.500000
 21
41.500000
  0
LINE
  8
0
  6
CENTER
 62
2
 10
84.000000
 20
38.500000
 11
88.000000
 21
38.500000
  0
LINE
  8
0
  6
CENTER
 62
2
 10
84.000000
 20
17.500000
 11
88.000000
 21
17.500000
  0
LINE
  8
0
  6
CENTER
 62
2
 10
64.000000
 20
38.000000
 11
68.000000
 21
38.000000
  0
LINE
  8
0
  6
CENTER
 62
2
 10
64.000000
 20
18.000000
 11
68.000000
 21
18.000000
  0
LINE
  8
0
  6
CONTINUOUS
 62
7
 10
75.500000
 20
42.000000
 11
75.500000
 21
41.500000
  0
LINE
  8
0
  6
CONTINUOUS
 62
7
 10
67.500000
 20
42.000000
 11
67.500000
 21
41.500099
  0
LINE
  8
0
  6
CONTINUOUS
 62
7
 10
66.500000
 20
54.000000
 11
66.500000
 21
42.000000
  0
LINE
  8
0
  6
CONTINUOUS
 62
7
 10
85.500000
 20
54.000000
 11
66.500000
 21
54.000000
  0
LINE
  8
0
  6
CONTINUOUS
 62
7
 10
85.500000
 20
54.000000
 11
85.500000
 21
42.000000
  0
LINE
  8
0
  6
CENTER
 62
2
 10
72.500000
 20
41.000000
 11
72.500000
 21
55.000000
  0
LINE
  8
0
  6
CENTER
 62
2
 10
65.500000
 20
48.000000
 11
79.500000
 21
48.000000
  0
LINE
  8
0
  6
CONTINUOUS
 62
7
 10
66.500000
 20
42.000000
 11
86.000000
 21
42.000000
  0
LINE
  8
0
  6
CONTINUOUS
 62
7
 10
66.537903
 20
48.673401
 11
68.935799
 21
52.826698
  0
LINE
  8
0
  6
CONTINUOUS
 62
7
 10
68.935799
 20
43.173302
 11
66.537903
 21
47.326698
  0
LINE
  8
0
  6
CONTINUOUS
 62
7
 10
73.250000
 20
46.363701
 11
73.250000
 21
44.070999
  0
LINE
  8
0
  6
CONTINUOUS
 62
7
 10
71.750000
 20
46.363701
 11
71.750000
 21
44.070999
  0
LINE
  8
0
  6
CONTINUOUS
 62
7
 10
71.750000
 20
51.929100
 11
71.750000
 21
49.636299
  0
LINE
  8
0
  6
CONTINUOUS
 62
7
 10
73.250000
 20
51.929100
 11
73.250000
 21
49.636299
  0
LINE
  8
0
  6
CENTER
 62
2
 10
65.500000
 20
48.000000
 11
79.500000
 21
48.000000
  0
LINE
  8
0
  6
CENTER
 62
2
 10
72.500000
 20
41.000000
 11
72.500000
 21
55.000000
  0
LINE
  8
0
  6
CONTINUOUS
 62
7
 10
78.462097
 20
47.326698
 11
76.064201
 21
43.173401
  0
LINE
  8
0
  6
CONTINUOUS
 62
7
 10
76.064201
 20
52.826698
 11
78.462097
 21
48.673401
  0
LINE
  8
0
  6
CONTINUOUS
 62
7
 10
70.102097
 20
53.500000
 11
74.897903
 21
53.500000
  0
LINE
  8
0
  6
CONTINUOUS
 62
7
 10
70.102097
 20
42.500000
 11
74.897903
 21
42.500000
  0
LINE
  8
0
  6
CONTINUOUS
 62
7
 10
223.199997
 20
73.250000
 11
223.199997
 21
73.250000
  0
LINE
  8
0
  6
CONTINUOUS
 62
7
 10
232.300003
 20
73.000000
 11
238.500000
 21
73.000000
  0
LINE
  8
0
  6
CONTINUOUS
 62
7
 10
222.699997
 20
73.500000
 11
222.699997
 21
84.500000
  0
LINE
  8
0
  6
CONTINUOUS
 62
7
 10
238.500000
 20
73.000000
 11
238.500000
 21
85.000000
  0
LINE
  8
0
  6
CONTINUOUS
 62
7
 10
236.500000
 20
75.435799
 11
238.500000
 21
75.435799
  0
LINE
  8
0
  6
CONTINUOUS
 62
7
 10
236.500000
 20
76.602097
 11
238.500000
 21
76.602097
  0
LINE
  8
0
  6
CONTINUOUS
 62
7
 10
236.500000
 20
81.397903
 11
238.500000
 21
81.397903
  0
LINE
  8
0
  6
CONTINUOUS
 62
7
 10
236.500000
 20
82.564201
 11
238.500000
 21
82.564201
  0
LINE
  8
0
  6
CONTINUOUS
 62
7
 10
236.500000
 20
85.000000
 11
238.500000
 21
85.000000
  0
LINE
  8
0
  6
CONTINUOUS
 62
7
 10
232.300003
 20
73.000000
 11
232.300003
 21
83.500000
  0
LINE
  8
0
  6
CONTINUOUS
 62
7
 10
236.500000
 20
73.000000
 11
236.500000
 21
92.000000
  0
LINE
  8
0
  6
CONTINUOUS
 62
7
 10
253.699997
 20
79.750000
 11
254.699997
 21
79.750000
  0
LINE
  8
0
  6
CONTINUOUS
 62
7
 10
254.699997
 20
82.300003
 11
254.699997
 21
79.750000
  0
LINE
  8
0
  6
CONTINUOUS
 62
7
 10
253.699997
 20
78.250000
 11
254.699997
 21
78.250000
  0
LINE
  8
0
  6
CONTINUOUS
 62
7
 10
222.699997
 20
84.500000
 11
228.699997
 21
84.500000
  0
LINE
  8
0
  6
CONTINUOUS
 62
7
 10
222.699997
 20
73.500000
 11
228.699997
 21
73.500000
  0
LINE
  8
0
  6
CONTINUOUS
 62
7
 10
228.699997
 20
73.500000
 11
228.699997
 21
84.500000
  0
LINE
  8
0
  6
CONTINUOUS
 62
7
 10
228.699997
 20
83.000000
 11
232.300003
 21
83.000000
  0
LINE
  8
0
  6
CONTINUOUS
 62
7
 10
228.699997
 20
75.000000
 11
232.300003
 21
75.000000
  0
LINE
  8
0
  6
CONTINUOUS
 62
2
 10
228.699997
 20
75.699997
 11
232.300003
 21
75.699997
  0
LINE
  8
0
  6
CONTINUOUS
 62
7
 10
238.500000
 20
75.000000
 11
253.699997
 21
75.000000
  0
LINE
  8
0
  6
CONTINUOUS
 62
7
 10
253.699997
 20
83.000000
 11
253.699997
 21
75.000000
  0
LINE
  8
0
  6
CONTINUOUS
 62
7
 10
253.699997
 20
75.699997
 11
254.699997
 21
75.699997
  0
LINE
  8
0
  6
CONTINUOUS
 62
7
 10
254.699997
 20
78.250000
 11
254.699997
 21
75.699997
  0
LINE
  8
0
  6
CONTINUOUS
 62
7
 10
253.699997
 20
82.300003
 11
254.699997
 21
82.300003
  0
LINE
  8
0
  6
CONTINUOUS
 62
2
 10
228.699997
 20
82.300003
 11
232.300003
 21
82.300003
  0
LINE
  8
0
  6
CONTINUOUS
 62
7
 10
238.500000
 20
83.000000
 11
253.699997
 21
83.000000
  0
LINE
  8
0
  6
CENTER
 62
2
 10
221.699997
 20
79.000000
 11
255.699997
 21
79.000000
  0
LINE
  8
0
  6
CONTINUOUS
 62
2
 10
238.500000
 20
82.300003
 11
253.699997
 21
82.300003
  0
LINE
  8
0
  6
CONTINUOUS
 62
2
 10
238.500000
 20
75.699997
 11
253.699997
 21
75.699997
  0
LINE
  8
0
  6
CONTINUOUS
 62
7
 10
225.000000
 20
85.000000
 11
225.000000
 21
84.500000
  0
LINE
  8
0
  6
CONTINUOUS
 62
7
 10
29.200001
 20
73.250000
 11
29.200001
 21
73.250000
  0
LINE
  8
0
  6
CONTINUOUS
 62
7
 10
38.299999
 20
73.000000
 11
44.500000
 21
73.000000
  0
LINE
  8
0
  6
CONTINUOUS
 62
7
 10
28.700001
 20
73.500000
 11
28.700001
 21
84.500000
  0
LINE
  8
0
  6
CONTINUOUS
 62
7
 10
44.500000
 20
73.000000
 11
44.500000
 21
85.000000
  0
LINE
  8
0
  6
CONTINUOUS
 62
7
 10
42.500000
 20
75.435799
 11
44.500000
 21
75.435799
  0
LINE
  8
0
  6
CONTINUOUS
 62
7
 10
42.500000
 20
76.602097
 11
44.500000
 21
76.602097
  0
LINE
  8
0
  6
CONTINUOUS
 62
7
 10
42.500000
 20
81.397903
 11
44.500000
 21
81.397903
  0
LINE
  8
0
  6
CONTINUOUS
 62
7
 10
42.500000
 20
82.564201
 11
44.500000
 21
82.564201
  0
LINE
  8
0
  6
CONTINUOUS
 62
7
 10
42.500000
 20
85.000000
 11
44.500000
 21
85.000000
  0
LINE
  8
0
  6
CONTINUOUS
 62
7
 10
38.299999
 20
73.000000
 11
38.299999
 21
83.500000
  0
LINE
  8
0
  6
CONTINUOUS
 62
7
 10
42.500000
 20
73.000000
 11
42.500000
 21
92.000000
  0
LINE
  8
0
  6
CONTINUOUS
 62
7
 10
59.700001
 20
79.750000
 11
60.700001
 21
79.750000
  0
LINE
  8
0
  6
CONTINUOUS
 62
7
 10
60.700001
 20
82.300003
 11
60.700001
 21
79.750000
  0
LINE
  8
0
  6
CONTINUOUS
 62
7
 10
59.700001
 20
78.250000
 11
60.700001
 21
78.250000
  0
LINE
  8
0
  6
CONTINUOUS
 62
7
 10
28.700001
 20
84.500000
 11
34.700001
 21
84.500000
  0
LINE
  8
0
  6
CONTINUOUS
 62
7
 10
28.700001
 20
73.500000
 11
34.700001
 21
73.500000
  0
LINE
  8
0
  6
CONTINUOUS
 62
7
 10
34.700001
 20
73.500000
 11
34.700001
 21
84.500000
  0
LINE
  8
0
  6
CONTINUOUS
 62
7
 10
34.700001
 20
83.000000
 11
38.299999
 21
83.000000
  0
LINE
  8
0
  6
CONTINUOUS
 62
7
 10
34.700001
 20
75.000000
 11
38.299999
 21
75.000000
  0
LINE
  8
0
  6
CONTINUOUS
 62
2
 10
34.700001
 20
75.699997
 11
38.299999
 21
75.699997
  0
LINE
  8
0
  6
CONTINUOUS
 62
7
 10
44.500000
 20
75.000000
 11
59.700001
 21
75.000000
  0
LINE
  8
0
  6
CONTINUOUS
 62
7
 10
59.700001
 20
83.000000
 11
59.700001
 21
75.000000
  0
LINE
  8
0
  6
CONTINUOUS
 62
7
 10
59.700001
 20
75.699997
 11
60.700001
 21
75.699997
  0
LINE
  8
0
  6
CONTINUOUS
 62
7
 10
60.700001
 20
78.250000
 11
60.700001
 21
75.699997
  0
LINE
  8
0
  6
CONTINUOUS
 62
7
 10
59.700001
 20
82.300003
 11
60.700001
 21
82.300003
  0
LINE
  8
0
  6
CONTINUOUS
 62
2
 10
34.700001
 20
82.300003
 11
38.299999
 21
82.300003
  0
LINE
  8
0
  6
CONTINUOUS
 62
7
 10
44.500000
 20
83.000000
 11
59.700001
 21
83.000000
  0
LINE
  8
0
  6
CENTER
 62
2
 10
27.700001
 20
79.000000
 11
61.700001
 21
79.000000
  0
LINE
  8
0
  6
CONTINUOUS
 62
2
 10
44.500000
 20
82.300003
 11
59.700001
 21
82.300003
  0
LINE
  8
0
  6
CONTINUOUS
 62
2
 10
44.500000
 20
75.699997
 11
59.700001
 21
75.699997
  0
LINE
  8
0
  6
CONTINUOUS
 62
7
 10
31.000000
 20
85.000000
 11
31.000000
 21
84.500000
  0
LINE
  8
0
  6
CONTINUOUS
 62
7
 10
-114.500000
 20
14.000000
 11
-105.000000
 21
14.000000
  0
LINE
  8
0
  6
CENTER
 62
2
 10
-112.000000
 20
34.400002
 11
-112.000000
 21
21.600000
  0
LINE
  8
0
  6
CENTER
 62
2
 10
-126.000000
 20
28.000000
 11
-104.000000
 21
28.000000
  0
LINE
  8
0
  6
CONTINUOUS
 62
7
 10
-120.500000
 20
34.000000
 11
-120.500000
 21
22.000000
  0
LINE
  8
0
  6
CONTINUOUS
 62
7
 10
-117.291000
 20
34.000000
 11
-114.500000
 21
34.000000
  0
LINE
  8
0
  6
CONTINUOUS
 62
7
 10
-120.500000
 20
34.000000
 11
-119.709000
 21
34.000000
  0
LINE
  8
0
  6
CONTINUOUS
 62
7
 10
-117.291000
 20
22.000000
 11
-114.500000
 21
22.000000
  0
LINE
  8
0
  6
CONTINUOUS
 62
7
 10
-120.500000
 20
22.000000
 11
-119.709000
 21
22.000000
  0
LINE
  8
0
  6
CONTINUOUS
 62
7
 10
-114.500000
 20
14.000000
 11
-114.500000
 21
22.000000
  0
LINE
  8
0
  6
CONTINUOUS
 62
7
 10
-105.000000
 20
14.000000
 11
-105.000000
 21
42.000000
  0
LINE
  8
0
  6
CONTINUOUS
 62
7
 10
-114.500000
 20
42.000000
 11
-114.500000
 21
34.000000
  0
LINE
  8
0
  6
CONTINUOUS
 62
7
 10
-124.699997
 20
34.700001
 11
-124.699997
 21
21.299999
  0
LINE
  8
0
  6
CONTINUOUS
 62
7
 10
-125.000000
 20
14.500000
 11
-125.000000
 21
21.000000
  0
LINE
  8
0
  6
CONTINUOUS
 62
7
 10
-125.000000
 20
14.500000
 11
-114.500000
 21
14.500000
  0
LINE
  8
0
  6
CONTINUOUS
 62
7
 10
-115.000000
 20
14.500000
 11
-115.000000
 21
22.000000
  0
LINE
  8
0
  6
CONTINUOUS
 62
7
 10
-125.000000
 20
21.000000
 11
-124.699997
 21
21.299999
  0
LINE
  8
0
  6
CONTINUOUS
 62
7
 10
-125.000000
 20
41.500000
 11
-125.000000
 21
35.000000
  0
LINE
  8
0
  6
CONTINUOUS
 62
7
 10
-125.000000
 20
35.000000
 11
-124.699997
 21
34.700001
  0
LINE
  8
0
  6
CONTINUOUS
 62
7
 10
-115.000000
 20
41.500000
 11
-115.000000
 21
34.000000
  0
LINE
  8
0
  6
CONTINUOUS
 62
7
 10
-125.000000
 20
41.500000
 11
-114.500000
 21
41.500000
  0
LINE
  8
0
  6
CENTER
 62
2
 10
-107.000000
 20
38.500000
 11
-103.000000
 21
38.500000
  0
LINE
  8
0
  6
CENTER
 62
2
 10
-107.000000
 20
17.500000
 11
-103.000000
 21
17.500000
  0
LINE
  8
0
  6
CENTER
 62
2
 10
-127.000000
 20
38.000000
 11
-123.000000
 21
38.000000
  0
LINE
  8
0
  6
CENTER
 62
2
 10
-127.000000
 20
18.000000
 11
-123.000000
 21
18.000000
  0
LINE
  8
0
  6
CONTINUOUS
 62
7
 10
-115.500000
 20
42.000000
 11
-115.500000
 21
41.500000
  0
LINE
  8
0
  6
CONTINUOUS
 62
7
 10
-123.500000
 20
42.000000
 11
-123.500000
 21
41.500099
  0
LINE
  8
0
  6
CONTINUOUS
 62
7
 10
-124.500000
 20
54.000000
 11
-124.500000
 21
42.000000
  0
LINE
  8
0
  6
CONTINUOUS
 62
7
 10
-105.500000
 20
54.000000
 11
-124.500000
 21
54.000000
  0
LINE
  8
0
  6
CONTINUOUS
 62
7
 10
-105.500000
 20
54.000000
 11
-105.500000
 21
42.000000
  0
LINE
  8
0
  6
CENTER
 62
2
 10
-118.500000
 20
41.000000
 11
-118.500000
 21
55.000000
  0
LINE
  8
0
  6
CENTER
 62
2
 10
-125.500000
 20
48.000000
 11
-111.500000
 21
48.000000
  0
LINE
  8
0
  6
CONTINUOUS
 62
7
 10
-124.500000
 20
42.000000
 11
-105.000000
 21
42.000000
  0
LINE
  8
0
  6
CONTINUOUS
 62
7
 10
-124.461998
 20
48.673401
 11
-122.064003
 21
52.826698
  0
LINE
  8
0
  6
CONTINUOUS
 62
7
 10
-122.064003
 20
43.173302
 11
-124.461998
 21
47.326599
  0
LINE
  8
0
  6
CONTINUOUS
 62
7
 10
-117.750000
 20
46.363701
 11
-117.750000
 21
44.070999
  0
LINE
  8
0
  6
CONTINUOUS
 62
7
 10
-119.250000
 20
46.363701
 11
-119.250000
 21
44.070999
  0
LINE
  8
0
  6
CONTINUOUS
 62
7
 10
-119.250000
 20
51.929100
 11
-119.250000
 21
49.636299
  0
LINE
  8
0
  6
CONTINUOUS
 62
7
 10
-117.750000
 20
51.929100
 11
-117.750000
 21
49.636299
  0
LINE
  8
0
  6
CENTER
 62
2
 10
-125.500000
 20
48.000000
 11
-111.500000
 21
48.000000
  0
LINE
  8
0
  6
CENTER
 62
2
 10
-118.500000
 20
41.000000
 11
-118.500000
 21
55.000000
  0
LINE
  8
0
  6
CONTINUOUS
 62
7
 10
-112.538002
 20
47.326698
 11
-114.935997
 21
43.173401
  0
LINE
  8
0
  6
CONTINUOUS
 62
7
 10
-114.935997
 20
52.826599
 11
-112.538002
 21
48.673302
  0
LINE
  8
0
  6
CONTINUOUS
 62
7
 10
-120.898003
 20
53.500000
 11
-116.101997
 21
53.500000
  0
LINE
  8
0
  6
CONTINUOUS
 62
7
 10
-120.898003
 20
42.500000
 11
-116.101997
 21
42.500000
  0
LINE
  8
0
  6
CONTINUOUS
 62
7
 10
31.000000
 20
-36.000000
 11
42.500000
 21
-36.000000
  0
LINE
  8
0
  6
CONTINUOUS
 62
7
 10
31.000000
 20
-29.000000
 11
36.799999
 21
-29.000000
  0
LINE
  8
0
  6
CONTINUOUS
 62
7
 10
38.299999
 20
-17.000000
 11
44.500000
 21
-17.000000
  0
LINE
  8
0
  6
CONTINUOUS
 62
7
 10
44.500000
 20
-17.000000
 11
44.500000
 21
-29.000000
  0
LINE
  8
0
  6
CONTINUOUS
 62
7
 10
42.500000
 20
-19.435801
 11
44.500000
 21
-19.435801
  0
LINE
  8
0
  6
CONTINUOUS
 62
7
 10
42.500000
 20
-20.601999
 11
44.500000
 21
-20.601999
  0
LINE
  8
0
  6
CONTINUOUS
 62
7
 10
42.500000
 20
-25.397900
 11
44.500000
 21
-25.397900
  0
LINE
  8
0
  6
CONTINUOUS
 62
7
 10
42.500000
 20
-26.564100
 11
44.500000
 21
-26.564100
  0
LINE
  8
0
  6
CONTINUOUS
 62
7
 10
42.500000
 20
-29.000000
 11
44.500000
 21
-29.000000
  0
LINE
  8
0
  6
CONTINUOUS
 62
7
 10
38.299999
 20
-17.000000
 11
38.299999
 21
-27.499901
  0
LINE
  8
0
  6
CONTINUOUS
 62
7
 10
42.500000
 20
-17.000000
 11
42.500000
 21
-35.999901
  0
LINE
  8
0
  6
CONTINUOUS
 62
7
 10
59.700001
 20
-23.749901
 11
60.700001
 21
-23.749901
  0
LINE
  8
0
  6
CONTINUOUS
 62
7
 10
60.700001
 20
-26.299900
 11
60.700001
 21
-23.749901
  0
LINE
  8
0
  6
CONTINUOUS
 62
7
 10
59.700001
 20
-22.249901
 11
60.700001
 21
-22.249901
  0
LINE
  8
0
  6
CONTINUOUS
 62
7
 10
31.000000
 20
-28.499901
 11
34.700001
 21
-28.499901
  0
LINE
  8
0
  6
CONTINUOUS
 62
7
 10
29.200001
 20
-17.500000
 11
34.700001
 21
-17.500000
  0
LINE
  8
0
  6
CONTINUOUS
 62
7
 10
34.700001
 20
-17.500000
 11
34.700001
 21
-28.499901
  0
LINE
  8
0
  6
CONTINUOUS
 62
7
 10
34.700001
 20
-27.000000
 11
38.299999
 21
-27.000000
  0
LINE
  8
0
  6
CONTINUOUS
 62
7
 10
34.700001
 20
-19.000000
 11
38.299999
 21
-19.000000
  0
LINE
  8
0
  6
CONTINUOUS
 62
2
 10
34.700001
 20
-19.699900
 11
38.299999
 21
-19.699900
  0
LINE
  8
0
  6
CONTINUOUS
 62
7
 10
44.500000
 20
-19.000000
 11
59.700001
 21
-19.000000
  0
LINE
  8
0
  6
CONTINUOUS
 62
7
 10
59.700001
 20
-26.999901
 11
59.700001
 21
-19.000000
  0
LINE
  8
0
  6
CONTINUOUS
 62
7
 10
59.700001
 20
-19.699900
 11
60.700001
 21
-19.699900
  0
LINE
  8
0
  6
CONTINUOUS
 62
7
 10
60.700001
 20
-22.249901
 11
60.700001
 21
-19.699900
  0
LINE
  8
0
  6
CONTINUOUS
 62
7
 10
59.700001
 20
-26.299900
 11
60.700001
 21
-26.299900
  0
LINE
  8
0
  6
CONTINUOUS
 62
2
 10
34.700001
 20
-26.299900
 11
38.299999
 21
-26.299900
  0
LINE
  8
0
  6
CONTINUOUS
 62
7
 10
44.500000
 20
-26.999901
 11
59.700001
 21
-26.999901
  0
LINE
  8
0
  6
CENTER
 62
2
 10
27.700001
 20
-22.999901
 11
61.700001
 21
-22.999901
  0
LINE
  8
0
  6
CONTINUOUS
 62
2
 10
44.500000
 20
-26.299900
 11
59.700001
 21
-26.299900
  0
LINE
  8
0
  6
CONTINUOUS
 62
2
 10
44.500000
 20
-19.699900
 11
59.700001
 21
-19.699900
  0
LINE
  8
0
  6
CONTINUOUS
 62
7
 10
225.000000
 20
-36.000000
 11
236.500000
 21
-36.000000
  0
LINE
  8
0
  6
CONTINUOUS
 62
7
 10
225.000000
 20
-29.000000
 11
230.800003
 21
-29.000000
  0
LINE
  8
0
  6
CONTINUOUS
 62
7
 10
232.300003
 20
-17.000000
 11
238.500000
 21
-17.000000
  0
LINE
  8
0
  6
CONTINUOUS
 62
7
 10
238.500000
 20
-17.000000
 11
238.500000
 21
-29.000000
  0
LINE
  8
0
  6
CONTINUOUS
 62
7
 10
236.500000
 20
-19.435801
 11
238.500000
 21
-19.435801
  0
LINE
  8
0
  6
CONTINUOUS
 62
7
 10
236.500000
 20
-20.601999
 11
238.500000
 21
-20.601999
  0
LINE
  8
0
  6
CONTINUOUS
 62
7
 10
236.500000
 20
-25.397900
 11
238.500000
 21
-25.397900
  0
LINE
  8
0
  6
CONTINUOUS
 62
7
 10
236.500000
 20
-26.564100
 11
238.500000
 21
-26.564100
  0
LINE
  8
0
  6
CONTINUOUS
 62
7
 10
236.500000
 20
-29.000000
 11
238.500000
 21
-29.000000
  0
LINE
  8
0
  6
CONTINUOUS
 62
7
 10
232.300003
 20
-17.000000
 11
232.300003
 21
-27.500000
  0
LINE
  8
0
  6
CONTINUOUS
 62
7
 10
236.500000
 20
-17.000000
 11
236.500000
 21
-35.999901
  0
LINE
  8
0
  6
CONTINUOUS
 62
7
 10
253.699997
 20
-23.749901
 11
254.699997
 21
-23.749901
  0
LINE
  8
0
  6
CONTINUOUS
 62
7
 10
254.699997
 20
-26.299900
 11
254.699997
 21
-23.750000
  0
LINE
  8
0
  6
CONTINUOUS
 62
7
 10
253.699997
 20
-22.249901
 11
254.699997
 21
-22.249901
  0
LINE
  8
0
  6
CONTINUOUS
 62
7
 10
225.000000
 20
-28.499901
 11
228.699997
 21
-28.499901
  0
LINE
  8
0
  6
CONTINUOUS
 62
7
 10
223.199997
 20
-17.499901
 11
228.699997
 21
-17.499901
  0
LINE
  8
0
  6
CONTINUOUS
 62
7
 10
228.699997
 20
-17.500000
 11
228.699997
 21
-28.499901
  0
LINE
  8
0
  6
CONTINUOUS
 62
7
 10
228.699997
 20
-27.000000
 11
232.300003
 21
-27.000000
  0
LINE
  8
0
  6
CONTINUOUS
 62
7
 10
228.699997
 20
-19.000000
 11
232.300003
 21
-19.000000
  0
LINE
  8
0
  6
CONTINUOUS
 62
2
 10
228.699997
 20
-19.699900
 11
232.300003
 21
-19.699900
  0
LINE
  8
0
  6
CONTINUOUS
 62
7
 10
238.500000
 20
-19.000000
 11
253.699997
 21
-19.000000
  0
LINE
  8
0
  6
CONTINUOUS
 62
7
 10
253.699997
 20
-26.999901
 11
253.699997
 21
-19.000000
  0
LINE
  8
0
  6
CONTINUOUS
 62
7
 10
253.699997
 20
-19.699900
 11
254.699997
 21
-19.699900
  0
LINE
  8
0
  6
CONTINUOUS
 62
7
 10
254.699997
 20
-22.249901
 11
254.699997
 21
-19.699900
  0
LINE
  8
0
  6
CONTINUOUS
 62
7
 10
253.699997
 20
-26.299900
 11
254.699997
 21
-26.299900
  0
LINE
  8
0
  6
CONTINUOUS
 62
2
 10
228.699997
 20
-26.299900
 11
232.300003
 21
-26.299900
  0
LINE
  8
0
  6
CONTINUOUS
 62
7
 10
238.500000
 20
-26.999901
 11
253.699997
 21
-26.999901
  0
LINE
  8
0
  6
CENTER
 62
2
 10
221.699997
 20
-22.999901
 11
255.699997
 21
-22.999901
  0
LINE
  8
0
  6
CONTINUOUS
 62
2
 10
238.500000
 20
-26.299900
 11
253.699997
 21
-26.299900
  0
LINE
  8
0
  6
CONTINUOUS
 62
2
 10
238.500000
 20
-19.699900
 11
253.699997
 21
-19.699900
  0
LINE
  8
0
  6
CONTINUOUS
 62
7
 10
-167.000000
 20
-36.000000
 11
-155.500000
 21
-36.000000
  0
LINE
  8
0
  6
CONTINUOUS
 62
7
 10
-167.000000
 20
-29.000000
 11
-161.199997
 21
-29.000000
  0
LINE
  8
0
  6
CONTINUOUS
 62
7
 10
-159.699997
 20
-17.000000
 11
-153.500000
 21
-17.000000
  0
LINE
  8
0
  6
CONTINUOUS
 62
7
 10
-153.500000
 20
-17.000000
 11
-153.500000
 21
-29.000000
  0
LINE
  8
0
  6
CONTINUOUS
 62
7
 10
-155.500000
 20
-19.435801
 11
-153.500000
 21
-19.435801
  0
LINE
  8
0
  6
CONTINUOUS
 62
7
 10
-155.500000
 20
-20.601999
 11
-153.500000
 21
-20.601999
  0
LINE
  8
0
  6
CONTINUOUS
 62
7
 10
-155.500000
 20
-25.397900
 11
-153.500000
 21
-25.397900
  0
LINE
  8
0
  6
CONTINUOUS
 62
7
 10
-155.500000
 20
-26.564100
 11
-153.500000
 21
-26.564100
  0
LINE
  8
0
  6
CONTINUOUS
 62
7
 10
-155.500000
 20
-29.000000
 11
-153.500000
 21
-29.000000
  0
LINE
  8
0
  6
CONTINUOUS
 62
7
 10
-159.699997
 20
-17.000000
 11
-159.699997
 21
-27.500000
  0
LINE
  8
0
  6
CONTINUOUS
 62
7
 10
-155.500000
 20
-17.000000
 11
-155.500000
 21
-35.999901
  0
LINE
  8
0
  6
CONTINUOUS
 62
7
 10
-138.300003
 20
-23.749901
 11
-137.300003
 21
-23.749901
  0
LINE
  8
0
  6
CONTINUOUS
 62
7
 10
-137.300003
 20
-26.299900
 11
-137.300003
 21
-23.750000
  0
LINE
  8
0
  6
CONTINUOUS
 62
7
 10
-138.300003
 20
-22.249901
 11
-137.300003
 21
-22.249901
  0
LINE
  8
0
  6
CONTINUOUS
 62
7
 10
-167.000000
 20
-28.499901
 11
-163.300003
 21
-28.499901
  0
LINE
  8
0
  6
CONTINUOUS
 62
7
 10
-168.800003
 20
-17.499901
 11
-163.300003
 21
-17.499901
  0
LINE
  8
0
  6
CONTINUOUS
 62
7
 10
-163.300003
 20
-17.500000
 11
-163.300003
 21
-28.499901
  0
LINE
  8
0
  6
CONTINUOUS
 62
7
 10
-163.300003
 20
-27.000000
 11
-159.699997
 21
-27.000000
  0
LINE
  8
0
  6
CONTINUOUS
 62
7
 10
-163.300003
 20
-19.000000
 11
-159.699997
 21
-19.000000
  0
LINE
  8
0
  6
CONTINUOUS
 62
2
 10
-163.300003
 20
-19.699900
 11
-159.699997
 21
-19.699900
  0
LINE
  8
0
  6
CONTINUOUS
 62
7
 10
-153.500000
 20
-19.000000
 11
-138.300003
 21
-19.000000
  0
LINE
  8
0
  6
CONTINUOUS
 62
7
 10
-138.300003
 20
-26.999901
 11
-138.300003
 21
-19.000000
  0
LINE
  8
0
  6
CONTINUOUS
 62
7
 10
-138.300003
 20
-19.699900
 11
-137.300003
 21
-19.699900
  0
LINE
  8
0
  6
CONTINUOUS
 62
7
 10
-137.300003
 20
-22.249901
 11
-137.300003
 21
-19.699900
  0
LINE
  8
0
  6
CONTINUOUS
 62
7
 10
-138.300003
 20
-26.299900
 11
-137.300003
 21
-26.299900
  0
LINE
  8
0
  6
CONTINUOUS
 62
2
 10
-163.300003
 20
-26.299900
 11
-159.699997
 21
-26.299900
  0
LINE
  8
0
  6
CONTINUOUS
 62
7
 10
-153.500000
 20
-26.999901
 11
-138.300003
 21
-26.999901
  0
LINE
  8
0
  6
CENTER
 62
2
 10
-170.300003
 20
-22.999901
 11
-136.300003
 21
-22.999901
  0
LINE
  8
0
  6
CONTINUOUS
 62
2
 10
-153.500000
 20
-26.299900
 11
-138.300003
 21
-26.299900
  0
LINE
  8
0
  6
CONTINUOUS
 62
2
 10
-153.500000
 20
-19.699900
 11
-138.300003
 21
-19.699900
  0
LINE
  8
0
  6
CENTER
 62
2
 10
235.500000
 20
-98.500000
 11
255.699997
 21
-98.500000
  0
LINE
  8
0
  6
CONTINUOUS
 62
7
 10
238.500000
 20
-102.500000
 11
253.699997
 21
-102.500000
  0
LINE
  8
0
  6
CONTINUOUS
 62
7
 10
253.699997
 20
-101.800003
 11
254.699997
 21
-101.800003
  0
LINE
  8
0
  6
CONTINUOUS
 62
7
 10
238.500000
 20
-94.500000
 11
253.699997
 21
-94.500000
  0
LINE
  8
0
  6
CONTINUOUS
 62
7
 10
253.699997
 20
-102.500000
 11
253.699997
 21
-94.500000
  0
LINE
  8
0
  6
CONTINUOUS
 62
7
 10
254.699997
 20
-101.800003
 11
254.699997
 21
-95.199997
  0
LINE
  8
0
  6
CONTINUOUS
 62
7
 10
253.699997
 20
-95.199997
 11
254.699997
 21
-95.199997
  0
LINE
  8
0
  6
CONTINUOUS
 62
7
 10
236.500000
 20
-104.500000
 11
236.500000
 21
-92.500000
  0
LINE
  8
0
  6
CONTINUOUS
 62
7
 10
236.500000
 20
-104.000000
 11
238.500000
 21
-104.000000
  0
LINE
  8
0
  6
CONTINUOUS
 62
7
 10
238.500000
 20
-93.000000
 11
238.500000
 21
-104.000000
  0
LINE
  8
0
  6
CONTINUOUS
 62
7
 10
236.500000
 20
-103.327003
 11
238.500000
 21
-103.327003
  0
LINE
  8
0
  6
CONTINUOUS
 62
7
 10
236.500000
 20
-99.173302
 11
238.500000
 21
-99.173302
  0
LINE
  8
0
  6
CONTINUOUS
 62
7
 10
236.500000
 20
-97.826599
 11
238.500000
 21
-97.826599
  0
LINE
  8
0
  6
CONTINUOUS
 62
7
 10
236.500000
 20
-93.673302
 11
238.500000
 21
-93.673302
  0
LINE
  8
0
  6
CONTINUOUS
 62
7
 10
236.500000
 20
-93.000000
 11
238.500000
 21
-93.000000
  0
LINE
  8
0
  6
CONTINUOUS
 62
2
 10
238.500000
 20
-95.199997
 11
253.699997
 21
-95.199997
  0
LINE
  8
0
  6
CONTINUOUS
 62
2
 10
238.500000
 20
-101.800003
 11
253.699997
 21
-101.800003
  0
LINE
  8
0
  6
CENTER
 62
2
 10
41.500000
 20
-98.500000
 11
61.700001
 21
-98.500000
  0
LINE
  8
0
  6
CONTINUOUS
 62
7
 10
44.500000
 20
-102.500000
 11
59.700001
 21
-102.500000
  0
LINE
  8
0
  6
CONTINUOUS
 62
7
 10
59.700001
 20
-101.800003
 11
60.700001
 21
-101.800003
  0
LINE
  8
0
  6
CONTINUOUS
 62
7
 10
44.500000
 20
-94.500000
 11
59.700001
 21
-94.500000
  0
LINE
  8
0
  6
CONTINUOUS
 62
7
 10
59.700001
 20
-102.500000
 11
59.700001
 21
-94.500000
  0
LINE
  8
0
  6
CONTINUOUS
 62
7
 10
60.700001
 20
-101.800003
 11
60.700001
 21
-95.199997
  0
LINE
  8
0
  6
CONTINUOUS
 62
7
 10
59.700001
 20
-95.199997
 11
60.700001
 21
-95.199997
  0
LINE
  8
0
  6
CONTINUOUS
 62
7
 10
42.500000
 20
-104.500000
 11
42.500000
 21
-92.500000
  0
LINE
  8
0
  6
CONTINUOUS
 62
7
 10
42.500000
 20
-104.000000
 11
44.500000
 21
-104.000000
  0
LINE
  8
0
  6
CONTINUOUS
 62
7
 10
44.500000
 20
-93.000000
 11
44.500000
 21
-104.000000
  0
LINE
  8
0
  6
CONTINUOUS
 62
7
 10
42.500000
 20
-103.327003
 11
44.500000
 21
-103.327003
  0
LINE
  8
0
  6
CONTINUOUS
 62
7
 10
42.500000
 20
-99.173302
 11
44.500000
 21
-99.173302
  0
LINE
  8
0
  6
CONTINUOUS
 62
7
 10
42.500000
 20
-97.826599
 11
44.500000
 21
-97.826599
  0
LINE
  8
0
  6
CONTINUOUS
 62
7
 10
42.500000
 20
-93.673302
 11
44.500000
 21
-93.673302
  0
LINE
  8
0
  6
CONTINUOUS
 62
7
 10
42.500000
 20
-93.000000
 11
44.500000
 21
-93.000000
  0
LINE
  8
0
  6
CONTINUOUS
 62
2
 10
44.500000
 20
-95.199997
 11
59.700001
 21
-95.199997
  0
LINE
  8
0
  6
CONTINUOUS
 62
2
 10
44.500000
 20
-101.800003
 11
59.700001
 21
-101.800003
  0
LINE
  8
0
  6
CONTINUOUS
 62
7
 10
-155.500000
 20
-92.500000
 11
-211.350006
 21
-92.500000
  0
LINE
  8
0
  6
CONTINUOUS
 62
7
 10
-155.500000
 20
-104.500000
 11
-210.500000
 21
-104.500000
  0
LINE
  8
0
  6
CENTER
 62
2
 10
-156.500000
 20
-98.500000
 11
-136.300003
 21
-98.500000
  0
LINE
  8
0
  6
CONTINUOUS
 62
7
 10
-153.500000
 20
-102.500000
 11
-138.300003
 21
-102.500000
  0
LINE
  8
0
  6
CONTINUOUS
 62
7
 10
-138.300003
 20
-101.800003
 11
-137.300003
 21
-101.800003
  0
LINE
  8
0
  6
CONTINUOUS
 62
7
 10
-153.500000
 20
-94.500000
 11
-138.300003
 21
-94.500000
  0
LINE
  8
0
  6
CONTINUOUS
 62
7
 10
-138.300003
 20
-102.500000
 11
-138.300003
 21
-94.500000
  0
LINE
  8
0
  6
CONTINUOUS
 62
7
 10
-137.300003
 20
-101.800003
 11
-137.300003
 21
-95.199997
  0
LINE
  8
0
  6
CONTINUOUS
 62
7
 10
-138.300003
 20
-95.199997
 11
-137.300003
 21
-95.199997
  0
LINE
  8
0
  6
CONTINUOUS
 62
7
 10
-155.500000
 20
-104.500000
 11
-155.500000
 21
-92.500000
  0
LINE
  8
0
  6
CONTINUOUS
 62
7
 10
-155.500000
 20
-104.000000
 11
-153.500000
 21
-104.000000
  0
LINE
  8
0
  6
CONTINUOUS
 62
7
 10
-153.500000
 20
-93.000000
 11
-153.500000
 21
-104.000000
  0
LINE
  8
0
  6
CONTINUOUS
 62
7
 10
-155.500000
 20
-103.327003
 11
-153.500000
 21
-103.327003
  0
LINE
  8
0
  6
CONTINUOUS
 62
7
 10
-155.500000
 20
-99.173302
 11
-153.500000
 21
-99.173302
  0
LINE
  8
0
  6
CONTINUOUS
 62
7
 10
-155.500000
 20
-97.826599
 11
-153.500000
 21
-97.826599
  0
LINE
  8
0
  6
CONTINUOUS
 62
7
 10
-155.500000
 20
-93.673302
 11
-153.500000
 21
-93.673302
  0
LINE
  8
0
  6
CONTINUOUS
 62
7
 10
-155.500000
 20
-93.000000
 11
-153.500000
 21
-93.000000
  0
LINE
  8
0
  6
CONTINUOUS
 62
2
 10
-153.500000
 20
-95.199997
 11
-138.300003
 21
-95.199997
  0
LINE
  8
0
  6
CONTINUOUS
 62
2
 10
-153.500000
 20
-101.800003
 11
-138.300003
 21
-101.800003
  0
LINE
  8
0
  6
DASHED
 62
2
 10
-203.500000
 20
90.900002
 11
-198.500000
 21
90.900002
  0
LINE
  8
0
  6
DASHED
 62
2
 10
-202.649994
 20
90.900002
 11
-202.649994
 21
88.500000
  0
LINE
  8
0
  6
DASHED
 62
2
 10
-199.350006
 20
90.900002
 11
-199.350006
 21
88.500000
  0
LINE
  8
0
  6
DASHED
 62
2
 10
-179.350006
 20
92.500000
 11
-179.350006
 21
87.500000
  0
LINE
  8
0
  6
DASHED
 62
2
 10
-182.649994
 20
92.500000
 11
-182.649994
 21
87.500000
  0
LINE
  8
0
  6
CENTER
 62
2
 10
-198.000000
 20
20.100000
 11
-198.000000
 21
14.900000
  0
LINE
  8
0
  6
CENTER
 62
2
 10
-200.600006
 20
17.500000
 11
-195.399994
 21
17.500000
  0
LINE
  8
0
  6
DASHED
 62
2
 10
-202.649994
 20
-34.900002
 11
-202.649994
 21
-32.500000
  0
LINE
  8
0
  6
DASHED
 62
2
 10
-199.350006
 20
-34.900002
 11
-199.350006
 21
-32.500000
  0
LINE
  8
0
  6
DASHED
 62
2
 10
-179.350006
 20
-36.500000
 11
-179.350006
 21
-31.500000
  0
LINE
  8
0
  6
DASHED
 62
2
 10
-182.649994
 20
-36.500000
 11
-182.649994
 21
-31.500000
  0
LINE
  8
0
  6
DASHED
 62
2
 10
158.500000
 20
90.900002
 11
163.500000
 21
90.900002
  0
LINE
  8
0
  6
DASHED
 62
2
 10
159.350006
 20
90.900002
 11
159.350006
 21
88.500000
  0
LINE
  8
0
  6
DASHED
 62
2
 10
162.649994
 20
90.900002
 11
162.649994
 21
88.500000
  0
LINE
  8
0
  6
DASHED
 62
2
 10
212.649994
 20
92.500000
 11
212.649994
 21
87.500000
  0
LINE
  8
0
  6
DASHED
 62
2
 10
209.350006
 20
92.500000
 11
209.350006
 21
87.500000
  0
LINE
  8
0
  6
CENTER
 62
2
 10
174.000000
 20
20.100000
 11
174.000000
 21
14.900000
  0
LINE
  8
0
  6
CENTER
 62
2
 10
171.399994
 20
17.500000
 11
176.600006
 21
17.500000
  0
LINE
  8
0
  6
DASHED
 62
2
 10
162.649994
 20
-34.900002
 11
162.649994
 21
-32.500000
  0
LINE
  8
0
  6
DASHED
 62
2
 10
159.350006
 20
-34.900002
 11
159.350006
 21
-32.500000
  0
LINE
  8
0
  6
DASHED
 62
2
 10
209.350006
 20
-36.500000
 11
209.350006
 21
-31.500000
  0
LINE
  8
0
  6
DASHED
 62
2
 10
212.649994
 20
-36.500000
 11
212.649994
 21
-31.500000
  0
LINE
  8
0
  6
DASHED
 62
2
 10
-16.350000
 20
92.500000
 11
-16.350000
 21
86.500000
  0
LINE
  8
0
  6
DASHED
 62
2
 10
-19.650000
 20
92.500000
 11
-19.650000
 21
86.500000
  0
LINE
  8
0
  6
DASHED
 62
2
 10
15.350000
 20
92.500000
 11
15.350000
 21
87.500000
  0
LINE
  8
0
  6
DASHED
 62
2
 10
18.650000
 20
92.500000
 11
18.650000
 21
87.500000
  0
LINE
  8
0
  6
CENTER
 62
2
 10
-15.000000
 20
20.100000
 11
-15.000000
 21
14.900000
  0
LINE
  8
0
  6
CENTER
 62
2
 10
-17.600000
 20
17.500000
 11
-12.400000
 21
17.500000
  0
LINE
  8
0
  6
DASHED
 62
2
 10
-19.650000
 20
-36.500000
 11
-19.650000
 21
-30.500000
  0
LINE
  8
0
  6
DASHED
 62
2
 10
-16.350000
 20
-36.500000
 11
-16.350000
 21
-30.500000
  0
LINE
  8
0
  6
DASHED
 62
2
 10
15.350000
 20
-36.500000
 11
15.350000
 21
-31.500000
  0
LINE
  8
0
  6
DASHED
 62
2
 10
18.650000
 20
-36.500000
 11
18.650000
 21
-31.500000
  0
LINE
  8
0
  6
CONTINUOUS
 62
7
 10
73.207100
 20
48.707100
 11
71.792900
 21
47.292900
  0
LINE
  8
0
  6
CONTINUOUS
 62
7
 10
-256.792999
 20
48.707199
 11
-258.207001
 21
47.292999
  0
LINE
  8
0
  6
CONTINUOUS
 62
7
 10
-258.207001
 20
48.707100
 11
-256.792999
 21
47.292900
  0
LINE
  8
0
  6
CONTINUOUS
 62
7
 10
-117.792999
 20
48.707199
 11
-119.207001
 21
47.292900
  0
LINE
  8
0
  6
CONTINUOUS
 62
7
 10
-119.207001
 20
48.707100
 11
-117.792999
 21
47.292900
  0
LINE
  8
0
  6
CONTINUOUS
 62
7
 10
112.207001
 20
48.707100
 11
110.792999
 21
47.292900
  0
LINE
  8
0
  6
CONTINUOUS
 62
7
 10
110.792999
 20
48.707199
 11
112.207001
 21
47.292999
  0
LINE
  8
0
  6
CONTINUOUS
 62
7
 10
266.207001
 20
48.707001
 11
264.792999
 21
47.292801
  0
LINE
  8
0
  6
CONTINUOUS
 62
7
 10
264.792999
 20
48.707401
 11
266.207001
 21
47.293098
  0
LINE
  8
0
  6
CONTINUOUS
 62
7
 10
-71.792999
 20
48.707199
 11
-73.207199
 21
47.292999
  0
LINE
  8
0
  6
CONTINUOUS
 62
7
 10
-73.207100
 20
48.707100
 11
-71.792900
 21
47.292900
  0
LINE
  8
0
  6
CONTINUOUS
 62
7
 10
-93.466698
 20
195.500000
 11
-93.466698
 21
-195.000000
  0
LINE
  8
0
  6
CONTINUOUS
 62
7
 10
94.316704
 20
195.500000
 11
94.316704
 21
-195.000000
  0
CIRCLE
  8
0
  6
CONTINUOUS
 62
2
 10
161.000000
 20
-68.000000
 40
2.000000
  0
CIRCLE
  8
0
  6
CONTINUOUS
 62
7
 10
161.000000
 20
-68.000000
 40
2.500000
  0
CIRCLE
  8
0
  6
CONTINUOUS
 62
2
 10
208.000000
 20
38.000000
 40
1.500000
  0
CIRCLE
  8
0
  6
CONTINUOUS
 62
7
 10
190.000000
 20
38.000000
 40
1.250000
  0
CIRCLE
  8
0
  6
CONTINUOUS
 62
2
 10
190.000000
 20
38.000000
 40
1.500000
  0
CIRCLE
  8
0
  6
CONTINUOUS
 62
7
 10
174.000000
 20
38.500000
 40
1.600000
  0
CIRCLE
  8
0
  6
CONTINUOUS
 62
7
 10
142.000000
 20
38.000000
 40
1.250000
  0
CIRCLE
  8
0
  6
CONTINUOUS
 62
2
 10
142.000000
 20
38.000000
 40
1.500000
  0
CIRCLE
  8
0
  6
CONTINUOUS
 62
7
 10
142.000000
 20
18.000000
 40
1.250000
  0
CIRCLE
  8
0
  6
CONTINUOUS
 62
2
 10
142.000000
 20
18.000000
 40
1.500000
  0
CIRCLE
  8
0
  6
CONTINUOUS
 62
7
 10
208.000000
 20
18.000000
 40
1.250000
  0
CIRCLE
  8
0
  6
CONTINUOUS
 62
2
 10
208.000000
 20
18.000000
 40
1.500000
  0
CIRCLE
  8
0
  6
CONTINUOUS
 62
7
 10
190.000000
 20
18.000000
 40
1.250000
  0
CIRCLE
  8
0
  6
CONTINUOUS
 62
2
 10
190.000000
 20
18.000000
 40
1.500000
  0
CIRCLE
  8
0
  6
CONTINUOUS
 62
7
 10
208.000000
 20
38.000000
 40
1.250000
  0
ARC
  8
0
  6
DASHED
 62
2
 10
149.000000
 20
17.500000
 40
3.000000
 50
303.367004
 51
236.632996
  0
ARC
  8
0
  6
DASHED
 62
2
 10
149.000000
 20
17.500000
 40
1.649990
 50
0.000000
 51
180.000000
  0
ARC
  8
0
  6
DASHED
 62
2
 10
149.000000
 20
38.500000
 40
1.649990
 50
180.000000
 51
0.000000
  0
ARC
  8
0
  6
DASHED
 62
2
 10
149.000000
 20
38.500000
 40
3.000000
 50
123.366997
 51
416.632996
  0
CIRCLE
  8
0
  6
DASHED
 62
2
 10
211.000000
 20
38.500000
 40
3.000000
  0
CIRCLE
  8
0
  6
DASHED
 62
2
 10
211.000000
 20
38.500000
 40
2.000000
  0
CIRCLE
  8
0
  6
DASHED
 62
2
 10
211.000000
 20
38.500000
 40
1.650000
  0
CIRCLE
  8
0
  6
DASHED
 62
2
 10
211.000000
 20
17.500000
 40
3.000000
  0
CIRCLE
  8
0
  6
DASHED
 62
2
 10
211.000000
 20
17.500000
 40
2.000000
  0
CIRCLE
  8
0
  6
DASHED
 62
2
 10
211.000000
 20
17.500000
 40
1.650000
  0
CIRCLE
  8
0
  6
CONTINUOUS
 62
2
 10
114.000000
 20
28.000000
 40
2.000000
  0
CIRCLE
  8
0
  6
CONTINUOUS
 62
7
 10
114.000000
 20
38.000000
 40
3.000000
  0
CIRCLE
  8
0
  6
CONTINUOUS
 62
7
 10
114.000000
 20
28.000000
 40
1.650000
  0
CIRCLE
  8
0
  6
CONTINUOUS
 62
7
 10
105.000000
 20
28.000000
 40
5.000000
  0
CIRCLE
  8
0
  6
CONTINUOUS
 62
7
 10
114.000000
 20
18.000000
 40
3.000000
  0
CIRCLE
  8
0
  6
CONTINUOUS
 62
2
 10
105.000000
 20
18.000000
 40
2.000000
  0
CIRCLE
  8
0
  6
CONTINUOUS
 62
7
 10
105.000000
 20
18.000000
 40
1.650000
  0
CIRCLE
  8
0
  6
CONTINUOUS
 62
2
 10
105.000000
 20
38.000000
 40
2.000000
  0
CIRCLE
  8
0
  6
CONTINUOUS
 62
7
 10
105.000000
 20
38.000000
 40
1.650000
  0
ARC
  8
0
  6
CONTINUOUS
 62
7
 10
219.000000
 20
87.000000
 40
4.800000
 50
204.623993
 51
236.442993
  0
ARC
  8
0
  6
CONTINUOUS
 62
7
 10
141.000000
 20
87.000000
 40
4.800000
 50
303.557007
 51
0.000000
  0
CIRCLE
  8
0
  6
CONTINUOUS
 62
2
 10
204.850006
 20
76.199997
 40
1.000000
  0
CIRCLE
  8
0
  6
CONTINUOUS
 62
7
 10
204.850006
 20
76.199997
 40
0.800000
  0
ARC
  8
0
  6
CONTINUOUS
 62
7
 10
149.000000
 20
-68.000000
 40
1.649990
 50
180.000000
 51
0.000000
  0
ARC
  8
0
  6
CONTINUOUS
 62
7
 10
149.000000
 20
-89.000000
 40
1.649990
 50
0.000000
 51
180.000000
  0
CIRCLE
  8
0
  6
CONTINUOUS
 62
7
 10
161.000000
 20
-89.000000
 40
2.500000
  0
CIRCLE
  8
0
  6
CONTINUOUS
 62
7
 10
211.000000
 20
-89.000000
 40
1.650000
  0
CIRCLE
  8
0
  6
CONTINUOUS
 62
2
 10
211.000000
 20
-89.000000
 40
2.000000
  0
CIRCLE
  8
0
  6
CONTINUOUS
 62
7
 10
161.000000
 20
-89.000000
 40
1.650000
  0
CIRCLE
  8
0
  6
CONTINUOUS
 62
2
 10
161.000000
 20
-89.000000
 40
2.000000
  0
CIRCLE
  8
0
  6
CONTINUOUS
 62
7
 10
211.000000
 20
-68.000000
 40
1.650000
  0
CIRCLE
  8
0
  6
CONTINUOUS
 62
2
 10
211.000000
 20
-68.000000
 40
2.000000
  0
CIRCLE
  8
0
  6
CONTINUOUS
 62
7
 10
161.000000
 20
-68.000000
 40
1.650000
  0
ARC
  8
0
  6
CONTINUOUS
 62
7
 10
-30.000000
 20
-68.000000
 40
1.650000
 50
180.000000
 51
0.000000
  0
ARC
  8
0
  6
CONTINUOUS
 62
7
 10
-30.000000
 20
-89.000000
 40
1.650000
 50
0.000000
 51
180.000000
  0
CIRCLE
  8
0
  6
CONTINUOUS
 62
7
 10
17.000000
 20
-89.000000
 40
1.650000
  0
CIRCLE
  8
0
  6
CONTINUOUS
 62
2
 10
17.000000
 20
-89.000000
 40
2.000000
  0
CIRCLE
  8
0
  6
CONTINUOUS
 62
7
 10
-18.000000
 20
-89.000000
 40
1.650000
  0
CIRCLE
  8
0
  6
CONTINUOUS
 62
2
 10
-18.000000
 20
-89.000000
 40
2.000000
  0
CIRCLE
  8
0
  6
CONTINUOUS
 62
7
 10
17.000000
 20
-68.000000
 40
1.650000
  0
CIRCLE
  8
0
  6
CONTINUOUS
 62
2
 10
17.000000
 20
-68.000000
 40
2.000000
  0
CIRCLE
  8
0
  6
CONTINUOUS
 62
7
 10
-18.000000
 20
-68.000000
 40
1.650000
  0
CIRCLE
  8
0
  6
CONTINUOUS
 62
2
 10
-18.000000
 20
-68.000000
 40
2.000000
  0
CIRCLE
  8
0
  6
CONTINUOUS
 62
2
 10
14.000000
 20
38.000000
 40
1.500000
  0
CIRCLE
  8
0
  6
CONTINUOUS
 62
7
 10
-19.000000
 20
38.000000
 40
1.250000
  0
CIRCLE
  8
0
  6
CONTINUOUS
 62
2
 10
-19.000000
 20
38.000000
 40
1.500000
  0
CIRCLE
  8
0
  6
CONTINUOUS
 62
7
 10
-15.000000
 20
38.500000
 40
1.600000
  0
CIRCLE
  8
0
  6
CONTINUOUS
 62
7
 10
-37.000000
 20
38.000000
 40
1.250000
  0
CIRCLE
  8
0
  6
CONTINUOUS
 62
2
 10
-37.000000
 20
38.000000
 40
1.500000
  0
CIRCLE
  8
0
  6
CONTINUOUS
 62
7
 10
-37.000000
 20
18.000000
 40
1.250000
  0
CIRCLE
  8
0
  6
CONTINUOUS
 62
2
 10
-37.000000
 20
18.000000
 40
1.500000
  0
CIRCLE
  8
0
  6
CONTINUOUS
 62
7
 10
14.000000
 20
18.000000
 40
1.250000
  0
CIRCLE
  8
0
  6
CONTINUOUS
 62
2
 10
14.000000
 20
18.000000
 40
1.500000
  0
CIRCLE
  8
0
  6
CONTINUOUS
 62
7
 10
-19.000000
 20
18.000000
 40
1.250000
  0
CIRCLE
  8
0
  6
CONTINUOUS
 62
2
 10
-19.000000
 20
18.000000
 40
1.500000
  0
CIRCLE
  8
0
  6
CONTINUOUS
 62
7
 10
14.000000
 20
38.000000
 40
1.250000
  0
ARC
  8
0
  6
DASHED
 62
2
 10
-30.000000
 20
17.500000
 40
3.000000
 50
303.367004
 51
236.632996
  0
ARC
  8
0
  6
DASHED
 62
2
 10
-30.000000
 20
17.500000
 40
1.650000
 50
0.000000
 51
180.000000
  0
ARC
  8
0
  6
DASHED
 62
2
 10
-30.000000
 20
38.500000
 40
1.650000
 50
180.000000
 51
0.000000
  0
ARC
  8
0
  6
DASHED
 62
2
 10
-30.000000
 20
38.500000
 40
3.000000
 50
123.366997
 51
416.632996
  0
CIRCLE
  8
0
  6
DASHED
 62
2
 10
17.000000
 20
38.500000
 40
3.000000
  0
CIRCLE
  8
0
  6
DASHED
 62
2
 10
17.000000
 20
38.500000
 40
2.000000
  0
CIRCLE
  8
0
  6
DASHED
 62
2
 10
17.000000
 20
38.500000
 40
1.650000
  0
CIRCLE
  8
0
  6
DASHED
 62
2
 10
17.000000
 20
17.500000
 40
3.000000
  0
CIRCLE
  8
0
  6
DASHED
 62
2
 10
17.000000
 20
17.500000
 40
2.000000
  0
CIRCLE
  8
0
  6
DASHED
 62
2
 10
17.000000
 20
17.500000
 40
1.650000
  0
CIRCLE
  8
0
  6
CONTINUOUS
 62
7
 10
-4.000020
 20
18.000000
 40
1.250000
  0
CIRCLE
  8
0
  6
CONTINUOUS
 62
2
 10
-4.000020
 20
18.000000
 40
1.500000
  0
CIRCLE
  8
0
  6
CONTINUOUS
 62
2
 10
-4.000020
 20
38.000000
 40
1.500000
  0
CIRCLE
  8
0
  6
CONTINUOUS
 62
7
 10
-4.000020
 20
38.000000
 40
1.250000
  0
CIRCLE
  8
0
  6
CONTINUOUS
 62
2
 10
10.850000
 20
76.199997
 40
1.000000
  0
CIRCLE
  8
0
  6
CONTINUOUS
 62
7
 10
10.850000
 20
76.199997
 40
0.800000
  0
ARC
  8
0
  6
CONTINUOUS
 62
7
 10
-38.000000
 20
87.199997
 40
4.800000
 50
298.954987
 51
0.000000
  0
ARC
  8
0
  6
CONTINUOUS
 62
7
 10
25.000000
 20
87.199997
 40
4.800000
 50
207.279007
 51
241.044998
  0
CIRCLE
  8
0
  6
CONTINUOUS
 62
2
 10
141.000000
 20
-31.000000
 40
2.500000
  0
CIRCLE
  8
0
  6
CONTINUOUS
 62
7
 10
141.000000
 20
-31.000000
 40
2.100000
  0
CIRCLE
  8
0
  6
CONTINUOUS
 62
2
 10
219.000000
 20
-31.000000
 40
2.500000
  0
CIRCLE
  8
0
  6
CONTINUOUS
 62
7
 10
219.000000
 20
-31.000000
 40
2.100000
  0
ARC
  8
0
  6
CONTINUOUS
 62
7
 10
141.000000
 20
-31.000000
 40
4.800000
 50
0.000000
 51
56.442600
  0
ARC
  8
0
  6
CONTINUOUS
 62
7
 10
155.000000
 20
-32.500000
 40
3.000000
 50
0.000000
 51
150.000000
  0
CIRCLE
  8
0
  6
CONTINUOUS
 62
2
 10
214.850006
 20
-20.200001
 40
1.000000
  0
CIRCLE
  8
0
  6
CONTINUOUS
 62
7
 10
204.850006
 20
-20.200001
 40
0.750000
  0
CIRCLE
  8
0
  6
CONTINUOUS
 62
7
 10
218.199997
 20
-20.500000
 40
1.250000
  0
CIRCLE
  8
0
  6
CONTINUOUS
 62
2
 10
155.000000
 20
-32.500000
 40
1.500000
  0
CIRCLE
  8
0
  6
CONTINUOUS
 62
2
 10
205.000000
 20
-32.500000
 40
1.500000
  0
CIRCLE
  8
0
  6
CONTINUOUS
 62
2
 10
218.199997
 20
-20.500000
 40
1.500000
  0
ARC
  8
0
  6
CONTINUOUS
 62
7
 10
219.000000
 20
-31.000000
 40
4.800000
 50
123.556999
 51
180.000000
  0
ARC
  8
0
  6
CONTINUOUS
 62
7
 10
205.000000
 20
-32.500000
 40
3.000010
 50
29.999901
 51
180.000000
  0
CIRCLE
  8
0
  6
CONTINUOUS
 62
7
 10
205.000000
 20
-32.500000
 40
1.250000
  0
CIRCLE
  8
0
  6
CONTINUOUS
 62
7
 10
214.850006
 20
-20.200001
 40
0.750000
  0
CIRCLE
  8
0
  6
CONTINUOUS
 62
2
 10
204.850006
 20
-20.200001
 40
1.000000
  0
CIRCLE
  8
0
  6
CONTINUOUS
 62
2
 10
211.699997
 20
-20.500000
 40
1.500000
  0
CIRCLE
  8
0
  6
CONTINUOUS
 62
7
 10
211.699997
 20
-20.500000
 40
1.250000
  0
CIRCLE
  8
0
  6
CONTINUOUS
 62
7
 10
155.000000
 20
-32.500000
 40
1.250000
  0
CIRCLE
  8
0
  6
CONTINUOUS
 62
2
 10
-38.000000
 20
-31.000000
 40
2.500000
  0
CIRCLE
  8
0
  6
CONTINUOUS
 62
7
 10
-38.000000
 20
-31.000000
 40
2.100000
  0
CIRCLE
  8
0
  6
CONTINUOUS
 62
2
 10
25.000000
 20
-31.000000
 40
2.500000
  0
CIRCLE
  8
0
  6
CONTINUOUS
 62
7
 10
25.000000
 20
-31.000000
 40
2.100000
  0
CIRCLE
  8
0
  6
CONTINUOUS
 62
2
 10
20.850000
 20
-20.200001
 40
1.000000
  0
CIRCLE
  8
0
  6
CONTINUOUS
 62
7
 10
10.850000
 20
-20.200001
 40
0.750000
  0
CIRCLE
  8
0
  6
CONTINUOUS
 62
7
 10
24.200001
 20
-20.500000
 40
1.250000
  0
CIRCLE
  8
0
  6
CONTINUOUS
 62
2
 10
-24.000000
 20
-32.500000
 40
1.500000
  0
CIRCLE
  8
0
  6
CONTINUOUS
 62
2
 10
11.000000
 20
-32.500000
 40
1.500000
  0
CIRCLE
  8
0
  6
CONTINUOUS
 62
2
 10
24.200001
 20
-20.500000
 40
1.500000
  0
CIRCLE
  8
0
  6
CONTINUOUS
 62
7
 10
11.000000
 20
-32.500000
 40
1.250000
  0
CIRCLE
  8
0
  6
CONTINUOUS
 62
7
 10
20.850000
 20
-20.200001
 40
0.750000
  0
CIRCLE
  8
0
  6
CONTINUOUS
 62
2
 10
10.850000
 20
-20.200001
 40
1.000000
  0
CIRCLE
  8
0
  6
CONTINUOUS
 62
2
 10
17.700001
 20
-20.500000
 40
1.500000
  0
CIRCLE
  8
0
  6
CONTINUOUS
 62
7
 10
17.700001
 20
-20.500000
 40
1.250000
  0
CIRCLE
  8
0
  6
CONTINUOUS
 62
7
 10
-24.000000
 20
-32.500000
 40
1.250000
  0
ARC
  8
0
  6
CONTINUOUS
 62
7
 10
25.000000
 20
-31.200001
 40
4.800000
 50
118.955002
 51
180.000000
  0
ARC
  8
0
  6
CONTINUOUS
 62
7
 10
11.000000
 20
-32.700001
 40
3.000000
 50
30.000000
 51
132.834000
  0
ARC
  8
0
  6
CONTINUOUS
 62
7
 10
-24.000000
 20
-32.700001
 40
3.000000
 50
47.166500
 51
150.000000
  0
ARC
  8
0
  6
CONTINUOUS
 62
7
 10
-38.000000
 20
-31.200001
 40
4.800000
 50
0.000000
 51
61.044701
  0
ARC
  8
0
  6
CONTINUOUS
 62
7
 10
157.199997
 20
83.500000
 40
1.500000
 50
90.000000
 51
180.000000
  0
CIRCLE
  8
0
  6
CONTINUOUS
 62
7
 10
111.500000
 20
48.000000
 40
1.800000
  0
ARC
  8
0
  6
CONTINUOUS
 62
7
 10
111.500000
 20
48.000000
 40
6.000000
 50
293.556000
 51
306.442993
  0
ARC
  8
0
  6
CONTINUOUS
 62
7
 10
111.500000
 20
48.000000
 40
6.000000
 50
113.556999
 51
126.444000
  0
ARC
  8
0
  6
CONTINUOUS
 62
7
 10
111.500000
 20
48.000000
 40
6.000000
 50
53.556499
 51
66.443497
  0
ARC
  8
0
  6
CONTINUOUS
 62
7
 10
111.500000
 20
48.000000
 40
6.000000
 50
233.556000
 51
246.442993
  0
CIRCLE
  8
0
  6
CONTINUOUS
 62
7
 10
111.500000
 20
48.000000
 40
4.000000
  0
ARC
  8
0
  6
CONTINUOUS
 62
7
 10
111.500000
 20
48.000000
 40
6.000000
 50
173.556000
 51
186.442993
  0
ARC
  8
0
  6
CONTINUOUS
 62
7
 10
111.500000
 20
48.000000
 40
6.000000
 50
353.556000
 51
6.443530
  0
CIRCLE
  8
0
  6
CONTINUOUS
 62
2
 10
-201.000000
 20
-68.000000
 40
2.000000
  0
CIRCLE
  8
0
  6
CONTINUOUS
 62
7
 10
-201.000000
 20
-68.000000
 40
2.500000
  0
CIRCLE
  8
0
  6
CONTINUOUS
 62
2
 10
-184.000000
 20
38.000000
 40
1.500000
  0
CIRCLE
  8
0
  6
CONTINUOUS
 62
7
 10
-202.000000
 20
38.000000
 40
1.250000
  0
CIRCLE
  8
0
  6
CONTINUOUS
 62
2
 10
-202.000000
 20
38.000000
 40
1.500000
  0
CIRCLE
  8
0
  6
CONTINUOUS
 62
7
 10
-198.000000
 20
38.500000
 40
1.600000
  0
CIRCLE
  8
0
  6
CONTINUOUS
 62
7
 10
-220.000000
 20
38.000000
 40
1.250000
  0
CIRCLE
  8
0
  6
CONTINUOUS
 62
2
 10
-220.000000
 20
38.000000
 40
1.500000
  0
CIRCLE
  8
0
  6
CONTINUOUS
 62
7
 10
-220.000000
 20
18.000000
 40
1.250000
  0
CIRCLE
  8
0
  6
CONTINUOUS
 62
2
 10
-220.000000
 20
18.000000
 40
1.500000
  0
CIRCLE
  8
0
  6
CONTINUOUS
 62
7
 10
-184.000000
 20
18.000000
 40
1.250000
  0
CIRCLE
  8
0
  6
CONTINUOUS
 62
2
 10
-184.000000
 20
18.000000
 40
1.500000
  0
CIRCLE
  8
0
  6
CONTINUOUS
 62
7
 10
-202.000000
 20
18.000000
 40
1.250000
  0
CIRCLE
  8
0
  6
CONTINUOUS
 62
2
 10
-202.000000
 20
18.000000
 40
1.500000
  0
CIRCLE
  8
0
  6
CONTINUOUS
 62
7
 10
-184.000000
 20
38.000000
 40
1.250000
  0
ARC
  8
0
  6
DASHED
 62
2
 10
-213.000000
 20
17.500000
 40
3.000000
 50
303.367004
 51
236.632996
  0
ARC
  8
0
  6
DASHED
 62
2
 10
-213.000000
 20
17.500000
 40
1.649990
 50
0.000000
 51
180.000000
  0
ARC
  8
0
  6
DASHED
 62
2
 10
-213.000000
 20
38.500000
 40
1.649990
 50
180.000000
 51
0.000000
  0
ARC
  8
0
  6
DASHED
 62
2
 10
-213.000000
 20
38.500000
 40
3.000000
 50
123.366997
 51
416.632996
  0
CIRCLE
  8
0
  6
DASHED
 62
2
 10
-181.000000
 20
38.500000
 40
3.000000
  0
CIRCLE
  8
0
  6
DASHED
 62
2
 10
-181.000000
 20
38.500000
 40
2.000000
  0
CIRCLE
  8
0
  6
DASHED
 62
2
 10
-181.000000
 20
38.500000
 40
1.650000
  0
CIRCLE
  8
0
  6
DASHED
 62
2
 10
-181.000000
 20
17.500000
 40
3.000000
  0
CIRCLE
  8
0
  6
DASHED
 62
2
 10
-181.000000
 20
17.500000
 40
2.000000
  0
CIRCLE
  8
0
  6
DASHED
 62
2
 10
-181.000000
 20
17.500000
 40
1.650000
  0
ARC
  8
0
  6
CONTINUOUS
 62
7
 10
-173.000000
 20
87.000000
 40
4.800000
 50
204.623993
 51
236.442993
  0
ARC
  8
0
  6
CONTINUOUS
 62
7
 10
-221.000000
 20
87.000000
 40
4.800000
 50
303.557007
 51
0.000000
  0
CIRCLE
  8
0
  6
CONTINUOUS
 62
2
 10
-187.149994
 20
76.199997
 40
1.000000
  0
CIRCLE
  8
0
  6
CONTINUOUS
 62
7
 10
-187.149994
 20
76.199997
 40
0.800000
  0
ARC
  8
0
  6
CONTINUOUS
 62
7
 10
-213.000000
 20
-68.000000
 40
1.649990
 50
180.000000
 51
0.000000
  0
ARC
  8
0
  6
CONTINUOUS
 62
7
 10
-213.000000
 20
-89.000000
 40
1.649990
 50
0.000000
 51
180.000000
  0
CIRCLE
  8
0
  6
CONTINUOUS
 62
7
 10
-201.000000
 20
-89.000000
 40
2.500000
  0
CIRCLE
  8
0
  6
CONTINUOUS
 62
7
 10
-181.000000
 20
-89.000000
 40
1.650000
  0
CIRCLE
  8
0
  6
CONTINUOUS
 62
2
 10
-181.000000
 20
-89.000000
 40
2.000000
  0
CIRCLE
  8
0
  6
CONTINUOUS
 62
7
 10
-201.000000
 20
-89.000000
 40
1.650000
  0
CIRCLE
  8
0
  6
CONTINUOUS
 62
2
 10
-201.000000
 20
-89.000000
 40
2.000000
  0
CIRCLE
  8
0
  6
CONTINUOUS
 62
7
 10
-181.000000
 20
-68.000000
 40
1.650000
  0
CIRCLE
  8
0
  6
CONTINUOUS
 62
2
 10
-181.000000
 20
-68.000000
 40
2.000000
  0
CIRCLE
  8
0
  6
CONTINUOUS
 62
7
 10
-201.000000
 20
-68.000000
 40
1.650000
  0
CIRCLE
  8
0
  6
CONTINUOUS
 62
2
 10
-221.000000
 20
-31.000000
 40
2.500000
  0
CIRCLE
  8
0
  6
CONTINUOUS
 62
7
 10
-221.000000
 20
-31.000000
 40
2.100000
  0
CIRCLE
  8
0
  6
CONTINUOUS
 62
2
 10
-173.000000
 20
-31.000000
 40
2.500000
  0
CIRCLE
  8
0
  6
CONTINUOUS
 62
7
 10
-173.000000
 20
-31.000000
 40
2.100000
  0
ARC
  8
0
  6
CONTINUOUS
 62
7
 10
-221.000000
 20
-31.000000
 40
4.800000
 50
0.000000
 51
56.442600
  0
ARC
  8
0
  6
CONTINUOUS
 62
7
 10
-207.000000
 20
-32.500000
 40
3.000000
 50
0.000000
 51
150.000000
  0
CIRCLE
  8
0
  6
CONTINUOUS
 62
2
 10
-177.149994
 20
-20.200001
 40
1.000000
  0
CIRCLE
  8
0
  6
CONTINUOUS
 62
7
 10
-187.149994
 20
-20.200001
 40
0.750000
  0
CIRCLE
  8
0
  6
CONTINUOUS
 62
7
 10
-173.800003
 20
-20.500000
 40
1.250000
  0
CIRCLE
  8
0
  6
CONTINUOUS
 62
2
 10
-207.000000
 20
-32.500000
 40
1.500000
  0
CIRCLE
  8
0
  6
CONTINUOUS
 62
2
 10
-187.000000
 20
-32.500000
 40
1.500000
  0
CIRCLE
  8
0
  6
CONTINUOUS
 62
2
 10
-173.800003
 20
-20.500000
 40
1.500000
  0
ARC
  8
0
  6
CONTINUOUS
 62
7
 10
-173.000000
 20
-31.000000
 40
4.800000
 50
123.556999
 51
180.000000
  0
ARC
  8
0
  6
CONTINUOUS
 62
7
 10
-187.000000
 20
-32.500000
 40
3.000010
 50
29.999901
 51
180.000000
  0
CIRCLE
  8
0
  6
CONTINUOUS
 62
7
 10
-187.000000
 20
-32.500000
 40
1.250000
  0
CIRCLE
  8
0
  6
CONTINUOUS
 62
7
 10
-177.149994
 20
-20.200001
 40
0.750000
  0
CIRCLE
  8
0
  6
CONTINUOUS
 62
2
 10
-187.149994
 20
-20.200001
 40
1.000000
  0
CIRCLE
  8
0
  6
CONTINUOUS
 62
2
 10
-180.300003
 20
-20.500000
 40
1.500000
  0
CIRCLE
  8
0
  6
CONTINUOUS
 62
7
 10
-180.300003
 20
-20.500000
 40
1.250000
  0
CIRCLE
  8
0
  6
CONTINUOUS
 62
7
 10
-207.000000
 20
-32.500000
 40
1.250000
  0
ARC
  8
0
  6
CONTINUOUS
 62
7
 10
-204.800003
 20
83.500000
 40
1.500000
 50
90.000000
 51
180.000000
  0
CIRCLE
  8
0
  6
CONTINUOUS
 62
7
 10
160.000000
 20
18.000000
 40
1.250000
  0
CIRCLE
  8
0
  6
CONTINUOUS
 62
2
 10
160.000000
 20
18.000000
 40
1.500000
  0
CIRCLE
  8
0
  6
CONTINUOUS
 62
7
 10
160.000000
 20
38.000000
 40
1.250000
  0
CIRCLE
  8
0
  6
CONTINUOUS
 62
2
 10
160.000000
 20
38.000000
 40
1.500000
  0
ARC
  8
0
  6
CONTINUOUS
 62
7
 10
-21.799999
 20
83.500000
 40
1.500000
 50
90.000000
 51
180.000000
  0
CIRCLE
  8
0
  6
CONTINUOUS
 62
2
 10
-70.000000
 20
28.000000
 40
2.000000
  0
CIRCLE
  8
0
  6
CONTINUOUS
 62
7
 10
-70.000000
 20
38.000000
 40
3.000000
  0
CIRCLE
  8
0
  6
CONTINUOUS
 62
7
 10
-70.000000
 20
28.000000
 40
1.650000
  0
CIRCLE
  8
0
  6
CONTINUOUS
 62
7
 10
-79.000000
 20
28.000000
 40
5.000000
  0
CIRCLE
  8
0
  6
CONTINUOUS
 62
7
 10
-70.000000
 20
18.000000
 40
3.000000
  0
CIRCLE
  8
0
  6
CONTINUOUS
 62
2
 10
-79.000000
 20
18.000000
 40
2.000000
  0
CIRCLE
  8
0
  6
CONTINUOUS
 62
7
 10
-79.000000
 20
18.000000
 40
1.650000
  0
CIRCLE
  8
0
  6
CONTINUOUS
 62
2
 10
-79.000000
 20
38.000000
 40
2.000000
  0
CIRCLE
  8
0
  6
CONTINUOUS
 62
7
 10
-79.000000
 20
38.000000
 40
1.650000
  0
CIRCLE
  8
0
  6
CONTINUOUS
 62
7
 10
-72.500000
 20
48.000000
 40
1.800000
  0
ARC
  8
0
  6
CONTINUOUS
 62
7
 10
-72.500000
 20
48.000000
 40
6.000000
 50
293.556000
 51
306.442993
  0
ARC
  8
0
  6
CONTINUOUS
 62
7
 10
-72.500000
 20
48.000000
 40
6.000000
 50
113.556999
 51
126.444000
  0
ARC
  8
0
  6
CONTINUOUS
 62
7
 10
-72.500000
 20
48.000000
 40
6.000000
 50
53.556499
 51
66.443497
  0
ARC
  8
0
  6
CONTINUOUS
 62
7
 10
-72.500000
 20
48.000000
 40
6.000000
 50
233.556000
 51
246.442993
  0
CIRCLE
  8
0
  6
CONTINUOUS
 62
7
 10
-72.500000
 20
48.000000
 40
4.000000
  0
ARC
  8
0
  6
CONTINUOUS
 62
7
 10
-72.500000
 20
48.000000
 40
6.000000
 50
173.556000
 51
186.442993
  0
ARC
  8
0
  6
CONTINUOUS
 62
7
 10
-72.500000
 20
48.000000
 40
6.000000
 50
353.556000
 51
6.443530
  0
CIRCLE
  8
0
  6
CONTINUOUS
 62
2
 10
-255.000000
 20
28.000000
 40
2.000000
  0
CIRCLE
  8
0
  6
CONTINUOUS
 62
7
 10
-255.000000
 20
38.000000
 40
3.000000
  0
CIRCLE
  8
0
  6
CONTINUOUS
 62
7
 10
-255.000000
 20
28.000000
 40
1.650000
  0
CIRCLE
  8
0
  6
CONTINUOUS
 62
7
 10
-264.000000
 20
28.000000
 40
5.000000
  0
CIRCLE
  8
0
  6
CONTINUOUS
 62
7
 10
-255.000000
 20
18.000000
 40
3.000000
  0
CIRCLE
  8
0
  6
CONTINUOUS
 62
2
 10
-264.000000
 20
18.000000
 40
2.000000
  0
CIRCLE
  8
0
  6
CONTINUOUS
 62
7
 10
-264.000000
 20
18.000000
 40
1.650000
  0
CIRCLE
  8
0
  6
CONTINUOUS
 62
2
 10
-264.000000
 20
38.000000
 40
2.000000
  0
CIRCLE
  8
0
  6
CONTINUOUS
 62
7
 10
-264.000000
 20
38.000000
 40
1.650000
  0
CIRCLE
  8
0
  6
CONTINUOUS
 62
7
 10
-257.500000
 20
48.000000
 40
1.800000
  0
ARC
  8
0
  6
CONTINUOUS
 62
7
 10
-257.500000
 20
48.000000
 40
6.000000
 50
293.556000
 51
306.442993
  0
ARC
  8
0
  6
CONTINUOUS
 62
7
 10
-257.500000
 20
48.000000
 40
6.000000
 50
113.556999
 51
126.444000
  0
ARC
  8
0
  6
CONTINUOUS
 62
7
 10
-257.500000
 20
48.000000
 40
6.000000
 50
53.556499
 51
66.443497
  0
ARC
  8
0
  6
CONTINUOUS
 62
7
 10
-257.500000
 20
48.000000
 40
6.000000
 50
233.556000
 51
246.442993
  0
CIRCLE
  8
0
  6
CONTINUOUS
 62
7
 10
-257.500000
 20
48.000000
 40
4.000000
  0
ARC
  8
0
  6
CONTINUOUS
 62
7
 10
-257.500000
 20
48.000000
 40
6.000000
 50
173.556000
 51
186.442993
  0
ARC
  8
0
  6
CONTINUOUS
 62
7
 10
-257.500000
 20
48.000000
 40
6.000000
 50
353.556000
 51
6.443530
  0
CIRCLE
  8
0
  6
CONTINUOUS
 62
7
 10
272.000000
 20
28.000000
 40
5.400000
  0
ARC
  8
0
  6
CONTINUOUS
 62
7
 10
265.500000
 20
34.599998
 40
1.350000
 50
206.389999
 51
333.614014
  0
ARC
  8
0
  6
CONTINUOUS
 62
7
 10
265.500000
 20
21.400000
 40
1.350000
 50
26.389299
 51
153.613007
  0
ARC
  8
0
  6
CONTINUOUS
 62
7
 10
-161.199997
 20
83.500000
 40
1.500000
 50
0.000000
 51
90.000000
  0
CIRCLE
  8
0
  6
CONTINUOUS
 62
7
 10
265.500000
 20
48.000000
 40
1.800000
  0
CIRCLE
  8
0
  6
CONTINUOUS
 62
7
 10
265.500000
 20
48.000000
 40
4.000000
  0
ARC
  8
0
  6
CONTINUOUS
 62
7
 10
265.500000
 20
48.000000
 40
6.000000
 50
293.556000
 51
306.442993
  0
ARC
  8
0
  6
CONTINUOUS
 62
7
 10
265.500000
 20
48.000000
 40
6.000000
 50
173.556000
 51
186.442993
  0
ARC
  8
0
  6
CONTINUOUS
 62
7
 10
265.500000
 20
48.000000
 40
6.000000
 50
233.556000
 51
246.442993
  0
ARC
  8
0
  6
CONTINUOUS
 62
7
 10
265.500000
 20
48.000000
 40
6.000000
 50
53.556499
 51
66.443497
  0
ARC
  8
0
  6
CONTINUOUS
 62
7
 10
265.500000
 20
48.000000
 40
6.000000
 50
113.556999
 51
126.444000
  0
ARC
  8
0
  6
CONTINUOUS
 62
7
 10
265.500000
 20
48.000000
 40
6.000000
 50
353.556000
 51
6.443530
  0
CIRCLE
  8
0
  6
CONTINUOUS
 62
7
 10
79.000000
 20
28.000000
 40
5.400000
  0
ARC
  8
0
  6
CONTINUOUS
 62
7
 10
72.500000
 20
34.599998
 40
1.350000
 50
206.389999
 51
333.614014
  0
ARC
  8
0
  6
CONTINUOUS
 62
7
 10
72.500000
 20
21.400000
 40
1.350000
 50
26.389099
 51
153.613007
  0
CIRCLE
  8
0
  6
CONTINUOUS
 62
7
 10
72.500000
 20
48.000000
 40
1.800000
  0
CIRCLE
  8
0
  6
CONTINUOUS
 62
7
 10
72.500000
 20
48.000000
 40
4.000000
  0
ARC
  8
0
  6
CONTINUOUS
 62
7
 10
72.500000
 20
48.000000
 40
6.000000
 50
293.556000
 51
306.442993
  0
ARC
  8
0
  6
CONTINUOUS
 62
7
 10
72.500000
 20
48.000000
 40
6.000000
 50
173.556000
 51
186.442993
  0
ARC
  8
0
  6
CONTINUOUS
 62
7
 10
72.500000
 20
48.000000
 40
6.000000
 50
233.556000
 51
246.442993
  0
ARC
  8
0
  6
CONTINUOUS
 62
7
 10
72.500000
 20
48.000000
 40
6.000000
 50
53.556499
 51
66.443497
  0
ARC
  8
0
  6
CONTINUOUS
 62
7
 10
72.500000
 20
48.000000
 40
6.000000
 50
113.556999
 51
126.444000
  0
ARC
  8
0
  6
CONTINUOUS
 62
7
 10
72.500000
 20
48.000000
 40
6.000000
 50
353.556000
 51
6.443530
  0
ARC
  8
0
  6
CONTINUOUS
 62
7
 10
230.800003
 20
83.500000
 40
1.500000
 50
0.000000
 51
90.000000
  0
ARC
  8
0
  6
CONTINUOUS
 62
7
 10
36.799999
 20
83.500000
 40
1.500000
 50
0.000000
 51
90.000000
  0
CIRCLE
  8
0
  6
CONTINUOUS
 62
7
 10
-112.000000
 20
28.000000
 40
5.400000
  0
ARC
  8
0
  6
CONTINUOUS
 62
7
 10
-118.500000
 20
34.599998
 40
1.350000
 50
206.389999
 51
333.614014
  0
ARC
  8
0
  6
CONTINUOUS
 62
7
 10
-118.500000
 20
21.400000
 40
1.350000
 50
26.389099
 51
153.613007
  0
CIRCLE
  8
0
  6
CONTINUOUS
 62
7
 10
-118.500000
 20
48.000000
 40
1.800000
  0
CIRCLE
  8
0
  6
CONTINUOUS
 62
7
 10
-118.500000
 20
48.000000
 40
4.000000
  0
ARC
  8
0
  6
CONTINUOUS
 62
7
 10
-118.500000
 20
48.000000
 40
6.000000
 50
293.556000
 51
306.442993
  0
ARC
  8
0
  6
CONTINUOUS
 62
7
 10
-118.500000
 20
48.000000
 40
6.000000
 50
173.556000
 51
186.442993
  0
ARC
  8
0
  6
CONTINUOUS
 62
7
 10
-118.500000
 20
48.000000
 40
6.000000
 50
233.556000
 51
246.442993
  0
ARC
  8
0
  6
CONTINUOUS
 62
7
 10
-118.500000
 20
48.000000
 40
6.000000
 50
53.556499
 51
66.443497
  0
ARC
  8
0
  6
CONTINUOUS
 62
7
 10
-118.500000
 20
48.000000
 40
6.000000
 50
113.556999
 51
126.444000
  0
ARC
  8
0
  6
CONTINUOUS
 62
7
 10
-118.500000
 20
48.000000
 40
6.000000
 50
353.556000
 51
6.443530
  0
ARC
  8
0
  6
CONTINUOUS
 62
7
 10
36.799999
 20
-27.499901
 40
1.500000
 50
270.000000
 51
0.000000
  0
ARC
  8
0
  6
CONTINUOUS
 62
7
 10
230.800003
 20
-27.499901
 40
1.500000
 50
270.000000
 51
0.000000
  0
ARC
  8
0
  6
CONTINUOUS
 62
7
 10
-161.199997
 20
-27.499901
 40
1.500000
 50
270.000000
 51
0.000000
  0
CIRCLE
  8
0
  6
CONTINUOUS
 62
7
 10
-198.000000
 20
17.500000
 40
1.600000
  0
CIRCLE
  8
0
  6
CONTINUOUS
 62
7
 10
174.000000
 20
17.500000
 40
1.600000
  0
CIRCLE
  8
0
  6
CONTINUOUS
 62
7
 10
-15.000000
 20
17.500000
 40
1.600000
  0
TEXT
  8
0
 62
7
 10
202.930283
 20
183.925003
 40
6.300000
  1
Ver.1.0
 50
0.000000
 41
1.010330
 51
0.000000
  7
STANDARD
  0
TEXT
  8
0
 62
7
 10
172.714691
 20
-187.250000
 40
9.000000
  1
KOGANEI CORP.
 50
0.000000
 41
0.771524
 51
0.000000
  7
STANDARD
  0
TEXT
  8
0
 62
7
 10
-240.419724
 20
183.925003
 40
6.300000
  1
AP UNIT
 50
0.000000
 41
0.832036
 51
0.000000
  7
STANDARD
  0
TEXT
  8
0
 62
7
 10
106.166611
 20
158.925003
 40
6.300000
  1
MODEL:APU-SD10-45-TP-QZ
 50
0.000000
 41
0.774953
 51
0.000000
  7
STANDARD
  0
TEXT
  8
0
 62
7
 10
-269.400391
 20
158.925003
 40
6.300000
  1
MODEL:APU-SD10-15-TP-QZ
 50
0.000000
 41
0.787554
 51
0.000000
  7
STANDARD
  0
TEXT
  8
0
 62
7
 10
-81.617088
 20
158.925003
 40
6.300000
  1
MODEL:APU-SD10-30-TP-QZ
 50
0.000000
 41
0.781203
 51
0.000000
  7
STANDARD
  0
ENDSEC
  0
EOF
