  0
SECTION
  2
HEADER
  0
ENDSEC
  0
SECTION
  2
TABLES
  0
TABLE
  2
LTYPE
 70
     4
  0
LTYPE
  2
CONTINUOUS
 70
    64
  3
Solid line
 72
    65
 73
     0
 40
0.000000
  0
LTYPE
  2
DASHED
 70
    64
  3
__ __ __ __ __ __ __ __ __ __ __ __ __ __ __
 72
    65
 73
     2
 40
3.500000
 49
2.000000
 49
-1.500000
  0
LTYPE
  2
CENTER
 70
    64
  3
____ _ ____ _ ____ _ ____ _ ____ _ ____ _ ____
 72
    65
 73
     4
 40
17.500000
 49
13.000000
 49
-1.500000
 49
1.500000
 49
-1.500000
  0
LTYPE
  2
PHANTOM
 70
    64
  3
_____ _ _ _____ _ _ _____ _ _ _____ _ _ ____  
 72
    65
 73
     6
 40
15.500000
 49
8.000000
 49
-1.500000
 49
1.500000
 49
-1.500000
 49
1.500000
 49
-1.500000
  0
ENDTAB
  0
TABLE
  2
LAYER
 70
     1
  0
LAYER
  2
0
 70
     0
 62
     7
  6
CONTINUOUS
  0
ENDTAB
  0
TABLE
  2
STYLE
 70
     1
  0
STYLE
  2
STANDARD
 70
     0
 40
0.000000
 41
1.000000
 50
0.000000
 71
     0
 42
0.200000
  3
txt
  4
BIGFONT
  0
ENDTAB
  0
TABLE
  2
VIEW
 70
     0
  0
ENDTAB
  0
ENDSEC
  0
SECTION
  2
BLOCKS
  0
ENDSEC
  0
SECTION
  2
ENTITIES
  0
LINE
  8
0
  6
CONTINUOUS
 62
7
 10
399.799988
 20
276.250000
 11
399.799988
 21
-276.750000
  0
LINE
  8
0
  6
CONTINUOUS
 62
7
 10
-399.250000
 20
276.250000
 11
-399.250000
 21
-276.750000
  0
LINE
  8
0
  6
CONTINUOUS
 62
7
 10
-399.250000
 20
276.250000
 11
399.799988
 21
276.250000
  0
LINE
  8
0
  6
CONTINUOUS
 62
7
 10
-399.250000
 20
-276.750000
 11
399.799988
 21
-276.750000
  0
LINE
  8
0
  6
CONTINUOUS
 62
7
 10
239.800003
 20
-251.750000
 11
399.799988
 21
-251.750000
  0
LINE
  8
0
  6
CONTINUOUS
 62
7
 10
239.800003
 20
251.250000
 11
399.799988
 21
251.250000
  0
LINE
  8
0
  6
CONTINUOUS
 62
7
 10
-399.250000
 20
251.250000
 11
-239.250000
 21
251.250000
  0
LINE
  8
0
  6
CONTINUOUS
 62
7
 10
239.800003
 20
-251.750000
 11
239.800003
 21
-276.750000
  0
LINE
  8
0
  6
CONTINUOUS
 62
7
 10
239.800003
 20
251.250000
 11
239.800003
 21
276.250000
  0
LINE
  8
0
  6
CONTINUOUS
 62
7
 10
-239.250000
 20
276.250000
 11
-239.250000
 21
251.250000
  0
LINE
  8
0
  6
CENTER
 62
2
 10
255.199997
 20
-107.000000
 11
137.000000
 21
-107.000000
  0
LINE
  8
0
  6
CONTINUOUS
 62
7
 10
254.199997
 20
-123.000000
 11
138.000000
 21
-123.000000
  0
LINE
  8
0
  6
CONTINUOUS
 62
7
 10
253.000000
 20
-116.000000
 11
146.000000
 21
-116.000000
  0
LINE
  8
0
  6
CONTINUOUS
 62
7
 10
148.000000
 20
-90.500000
 11
160.800003
 21
-90.500000
  0
LINE
  8
0
  6
CONTINUOUS
 62
7
 10
148.000000
 20
-123.500000
 11
160.800003
 21
-123.500000
  0
LINE
  8
0
  6
CONTINUOUS
 62
7
 10
148.000000
 20
-123.500000
 11
148.000000
 21
-123.000000
  0
LINE
  8
0
  6
CONTINUOUS
 62
7
 10
254.000000
 20
-123.500000
 11
254.000000
 21
-123.000000
  0
LINE
  8
0
  6
CONTINUOUS
 62
7
 10
148.000000
 20
-91.000000
 11
148.000000
 21
-90.500000
  0
LINE
  8
0
  6
CONTINUOUS
 62
7
 10
146.000000
 20
-123.000000
 11
146.000000
 21
-91.000000
  0
LINE
  8
0
  6
CONTINUOUS
 62
7
 10
254.199997
 20
-91.000000
 11
138.000000
 21
-91.000000
  0
LINE
  8
0
  6
CONTINUOUS
 62
7
 10
253.000000
 20
-123.000000
 11
253.000000
 21
-91.000000
  0
LINE
  8
0
  6
CONTINUOUS
 62
7
 10
253.000000
 20
-98.000000
 11
146.000000
 21
-98.000000
  0
LINE
  8
0
  6
CONTINUOUS
 62
7
 10
165.199997
 20
-123.500000
 11
254.000000
 21
-123.500000
  0
LINE
  8
0
  6
CONTINUOUS
 62
7
 10
138.000000
 20
-91.000000
 11
138.000000
 21
-123.000000
  0
LINE
  8
0
  6
CONTINUOUS
 62
7
 10
165.199997
 20
-90.500000
 11
237.199997
 21
-90.500000
  0
LINE
  8
0
  6
DASHED
 62
2
 10
160.800003
 20
-119.000000
 11
160.800003
 21
-123.000000
  0
LINE
  8
0
  6
DASHED
 62
2
 10
165.199997
 20
-119.000000
 11
165.199997
 21
-123.000000
  0
LINE
  8
0
  6
DASHED
 62
2
 10
160.800003
 20
-95.000000
 11
160.800003
 21
-91.000000
  0
LINE
  8
0
  6
DASHED
 62
2
 10
165.199997
 20
-95.000000
 11
165.199997
 21
-91.000000
  0
LINE
  8
0
  6
CONTINUOUS
 62
7
 10
160.800003
 20
-123.000000
 11
160.800003
 21
-123.500000
  0
LINE
  8
0
  6
CONTINUOUS
 62
7
 10
165.199997
 20
-123.000000
 11
165.199997
 21
-123.500000
  0
LINE
  8
0
  6
CONTINUOUS
 62
7
 10
165.199997
 20
-90.500000
 11
165.199997
 21
-91.000000
  0
LINE
  8
0
  6
CONTINUOUS
 62
7
 10
160.800003
 20
-90.500000
 11
160.800003
 21
-91.000000
  0
LINE
  8
0
  6
CONTINUOUS
 62
7
 10
146.000000
 20
-149.500000
 11
253.000000
 21
-149.500000
  0
LINE
  8
0
  6
CONTINUOUS
 62
7
 10
148.000000
 20
-171.500000
 11
254.000000
 21
-171.500000
  0
LINE
  8
0
  6
CONTINUOUS
 62
7
 10
148.000000
 20
-161.500000
 11
148.000000
 21
-171.500000
  0
LINE
  8
0
  6
CONTINUOUS
 62
7
 10
254.000000
 20
-161.500000
 11
254.000000
 21
-171.500000
  0
LINE
  8
0
  6
CONTINUOUS
 62
7
 10
146.000000
 20
-149.500000
 11
146.000000
 21
-170.500000
  0
LINE
  8
0
  6
CONTINUOUS
 62
7
 10
253.000000
 20
-149.500000
 11
253.000000
 21
-161.500000
  0
LINE
  8
0
  6
CONTINUOUS
 62
7
 10
148.000000
 20
-162.000000
 11
254.000000
 21
-162.000000
  0
LINE
  8
0
  6
CONTINUOUS
 62
7
 10
158.800003
 20
-166.000000
 11
168.000000
 21
-166.000000
  0
LINE
  8
0
  6
CONTINUOUS
 62
7
 10
160.800003
 20
-166.000000
 11
160.800003
 21
-171.500000
  0
LINE
  8
0
  6
CONTINUOUS
 62
7
 10
165.199997
 20
-166.000000
 11
165.199997
 21
-171.500000
  0
LINE
  8
0
  6
CENTER
 62
2
 10
163.000000
 20
-165.000000
 11
163.000000
 21
-172.500000
  0
LINE
  8
0
  6
CONTINUOUS
 62
7
 10
160.800003
 20
-47.000000
 11
165.199997
 21
-47.000000
  0
LINE
  8
0
  6
CONTINUOUS
 62
7
 10
138.000000
 20
-170.500000
 11
138.000000
 21
-150.000000
  0
LINE
  8
0
  6
CONTINUOUS
 62
7
 10
146.000000
 20
-170.500000
 11
138.000000
 21
-170.500000
  0
LINE
  8
0
  6
CONTINUOUS
 62
7
 10
146.000000
 20
-150.000000
 11
138.000000
 21
-150.000000
  0
LINE
  8
0
  6
CONTINUOUS
 62
7
 10
148.000000
 20
-168.500000
 11
146.000000
 21
-168.500000
  0
LINE
  8
0
  6
CONTINUOUS
 62
7
 10
228.000000
 20
-166.000000
 11
174.000000
 21
-166.000000
  0
LINE
  8
0
  6
CONTINUOUS
 62
7
 10
243.199997
 20
-166.000000
 11
234.000000
 21
-166.000000
  0
LINE
  8
0
  6
CONTINUOUS
 62
7
 10
146.000000
 20
-64.500000
 11
253.000000
 21
-64.500000
  0
LINE
  8
0
  6
CONTINUOUS
 62
7
 10
148.000000
 20
-42.500000
 11
254.000000
 21
-42.500000
  0
LINE
  8
0
  6
CONTINUOUS
 62
7
 10
148.000000
 20
-52.500000
 11
148.000000
 21
-42.500000
  0
LINE
  8
0
  6
CONTINUOUS
 62
7
 10
254.000000
 20
-52.500000
 11
254.000000
 21
-42.500000
  0
LINE
  8
0
  6
CONTINUOUS
 62
7
 10
146.000000
 20
-64.500000
 11
146.000000
 21
-43.500000
  0
LINE
  8
0
  6
CONTINUOUS
 62
7
 10
148.000000
 20
-52.000000
 11
167.000000
 21
-52.000000
  0
LINE
  8
0
  6
CENTER
 62
2
 10
163.000000
 20
-49.000000
 11
163.000000
 21
-41.500000
  0
LINE
  8
0
  6
CONTINUOUS
 62
7
 10
160.800003
 20
-48.000000
 11
160.800003
 21
-42.500000
  0
LINE
  8
0
  6
CONTINUOUS
 62
7
 10
165.199997
 20
-48.000000
 11
165.199997
 21
-42.500000
  0
LINE
  8
0
  6
CONTINUOUS
 62
7
 10
138.000000
 20
-43.500000
 11
138.000000
 21
-64.000000
  0
LINE
  8
0
  6
CONTINUOUS
 62
7
 10
146.000000
 20
-64.000000
 11
138.000000
 21
-64.000000
  0
LINE
  8
0
  6
CONTINUOUS
 62
7
 10
146.000000
 20
-43.500000
 11
138.000000
 21
-43.500000
  0
LINE
  8
0
  6
CONTINUOUS
 62
7
 10
253.000000
 20
-64.500000
 11
253.000000
 21
-52.500000
  0
LINE
  8
0
  6
CONTINUOUS
 62
7
 10
148.000000
 20
-45.500000
 11
146.000000
 21
-45.500000
  0
LINE
  8
0
  6
CONTINUOUS
 62
7
 10
243.199997
 20
-48.000000
 11
235.000000
 21
-48.000000
  0
LINE
  8
0
  6
CONTINUOUS
 62
7
 10
158.800003
 20
-48.000000
 11
167.000000
 21
-48.000000
  0
LINE
  8
0
  6
CONTINUOUS
 62
7
 10
251.500000
 20
-47.500000
 11
244.500000
 21
-47.500000
  0
LINE
  8
0
  6
CONTINUOUS
 62
7
 10
251.500000
 20
-48.500000
 11
244.500000
 21
-48.500000
  0
LINE
  8
0
  6
CONTINUOUS
 62
7
 10
248.000000
 20
-52.041401
 11
244.500000
 21
-50.020699
  0
LINE
  8
0
  6
CONTINUOUS
 62
7
 10
244.500000
 20
-50.020699
 11
244.500000
 21
-45.979198
  0
LINE
  8
0
  6
CONTINUOUS
 62
7
 10
251.500000
 20
-50.020699
 11
248.000000
 21
-52.041401
  0
LINE
  8
0
  6
CONTINUOUS
 62
7
 10
251.500000
 20
-50.020699
 11
251.500000
 21
-45.979198
  0
LINE
  8
0
  6
CONTINUOUS
 62
7
 10
244.500000
 20
-45.979198
 11
248.000000
 21
-43.958500
  0
LINE
  8
0
  6
CONTINUOUS
 62
7
 10
251.500000
 20
-45.979301
 11
248.000000
 21
-43.958500
  0
LINE
  8
0
  6
CONTINUOUS
 62
7
 10
157.500000
 20
-47.500000
 11
150.500000
 21
-47.500000
  0
LINE
  8
0
  6
CONTINUOUS
 62
7
 10
157.500000
 20
-48.500000
 11
150.500000
 21
-48.500000
  0
LINE
  8
0
  6
CONTINUOUS
 62
7
 10
154.000000
 20
-52.041401
 11
150.500000
 21
-50.020699
  0
LINE
  8
0
  6
CONTINUOUS
 62
7
 10
150.500000
 20
-50.020699
 11
150.500000
 21
-45.979198
  0
LINE
  8
0
  6
CONTINUOUS
 62
7
 10
157.500000
 20
-50.020699
 11
154.000000
 21
-52.041401
  0
LINE
  8
0
  6
CONTINUOUS
 62
7
 10
157.500000
 20
-50.020699
 11
157.500000
 21
-45.979198
  0
LINE
  8
0
  6
CONTINUOUS
 62
7
 10
150.500000
 20
-45.979198
 11
154.000000
 21
-43.958500
  0
LINE
  8
0
  6
CONTINUOUS
 62
7
 10
157.500000
 20
-45.979198
 11
154.000000
 21
-43.958500
  0
LINE
  8
0
  6
CENTER
 62
2
 10
239.000000
 20
-49.000000
 11
239.000000
 21
-41.500000
  0
LINE
  8
0
  6
DASHED
 62
2
 10
241.100006
 20
-47.000000
 11
241.100006
 21
-42.500000
  0
LINE
  8
0
  6
DASHED
 62
2
 10
236.899994
 20
-47.000000
 11
236.899994
 21
-42.500000
  0
LINE
  8
0
  6
DASHED
 62
2
 10
241.500000
 20
-47.000000
 11
241.500000
 21
-42.500000
  0
LINE
  8
0
  6
DASHED
 62
2
 10
236.500000
 20
-47.000000
 11
236.500000
 21
-42.500000
  0
LINE
  8
0
  6
DASHED
 62
2
 10
243.000000
 20
-47.000000
 11
235.000000
 21
-47.000000
  0
LINE
  8
0
  6
DASHED
 62
2
 10
182.000000
 20
-44.099998
 11
176.000000
 21
-44.099998
  0
LINE
  8
0
  6
DASHED
 62
2
 10
182.000000
 20
-44.099998
 11
182.000000
 21
-42.500000
  0
LINE
  8
0
  6
DASHED
 62
2
 10
176.000000
 20
-44.099998
 11
176.000000
 21
-42.500000
  0
LINE
  8
0
  6
DASHED
 62
2
 10
159.000000
 20
-48.000000
 11
159.000000
 21
-47.000000
  0
LINE
  8
0
  6
DASHED
 62
2
 10
243.000000
 20
-48.000000
 11
243.000000
 21
-47.000000
  0
LINE
  8
0
  6
DASHED
 62
2
 10
167.000000
 20
-47.000000
 11
165.199997
 21
-47.000000
  0
LINE
  8
0
  6
DASHED
 62
2
 10
160.800003
 20
-47.000000
 11
159.000000
 21
-47.000000
  0
LINE
  8
0
  6
CENTER
 62
2
 10
238.000000
 20
-147.500000
 11
238.000000
 21
-151.500000
  0
LINE
  8
0
  6
CENTER
 62
2
 10
183.000000
 20
-147.500000
 11
183.000000
 21
-151.500000
  0
LINE
  8
0
  6
CENTER
 62
2
 10
158.000000
 20
-147.500000
 11
158.000000
 21
-151.500000
  0
LINE
  8
0
  6
CENTER
 62
2
 10
136.000000
 20
-163.500000
 11
140.000000
 21
-163.500000
  0
LINE
  8
0
  6
CENTER
 62
2
 10
136.000000
 20
-154.500000
 11
140.000000
 21
-154.500000
  0
LINE
  8
0
  6
CENTER
 62
2
 10
136.000000
 20
-59.500000
 11
140.000000
 21
-59.500000
  0
LINE
  8
0
  6
CENTER
 62
2
 10
136.000000
 20
-50.500000
 11
140.000000
 21
-50.500000
  0
LINE
  8
0
  6
CENTER
 62
2
 10
158.000000
 20
-62.500000
 11
158.000000
 21
-66.500000
  0
LINE
  8
0
  6
CENTER
 62
2
 10
183.000000
 20
-62.500000
 11
183.000000
 21
-66.500000
  0
LINE
  8
0
  6
CENTER
 62
2
 10
238.000000
 20
-62.500000
 11
238.000000
 21
-66.500000
  0
LINE
  8
0
  6
CENTER
 62
2
 10
179.000000
 20
-165.000000
 11
179.000000
 21
-172.500000
  0
LINE
  8
0
  6
DASHED
 62
2
 10
176.899994
 20
-166.000000
 11
176.899994
 21
-169.899994
  0
LINE
  8
0
  6
DASHED
 62
2
 10
181.100006
 20
-166.000000
 11
181.100006
 21
-169.899994
  0
LINE
  8
0
  6
DASHED
 62
2
 10
176.500000
 20
-166.000000
 11
176.500000
 21
-169.899994
  0
LINE
  8
0
  6
DASHED
 62
2
 10
181.500000
 20
-166.000000
 11
181.500000
 21
-169.899994
  0
LINE
  8
0
  6
DASHED
 62
2
 10
176.000000
 20
-169.899994
 11
182.000000
 21
-169.899994
  0
LINE
  8
0
  6
DASHED
 62
2
 10
176.000000
 20
-169.899994
 11
176.000000
 21
-171.500000
  0
LINE
  8
0
  6
DASHED
 62
2
 10
182.000000
 20
-169.899994
 11
182.000000
 21
-171.500000
  0
LINE
  8
0
  6
CENTER
 62
2
 10
239.000000
 20
-165.000000
 11
239.000000
 21
-172.500000
  0
LINE
  8
0
  6
DASHED
 62
2
 10
236.899994
 20
-167.000000
 11
236.899994
 21
-171.500000
  0
LINE
  8
0
  6
DASHED
 62
2
 10
241.100006
 20
-167.000000
 11
241.100006
 21
-171.500000
  0
LINE
  8
0
  6
DASHED
 62
2
 10
236.500000
 20
-167.000000
 11
236.500000
 21
-171.500000
  0
LINE
  8
0
  6
DASHED
 62
2
 10
241.500000
 20
-167.000000
 11
241.500000
 21
-171.500000
  0
LINE
  8
0
  6
DASHED
 62
2
 10
235.000000
 20
-167.000000
 11
243.000000
 21
-167.000000
  0
LINE
  8
0
  6
DASHED
 62
2
 10
235.000000
 20
-166.000000
 11
235.000000
 21
-167.000000
  0
LINE
  8
0
  6
DASHED
 62
2
 10
243.000000
 20
-166.000000
 11
243.000000
 21
-167.000000
  0
LINE
  8
0
  6
DASHED
 62
2
 10
159.000000
 20
-167.000000
 11
160.800003
 21
-167.000000
  0
LINE
  8
0
  6
DASHED
 62
2
 10
159.000000
 20
-166.000000
 11
159.000000
 21
-167.000000
  0
LINE
  8
0
  6
CONTINUOUS
 62
7
 10
165.199997
 20
-167.000000
 11
160.800003
 21
-167.000000
  0
LINE
  8
0
  6
DASHED
 62
2
 10
167.000000
 20
-166.000000
 11
167.000000
 21
-167.000000
  0
LINE
  8
0
  6
DASHED
 62
2
 10
165.199997
 20
-167.000000
 11
167.000000
 21
-167.000000
  0
LINE
  8
0
  6
CENTER
 62
2
 10
-144.800003
 20
-107.000000
 11
-233.000000
 21
-107.000000
  0
LINE
  8
0
  6
CONTINUOUS
 62
7
 10
-145.800003
 20
-123.000000
 11
-232.000000
 21
-123.000000
  0
LINE
  8
0
  6
CONTINUOUS
 62
7
 10
-147.000000
 20
-116.000000
 11
-224.000000
 21
-116.000000
  0
LINE
  8
0
  6
CONTINUOUS
 62
7
 10
-222.000000
 20
-90.500000
 11
-209.199997
 21
-90.500000
  0
LINE
  8
0
  6
CONTINUOUS
 62
7
 10
-222.000000
 20
-123.500000
 11
-209.199997
 21
-123.500000
  0
LINE
  8
0
  6
CONTINUOUS
 62
7
 10
-222.000000
 20
-123.500000
 11
-222.000000
 21
-123.000000
  0
LINE
  8
0
  6
CONTINUOUS
 62
7
 10
-146.000000
 20
-123.500000
 11
-146.000000
 21
-123.000000
  0
LINE
  8
0
  6
CONTINUOUS
 62
7
 10
-222.000000
 20
-91.000000
 11
-222.000000
 21
-90.500000
  0
LINE
  8
0
  6
CONTINUOUS
 62
7
 10
-224.000000
 20
-123.000000
 11
-224.000000
 21
-91.000000
  0
LINE
  8
0
  6
CONTINUOUS
 62
7
 10
-145.800003
 20
-91.000000
 11
-232.000000
 21
-91.000000
  0
LINE
  8
0
  6
CONTINUOUS
 62
7
 10
-147.000000
 20
-123.000000
 11
-147.000000
 21
-91.000000
  0
LINE
  8
0
  6
CONTINUOUS
 62
7
 10
-147.000000
 20
-98.000000
 11
-224.000000
 21
-98.000000
  0
LINE
  8
0
  6
CONTINUOUS
 62
7
 10
-204.800003
 20
-123.500000
 11
-146.000000
 21
-123.500000
  0
LINE
  8
0
  6
CONTINUOUS
 62
7
 10
-232.000000
 20
-91.000000
 11
-232.000000
 21
-123.000000
  0
LINE
  8
0
  6
CONTINUOUS
 62
7
 10
-204.800003
 20
-90.500000
 11
-162.800003
 21
-90.500000
  0
LINE
  8
0
  6
DASHED
 62
2
 10
-209.199997
 20
-119.000000
 11
-209.199997
 21
-123.000000
  0
LINE
  8
0
  6
DASHED
 62
2
 10
-204.800003
 20
-119.000000
 11
-204.800003
 21
-123.000000
  0
LINE
  8
0
  6
DASHED
 62
2
 10
-209.199997
 20
-95.000000
 11
-209.199997
 21
-91.000000
  0
LINE
  8
0
  6
DASHED
 62
2
 10
-204.800003
 20
-95.000000
 11
-204.800003
 21
-91.000000
  0
LINE
  8
0
  6
CONTINUOUS
 62
7
 10
-209.199997
 20
-123.000000
 11
-209.199997
 21
-123.500000
  0
LINE
  8
0
  6
CONTINUOUS
 62
7
 10
-204.800003
 20
-123.000000
 11
-204.800003
 21
-123.500000
  0
LINE
  8
0
  6
CONTINUOUS
 62
7
 10
-204.800003
 20
-90.500000
 11
-204.800003
 21
-91.000000
  0
LINE
  8
0
  6
CONTINUOUS
 62
7
 10
-209.199997
 20
-90.500000
 11
-209.199997
 21
-91.000000
  0
LINE
  8
0
  6
CONTINUOUS
 62
7
 10
-224.000000
 20
-149.500000
 11
-147.000000
 21
-149.500000
  0
LINE
  8
0
  6
CONTINUOUS
 62
7
 10
-222.000000
 20
-171.500000
 11
-146.000000
 21
-171.500000
  0
LINE
  8
0
  6
CONTINUOUS
 62
7
 10
-222.000000
 20
-161.500000
 11
-222.000000
 21
-171.500000
  0
LINE
  8
0
  6
CONTINUOUS
 62
7
 10
-146.000000
 20
-161.500000
 11
-146.000000
 21
-171.500000
  0
LINE
  8
0
  6
CONTINUOUS
 62
7
 10
-224.000000
 20
-149.500000
 11
-224.000000
 21
-170.500000
  0
LINE
  8
0
  6
CONTINUOUS
 62
7
 10
-147.000000
 20
-149.500000
 11
-147.000000
 21
-161.500000
  0
LINE
  8
0
  6
CONTINUOUS
 62
7
 10
-147.000000
 20
-150.000000
 11
-145.800003
 21
-150.000000
  0
LINE
  8
0
  6
CONTINUOUS
 62
7
 10
-222.000000
 20
-162.000000
 11
-146.000000
 21
-162.000000
  0
LINE
  8
0
  6
CONTINUOUS
 62
7
 10
-211.199997
 20
-166.000000
 11
-202.000000
 21
-166.000000
  0
LINE
  8
0
  6
CONTINUOUS
 62
7
 10
-145.399994
 20
-150.500000
 11
-145.800003
 21
-150.500000
  0
LINE
  8
0
  6
CONTINUOUS
 62
7
 10
-209.199997
 20
-166.000000
 11
-209.199997
 21
-171.500000
  0
LINE
  8
0
  6
CONTINUOUS
 62
7
 10
-204.800003
 20
-166.000000
 11
-204.800003
 21
-171.500000
  0
LINE
  8
0
  6
CENTER
 62
2
 10
-207.000000
 20
-165.000000
 11
-207.000000
 21
-172.500000
  0
LINE
  8
0
  6
CONTINUOUS
 62
7
 10
-209.199997
 20
-47.000000
 11
-204.800003
 21
-47.000000
  0
LINE
  8
0
  6
CONTINUOUS
 62
7
 10
-232.000000
 20
-170.500000
 11
-232.000000
 21
-150.000000
  0
LINE
  8
0
  6
CONTINUOUS
 62
7
 10
-224.000000
 20
-170.500000
 11
-232.000000
 21
-170.500000
  0
LINE
  8
0
  6
CONTINUOUS
 62
7
 10
-224.000000
 20
-150.000000
 11
-232.000000
 21
-150.000000
  0
LINE
  8
0
  6
CONTINUOUS
 62
7
 10
-224.000000
 20
-161.500000
 11
-145.800003
 21
-161.500000
  0
LINE
  8
0
  6
CONTINUOUS
 62
7
 10
-222.000000
 20
-168.500000
 11
-224.000000
 21
-168.500000
  0
LINE
  8
0
  6
CONTINUOUS
 62
7
 10
-172.000000
 20
-166.000000
 11
-196.000000
 21
-166.000000
  0
LINE
  8
0
  6
CONTINUOUS
 62
7
 10
-156.800003
 20
-166.000000
 11
-166.000000
 21
-166.000000
  0
LINE
  8
0
  6
CONTINUOUS
 62
7
 10
-145.399994
 20
-154.500000
 11
-145.800003
 21
-154.500000
  0
LINE
  8
0
  6
CONTINUOUS
 62
7
 10
-224.000000
 20
-64.500000
 11
-147.000000
 21
-64.500000
  0
LINE
  8
0
  6
CONTINUOUS
 62
7
 10
-222.000000
 20
-42.500000
 11
-146.000000
 21
-42.500000
  0
LINE
  8
0
  6
CONTINUOUS
 62
7
 10
-222.000000
 20
-52.500000
 11
-222.000000
 21
-42.500000
  0
LINE
  8
0
  6
CONTINUOUS
 62
7
 10
-146.000000
 20
-52.500000
 11
-146.000000
 21
-42.500000
  0
LINE
  8
0
  6
CONTINUOUS
 62
7
 10
-224.000000
 20
-64.500000
 11
-224.000000
 21
-43.500000
  0
LINE
  8
0
  6
CONTINUOUS
 62
7
 10
-147.000000
 20
-64.000000
 11
-145.800003
 21
-64.000000
  0
LINE
  8
0
  6
CONTINUOUS
 62
7
 10
-224.000000
 20
-52.500000
 11
-203.000000
 21
-52.500000
  0
LINE
  8
0
  6
CONTINUOUS
 62
7
 10
-222.000000
 20
-52.000000
 11
-203.000000
 21
-52.000000
  0
LINE
  8
0
  6
CENTER
 62
2
 10
-207.000000
 20
-49.000000
 11
-207.000000
 21
-41.500000
  0
LINE
  8
0
  6
CONTINUOUS
 62
7
 10
-209.199997
 20
-48.000000
 11
-209.199997
 21
-42.500000
  0
LINE
  8
0
  6
CONTINUOUS
 62
7
 10
-204.800003
 20
-48.000000
 11
-204.800003
 21
-42.500000
  0
LINE
  8
0
  6
CONTINUOUS
 62
7
 10
-232.000000
 20
-43.500000
 11
-232.000000
 21
-64.000000
  0
LINE
  8
0
  6
CONTINUOUS
 62
7
 10
-224.000000
 20
-64.000000
 11
-232.000000
 21
-64.000000
  0
LINE
  8
0
  6
CONTINUOUS
 62
7
 10
-224.000000
 20
-43.500000
 11
-232.000000
 21
-43.500000
  0
LINE
  8
0
  6
CONTINUOUS
 62
7
 10
-147.000000
 20
-64.500000
 11
-147.000000
 21
-52.500000
  0
LINE
  8
0
  6
CONTINUOUS
 62
7
 10
-222.000000
 20
-45.500000
 11
-224.000000
 21
-45.500000
  0
LINE
  8
0
  6
CONTINUOUS
 62
7
 10
-156.800003
 20
-48.000000
 11
-165.000000
 21
-48.000000
  0
LINE
  8
0
  6
CONTINUOUS
 62
7
 10
-211.199997
 20
-48.000000
 11
-203.000000
 21
-48.000000
  0
LINE
  8
0
  6
CONTINUOUS
 62
7
 10
-148.500000
 20
-47.500000
 11
-155.500000
 21
-47.500000
  0
LINE
  8
0
  6
CONTINUOUS
 62
7
 10
-148.500000
 20
-48.500000
 11
-155.500000
 21
-48.500000
  0
LINE
  8
0
  6
CONTINUOUS
 62
7
 10
-152.000000
 20
-52.041401
 11
-155.500000
 21
-50.020699
  0
LINE
  8
0
  6
CONTINUOUS
 62
7
 10
-155.500000
 20
-50.020699
 11
-155.500000
 21
-45.979198
  0
LINE
  8
0
  6
CONTINUOUS
 62
7
 10
-148.500000
 20
-50.020699
 11
-152.000000
 21
-52.041401
  0
LINE
  8
0
  6
CONTINUOUS
 62
7
 10
-148.500000
 20
-50.020699
 11
-148.500000
 21
-45.979198
  0
LINE
  8
0
  6
CONTINUOUS
 62
7
 10
-155.500000
 20
-45.979198
 11
-152.000000
 21
-43.958500
  0
LINE
  8
0
  6
CONTINUOUS
 62
7
 10
-148.500000
 20
-45.979198
 11
-152.000000
 21
-43.958500
  0
LINE
  8
0
  6
CONTINUOUS
 62
7
 10
-212.500000
 20
-47.500000
 11
-219.500000
 21
-47.500000
  0
LINE
  8
0
  6
CONTINUOUS
 62
7
 10
-212.500000
 20
-48.500000
 11
-219.500000
 21
-48.500000
  0
LINE
  8
0
  6
CONTINUOUS
 62
7
 10
-216.000000
 20
-52.041401
 11
-219.500000
 21
-50.020699
  0
LINE
  8
0
  6
CONTINUOUS
 62
7
 10
-219.500000
 20
-50.020699
 11
-219.500000
 21
-45.979198
  0
LINE
  8
0
  6
CONTINUOUS
 62
7
 10
-212.500000
 20
-50.020699
 11
-216.000000
 21
-52.041401
  0
LINE
  8
0
  6
CONTINUOUS
 62
7
 10
-212.500000
 20
-50.020699
 11
-212.500000
 21
-45.979198
  0
LINE
  8
0
  6
CONTINUOUS
 62
7
 10
-219.500000
 20
-45.979198
 11
-216.000000
 21
-43.958500
  0
LINE
  8
0
  6
CONTINUOUS
 62
7
 10
-212.500000
 20
-45.979198
 11
-216.000000
 21
-43.958500
  0
LINE
  8
0
  6
CENTER
 62
2
 10
-161.000000
 20
-49.000000
 11
-161.000000
 21
-41.500000
  0
LINE
  8
0
  6
DASHED
 62
2
 10
-158.899994
 20
-47.000000
 11
-158.899994
 21
-42.500000
  0
LINE
  8
0
  6
DASHED
 62
2
 10
-163.100006
 20
-47.000000
 11
-163.100006
 21
-42.500000
  0
LINE
  8
0
  6
DASHED
 62
2
 10
-158.500000
 20
-47.000000
 11
-158.500000
 21
-42.500000
  0
LINE
  8
0
  6
DASHED
 62
2
 10
-163.500000
 20
-47.000000
 11
-163.500000
 21
-42.500000
  0
LINE
  8
0
  6
DASHED
 62
2
 10
-157.000000
 20
-47.000000
 11
-165.000000
 21
-47.000000
  0
LINE
  8
0
  6
DASHED
 62
2
 10
-188.000000
 20
-44.099998
 11
-194.000000
 21
-44.099998
  0
LINE
  8
0
  6
DASHED
 62
2
 10
-188.000000
 20
-44.099998
 11
-188.000000
 21
-42.500000
  0
LINE
  8
0
  6
DASHED
 62
2
 10
-194.000000
 20
-44.099998
 11
-194.000000
 21
-42.500000
  0
LINE
  8
0
  6
DASHED
 62
2
 10
-211.000000
 20
-48.000000
 11
-211.000000
 21
-47.000000
  0
LINE
  8
0
  6
DASHED
 62
2
 10
-157.000000
 20
-48.000000
 11
-157.000000
 21
-47.000000
  0
LINE
  8
0
  6
DASHED
 62
2
 10
-203.000000
 20
-47.000000
 11
-204.800003
 21
-47.000000
  0
LINE
  8
0
  6
DASHED
 62
2
 10
-209.199997
 20
-47.000000
 11
-211.000000
 21
-47.000000
  0
LINE
  8
0
  6
CENTER
 62
2
 10
-162.000000
 20
-147.500000
 11
-162.000000
 21
-151.500000
  0
LINE
  8
0
  6
CENTER
 62
2
 10
-187.000000
 20
-147.500000
 11
-187.000000
 21
-151.500000
  0
LINE
  8
0
  6
CENTER
 62
2
 10
-212.000000
 20
-147.500000
 11
-212.000000
 21
-151.500000
  0
LINE
  8
0
  6
CENTER
 62
2
 10
-234.000000
 20
-163.500000
 11
-230.000000
 21
-163.500000
  0
LINE
  8
0
  6
CENTER
 62
2
 10
-234.000000
 20
-154.500000
 11
-230.000000
 21
-154.500000
  0
LINE
  8
0
  6
CENTER
 62
2
 10
-234.000000
 20
-59.500000
 11
-230.000000
 21
-59.500000
  0
LINE
  8
0
  6
CENTER
 62
2
 10
-234.000000
 20
-50.500000
 11
-230.000000
 21
-50.500000
  0
LINE
  8
0
  6
CENTER
 62
2
 10
-212.000000
 20
-62.500000
 11
-212.000000
 21
-66.500000
  0
LINE
  8
0
  6
CENTER
 62
2
 10
-187.000000
 20
-62.500000
 11
-187.000000
 21
-66.500000
  0
LINE
  8
0
  6
CENTER
 62
2
 10
-162.000000
 20
-62.500000
 11
-162.000000
 21
-66.500000
  0
LINE
  8
0
  6
CENTER
 62
2
 10
-191.000000
 20
-165.000000
 11
-191.000000
 21
-172.500000
  0
LINE
  8
0
  6
DASHED
 62
2
 10
-193.100006
 20
-166.000000
 11
-193.100006
 21
-169.899994
  0
LINE
  8
0
  6
DASHED
 62
2
 10
-188.899994
 20
-166.000000
 11
-188.899994
 21
-169.899994
  0
LINE
  8
0
  6
DASHED
 62
2
 10
-193.500000
 20
-166.000000
 11
-193.500000
 21
-169.899994
  0
LINE
  8
0
  6
DASHED
 62
2
 10
-188.500000
 20
-166.000000
 11
-188.500000
 21
-169.899994
  0
LINE
  8
0
  6
DASHED
 62
2
 10
-194.000000
 20
-169.899994
 11
-188.000000
 21
-169.899994
  0
LINE
  8
0
  6
DASHED
 62
2
 10
-194.000000
 20
-169.899994
 11
-194.000000
 21
-171.500000
  0
LINE
  8
0
  6
DASHED
 62
2
 10
-188.000000
 20
-169.899994
 11
-188.000000
 21
-171.500000
  0
LINE
  8
0
  6
CENTER
 62
2
 10
-161.000000
 20
-165.000000
 11
-161.000000
 21
-172.500000
  0
LINE
  8
0
  6
DASHED
 62
2
 10
-163.100006
 20
-167.000000
 11
-163.100006
 21
-171.500000
  0
LINE
  8
0
  6
DASHED
 62
2
 10
-158.899994
 20
-167.000000
 11
-158.899994
 21
-171.500000
  0
LINE
  8
0
  6
DASHED
 62
2
 10
-163.500000
 20
-167.000000
 11
-163.500000
 21
-171.500000
  0
LINE
  8
0
  6
DASHED
 62
2
 10
-158.500000
 20
-167.000000
 11
-158.500000
 21
-171.500000
  0
LINE
  8
0
  6
DASHED
 62
2
 10
-165.000000
 20
-167.000000
 11
-157.000000
 21
-167.000000
  0
LINE
  8
0
  6
DASHED
 62
2
 10
-165.000000
 20
-166.000000
 11
-165.000000
 21
-167.000000
  0
LINE
  8
0
  6
DASHED
 62
2
 10
-157.000000
 20
-166.000000
 11
-157.000000
 21
-167.000000
  0
LINE
  8
0
  6
DASHED
 62
2
 10
-211.000000
 20
-167.000000
 11
-209.199997
 21
-167.000000
  0
LINE
  8
0
  6
DASHED
 62
2
 10
-211.000000
 20
-166.000000
 11
-211.000000
 21
-167.000000
  0
LINE
  8
0
  6
CONTINUOUS
 62
7
 10
-204.800003
 20
-167.000000
 11
-209.199997
 21
-167.000000
  0
LINE
  8
0
  6
DASHED
 62
2
 10
-203.000000
 20
-166.000000
 11
-203.000000
 21
-167.000000
  0
LINE
  8
0
  6
DASHED
 62
2
 10
-204.800003
 20
-167.000000
 11
-203.000000
 21
-167.000000
  0
LINE
  8
0
  6
CENTER
 62
2
 10
213.000000
 20
-62.500000
 11
213.000000
 21
-66.500000
  0
LINE
  8
0
  6
CENTER
 62
2
 10
213.000000
 20
-147.500000
 11
213.000000
 21
-151.500000
  0
LINE
  8
0
  6
CONTINUOUS
 62
7
 10
-145.800003
 20
-96.000000
 11
-145.800003
 21
-91.000000
  0
LINE
  8
0
  6
CONTINUOUS
 62
7
 10
-145.399994
 20
-100.000000
 11
-145.399994
 21
-96.000000
  0
LINE
  8
0
  6
CONTINUOUS
 62
7
 10
-145.399994
 20
-96.000000
 11
-146.500000
 21
-96.000000
  0
LINE
  8
0
  6
CONTINUOUS
 62
7
 10
-146.500000
 20
-100.000000
 11
-146.500000
 21
-96.000000
  0
LINE
  8
0
  6
CONTINUOUS
 62
7
 10
-145.399994
 20
-100.000000
 11
-146.500000
 21
-100.000000
  0
LINE
  8
0
  6
CONTINUOUS
 62
7
 10
-145.800003
 20
-114.000000
 11
-145.800003
 21
-100.000000
  0
LINE
  8
0
  6
CONTINUOUS
 62
7
 10
-145.399994
 20
-114.000000
 11
-146.500000
 21
-114.000000
  0
LINE
  8
0
  6
CONTINUOUS
 62
7
 10
-146.500000
 20
-114.000000
 11
-146.500000
 21
-118.000000
  0
LINE
  8
0
  6
CONTINUOUS
 62
7
 10
-145.399994
 20
-114.000000
 11
-145.399994
 21
-118.000000
  0
LINE
  8
0
  6
CONTINUOUS
 62
7
 10
-145.399994
 20
-118.000000
 11
-146.500000
 21
-118.000000
  0
LINE
  8
0
  6
CONTINUOUS
 62
7
 10
-145.800003
 20
-123.000000
 11
-145.800003
 21
-118.000000
  0
LINE
  8
0
  6
CONTINUOUS
 62
7
 10
-146.000000
 20
-91.000000
 11
-146.000000
 21
-90.500000
  0
LINE
  8
0
  6
CENTER
 62
2
 10
-216.000000
 20
-87.500000
 11
-216.000000
 21
-92.000000
  0
LINE
  8
0
  6
CONTINUOUS
 62
7
 10
-216.000000
 20
-89.900002
 11
-216.000000
 21
-88.500000
  0
LINE
  8
0
  6
CONTINUOUS
 62
7
 10
-219.899994
 20
-89.900002
 11
-212.100006
 21
-89.900002
  0
LINE
  8
0
  6
CONTINUOUS
 62
7
 10
-212.100006
 20
-89.900002
 11
-212.100006
 21
-90.500000
  0
LINE
  8
0
  6
CONTINUOUS
 62
7
 10
-219.899994
 20
-89.900002
 11
-219.899994
 21
-90.500000
  0
LINE
  8
0
  6
CONTINUOUS
 62
7
 10
-212.500000
 20
-88.500000
 11
-212.500000
 21
-89.900002
  0
LINE
  8
0
  6
CONTINUOUS
 62
7
 10
-219.500000
 20
-88.500000
 11
-219.500000
 21
-89.900002
  0
LINE
  8
0
  6
CENTER
 62
2
 10
-152.000000
 20
-87.500000
 11
-152.000000
 21
-92.000000
  0
LINE
  8
0
  6
CENTER
 62
2
 10
154.000000
 20
-87.500000
 11
154.000000
 21
-92.000000
  0
LINE
  8
0
  6
CONTINUOUS
 62
7
 10
154.000000
 20
-89.900002
 11
154.000000
 21
-88.500000
  0
LINE
  8
0
  6
CONTINUOUS
 62
7
 10
150.100006
 20
-89.900002
 11
157.899994
 21
-89.900002
  0
LINE
  8
0
  6
CONTINUOUS
 62
7
 10
157.899994
 20
-89.900002
 11
157.899994
 21
-90.500000
  0
LINE
  8
0
  6
CONTINUOUS
 62
7
 10
150.100006
 20
-89.900002
 11
150.100006
 21
-90.500000
  0
LINE
  8
0
  6
CONTINUOUS
 62
7
 10
157.500000
 20
-88.500000
 11
157.500000
 21
-89.900002
  0
LINE
  8
0
  6
CONTINUOUS
 62
7
 10
150.500000
 20
-88.500000
 11
150.500000
 21
-89.900002
  0
LINE
  8
0
  6
CENTER
 62
2
 10
248.000000
 20
-87.500000
 11
248.000000
 21
-92.000000
  0
LINE
  8
0
  6
CONTINUOUS
 62
7
 10
-145.800003
 20
-64.000000
 11
-145.800003
 21
-52.500000
  0
LINE
  8
0
  6
CONTINUOUS
 62
7
 10
-145.399994
 20
-63.500000
 11
-145.399994
 21
-59.500000
  0
LINE
  8
0
  6
CONTINUOUS
 62
7
 10
-145.800003
 20
-63.500000
 11
-145.399994
 21
-63.500000
  0
LINE
  8
0
  6
CONTINUOUS
 62
7
 10
-145.800003
 20
-59.500000
 11
-145.399994
 21
-59.500000
  0
LINE
  8
0
  6
CONTINUOUS
 62
7
 10
-145.399994
 20
-150.500000
 11
-145.399994
 21
-154.500000
  0
LINE
  8
0
  6
CONTINUOUS
 62
7
 10
-145.800003
 20
-150.000000
 11
-145.800003
 21
-161.500000
  0
LINE
  8
0
  6
CONTINUOUS
 62
7
 10
254.199997
 20
-64.000000
 11
254.199997
 21
-52.500000
  0
LINE
  8
0
  6
CONTINUOUS
 62
7
 10
254.600006
 20
-63.500000
 11
254.600006
 21
-59.500000
  0
LINE
  8
0
  6
CONTINUOUS
 62
7
 10
254.199997
 20
-59.500000
 11
254.600006
 21
-59.500000
  0
LINE
  8
0
  6
CONTINUOUS
 62
7
 10
254.199997
 20
-63.500000
 11
254.600006
 21
-63.500000
  0
LINE
  8
0
  6
CONTINUOUS
 62
7
 10
253.000000
 20
-64.000000
 11
254.199997
 21
-64.000000
  0
LINE
  8
0
  6
CONTINUOUS
 62
7
 10
146.000000
 20
-52.500000
 11
167.000000
 21
-52.500000
  0
LINE
  8
0
  6
CONTINUOUS
 62
7
 10
254.199997
 20
-123.000000
 11
254.199997
 21
-118.000000
  0
LINE
  8
0
  6
CONTINUOUS
 62
7
 10
254.199997
 20
-96.000000
 11
254.199997
 21
-91.000000
  0
LINE
  8
0
  6
CONTINUOUS
 62
7
 10
254.600006
 20
-100.000000
 11
254.600006
 21
-96.000000
  0
LINE
  8
0
  6
CONTINUOUS
 62
7
 10
254.600006
 20
-96.000000
 11
253.500000
 21
-96.000000
  0
LINE
  8
0
  6
CONTINUOUS
 62
7
 10
253.500000
 20
-100.000000
 11
253.500000
 21
-96.000000
  0
LINE
  8
0
  6
CONTINUOUS
 62
7
 10
254.600006
 20
-100.000000
 11
253.500000
 21
-100.000000
  0
LINE
  8
0
  6
CONTINUOUS
 62
7
 10
254.199997
 20
-114.000000
 11
254.199997
 21
-100.000000
  0
LINE
  8
0
  6
CONTINUOUS
 62
7
 10
254.600006
 20
-114.000000
 11
253.500000
 21
-114.000000
  0
LINE
  8
0
  6
CONTINUOUS
 62
7
 10
253.500000
 20
-114.000000
 11
253.500000
 21
-118.000000
  0
LINE
  8
0
  6
CONTINUOUS
 62
7
 10
254.600006
 20
-114.000000
 11
254.600006
 21
-118.000000
  0
LINE
  8
0
  6
CONTINUOUS
 62
7
 10
254.600006
 20
-118.000000
 11
253.500000
 21
-118.000000
  0
LINE
  8
0
  6
CONTINUOUS
 62
7
 10
253.000000
 20
-150.000000
 11
254.199997
 21
-150.000000
  0
LINE
  8
0
  6
CONTINUOUS
 62
7
 10
254.600006
 20
-150.500000
 11
254.199997
 21
-150.500000
  0
LINE
  8
0
  6
CONTINUOUS
 62
7
 10
146.000000
 20
-161.500000
 11
254.199997
 21
-161.500000
  0
LINE
  8
0
  6
CONTINUOUS
 62
7
 10
254.600006
 20
-154.500000
 11
254.199997
 21
-154.500000
  0
LINE
  8
0
  6
CONTINUOUS
 62
7
 10
254.600006
 20
-150.500000
 11
254.600006
 21
-154.500000
  0
LINE
  8
0
  6
CONTINUOUS
 62
7
 10
254.199997
 20
-150.000000
 11
254.199997
 21
-161.500000
  0
LINE
  8
0
  6
CONTINUOUS
 62
7
 10
254.000000
 20
-91.000000
 11
254.000000
 21
-90.500000
  0
LINE
  8
0
  6
CENTER
 62
2
 10
240.199997
 20
143.000000
 11
137.000000
 21
143.000000
  0
LINE
  8
0
  6
CONTINUOUS
 62
7
 10
239.199997
 20
127.000000
 11
138.000000
 21
127.000000
  0
LINE
  8
0
  6
CONTINUOUS
 62
7
 10
238.000000
 20
134.000000
 11
146.000000
 21
134.000000
  0
LINE
  8
0
  6
CONTINUOUS
 62
7
 10
148.000000
 20
159.500000
 11
160.800003
 21
159.500000
  0
LINE
  8
0
  6
CONTINUOUS
 62
7
 10
148.000000
 20
126.500000
 11
160.800003
 21
126.500000
  0
LINE
  8
0
  6
CONTINUOUS
 62
7
 10
148.000000
 20
126.500000
 11
148.000000
 21
127.000000
  0
LINE
  8
0
  6
CONTINUOUS
 62
7
 10
239.000000
 20
126.500000
 11
239.000000
 21
127.000000
  0
LINE
  8
0
  6
CONTINUOUS
 62
7
 10
148.000000
 20
159.000000
 11
148.000000
 21
159.500000
  0
LINE
  8
0
  6
CONTINUOUS
 62
7
 10
146.000000
 20
127.000000
 11
146.000000
 21
159.000000
  0
LINE
  8
0
  6
CONTINUOUS
 62
7
 10
239.199997
 20
159.000000
 11
138.000000
 21
159.000000
  0
LINE
  8
0
  6
CONTINUOUS
 62
7
 10
238.000000
 20
127.000000
 11
238.000000
 21
159.000000
  0
LINE
  8
0
  6
CONTINUOUS
 62
7
 10
238.000000
 20
152.000000
 11
146.000000
 21
152.000000
  0
LINE
  8
0
  6
CONTINUOUS
 62
7
 10
165.199997
 20
126.500000
 11
239.000000
 21
126.500000
  0
LINE
  8
0
  6
CONTINUOUS
 62
7
 10
138.000000
 20
159.000000
 11
138.000000
 21
127.000000
  0
LINE
  8
0
  6
CONTINUOUS
 62
7
 10
165.199997
 20
159.500000
 11
222.199997
 21
159.500000
  0
LINE
  8
0
  6
DASHED
 62
2
 10
160.800003
 20
131.000000
 11
160.800003
 21
127.000000
  0
LINE
  8
0
  6
DASHED
 62
2
 10
165.199997
 20
131.000000
 11
165.199997
 21
127.000000
  0
LINE
  8
0
  6
DASHED
 62
2
 10
160.800003
 20
155.000000
 11
160.800003
 21
159.000000
  0
LINE
  8
0
  6
DASHED
 62
2
 10
165.199997
 20
155.000000
 11
165.199997
 21
159.000000
  0
LINE
  8
0
  6
CONTINUOUS
 62
7
 10
160.800003
 20
127.000000
 11
160.800003
 21
126.500000
  0
LINE
  8
0
  6
CONTINUOUS
 62
7
 10
165.199997
 20
127.000000
 11
165.199997
 21
126.500000
  0
LINE
  8
0
  6
CONTINUOUS
 62
7
 10
165.199997
 20
159.500000
 11
165.199997
 21
159.000000
  0
LINE
  8
0
  6
CONTINUOUS
 62
7
 10
160.800003
 20
159.500000
 11
160.800003
 21
159.000000
  0
LINE
  8
0
  6
CONTINUOUS
 62
7
 10
113.000000
 20
127.000000
 11
113.000000
 21
134.000000
  0
LINE
  8
0
  6
CONTINUOUS
 62
7
 10
112.699997
 20
134.300003
 11
112.699997
 21
151.699997
  0
LINE
  8
0
  6
CONTINUOUS
 62
7
 10
113.000000
 20
134.000000
 11
112.699997
 21
134.300003
  0
LINE
  8
0
  6
CONTINUOUS
 62
7
 10
113.000000
 20
127.000000
 11
92.000000
 21
127.000000
  0
LINE
  8
0
  6
CONTINUOUS
 62
7
 10
113.000000
 20
159.000000
 11
113.000000
 21
152.000000
  0
LINE
  8
0
  6
CONTINUOUS
 62
7
 10
113.000000
 20
152.000000
 11
112.699997
 21
151.699997
  0
LINE
  8
0
  6
CONTINUOUS
 62
7
 10
113.000000
 20
159.000000
 11
92.000000
 21
159.000000
  0
LINE
  8
0
  6
CONTINUOUS
 62
7
 10
100.500000
 20
159.500000
 11
100.500000
 21
159.000000
  0
LINE
  8
0
  6
CONTINUOUS
 62
7
 10
91.000000
 20
159.500000
 11
91.000000
 21
126.500000
  0
LINE
  8
0
  6
CONTINUOUS
 62
7
 10
100.500000
 20
126.500000
 11
91.000000
 21
126.500000
  0
LINE
  8
0
  6
CONTINUOUS
 62
7
 10
100.500000
 20
126.500000
 11
100.500000
 21
127.000000
  0
LINE
  8
0
  6
CENTER
 62
2
 10
113.699997
 20
143.000000
 11
90.000000
 21
143.000000
  0
LINE
  8
0
  6
CONTINUOUS
 62
7
 10
112.500000
 20
159.000000
 11
112.500000
 21
127.000000
  0
LINE
  8
0
  6
CONTINUOUS
 62
7
 10
92.000000
 20
159.000000
 11
92.000000
 21
127.000000
  0
LINE
  8
0
  6
CENTER
 62
2
 10
108.000000
 20
146.000000
 11
108.000000
 21
140.000000
  0
LINE
  8
0
  6
CONTINUOUS
 62
7
 10
91.000000
 20
159.500000
 11
112.500000
 21
159.500000
  0
LINE
  8
0
  6
CENTER
 62
2
 10
99.000000
 20
150.000000
 11
99.000000
 21
136.000000
  0
LINE
  8
0
  6
CONTINUOUS
 62
7
 10
146.000000
 20
100.500000
 11
238.000000
 21
100.500000
  0
LINE
  8
0
  6
CONTINUOUS
 62
7
 10
148.000000
 20
78.500000
 11
239.000000
 21
78.500000
  0
LINE
  8
0
  6
CONTINUOUS
 62
7
 10
148.000000
 20
88.500000
 11
148.000000
 21
78.500000
  0
LINE
  8
0
  6
CONTINUOUS
 62
7
 10
239.000000
 20
88.500000
 11
239.000000
 21
78.500000
  0
LINE
  8
0
  6
CONTINUOUS
 62
7
 10
146.000000
 20
100.500000
 11
146.000000
 21
79.500000
  0
LINE
  8
0
  6
CONTINUOUS
 62
7
 10
238.000000
 20
100.500000
 11
238.000000
 21
88.500000
  0
LINE
  8
0
  6
CONTINUOUS
 62
7
 10
148.000000
 20
88.000000
 11
239.000000
 21
88.000000
  0
LINE
  8
0
  6
CONTINUOUS
 62
7
 10
138.000000
 20
79.500000
 11
138.000000
 21
100.000000
  0
LINE
  8
0
  6
CONTINUOUS
 62
7
 10
146.000000
 20
79.500000
 11
138.000000
 21
79.500000
  0
LINE
  8
0
  6
CONTINUOUS
 62
7
 10
146.000000
 20
100.000000
 11
138.000000
 21
100.000000
  0
LINE
  8
0
  6
CONTINUOUS
 62
7
 10
148.000000
 20
81.500000
 11
146.000000
 21
81.500000
  0
LINE
  8
0
  6
CENTER
 62
2
 10
255.199997
 20
-213.500000
 11
137.000000
 21
-213.500000
  0
LINE
  8
0
  6
CONTINUOUS
 62
7
 10
148.000000
 20
-230.000000
 11
160.800003
 21
-230.000000
  0
LINE
  8
0
  6
CONTINUOUS
 62
7
 10
148.000000
 20
-197.000000
 11
160.800003
 21
-197.000000
  0
LINE
  8
0
  6
CONTINUOUS
 62
7
 10
148.000000
 20
-197.000000
 11
148.000000
 21
-230.000000
  0
LINE
  8
0
  6
CONTINUOUS
 62
7
 10
254.000000
 20
-197.000000
 11
254.000000
 21
-230.000000
  0
LINE
  8
0
  6
CONTINUOUS
 62
7
 10
138.000000
 20
-197.500000
 11
148.000000
 21
-197.500000
  0
LINE
  8
0
  6
CONTINUOUS
 62
7
 10
138.000000
 20
-229.500000
 11
148.000000
 21
-229.500000
  0
LINE
  8
0
  6
CONTINUOUS
 62
7
 10
146.000000
 20
-197.500000
 11
146.000000
 21
-229.500000
  0
LINE
  8
0
  6
CONTINUOUS
 62
7
 10
165.199997
 20
-197.000000
 11
254.000000
 21
-197.000000
  0
LINE
  8
0
  6
CONTINUOUS
 62
7
 10
165.199997
 20
-230.000000
 11
254.000000
 21
-230.000000
  0
LINE
  8
0
  6
CONTINUOUS
 62
7
 10
160.800003
 20
-197.500000
 11
165.199997
 21
-197.500000
  0
LINE
  8
0
  6
CONTINUOUS
 62
7
 10
160.800003
 20
-229.500000
 11
165.199997
 21
-229.500000
  0
LINE
  8
0
  6
CONTINUOUS
 62
7
 10
138.000000
 20
-197.500000
 11
138.000000
 21
-229.500000
  0
LINE
  8
0
  6
CONTINUOUS
 62
7
 10
160.800003
 20
-201.500000
 11
160.800003
 21
-197.000000
  0
LINE
  8
0
  6
CONTINUOUS
 62
7
 10
165.199997
 20
-201.500000
 11
165.199997
 21
-197.000000
  0
LINE
  8
0
  6
CONTINUOUS
 62
7
 10
160.800003
 20
-225.500000
 11
160.800003
 21
-230.000000
  0
LINE
  8
0
  6
CONTINUOUS
 62
7
 10
165.199997
 20
-225.500000
 11
165.199997
 21
-230.000000
  0
LINE
  8
0
  6
CONTINUOUS
 62
7
 10
146.000000
 20
185.500000
 11
238.000000
 21
185.500000
  0
LINE
  8
0
  6
CONTINUOUS
 62
7
 10
148.000000
 20
207.500000
 11
239.000000
 21
207.500000
  0
LINE
  8
0
  6
CONTINUOUS
 62
7
 10
148.000000
 20
197.500000
 11
148.000000
 21
207.500000
  0
LINE
  8
0
  6
CONTINUOUS
 62
7
 10
239.000000
 20
197.500000
 11
239.000000
 21
207.500000
  0
LINE
  8
0
  6
CONTINUOUS
 62
7
 10
146.000000
 20
185.500000
 11
146.000000
 21
206.500000
  0
LINE
  8
0
  6
CONTINUOUS
 62
7
 10
148.000000
 20
198.000000
 11
167.000000
 21
198.000000
  0
LINE
  8
0
  6
CENTER
 62
2
 10
163.000000
 20
201.199997
 11
163.000000
 21
208.500000
  0
LINE
  8
0
  6
CONTINUOUS
 62
7
 10
138.000000
 20
206.500000
 11
138.000000
 21
186.000000
  0
LINE
  8
0
  6
CONTINUOUS
 62
7
 10
146.000000
 20
186.000000
 11
138.000000
 21
186.000000
  0
LINE
  8
0
  6
CONTINUOUS
 62
7
 10
146.000000
 20
206.500000
 11
138.000000
 21
206.500000
  0
LINE
  8
0
  6
CONTINUOUS
 62
7
 10
238.000000
 20
185.500000
 11
238.000000
 21
197.500000
  0
LINE
  8
0
  6
CONTINUOUS
 62
7
 10
148.000000
 20
204.500000
 11
146.000000
 21
204.500000
  0
LINE
  8
0
  6
CONTINUOUS
 62
7
 10
236.500000
 20
202.500000
 11
229.500000
 21
202.500000
  0
LINE
  8
0
  6
CONTINUOUS
 62
7
 10
236.500000
 20
201.500000
 11
229.500000
 21
201.500000
  0
LINE
  8
0
  6
CONTINUOUS
 62
7
 10
233.000000
 20
197.959000
 11
229.500000
 21
199.979004
  0
LINE
  8
0
  6
CONTINUOUS
 62
7
 10
229.500000
 20
199.979004
 11
229.500000
 21
204.020996
  0
LINE
  8
0
  6
CONTINUOUS
 62
7
 10
236.500000
 20
199.979004
 11
233.000000
 21
197.959000
  0
LINE
  8
0
  6
CONTINUOUS
 62
7
 10
236.500000
 20
199.979004
 11
236.500000
 21
204.020996
  0
LINE
  8
0
  6
CONTINUOUS
 62
7
 10
229.500000
 20
204.020996
 11
233.000000
 21
206.041000
  0
LINE
  8
0
  6
CONTINUOUS
 62
7
 10
236.500000
 20
204.020996
 11
233.000000
 21
206.041000
  0
LINE
  8
0
  6
CONTINUOUS
 62
7
 10
157.500000
 20
202.500000
 11
150.500000
 21
202.500000
  0
LINE
  8
0
  6
CONTINUOUS
 62
7
 10
157.500000
 20
201.500000
 11
150.500000
 21
201.500000
  0
LINE
  8
0
  6
CONTINUOUS
 62
7
 10
154.000000
 20
197.959000
 11
150.500000
 21
199.979004
  0
LINE
  8
0
  6
CONTINUOUS
 62
7
 10
150.500000
 20
199.979004
 11
150.500000
 21
204.020996
  0
LINE
  8
0
  6
CONTINUOUS
 62
7
 10
157.500000
 20
199.979004
 11
154.000000
 21
197.959000
  0
LINE
  8
0
  6
CONTINUOUS
 62
7
 10
157.500000
 20
199.979004
 11
157.500000
 21
204.020996
  0
LINE
  8
0
  6
CONTINUOUS
 62
7
 10
150.500000
 20
204.020996
 11
154.000000
 21
206.041000
  0
LINE
  8
0
  6
CONTINUOUS
 62
7
 10
157.500000
 20
204.020996
 11
154.000000
 21
206.041000
  0
LINE
  8
0
  6
DASHED
 62
2
 10
159.000000
 20
202.199997
 11
159.000000
 21
203.000000
  0
LINE
  8
0
  6
DASHED
 62
2
 10
167.000000
 20
203.000000
 11
165.199997
 21
203.000000
  0
LINE
  8
0
  6
DASHED
 62
2
 10
160.800003
 20
203.000000
 11
159.000000
 21
203.000000
  0
LINE
  8
0
  6
CENTER
 62
2
 10
223.000000
 20
102.500000
 11
223.000000
 21
98.500000
  0
LINE
  8
0
  6
CENTER
 62
2
 10
183.000000
 20
102.500000
 11
183.000000
 21
98.500000
  0
LINE
  8
0
  6
CENTER
 62
2
 10
158.000000
 20
102.500000
 11
158.000000
 21
98.500000
  0
LINE
  8
0
  6
CENTER
 62
2
 10
136.000000
 20
86.500000
 11
140.000000
 21
86.500000
  0
LINE
  8
0
  6
CENTER
 62
2
 10
136.000000
 20
95.500000
 11
140.000000
 21
95.500000
  0
LINE
  8
0
  6
CENTER
 62
2
 10
136.000000
 20
190.500000
 11
140.000000
 21
190.500000
  0
LINE
  8
0
  6
CENTER
 62
2
 10
136.000000
 20
199.500000
 11
140.000000
 21
199.500000
  0
LINE
  8
0
  6
CENTER
 62
2
 10
158.000000
 20
187.500000
 11
158.000000
 21
183.500000
  0
LINE
  8
0
  6
CENTER
 62
2
 10
183.000000
 20
187.500000
 11
183.000000
 21
183.500000
  0
LINE
  8
0
  6
CENTER
 62
2
 10
223.000000
 20
187.500000
 11
223.000000
 21
183.500000
  0
LINE
  8
0
  6
DASHED
 62
2
 10
159.000000
 20
83.000000
 11
160.800003
 21
83.000000
  0
LINE
  8
0
  6
DASHED
 62
2
 10
159.000000
 20
83.800003
 11
159.000000
 21
83.000000
  0
LINE
  8
0
  6
DASHED
 62
2
 10
167.000000
 20
83.800003
 11
167.000000
 21
83.000000
  0
LINE
  8
0
  6
DASHED
 62
2
 10
165.199997
 20
83.000000
 11
167.000000
 21
83.000000
  0
LINE
  8
0
  6
CENTER
 62
2
 10
198.000000
 20
187.500000
 11
198.000000
 21
183.500000
  0
LINE
  8
0
  6
CENTER
 62
2
 10
198.000000
 20
102.500000
 11
198.000000
 21
98.500000
  0
LINE
  8
0
  6
CENTER
 62
2
 10
154.000000
 20
162.500000
 11
154.000000
 21
158.000000
  0
LINE
  8
0
  6
CONTINUOUS
 62
7
 10
154.000000
 20
160.100006
 11
154.000000
 21
161.500000
  0
LINE
  8
0
  6
CONTINUOUS
 62
7
 10
150.100006
 20
160.100006
 11
157.899994
 21
160.100006
  0
LINE
  8
0
  6
CONTINUOUS
 62
7
 10
157.899994
 20
160.100006
 11
157.899994
 21
159.500000
  0
LINE
  8
0
  6
CONTINUOUS
 62
7
 10
150.100006
 20
160.100006
 11
150.100006
 21
159.500000
  0
LINE
  8
0
  6
CONTINUOUS
 62
7
 10
157.500000
 20
161.500000
 11
157.500000
 21
160.100006
  0
LINE
  8
0
  6
CONTINUOUS
 62
7
 10
150.500000
 20
161.500000
 11
150.500000
 21
160.100006
  0
LINE
  8
0
  6
CENTER
 62
2
 10
233.000000
 20
162.500000
 11
233.000000
 21
158.000000
  0
LINE
  8
0
  6
CONTINUOUS
 62
7
 10
92.458603
 20
163.000000
 11
92.458603
 21
160.100006
  0
LINE
  8
0
  6
CONTINUOUS
 62
7
 10
92.599998
 20
160.100006
 11
92.599998
 21
159.500000
  0
LINE
  8
0
  6
CONTINUOUS
 62
7
 10
100.541000
 20
160.100006
 11
92.458603
 21
160.100006
  0
LINE
  8
0
  6
CONTINUOUS
 62
7
 10
94.479301
 20
163.000000
 11
94.479301
 21
160.100006
  0
LINE
  8
0
  6
CENTER
 62
2
 10
96.500000
 20
164.000000
 11
96.500000
 21
158.500000
  0
LINE
  8
0
  6
CONTINUOUS
 62
7
 10
100.541000
 20
163.000000
 11
92.458603
 21
163.000000
  0
LINE
  8
0
  6
CONTINUOUS
 62
7
 10
100.541000
 20
163.000000
 11
100.541000
 21
160.100006
  0
LINE
  8
0
  6
CONTINUOUS
 62
7
 10
98.520699
 20
163.000000
 11
98.520699
 21
160.100006
  0
LINE
  8
0
  6
CONTINUOUS
 62
7
 10
100.400002
 20
160.100006
 11
100.400002
 21
159.500000
  0
LINE
  8
0
  6
CONTINUOUS
 62
7
 10
157.500000
 20
-233.500000
 11
150.500000
 21
-233.500000
  0
LINE
  8
0
  6
CENTER
 62
2
 10
154.000000
 20
-234.500000
 11
154.000000
 21
-228.500000
  0
LINE
  8
0
  6
CONTINUOUS
 62
7
 10
154.000000
 20
-230.600006
 11
154.000000
 21
-233.500000
  0
LINE
  8
0
  6
CONTINUOUS
 62
7
 10
157.899994
 20
-230.600006
 11
150.100006
 21
-230.600006
  0
LINE
  8
0
  6
CONTINUOUS
 62
7
 10
150.100006
 20
-230.600006
 11
150.100006
 21
-230.000000
  0
LINE
  8
0
  6
CONTINUOUS
 62
7
 10
157.899994
 20
-230.600006
 11
157.899994
 21
-230.000000
  0
LINE
  8
0
  6
CONTINUOUS
 62
7
 10
150.500000
 20
-233.500000
 11
150.500000
 21
-230.600006
  0
LINE
  8
0
  6
CONTINUOUS
 62
7
 10
157.500000
 20
-233.500000
 11
157.500000
 21
-230.600006
  0
LINE
  8
0
  6
CONTINUOUS
 62
7
 10
251.500000
 20
-233.500000
 11
244.500000
 21
-233.500000
  0
LINE
  8
0
  6
CENTER
 62
2
 10
248.000000
 20
-234.500000
 11
248.000000
 21
-228.500000
  0
LINE
  8
0
  6
CONTINUOUS
 62
7
 10
248.000000
 20
-230.600006
 11
248.000000
 21
-233.500000
  0
LINE
  8
0
  6
CONTINUOUS
 62
7
 10
251.899994
 20
-230.600006
 11
244.100006
 21
-230.600006
  0
LINE
  8
0
  6
CONTINUOUS
 62
7
 10
244.100006
 20
-230.600006
 11
244.100006
 21
-230.000000
  0
LINE
  8
0
  6
CONTINUOUS
 62
7
 10
251.899994
 20
-230.600006
 11
251.899994
 21
-230.000000
  0
LINE
  8
0
  6
CONTINUOUS
 62
7
 10
244.500000
 20
-233.500000
 11
244.500000
 21
-230.600006
  0
LINE
  8
0
  6
CONTINUOUS
 62
7
 10
251.500000
 20
-233.500000
 11
251.500000
 21
-230.600006
  0
LINE
  8
0
  6
CONTINUOUS
 62
7
 10
239.199997
 20
186.000000
 11
239.199997
 21
197.500000
  0
LINE
  8
0
  6
CONTINUOUS
 62
7
 10
239.600006
 20
186.500000
 11
239.600006
 21
190.500000
  0
LINE
  8
0
  6
CONTINUOUS
 62
7
 10
239.199997
 20
190.500000
 11
239.600006
 21
190.500000
  0
LINE
  8
0
  6
CONTINUOUS
 62
7
 10
239.199997
 20
186.500000
 11
239.600006
 21
186.500000
  0
LINE
  8
0
  6
CONTINUOUS
 62
7
 10
238.000000
 20
186.000000
 11
239.199997
 21
186.000000
  0
LINE
  8
0
  6
CONTINUOUS
 62
7
 10
146.000000
 20
197.500000
 11
167.000000
 21
197.500000
  0
LINE
  8
0
  6
CONTINUOUS
 62
7
 10
239.199997
 20
127.000000
 11
239.199997
 21
132.000000
  0
LINE
  8
0
  6
CONTINUOUS
 62
7
 10
239.199997
 20
154.000000
 11
239.199997
 21
159.000000
  0
LINE
  8
0
  6
CONTINUOUS
 62
7
 10
239.600006
 20
150.000000
 11
239.600006
 21
154.000000
  0
LINE
  8
0
  6
CONTINUOUS
 62
7
 10
239.600006
 20
154.000000
 11
238.500000
 21
154.000000
  0
LINE
  8
0
  6
CONTINUOUS
 62
7
 10
238.500000
 20
150.000000
 11
238.500000
 21
154.000000
  0
LINE
  8
0
  6
CONTINUOUS
 62
7
 10
239.600006
 20
150.000000
 11
238.500000
 21
150.000000
  0
LINE
  8
0
  6
CONTINUOUS
 62
7
 10
239.199997
 20
136.000000
 11
239.199997
 21
150.000000
  0
LINE
  8
0
  6
CONTINUOUS
 62
7
 10
239.600006
 20
136.000000
 11
238.500000
 21
136.000000
  0
LINE
  8
0
  6
CONTINUOUS
 62
7
 10
238.500000
 20
136.000000
 11
238.500000
 21
132.000000
  0
LINE
  8
0
  6
CONTINUOUS
 62
7
 10
239.600006
 20
136.000000
 11
239.600006
 21
132.000000
  0
LINE
  8
0
  6
CONTINUOUS
 62
7
 10
239.600006
 20
132.000000
 11
238.500000
 21
132.000000
  0
LINE
  8
0
  6
CONTINUOUS
 62
7
 10
238.000000
 20
100.000000
 11
239.199997
 21
100.000000
  0
LINE
  8
0
  6
CONTINUOUS
 62
7
 10
239.600006
 20
99.500000
 11
239.199997
 21
99.500000
  0
LINE
  8
0
  6
CONTINUOUS
 62
7
 10
146.000000
 20
88.500000
 11
239.199997
 21
88.500000
  0
LINE
  8
0
  6
CONTINUOUS
 62
7
 10
239.600006
 20
95.500000
 11
239.199997
 21
95.500000
  0
LINE
  8
0
  6
CONTINUOUS
 62
7
 10
239.600006
 20
99.500000
 11
239.600006
 21
95.500000
  0
LINE
  8
0
  6
CONTINUOUS
 62
7
 10
239.199997
 20
100.000000
 11
239.199997
 21
88.500000
  0
LINE
  8
0
  6
CONTINUOUS
 62
7
 10
254.600006
 20
-220.500000
 11
254.600006
 21
-224.500000
  0
LINE
  8
0
  6
CONTINUOUS
 62
7
 10
254.600006
 20
-206.500000
 11
254.199997
 21
-206.500000
  0
LINE
  8
0
  6
CONTINUOUS
 62
7
 10
254.600006
 20
-220.500000
 11
254.199997
 21
-220.500000
  0
LINE
  8
0
  6
CONTINUOUS
 62
7
 10
254.600006
 20
-224.500000
 11
254.199997
 21
-224.500000
  0
LINE
  8
0
  6
CONTINUOUS
 62
7
 10
254.600006
 20
-202.500000
 11
254.199997
 21
-202.500000
  0
LINE
  8
0
  6
CONTINUOUS
 62
7
 10
254.199997
 20
-197.500000
 11
254.199997
 21
-229.500000
  0
LINE
  8
0
  6
CONTINUOUS
 62
7
 10
254.000000
 20
-197.500000
 11
254.199997
 21
-197.500000
  0
LINE
  8
0
  6
CONTINUOUS
 62
7
 10
254.000000
 20
-229.500000
 11
254.199997
 21
-229.500000
  0
LINE
  8
0
  6
CONTINUOUS
 62
7
 10
254.600006
 20
-202.500000
 11
254.600006
 21
-206.500000
  0
LINE
  8
0
  6
CONTINUOUS
 62
7
 10
239.000000
 20
159.000000
 11
239.000000
 21
159.500000
  0
LINE
  8
0
  6
CENTER
 62
2
 10
-154.800003
 20
143.000000
 11
-233.000000
 21
143.000000
  0
LINE
  8
0
  6
CONTINUOUS
 62
7
 10
-155.800003
 20
127.000000
 11
-232.000000
 21
127.000000
  0
LINE
  8
0
  6
CONTINUOUS
 62
7
 10
-157.000000
 20
134.000000
 11
-224.000000
 21
134.000000
  0
LINE
  8
0
  6
CONTINUOUS
 62
7
 10
-222.000000
 20
159.500000
 11
-209.199997
 21
159.500000
  0
LINE
  8
0
  6
CONTINUOUS
 62
7
 10
-222.000000
 20
126.500000
 11
-209.199997
 21
126.500000
  0
LINE
  8
0
  6
CONTINUOUS
 62
7
 10
-222.000000
 20
126.500000
 11
-222.000000
 21
127.000000
  0
LINE
  8
0
  6
CONTINUOUS
 62
7
 10
-156.000000
 20
126.500000
 11
-156.000000
 21
127.000000
  0
LINE
  8
0
  6
CONTINUOUS
 62
7
 10
-222.000000
 20
159.000000
 11
-222.000000
 21
159.500000
  0
LINE
  8
0
  6
CONTINUOUS
 62
7
 10
-224.000000
 20
127.000000
 11
-224.000000
 21
159.000000
  0
LINE
  8
0
  6
CONTINUOUS
 62
7
 10
-155.800003
 20
159.000000
 11
-232.000000
 21
159.000000
  0
LINE
  8
0
  6
CONTINUOUS
 62
7
 10
-157.000000
 20
127.000000
 11
-157.000000
 21
159.000000
  0
LINE
  8
0
  6
CONTINUOUS
 62
7
 10
-157.000000
 20
152.000000
 11
-224.000000
 21
152.000000
  0
LINE
  8
0
  6
CONTINUOUS
 62
7
 10
-204.800003
 20
126.500000
 11
-156.000000
 21
126.500000
  0
LINE
  8
0
  6
CONTINUOUS
 62
7
 10
-232.000000
 20
159.000000
 11
-232.000000
 21
127.000000
  0
LINE
  8
0
  6
CONTINUOUS
 62
7
 10
-204.800003
 20
159.500000
 11
-172.800003
 21
159.500000
  0
LINE
  8
0
  6
DASHED
 62
2
 10
-209.199997
 20
131.000000
 11
-209.199997
 21
127.000000
  0
LINE
  8
0
  6
DASHED
 62
2
 10
-204.800003
 20
131.000000
 11
-204.800003
 21
127.000000
  0
LINE
  8
0
  6
DASHED
 62
2
 10
-209.199997
 20
155.000000
 11
-209.199997
 21
159.000000
  0
LINE
  8
0
  6
DASHED
 62
2
 10
-204.800003
 20
155.000000
 11
-204.800003
 21
159.000000
  0
LINE
  8
0
  6
CONTINUOUS
 62
7
 10
-209.199997
 20
127.000000
 11
-209.199997
 21
126.500000
  0
LINE
  8
0
  6
CONTINUOUS
 62
7
 10
-204.800003
 20
127.000000
 11
-204.800003
 21
126.500000
  0
LINE
  8
0
  6
CONTINUOUS
 62
7
 10
-204.800003
 20
159.500000
 11
-204.800003
 21
159.000000
  0
LINE
  8
0
  6
CONTINUOUS
 62
7
 10
-209.199997
 20
159.500000
 11
-209.199997
 21
159.000000
  0
LINE
  8
0
  6
CONTINUOUS
 62
7
 10
-257.000000
 20
127.000000
 11
-257.000000
 21
134.000000
  0
LINE
  8
0
  6
CONTINUOUS
 62
7
 10
-257.299988
 20
134.300003
 11
-257.299988
 21
151.699997
  0
LINE
  8
0
  6
CONTINUOUS
 62
7
 10
-257.000000
 20
134.000000
 11
-257.299988
 21
134.300003
  0
LINE
  8
0
  6
CONTINUOUS
 62
7
 10
-257.000000
 20
127.000000
 11
-278.000000
 21
127.000000
  0
LINE
  8
0
  6
CONTINUOUS
 62
7
 10
-257.000000
 20
159.000000
 11
-257.000000
 21
152.000000
  0
LINE
  8
0
  6
CONTINUOUS
 62
7
 10
-257.000000
 20
152.000000
 11
-257.299988
 21
151.699997
  0
LINE
  8
0
  6
CONTINUOUS
 62
7
 10
-257.000000
 20
159.000000
 11
-278.000000
 21
159.000000
  0
LINE
  8
0
  6
CONTINUOUS
 62
7
 10
-269.500000
 20
159.500000
 11
-269.500000
 21
159.000000
  0
LINE
  8
0
  6
CONTINUOUS
 62
7
 10
-279.000000
 20
159.500000
 11
-279.000000
 21
126.500000
  0
LINE
  8
0
  6
CONTINUOUS
 62
7
 10
-269.500000
 20
126.500000
 11
-279.000000
 21
126.500000
  0
LINE
  8
0
  6
CONTINUOUS
 62
7
 10
-269.500000
 20
126.500000
 11
-269.500000
 21
127.000000
  0
LINE
  8
0
  6
CENTER
 62
2
 10
-256.299988
 20
143.000000
 11
-280.000000
 21
143.000000
  0
LINE
  8
0
  6
CONTINUOUS
 62
7
 10
-257.500000
 20
159.000000
 11
-257.500000
 21
127.000000
  0
LINE
  8
0
  6
CONTINUOUS
 62
7
 10
-278.000000
 20
159.000000
 11
-278.000000
 21
127.000000
  0
LINE
  8
0
  6
CONTINUOUS
 62
7
 10
-279.000000
 20
159.500000
 11
-257.500000
 21
159.500000
  0
LINE
  8
0
  6
CENTER
 62
2
 10
-271.000000
 20
150.000000
 11
-271.000000
 21
136.000000
  0
LINE
  8
0
  6
CENTER
 62
2
 10
-112.000000
 20
135.600006
 11
-112.000000
 21
150.399994
  0
LINE
  8
0
  6
CONTINUOUS
 62
7
 10
-117.113998
 20
150.500000
 11
-113.500000
 21
150.500000
  0
LINE
  8
0
  6
CONTINUOUS
 62
7
 10
-121.000000
 20
150.500000
 11
-119.886002
 21
150.500000
  0
LINE
  8
0
  6
CONTINUOUS
 62
7
 10
-126.000000
 20
159.000000
 11
-126.000000
 21
152.000000
  0
LINE
  8
0
  6
CONTINUOUS
 62
7
 10
-125.699997
 20
151.699997
 11
-125.699997
 21
134.300003
  0
LINE
  8
0
  6
CONTINUOUS
 62
7
 10
-126.000000
 20
152.000000
 11
-125.699997
 21
151.699997
  0
LINE
  8
0
  6
CONTINUOUS
 62
7
 10
-121.000000
 20
135.500000
 11
-119.886002
 21
135.500000
  0
LINE
  8
0
  6
CONTINUOUS
 62
7
 10
-126.000000
 20
127.000000
 11
-113.500000
 21
127.000000
  0
LINE
  8
0
  6
CONTINUOUS
 62
7
 10
-126.000000
 20
127.000000
 11
-126.000000
 21
134.000000
  0
LINE
  8
0
  6
CONTINUOUS
 62
7
 10
-126.000000
 20
134.000000
 11
-125.699997
 21
134.300003
  0
LINE
  8
0
  6
CONTINUOUS
 62
7
 10
-126.000000
 20
159.000000
 11
-113.500000
 21
159.000000
  0
LINE
  8
0
  6
CONTINUOUS
 62
7
 10
-104.000000
 20
126.500000
 11
-104.000000
 21
159.500000
  0
LINE
  8
0
  6
CONTINUOUS
 62
7
 10
-113.500000
 20
159.500000
 11
-113.500000
 21
150.500000
  0
LINE
  8
0
  6
CONTINUOUS
 62
7
 10
-113.500000
 20
126.500000
 11
-104.000000
 21
126.500000
  0
LINE
  8
0
  6
CENTER
 62
2
 10
-126.699997
 20
143.000000
 11
-103.000000
 21
143.000000
  0
LINE
  8
0
  6
CONTINUOUS
 62
7
 10
-114.000000
 20
127.000000
 11
-114.000000
 21
135.500000
  0
LINE
  8
0
  6
CONTINUOUS
 62
7
 10
-121.000000
 20
150.500000
 11
-121.000000
 21
135.500000
  0
LINE
  8
0
  6
CONTINUOUS
 62
7
 10
-113.500000
 20
126.500000
 11
-113.500000
 21
135.500000
  0
LINE
  8
0
  6
CONTINUOUS
 62
7
 10
-117.113998
 20
135.500000
 11
-113.500000
 21
135.500000
  0
LINE
  8
0
  6
CONTINUOUS
 62
7
 10
-114.000000
 20
159.000000
 11
-114.000000
 21
150.500000
  0
LINE
  8
0
  6
CONTINUOUS
 62
7
 10
-224.000000
 20
100.500000
 11
-157.000000
 21
100.500000
  0
LINE
  8
0
  6
CONTINUOUS
 62
7
 10
-222.000000
 20
78.500000
 11
-156.000000
 21
78.500000
  0
LINE
  8
0
  6
CONTINUOUS
 62
7
 10
-222.000000
 20
88.500000
 11
-222.000000
 21
78.500000
  0
LINE
  8
0
  6
CONTINUOUS
 62
7
 10
-156.000000
 20
88.500000
 11
-156.000000
 21
78.500000
  0
LINE
  8
0
  6
CONTINUOUS
 62
7
 10
-224.000000
 20
100.500000
 11
-224.000000
 21
79.500000
  0
LINE
  8
0
  6
CONTINUOUS
 62
7
 10
-157.000000
 20
100.500000
 11
-157.000000
 21
88.500000
  0
LINE
  8
0
  6
CONTINUOUS
 62
7
 10
-157.000000
 20
100.000000
 11
-155.800003
 21
100.000000
  0
LINE
  8
0
  6
CONTINUOUS
 62
7
 10
-222.000000
 20
88.000000
 11
-156.000000
 21
88.000000
  0
LINE
  8
0
  6
CONTINUOUS
 62
7
 10
-155.399994
 20
99.500000
 11
-155.800003
 21
99.500000
  0
LINE
  8
0
  6
CONTINUOUS
 62
7
 10
-232.000000
 20
79.500000
 11
-232.000000
 21
100.000000
  0
LINE
  8
0
  6
CONTINUOUS
 62
7
 10
-224.000000
 20
79.500000
 11
-232.000000
 21
79.500000
  0
LINE
  8
0
  6
CONTINUOUS
 62
7
 10
-224.000000
 20
100.000000
 11
-232.000000
 21
100.000000
  0
LINE
  8
0
  6
CONTINUOUS
 62
7
 10
-224.000000
 20
88.500000
 11
-155.800003
 21
88.500000
  0
LINE
  8
0
  6
CONTINUOUS
 62
7
 10
-222.000000
 20
81.500000
 11
-224.000000
 21
81.500000
  0
LINE
  8
0
  6
CONTINUOUS
 62
7
 10
-155.399994
 20
95.500000
 11
-155.800003
 21
95.500000
  0
LINE
  8
0
  6
CENTER
 62
2
 10
-144.800003
 20
-213.500000
 11
-233.000000
 21
-213.500000
  0
LINE
  8
0
  6
CONTINUOUS
 62
7
 10
-222.000000
 20
-230.000000
 11
-209.199997
 21
-230.000000
  0
LINE
  8
0
  6
CONTINUOUS
 62
7
 10
-222.000000
 20
-197.000000
 11
-209.199997
 21
-197.000000
  0
LINE
  8
0
  6
CONTINUOUS
 62
7
 10
-222.000000
 20
-197.000000
 11
-222.000000
 21
-230.000000
  0
LINE
  8
0
  6
CONTINUOUS
 62
7
 10
-146.000000
 20
-197.000000
 11
-146.000000
 21
-230.000000
  0
LINE
  8
0
  6
CONTINUOUS
 62
7
 10
-232.000000
 20
-197.500000
 11
-222.000000
 21
-197.500000
  0
LINE
  8
0
  6
CONTINUOUS
 62
7
 10
-232.000000
 20
-229.500000
 11
-222.000000
 21
-229.500000
  0
LINE
  8
0
  6
CONTINUOUS
 62
7
 10
-224.000000
 20
-197.500000
 11
-224.000000
 21
-229.500000
  0
LINE
  8
0
  6
CONTINUOUS
 62
7
 10
-145.399994
 20
-206.500000
 11
-145.800003
 21
-206.500000
  0
LINE
  8
0
  6
CONTINUOUS
 62
7
 10
-145.399994
 20
-220.500000
 11
-145.800003
 21
-220.500000
  0
LINE
  8
0
  6
CONTINUOUS
 62
7
 10
-145.399994
 20
-224.500000
 11
-145.800003
 21
-224.500000
  0
LINE
  8
0
  6
CONTINUOUS
 62
7
 10
-145.399994
 20
-202.500000
 11
-145.800003
 21
-202.500000
  0
LINE
  8
0
  6
CONTINUOUS
 62
7
 10
-204.800003
 20
-197.000000
 11
-146.000000
 21
-197.000000
  0
LINE
  8
0
  6
CONTINUOUS
 62
7
 10
-204.800003
 20
-230.000000
 11
-146.000000
 21
-230.000000
  0
LINE
  8
0
  6
CONTINUOUS
 62
7
 10
-209.199997
 20
-197.500000
 11
-204.800003
 21
-197.500000
  0
LINE
  8
0
  6
CONTINUOUS
 62
7
 10
-209.199997
 20
-229.500000
 11
-204.800003
 21
-229.500000
  0
LINE
  8
0
  6
CONTINUOUS
 62
7
 10
-232.000000
 20
-197.500000
 11
-232.000000
 21
-229.500000
  0
LINE
  8
0
  6
CONTINUOUS
 62
7
 10
-209.199997
 20
-201.500000
 11
-209.199997
 21
-197.000000
  0
LINE
  8
0
  6
CONTINUOUS
 62
7
 10
-204.800003
 20
-201.500000
 11
-204.800003
 21
-197.000000
  0
LINE
  8
0
  6
CONTINUOUS
 62
7
 10
-209.199997
 20
-225.500000
 11
-209.199997
 21
-230.000000
  0
LINE
  8
0
  6
CONTINUOUS
 62
7
 10
-204.800003
 20
-225.500000
 11
-204.800003
 21
-230.000000
  0
LINE
  8
0
  6
CONTINUOUS
 62
7
 10
-224.000000
 20
185.500000
 11
-157.000000
 21
185.500000
  0
LINE
  8
0
  6
CONTINUOUS
 62
7
 10
-222.000000
 20
207.500000
 11
-156.000000
 21
207.500000
  0
LINE
  8
0
  6
CONTINUOUS
 62
7
 10
-222.000000
 20
197.500000
 11
-222.000000
 21
207.500000
  0
LINE
  8
0
  6
CONTINUOUS
 62
7
 10
-156.000000
 20
197.500000
 11
-156.000000
 21
207.500000
  0
LINE
  8
0
  6
CONTINUOUS
 62
7
 10
-224.000000
 20
185.500000
 11
-224.000000
 21
206.500000
  0
LINE
  8
0
  6
CONTINUOUS
 62
7
 10
-157.000000
 20
186.000000
 11
-155.800003
 21
186.000000
  0
LINE
  8
0
  6
CONTINUOUS
 62
7
 10
-224.000000
 20
197.500000
 11
-203.000000
 21
197.500000
  0
LINE
  8
0
  6
CONTINUOUS
 62
7
 10
-222.000000
 20
198.000000
 11
-203.000000
 21
198.000000
  0
LINE
  8
0
  6
CENTER
 62
2
 10
-207.000000
 20
201.199997
 11
-207.000000
 21
208.500000
  0
LINE
  8
0
  6
CONTINUOUS
 62
7
 10
-232.000000
 20
206.500000
 11
-232.000000
 21
186.000000
  0
LINE
  8
0
  6
CONTINUOUS
 62
7
 10
-224.000000
 20
186.000000
 11
-232.000000
 21
186.000000
  0
LINE
  8
0
  6
CONTINUOUS
 62
7
 10
-224.000000
 20
206.500000
 11
-232.000000
 21
206.500000
  0
LINE
  8
0
  6
CONTINUOUS
 62
7
 10
-157.000000
 20
185.500000
 11
-157.000000
 21
197.500000
  0
LINE
  8
0
  6
CONTINUOUS
 62
7
 10
-222.000000
 20
204.500000
 11
-224.000000
 21
204.500000
  0
LINE
  8
0
  6
CONTINUOUS
 62
7
 10
-158.500000
 20
202.500000
 11
-165.500000
 21
202.500000
  0
LINE
  8
0
  6
CONTINUOUS
 62
7
 10
-158.500000
 20
201.500000
 11
-165.500000
 21
201.500000
  0
LINE
  8
0
  6
CONTINUOUS
 62
7
 10
-162.000000
 20
197.959000
 11
-165.500000
 21
199.979004
  0
LINE
  8
0
  6
CONTINUOUS
 62
7
 10
-165.500000
 20
199.979004
 11
-165.500000
 21
204.020996
  0
LINE
  8
0
  6
CONTINUOUS
 62
7
 10
-158.500000
 20
199.979004
 11
-162.000000
 21
197.959000
  0
LINE
  8
0
  6
CONTINUOUS
 62
7
 10
-158.500000
 20
199.979004
 11
-158.500000
 21
204.020996
  0
LINE
  8
0
  6
CONTINUOUS
 62
7
 10
-165.500000
 20
204.020996
 11
-162.000000
 21
206.041000
  0
LINE
  8
0
  6
CONTINUOUS
 62
7
 10
-158.500000
 20
204.020996
 11
-162.000000
 21
206.041000
  0
LINE
  8
0
  6
CONTINUOUS
 62
7
 10
-212.500000
 20
202.500000
 11
-219.500000
 21
202.500000
  0
LINE
  8
0
  6
CONTINUOUS
 62
7
 10
-212.500000
 20
201.500000
 11
-219.500000
 21
201.500000
  0
LINE
  8
0
  6
CONTINUOUS
 62
7
 10
-216.000000
 20
197.959000
 11
-219.500000
 21
199.979004
  0
LINE
  8
0
  6
CONTINUOUS
 62
7
 10
-219.500000
 20
199.979004
 11
-219.500000
 21
204.020996
  0
LINE
  8
0
  6
CONTINUOUS
 62
7
 10
-212.500000
 20
199.979004
 11
-216.000000
 21
197.959000
  0
LINE
  8
0
  6
CONTINUOUS
 62
7
 10
-212.500000
 20
199.979004
 11
-212.500000
 21
204.020996
  0
LINE
  8
0
  6
CONTINUOUS
 62
7
 10
-219.500000
 20
204.020996
 11
-216.000000
 21
206.041000
  0
LINE
  8
0
  6
CONTINUOUS
 62
7
 10
-212.500000
 20
204.020996
 11
-216.000000
 21
206.041000
  0
LINE
  8
0
  6
DASHED
 62
2
 10
-211.000000
 20
202.199997
 11
-211.000000
 21
203.000000
  0
LINE
  8
0
  6
DASHED
 62
2
 10
-203.000000
 20
203.000000
 11
-204.800003
 21
203.000000
  0
LINE
  8
0
  6
DASHED
 62
2
 10
-209.199997
 20
203.000000
 11
-211.000000
 21
203.000000
  0
LINE
  8
0
  6
CENTER
 62
2
 10
-172.000000
 20
102.500000
 11
-172.000000
 21
98.500000
  0
LINE
  8
0
  6
CENTER
 62
2
 10
-192.000000
 20
102.500000
 11
-192.000000
 21
98.500000
  0
LINE
  8
0
  6
CENTER
 62
2
 10
-212.000000
 20
102.500000
 11
-212.000000
 21
98.500000
  0
LINE
  8
0
  6
CENTER
 62
2
 10
-234.000000
 20
86.500000
 11
-230.000000
 21
86.500000
  0
LINE
  8
0
  6
CENTER
 62
2
 10
-234.000000
 20
95.500000
 11
-230.000000
 21
95.500000
  0
LINE
  8
0
  6
CENTER
 62
2
 10
-234.000000
 20
190.500000
 11
-230.000000
 21
190.500000
  0
LINE
  8
0
  6
CENTER
 62
2
 10
-234.000000
 20
199.500000
 11
-230.000000
 21
199.500000
  0
LINE
  8
0
  6
CENTER
 62
2
 10
-212.000000
 20
187.500000
 11
-212.000000
 21
183.500000
  0
LINE
  8
0
  6
CENTER
 62
2
 10
-192.000000
 20
187.500000
 11
-192.000000
 21
183.500000
  0
LINE
  8
0
  6
CENTER
 62
2
 10
-172.000000
 20
187.500000
 11
-172.000000
 21
183.500000
  0
LINE
  8
0
  6
DASHED
 62
2
 10
-211.000000
 20
83.000000
 11
-209.199997
 21
83.000000
  0
LINE
  8
0
  6
DASHED
 62
2
 10
-211.000000
 20
83.800003
 11
-211.000000
 21
83.000000
  0
LINE
  8
0
  6
CONTINUOUS
 62
7
 10
-204.800003
 20
83.000000
 11
-209.199997
 21
83.000000
  0
LINE
  8
0
  6
DASHED
 62
2
 10
-203.000000
 20
83.800003
 11
-203.000000
 21
83.000000
  0
LINE
  8
0
  6
DASHED
 62
2
 10
-204.800003
 20
83.000000
 11
-203.000000
 21
83.000000
  0
LINE
  8
0
  6
CENTER
 62
2
 10
-128.000000
 20
155.500000
 11
-124.000000
 21
155.500000
  0
LINE
  8
0
  6
CENTER
 62
2
 10
-106.000000
 20
155.000000
 11
-102.000000
 21
155.000000
  0
LINE
  8
0
  6
CENTER
 62
2
 10
-106.000000
 20
131.000000
 11
-102.000000
 21
131.000000
  0
LINE
  8
0
  6
CENTER
 62
2
 10
-128.000000
 20
130.500000
 11
-124.000000
 21
130.500000
  0
LINE
  8
0
  6
CONTINUOUS
 62
7
 10
-155.800003
 20
154.000000
 11
-155.800003
 21
159.000000
  0
LINE
  8
0
  6
CONTINUOUS
 62
7
 10
-155.399994
 20
150.000000
 11
-155.399994
 21
154.000000
  0
LINE
  8
0
  6
CONTINUOUS
 62
7
 10
-155.399994
 20
154.000000
 11
-156.500000
 21
154.000000
  0
LINE
  8
0
  6
CONTINUOUS
 62
7
 10
-156.500000
 20
150.000000
 11
-156.500000
 21
154.000000
  0
LINE
  8
0
  6
CONTINUOUS
 62
7
 10
-155.399994
 20
150.000000
 11
-156.500000
 21
150.000000
  0
LINE
  8
0
  6
CONTINUOUS
 62
7
 10
-155.800003
 20
136.000000
 11
-155.800003
 21
150.000000
  0
LINE
  8
0
  6
CONTINUOUS
 62
7
 10
-155.399994
 20
136.000000
 11
-156.500000
 21
136.000000
  0
LINE
  8
0
  6
CONTINUOUS
 62
7
 10
-156.500000
 20
136.000000
 11
-156.500000
 21
132.000000
  0
LINE
  8
0
  6
CONTINUOUS
 62
7
 10
-155.399994
 20
136.000000
 11
-155.399994
 21
132.000000
  0
LINE
  8
0
  6
CONTINUOUS
 62
7
 10
-155.399994
 20
132.000000
 11
-156.500000
 21
132.000000
  0
LINE
  8
0
  6
CONTINUOUS
 62
7
 10
-155.800003
 20
127.000000
 11
-155.800003
 21
132.000000
  0
LINE
  8
0
  6
CONTINUOUS
 62
7
 10
-156.000000
 20
159.000000
 11
-156.000000
 21
159.500000
  0
LINE
  8
0
  6
CENTER
 62
2
 10
-216.000000
 20
162.500000
 11
-216.000000
 21
158.000000
  0
LINE
  8
0
  6
CONTINUOUS
 62
7
 10
-216.000000
 20
160.100006
 11
-216.000000
 21
161.500000
  0
LINE
  8
0
  6
CONTINUOUS
 62
7
 10
-219.899994
 20
160.100006
 11
-212.100006
 21
160.100006
  0
LINE
  8
0
  6
CONTINUOUS
 62
7
 10
-212.100006
 20
160.100006
 11
-212.100006
 21
159.500000
  0
LINE
  8
0
  6
CONTINUOUS
 62
7
 10
-219.899994
 20
160.100006
 11
-219.899994
 21
159.500000
  0
LINE
  8
0
  6
CONTINUOUS
 62
7
 10
-212.500000
 20
161.500000
 11
-212.500000
 21
160.100006
  0
LINE
  8
0
  6
CONTINUOUS
 62
7
 10
-219.500000
 20
161.500000
 11
-219.500000
 21
160.100006
  0
LINE
  8
0
  6
CENTER
 62
2
 10
-162.000000
 20
162.500000
 11
-162.000000
 21
158.000000
  0
LINE
  8
0
  6
CONTINUOUS
 62
7
 10
-277.540985
 20
163.000000
 11
-277.540985
 21
160.100006
  0
LINE
  8
0
  6
CONTINUOUS
 62
7
 10
-277.399994
 20
160.100006
 11
-277.399994
 21
159.500000
  0
LINE
  8
0
  6
CONTINUOUS
 62
7
 10
-269.459015
 20
160.100006
 11
-277.540985
 21
160.100006
  0
LINE
  8
0
  6
CONTINUOUS
 62
7
 10
-275.520996
 20
163.000000
 11
-275.520996
 21
160.100006
  0
LINE
  8
0
  6
CENTER
 62
2
 10
-273.500000
 20
164.000000
 11
-273.500000
 21
158.500000
  0
LINE
  8
0
  6
CONTINUOUS
 62
7
 10
-269.459015
 20
163.000000
 11
-277.540985
 21
163.000000
  0
LINE
  8
0
  6
CONTINUOUS
 62
7
 10
-269.459015
 20
163.000000
 11
-269.459015
 21
160.100006
  0
LINE
  8
0
  6
CONTINUOUS
 62
7
 10
-271.479004
 20
163.000000
 11
-271.479004
 21
160.100006
  0
LINE
  8
0
  6
CONTINUOUS
 62
7
 10
-269.600006
 20
160.100006
 11
-269.600006
 21
159.500000
  0
LINE
  8
0
  6
CONTINUOUS
 62
7
 10
-113.541000
 20
163.000000
 11
-113.541000
 21
160.100006
  0
LINE
  8
0
  6
CONTINUOUS
 62
7
 10
-113.400002
 20
160.100006
 11
-113.400002
 21
159.500000
  0
LINE
  8
0
  6
CONTINUOUS
 62
7
 10
-105.459000
 20
160.100006
 11
-113.541000
 21
160.100006
  0
LINE
  8
0
  6
CONTINUOUS
 62
7
 10
-111.521004
 20
163.000000
 11
-111.521004
 21
160.100006
  0
LINE
  8
0
  6
CENTER
 62
2
 10
-109.500000
 20
164.000000
 11
-109.500000
 21
158.500000
  0
LINE
  8
0
  6
CONTINUOUS
 62
7
 10
-105.459000
 20
163.000000
 11
-113.541000
 21
163.000000
  0
LINE
  8
0
  6
CONTINUOUS
 62
7
 10
-105.459000
 20
163.000000
 11
-105.459000
 21
160.100006
  0
LINE
  8
0
  6
CONTINUOUS
 62
7
 10
-107.478996
 20
163.000000
 11
-107.478996
 21
160.100006
  0
LINE
  8
0
  6
CONTINUOUS
 62
7
 10
-105.599998
 20
160.100006
 11
-105.599998
 21
159.500000
  0
LINE
  8
0
  6
CONTINUOUS
 62
7
 10
-155.800003
 20
186.000000
 11
-155.800003
 21
197.500000
  0
LINE
  8
0
  6
CONTINUOUS
 62
7
 10
-155.399994
 20
186.500000
 11
-155.399994
 21
190.500000
  0
LINE
  8
0
  6
CONTINUOUS
 62
7
 10
-155.800003
 20
186.500000
 11
-155.399994
 21
186.500000
  0
LINE
  8
0
  6
CONTINUOUS
 62
7
 10
-155.800003
 20
190.500000
 11
-155.399994
 21
190.500000
  0
LINE
  8
0
  6
CONTINUOUS
 62
7
 10
-155.399994
 20
99.500000
 11
-155.399994
 21
95.500000
  0
LINE
  8
0
  6
CONTINUOUS
 62
7
 10
-155.800003
 20
100.000000
 11
-155.800003
 21
88.500000
  0
LINE
  8
0
  6
CONTINUOUS
 62
7
 10
-145.800003
 20
-197.500000
 11
-145.800003
 21
-229.500000
  0
LINE
  8
0
  6
CONTINUOUS
 62
7
 10
-146.000000
 20
-197.500000
 11
-145.800003
 21
-197.500000
  0
LINE
  8
0
  6
CONTINUOUS
 62
7
 10
-146.000000
 20
-229.500000
 11
-145.800003
 21
-229.500000
  0
LINE
  8
0
  6
CONTINUOUS
 62
7
 10
-145.399994
 20
-202.500000
 11
-145.399994
 21
-206.500000
  0
LINE
  8
0
  6
CONTINUOUS
 62
7
 10
-145.399994
 20
-220.500000
 11
-145.399994
 21
-224.500000
  0
LINE
  8
0
  6
CONTINUOUS
 62
7
 10
-212.500000
 20
-233.500000
 11
-219.500000
 21
-233.500000
  0
LINE
  8
0
  6
CONTINUOUS
 62
7
 10
-216.000000
 20
-230.600006
 11
-216.000000
 21
-233.500000
  0
LINE
  8
0
  6
CONTINUOUS
 62
7
 10
-212.100006
 20
-230.600006
 11
-219.899994
 21
-230.600006
  0
LINE
  8
0
  6
CONTINUOUS
 62
7
 10
-219.899994
 20
-230.600006
 11
-219.899994
 21
-230.000000
  0
LINE
  8
0
  6
CONTINUOUS
 62
7
 10
-212.100006
 20
-230.600006
 11
-212.100006
 21
-230.000000
  0
LINE
  8
0
  6
CONTINUOUS
 62
7
 10
-219.500000
 20
-233.500000
 11
-219.500000
 21
-230.600006
  0
LINE
  8
0
  6
CONTINUOUS
 62
7
 10
-212.500000
 20
-233.500000
 11
-212.500000
 21
-230.600006
  0
LINE
  8
0
  6
CONTINUOUS
 62
7
 10
-148.500000
 20
-233.500000
 11
-155.500000
 21
-233.500000
  0
LINE
  8
0
  6
CENTER
 62
2
 10
-216.000000
 20
-234.500000
 11
-216.000000
 21
-228.500000
  0
LINE
  8
0
  6
CONTINUOUS
 62
7
 10
-152.000000
 20
-230.600006
 11
-152.000000
 21
-233.500000
  0
LINE
  8
0
  6
CONTINUOUS
 62
7
 10
-148.100006
 20
-230.600006
 11
-155.899994
 21
-230.600006
  0
LINE
  8
0
  6
CONTINUOUS
 62
7
 10
-155.899994
 20
-230.600006
 11
-155.899994
 21
-230.000000
  0
LINE
  8
0
  6
CONTINUOUS
 62
7
 10
-148.100006
 20
-230.600006
 11
-148.100006
 21
-230.000000
  0
LINE
  8
0
  6
CONTINUOUS
 62
7
 10
-155.500000
 20
-233.500000
 11
-155.500000
 21
-230.600006
  0
LINE
  8
0
  6
CONTINUOUS
 62
7
 10
-148.500000
 20
-233.500000
 11
-148.500000
 21
-230.600006
  0
LINE
  8
0
  6
CENTER
 62
2
 10
-154.800003
 20
36.500000
 11
-233.000000
 21
36.500000
  0
LINE
  8
0
  6
CONTINUOUS
 62
7
 10
-222.000000
 20
20.000000
 11
-209.199997
 21
20.000000
  0
LINE
  8
0
  6
CONTINUOUS
 62
7
 10
-222.000000
 20
53.000000
 11
-209.199997
 21
53.000000
  0
LINE
  8
0
  6
CONTINUOUS
 62
7
 10
-222.000000
 20
53.000000
 11
-222.000000
 21
20.000000
  0
LINE
  8
0
  6
CONTINUOUS
 62
7
 10
-156.000000
 20
53.000000
 11
-156.000000
 21
20.000000
  0
LINE
  8
0
  6
CONTINUOUS
 62
7
 10
-232.000000
 20
52.500000
 11
-222.000000
 21
52.500000
  0
LINE
  8
0
  6
CONTINUOUS
 62
7
 10
-232.000000
 20
20.500000
 11
-222.000000
 21
20.500000
  0
LINE
  8
0
  6
CONTINUOUS
 62
7
 10
-224.000000
 20
52.500000
 11
-224.000000
 21
20.500000
  0
LINE
  8
0
  6
CONTINUOUS
 62
7
 10
-155.399994
 20
43.500000
 11
-155.800003
 21
43.500000
  0
LINE
  8
0
  6
CONTINUOUS
 62
7
 10
-155.399994
 20
29.500000
 11
-155.800003
 21
29.500000
  0
LINE
  8
0
  6
CONTINUOUS
 62
7
 10
-155.399994
 20
25.500000
 11
-155.800003
 21
25.500000
  0
LINE
  8
0
  6
CONTINUOUS
 62
7
 10
-155.399994
 20
47.500000
 11
-155.800003
 21
47.500000
  0
LINE
  8
0
  6
CONTINUOUS
 62
7
 10
-204.800003
 20
53.000000
 11
-156.000000
 21
53.000000
  0
LINE
  8
0
  6
CONTINUOUS
 62
7
 10
-204.800003
 20
20.000000
 11
-156.000000
 21
20.000000
  0
LINE
  8
0
  6
CONTINUOUS
 62
7
 10
-209.199997
 20
52.500000
 11
-204.800003
 21
52.500000
  0
LINE
  8
0
  6
CONTINUOUS
 62
7
 10
-209.199997
 20
20.500000
 11
-204.800003
 21
20.500000
  0
LINE
  8
0
  6
CONTINUOUS
 62
7
 10
-232.000000
 20
52.500000
 11
-232.000000
 21
20.500000
  0
LINE
  8
0
  6
CONTINUOUS
 62
7
 10
-209.199997
 20
48.500000
 11
-209.199997
 21
53.000000
  0
LINE
  8
0
  6
CONTINUOUS
 62
7
 10
-204.800003
 20
48.500000
 11
-204.800003
 21
53.000000
  0
LINE
  8
0
  6
CONTINUOUS
 62
7
 10
-209.199997
 20
24.500000
 11
-209.199997
 21
20.000000
  0
LINE
  8
0
  6
CONTINUOUS
 62
7
 10
-204.800003
 20
24.500000
 11
-204.800003
 21
20.000000
  0
LINE
  8
0
  6
CONTINUOUS
 62
7
 10
-155.800003
 20
52.500000
 11
-155.800003
 21
20.500000
  0
LINE
  8
0
  6
CONTINUOUS
 62
7
 10
-156.000000
 20
52.500000
 11
-155.800003
 21
52.500000
  0
LINE
  8
0
  6
CONTINUOUS
 62
7
 10
-156.000000
 20
20.500000
 11
-155.800003
 21
20.500000
  0
LINE
  8
0
  6
CONTINUOUS
 62
7
 10
-155.399994
 20
47.500000
 11
-155.399994
 21
43.500000
  0
LINE
  8
0
  6
CONTINUOUS
 62
7
 10
-155.399994
 20
29.500000
 11
-155.399994
 21
25.500000
  0
LINE
  8
0
  6
CONTINUOUS
 62
7
 10
-212.500000
 20
16.500000
 11
-219.500000
 21
16.500000
  0
LINE
  8
0
  6
CENTER
 62
2
 10
-216.000000
 20
15.500000
 11
-216.000000
 21
21.500000
  0
LINE
  8
0
  6
CONTINUOUS
 62
7
 10
-216.000000
 20
19.400000
 11
-216.000000
 21
16.500000
  0
LINE
  8
0
  6
CONTINUOUS
 62
7
 10
-212.100006
 20
19.400000
 11
-219.899994
 21
19.400000
  0
LINE
  8
0
  6
CONTINUOUS
 62
7
 10
-219.899994
 20
19.400000
 11
-219.899994
 21
20.000000
  0
LINE
  8
0
  6
CONTINUOUS
 62
7
 10
-212.100006
 20
19.400000
 11
-212.100006
 21
20.000000
  0
LINE
  8
0
  6
CONTINUOUS
 62
7
 10
-219.500000
 20
16.500000
 11
-219.500000
 21
19.400000
  0
LINE
  8
0
  6
CONTINUOUS
 62
7
 10
-212.500000
 20
16.500000
 11
-212.500000
 21
19.400000
  0
LINE
  8
0
  6
CONTINUOUS
 62
7
 10
-158.500000
 20
16.500000
 11
-165.500000
 21
16.500000
  0
LINE
  8
0
  6
CENTER
 62
2
 10
-162.000000
 20
15.500000
 11
-162.000000
 21
21.500000
  0
LINE
  8
0
  6
CONTINUOUS
 62
7
 10
-162.000000
 20
19.400000
 11
-162.000000
 21
16.500000
  0
LINE
  8
0
  6
CONTINUOUS
 62
7
 10
-158.100006
 20
19.400000
 11
-165.899994
 21
19.400000
  0
LINE
  8
0
  6
CONTINUOUS
 62
7
 10
-165.899994
 20
19.400000
 11
-165.899994
 21
20.000000
  0
LINE
  8
0
  6
CONTINUOUS
 62
7
 10
-158.100006
 20
19.400000
 11
-158.100006
 21
20.000000
  0
LINE
  8
0
  6
CONTINUOUS
 62
7
 10
-165.500000
 20
16.500000
 11
-165.500000
 21
19.400000
  0
LINE
  8
0
  6
CONTINUOUS
 62
7
 10
-158.500000
 20
16.500000
 11
-158.500000
 21
19.400000
  0
LINE
  8
0
  6
CENTER
 62
2
 10
240.199997
 20
36.500000
 11
137.000000
 21
36.500000
  0
LINE
  8
0
  6
CONTINUOUS
 62
7
 10
148.000000
 20
20.000000
 11
160.800003
 21
20.000000
  0
LINE
  8
0
  6
CONTINUOUS
 62
7
 10
148.000000
 20
53.000000
 11
160.800003
 21
53.000000
  0
LINE
  8
0
  6
CONTINUOUS
 62
7
 10
148.000000
 20
53.000000
 11
148.000000
 21
20.000000
  0
LINE
  8
0
  6
CONTINUOUS
 62
7
 10
239.000000
 20
53.000000
 11
239.000000
 21
20.000000
  0
LINE
  8
0
  6
CONTINUOUS
 62
7
 10
138.000000
 20
52.500000
 11
148.000000
 21
52.500000
  0
LINE
  8
0
  6
CONTINUOUS
 62
7
 10
138.000000
 20
20.500000
 11
148.000000
 21
20.500000
  0
LINE
  8
0
  6
CONTINUOUS
 62
7
 10
146.000000
 20
52.500000
 11
146.000000
 21
20.500000
  0
LINE
  8
0
  6
CONTINUOUS
 62
7
 10
165.199997
 20
53.000000
 11
239.000000
 21
53.000000
  0
LINE
  8
0
  6
CONTINUOUS
 62
7
 10
165.199997
 20
20.000000
 11
239.000000
 21
20.000000
  0
LINE
  8
0
  6
CONTINUOUS
 62
7
 10
160.800003
 20
52.500000
 11
165.199997
 21
52.500000
  0
LINE
  8
0
  6
CONTINUOUS
 62
7
 10
160.800003
 20
20.500000
 11
165.199997
 21
20.500000
  0
LINE
  8
0
  6
CONTINUOUS
 62
7
 10
138.000000
 20
52.500000
 11
138.000000
 21
20.500000
  0
LINE
  8
0
  6
CONTINUOUS
 62
7
 10
160.800003
 20
48.500000
 11
160.800003
 21
53.000000
  0
LINE
  8
0
  6
CONTINUOUS
 62
7
 10
165.199997
 20
48.500000
 11
165.199997
 21
53.000000
  0
LINE
  8
0
  6
CONTINUOUS
 62
7
 10
160.800003
 20
24.500000
 11
160.800003
 21
20.000000
  0
LINE
  8
0
  6
CONTINUOUS
 62
7
 10
165.199997
 20
24.500000
 11
165.199997
 21
20.000000
  0
LINE
  8
0
  6
CONTINUOUS
 62
7
 10
157.500000
 20
16.500000
 11
150.500000
 21
16.500000
  0
LINE
  8
0
  6
CENTER
 62
2
 10
154.000000
 20
15.500000
 11
154.000000
 21
21.500000
  0
LINE
  8
0
  6
CONTINUOUS
 62
7
 10
154.000000
 20
19.400000
 11
154.000000
 21
16.500000
  0
LINE
  8
0
  6
CONTINUOUS
 62
7
 10
157.899994
 20
19.400000
 11
150.100006
 21
19.400000
  0
LINE
  8
0
  6
CONTINUOUS
 62
7
 10
150.100006
 20
19.400000
 11
150.100006
 21
20.000000
  0
LINE
  8
0
  6
CONTINUOUS
 62
7
 10
157.899994
 20
19.400000
 11
157.899994
 21
20.000000
  0
LINE
  8
0
  6
CONTINUOUS
 62
7
 10
150.500000
 20
16.500000
 11
150.500000
 21
19.400000
  0
LINE
  8
0
  6
CONTINUOUS
 62
7
 10
157.500000
 20
16.500000
 11
157.500000
 21
19.400000
  0
LINE
  8
0
  6
CONTINUOUS
 62
7
 10
236.500000
 20
16.500000
 11
229.500000
 21
16.500000
  0
LINE
  8
0
  6
CENTER
 62
2
 10
233.000000
 20
15.500000
 11
233.000000
 21
21.500000
  0
LINE
  8
0
  6
CONTINUOUS
 62
7
 10
233.000000
 20
19.400000
 11
233.000000
 21
16.500000
  0
LINE
  8
0
  6
CONTINUOUS
 62
7
 10
236.899994
 20
19.400000
 11
229.100006
 21
19.400000
  0
LINE
  8
0
  6
CONTINUOUS
 62
7
 10
229.100006
 20
19.400000
 11
229.100006
 21
20.000000
  0
LINE
  8
0
  6
CONTINUOUS
 62
7
 10
236.899994
 20
19.400000
 11
236.899994
 21
20.000000
  0
LINE
  8
0
  6
CONTINUOUS
 62
7
 10
229.500000
 20
16.500000
 11
229.500000
 21
19.400000
  0
LINE
  8
0
  6
CONTINUOUS
 62
7
 10
236.500000
 20
16.500000
 11
236.500000
 21
19.400000
  0
LINE
  8
0
  6
CONTINUOUS
 62
7
 10
239.600006
 20
29.500000
 11
239.600006
 21
25.500000
  0
LINE
  8
0
  6
CONTINUOUS
 62
7
 10
239.600006
 20
43.500000
 11
239.199997
 21
43.500000
  0
LINE
  8
0
  6
CONTINUOUS
 62
7
 10
239.600006
 20
29.500000
 11
239.199997
 21
29.500000
  0
LINE
  8
0
  6
CONTINUOUS
 62
7
 10
239.600006
 20
25.500000
 11
239.199997
 21
25.500000
  0
LINE
  8
0
  6
CONTINUOUS
 62
7
 10
239.600006
 20
47.500000
 11
239.199997
 21
47.500000
  0
LINE
  8
0
  6
CONTINUOUS
 62
7
 10
239.199997
 20
52.500000
 11
239.199997
 21
20.500000
  0
LINE
  8
0
  6
CONTINUOUS
 62
7
 10
239.000000
 20
52.500000
 11
239.199997
 21
52.500000
  0
LINE
  8
0
  6
CONTINUOUS
 62
7
 10
239.000000
 20
20.500000
 11
239.199997
 21
20.500000
  0
LINE
  8
0
  6
CONTINUOUS
 62
7
 10
239.600006
 20
47.500000
 11
239.600006
 21
43.500000
  0
LINE
  8
0
  6
CONTINUOUS
 62
7
 10
-211.199997
 20
83.800003
 11
-202.000000
 21
83.800003
  0
LINE
  8
0
  6
CONTINUOUS
 62
7
 10
-204.850006
 20
83.000000
 11
-209.149994
 21
83.000000
  0
LINE
  8
0
  6
CONTINUOUS
 62
7
 10
-204.850006
 20
83.800003
 11
-204.850006
 21
78.500000
  0
LINE
  8
0
  6
CONTINUOUS
 62
7
 10
-209.149994
 20
83.800003
 11
-209.149994
 21
78.500000
  0
LINE
  8
0
  6
CONTINUOUS
 62
7
 10
-181.235992
 20
85.800003
 11
-196.764008
 21
85.800003
  0
LINE
  8
0
  6
DASHED
 62
2
 10
-175.000000
 20
83.800003
 11
-175.000000
 21
83.000000
  0
LINE
  8
0
  6
CONTINUOUS
 62
7
 10
-166.800003
 20
83.800003
 11
-176.000000
 21
83.800003
  0
LINE
  8
0
  6
DASHED
 62
2
 10
-167.000000
 20
83.000000
 11
-175.000000
 21
83.000000
  0
LINE
  8
0
  6
CENTER
 62
2
 10
-171.000000
 20
84.800003
 11
-171.000000
 21
77.500000
  0
LINE
  8
0
  6
DASHED
 62
2
 10
-168.899994
 20
83.000000
 11
-168.899994
 21
78.500000
  0
LINE
  8
0
  6
DASHED
 62
2
 10
-168.500000
 20
83.000000
 11
-168.500000
 21
78.500000
  0
LINE
  8
0
  6
DASHED
 62
2
 10
-167.000000
 20
83.800003
 11
-167.000000
 21
83.000000
  0
LINE
  8
0
  6
DASHED
 62
2
 10
-173.100006
 20
83.000000
 11
-173.100006
 21
78.500000
  0
LINE
  8
0
  6
DASHED
 62
2
 10
-173.500000
 20
83.000000
 11
-173.500000
 21
78.500000
  0
LINE
  8
0
  6
DASHED
 62
2
 10
-188.500000
 20
85.800003
 11
-188.500000
 21
78.500000
  0
LINE
  8
0
  6
DASHED
 62
2
 10
-188.899994
 20
85.800003
 11
-188.899994
 21
78.500000
  0
LINE
  8
0
  6
CENTER
 62
2
 10
-191.000000
 20
86.800003
 11
-191.000000
 21
77.500000
  0
LINE
  8
0
  6
DASHED
 62
2
 10
-193.100006
 20
85.800003
 11
-193.100006
 21
78.500000
  0
LINE
  8
0
  6
DASHED
 62
2
 10
-193.500000
 20
85.800003
 11
-193.500000
 21
78.500000
  0
LINE
  8
0
  6
CENTER
 62
2
 10
-207.000000
 20
84.800003
 11
-207.000000
 21
77.500000
  0
LINE
  8
0
  6
CONTINUOUS
 62
7
 10
-211.199997
 20
202.199997
 11
-203.000000
 21
202.199997
  0
LINE
  8
0
  6
CONTINUOUS
 62
7
 10
-209.149994
 20
202.199997
 11
-209.149994
 21
207.500000
  0
LINE
  8
0
  6
CONTINUOUS
 62
7
 10
-204.850006
 20
203.000000
 11
-209.149994
 21
203.000000
  0
LINE
  8
0
  6
CONTINUOUS
 62
7
 10
-204.850006
 20
202.199997
 11
-204.850006
 21
207.500000
  0
LINE
  8
0
  6
DASHED
 62
2
 10
-195.000000
 20
200.199997
 11
-187.000000
 21
200.199997
  0
LINE
  8
0
  6
CENTER
 62
2
 10
-191.000000
 20
199.199997
 11
-191.000000
 21
208.500000
  0
LINE
  8
0
  6
DASHED
 62
2
 10
-193.500000
 20
200.199997
 11
-193.500000
 21
207.500000
  0
LINE
  8
0
  6
DASHED
 62
2
 10
-188.500000
 20
200.199997
 11
-188.500000
 21
207.500000
  0
LINE
  8
0
  6
DASHED
 62
2
 10
-188.899994
 20
200.199997
 11
-188.899994
 21
207.500000
  0
LINE
  8
0
  6
DASHED
 62
2
 10
-193.100006
 20
200.199997
 11
-193.100006
 21
207.500000
  0
LINE
  8
0
  6
CONTINUOUS
 62
7
 10
-166.800003
 20
202.199997
 11
-175.000000
 21
202.199997
  0
LINE
  8
0
  6
CENTER
 62
2
 10
-171.000000
 20
201.199997
 11
-171.000000
 21
208.500000
  0
LINE
  8
0
  6
DASHED
 62
2
 10
-167.000000
 20
203.000000
 11
-175.000000
 21
203.000000
  0
LINE
  8
0
  6
DASHED
 62
2
 10
-173.100006
 20
203.000000
 11
-173.100006
 21
207.500000
  0
LINE
  8
0
  6
DASHED
 62
2
 10
-168.899994
 20
203.000000
 11
-168.899994
 21
207.500000
  0
LINE
  8
0
  6
DASHED
 62
2
 10
-168.500000
 20
203.000000
 11
-168.500000
 21
207.500000
  0
LINE
  8
0
  6
DASHED
 62
2
 10
-173.500000
 20
203.000000
 11
-173.500000
 21
207.500000
  0
LINE
  8
0
  6
DASHED
 62
2
 10
-167.000000
 20
202.199997
 11
-167.000000
 21
203.000000
  0
LINE
  8
0
  6
CONTINUOUS
 62
7
 10
158.800003
 20
202.199997
 11
167.000000
 21
202.199997
  0
LINE
  8
0
  6
CONTINUOUS
 62
7
 10
160.850006
 20
202.199997
 11
160.850006
 21
207.500000
  0
LINE
  8
0
  6
CONTINUOUS
 62
7
 10
165.149994
 20
203.000000
 11
160.850006
 21
203.000000
  0
LINE
  8
0
  6
CONTINUOUS
 62
7
 10
165.149994
 20
202.199997
 11
165.149994
 21
207.500000
  0
LINE
  8
0
  6
CONTINUOUS
 62
7
 10
228.199997
 20
202.199997
 11
220.000000
 21
202.199997
  0
LINE
  8
0
  6
CENTER
 62
2
 10
224.000000
 20
201.199997
 11
224.000000
 21
208.500000
  0
LINE
  8
0
  6
DASHED
 62
2
 10
228.000000
 20
203.000000
 11
220.000000
 21
203.000000
  0
LINE
  8
0
  6
DASHED
 62
2
 10
221.899994
 20
203.000000
 11
221.899994
 21
207.500000
  0
LINE
  8
0
  6
DASHED
 62
2
 10
226.100006
 20
203.000000
 11
226.100006
 21
207.500000
  0
LINE
  8
0
  6
DASHED
 62
2
 10
226.500000
 20
203.000000
 11
226.500000
 21
207.500000
  0
LINE
  8
0
  6
DASHED
 62
2
 10
221.500000
 20
203.000000
 11
221.500000
 21
207.500000
  0
LINE
  8
0
  6
DASHED
 62
2
 10
228.000000
 20
202.199997
 11
228.000000
 21
203.000000
  0
LINE
  8
0
  6
CENTER
 62
2
 10
163.000000
 20
84.800003
 11
163.000000
 21
77.500000
  0
LINE
  8
0
  6
CONTINUOUS
 62
7
 10
158.800003
 20
83.800003
 11
168.000000
 21
83.800003
  0
LINE
  8
0
  6
CONTINUOUS
 62
7
 10
160.850006
 20
83.800003
 11
160.850006
 21
78.500000
  0
LINE
  8
0
  6
CONTINUOUS
 62
7
 10
165.149994
 20
83.000000
 11
160.850006
 21
83.000000
  0
LINE
  8
0
  6
CONTINUOUS
 62
7
 10
165.149994
 20
83.800003
 11
165.149994
 21
78.500000
  0
LINE
  8
0
  6
CONTINUOUS
 62
7
 10
173.235992
 20
85.800003
 11
213.764008
 21
85.800003
  0
LINE
  8
0
  6
CONTINUOUS
 62
7
 10
228.199997
 20
83.800003
 11
219.000000
 21
83.800003
  0
LINE
  8
0
  6
CENTER
 62
2
 10
179.000000
 20
86.800003
 11
179.000000
 21
77.500000
  0
LINE
  8
0
  6
CENTER
 62
2
 10
224.000000
 20
84.800003
 11
224.000000
 21
77.500000
  0
LINE
  8
0
  6
DASHED
 62
2
 10
176.500000
 20
85.800003
 11
176.500000
 21
78.500000
  0
LINE
  8
0
  6
DASHED
 62
2
 10
181.500000
 20
85.800003
 11
181.500000
 21
78.500000
  0
LINE
  8
0
  6
DASHED
 62
2
 10
181.100006
 20
85.800003
 11
181.100006
 21
78.500000
  0
LINE
  8
0
  6
DASHED
 62
2
 10
176.899994
 20
85.800003
 11
176.899994
 21
78.500000
  0
LINE
  8
0
  6
DASHED
 62
2
 10
228.000000
 20
83.000000
 11
220.000000
 21
83.000000
  0
LINE
  8
0
  6
DASHED
 62
2
 10
221.899994
 20
83.000000
 11
221.899994
 21
78.500000
  0
LINE
  8
0
  6
DASHED
 62
2
 10
226.100006
 20
83.000000
 11
226.100006
 21
78.500000
  0
LINE
  8
0
  6
DASHED
 62
2
 10
226.500000
 20
83.000000
 11
226.500000
 21
78.500000
  0
LINE
  8
0
  6
DASHED
 62
2
 10
221.500000
 20
83.000000
 11
221.500000
 21
78.500000
  0
LINE
  8
0
  6
DASHED
 62
2
 10
228.000000
 20
83.800003
 11
228.000000
 21
83.000000
  0
LINE
  8
0
  6
DASHED
 62
2
 10
220.000000
 20
83.800003
 11
220.000000
 21
83.000000
  0
LINE
  8
0
  6
CENTER
 62
2
 10
-216.000000
 20
206.899994
 11
-216.000000
 21
197.100006
  0
LINE
  8
0
  6
CENTER
 62
2
 10
-220.899994
 20
202.000000
 11
-211.100006
 21
202.000000
  0
LINE
  8
0
  6
CENTER
 62
2
 10
-162.000000
 20
206.899994
 11
-162.000000
 21
197.100006
  0
LINE
  8
0
  6
CENTER
 62
2
 10
-166.899994
 20
202.000000
 11
-157.100006
 21
202.000000
  0
LINE
  8
0
  6
CENTER
 62
2
 10
-175.199997
 20
191.699997
 11
-175.199997
 21
187.699997
  0
LINE
  8
0
  6
CENTER
 62
2
 10
-177.199997
 20
189.699997
 11
-173.199997
 21
189.699997
  0
LINE
  8
0
  6
CENTER
 62
2
 10
-212.000000
 20
158.000000
 11
-212.000000
 21
153.000000
  0
LINE
  8
0
  6
CENTER
 62
2
 10
-214.500000
 20
155.500000
 11
-209.500000
 21
155.500000
  0
LINE
  8
0
  6
CENTER
 62
2
 10
-207.000000
 20
160.000000
 11
-207.000000
 21
150.000000
  0
LINE
  8
0
  6
CENTER
 62
2
 10
-212.000000
 20
155.000000
 11
-202.000000
 21
155.000000
  0
LINE
  8
0
  6
CENTER
 62
2
 10
-192.000000
 20
158.000000
 11
-192.000000
 21
153.000000
  0
LINE
  8
0
  6
CENTER
 62
2
 10
-194.500000
 20
155.500000
 11
-189.500000
 21
155.500000
  0
LINE
  8
0
  6
CENTER
 62
2
 10
-187.000000
 20
158.500000
 11
-187.000000
 21
152.500000
  0
LINE
  8
0
  6
CENTER
 62
2
 10
-190.000000
 20
155.500000
 11
-184.000000
 21
155.500000
  0
LINE
  8
0
  6
CENTER
 62
2
 10
-171.000000
 20
160.000000
 11
-171.000000
 21
150.000000
  0
LINE
  8
0
  6
CENTER
 62
2
 10
-176.000000
 20
155.000000
 11
-166.000000
 21
155.000000
  0
LINE
  8
0
  6
CENTER
 62
2
 10
-172.000000
 20
158.000000
 11
-172.000000
 21
153.000000
  0
LINE
  8
0
  6
CENTER
 62
2
 10
-174.500000
 20
155.500000
 11
-169.500000
 21
155.500000
  0
LINE
  8
0
  6
CENTER
 62
2
 10
-172.000000
 20
133.000000
 11
-172.000000
 21
128.000000
  0
LINE
  8
0
  6
CENTER
 62
2
 10
-174.500000
 20
130.500000
 11
-169.500000
 21
130.500000
  0
LINE
  8
0
  6
CENTER
 62
2
 10
-171.000000
 20
136.000000
 11
-171.000000
 21
126.000000
  0
LINE
  8
0
  6
CENTER
 62
2
 10
-176.000000
 20
131.000000
 11
-166.000000
 21
131.000000
  0
LINE
  8
0
  6
CENTER
 62
2
 10
-187.000000
 20
133.500000
 11
-187.000000
 21
127.500000
  0
LINE
  8
0
  6
CENTER
 62
2
 10
-190.000000
 20
130.500000
 11
-184.000000
 21
130.500000
  0
LINE
  8
0
  6
CENTER
 62
2
 10
-192.000000
 20
133.000000
 11
-192.000000
 21
128.000000
  0
LINE
  8
0
  6
CENTER
 62
2
 10
-194.500000
 20
130.500000
 11
-189.500000
 21
130.500000
  0
LINE
  8
0
  6
CENTER
 62
2
 10
-207.000000
 20
136.000000
 11
-207.000000
 21
126.000000
  0
LINE
  8
0
  6
CENTER
 62
2
 10
-212.000000
 20
131.000000
 11
-202.000000
 21
131.000000
  0
LINE
  8
0
  6
CENTER
 62
2
 10
-212.000000
 20
133.000000
 11
-212.000000
 21
128.000000
  0
LINE
  8
0
  6
CENTER
 62
2
 10
-214.500000
 20
130.500000
 11
-209.500000
 21
130.500000
  0
LINE
  8
0
  6
CENTER
 62
2
 10
-271.000000
 20
134.000000
 11
-271.000000
 21
128.000000
  0
LINE
  8
0
  6
CENTER
 62
2
 10
-274.000000
 20
131.000000
 11
-268.000000
 21
131.000000
  0
LINE
  8
0
  6
CENTER
 62
2
 10
-262.000000
 20
136.500000
 11
-262.000000
 21
126.500000
  0
LINE
  8
0
  6
CENTER
 62
2
 10
-267.000000
 20
131.500000
 11
-257.000000
 21
131.500000
  0
LINE
  8
0
  6
CENTER
 62
2
 10
-262.000000
 20
159.500000
 11
-262.000000
 21
149.500000
  0
LINE
  8
0
  6
CENTER
 62
2
 10
-267.000000
 20
154.500000
 11
-257.000000
 21
154.500000
  0
LINE
  8
0
  6
CENTER
 62
2
 10
-271.000000
 20
158.000000
 11
-271.000000
 21
152.000000
  0
LINE
  8
0
  6
CENTER
 62
2
 10
-274.000000
 20
155.000000
 11
-268.000000
 21
155.000000
  0
LINE
  8
0
  6
CENTER
 62
2
 10
-262.000000
 20
146.000000
 11
-262.000000
 21
140.000000
  0
LINE
  8
0
  6
CENTER
 62
2
 10
-216.000000
 20
87.500000
 11
-216.000000
 21
80.500000
  0
LINE
  8
0
  6
CENTER
 62
2
 10
-219.500000
 20
84.000000
 11
-212.500000
 21
84.000000
  0
LINE
  8
0
  6
CENTER
 62
2
 10
-199.000000
 20
86.500000
 11
-199.000000
 21
81.500000
  0
LINE
  8
0
  6
CENTER
 62
2
 10
-201.500000
 20
84.000000
 11
-196.500000
 21
84.000000
  0
LINE
  8
0
  6
CENTER
 62
2
 10
-179.000000
 20
86.500000
 11
-179.000000
 21
81.500000
  0
LINE
  8
0
  6
CENTER
 62
2
 10
-181.500000
 20
84.000000
 11
-176.500000
 21
84.000000
  0
LINE
  8
0
  6
CENTER
 62
2
 10
-162.000000
 20
87.500000
 11
-162.000000
 21
80.500000
  0
LINE
  8
0
  6
CENTER
 62
2
 10
-165.500000
 20
84.000000
 11
-158.500000
 21
84.000000
  0
LINE
  8
0
  6
CENTER
 62
2
 10
-168.300003
 20
98.500000
 11
-168.300003
 21
93.500000
  0
LINE
  8
0
  6
CENTER
 62
2
 10
-170.800003
 20
96.000000
 11
-165.800003
 21
96.000000
  0
LINE
  8
0
  6
CENTER
 62
2
 10
-165.199997
 20
98.300003
 11
-165.199997
 21
94.300003
  0
LINE
  8
0
  6
CENTER
 62
2
 10
-167.199997
 20
96.300003
 11
-163.199997
 21
96.300003
  0
LINE
  8
0
  6
CENTER
 62
2
 10
-161.800003
 20
98.500000
 11
-161.800003
 21
93.500000
  0
LINE
  8
0
  6
CENTER
 62
2
 10
-164.300003
 20
96.000000
 11
-159.300003
 21
96.000000
  0
LINE
  8
0
  6
CENTER
 62
2
 10
-175.199997
 20
98.300003
 11
-175.199997
 21
94.300003
  0
LINE
  8
0
  6
CENTER
 62
2
 10
-177.199997
 20
96.300003
 11
-173.199997
 21
96.300003
  0
LINE
  8
0
  6
CENTER
 62
2
 10
-207.000000
 20
51.700001
 11
-207.000000
 21
45.299999
  0
LINE
  8
0
  6
CENTER
 62
2
 10
-210.199997
 20
48.500000
 11
-203.800003
 21
48.500000
  0
LINE
  8
0
  6
CENTER
 62
2
 10
-207.000000
 20
27.700001
 11
-207.000000
 21
21.299999
  0
LINE
  8
0
  6
CENTER
 62
2
 10
-210.199997
 20
24.500000
 11
-203.800003
 21
24.500000
  0
LINE
  8
0
  6
CENTER
 62
2
 10
-191.000000
 20
52.000000
 11
-191.000000
 21
45.000000
  0
LINE
  8
0
  6
CENTER
 62
2
 10
-194.500000
 20
48.500000
 11
-187.500000
 21
48.500000
  0
LINE
  8
0
  6
CENTER
 62
2
 10
-171.000000
 20
52.000000
 11
-171.000000
 21
45.000000
  0
LINE
  8
0
  6
CENTER
 62
2
 10
-174.500000
 20
48.500000
 11
-167.500000
 21
48.500000
  0
LINE
  8
0
  6
CENTER
 62
2
 10
-171.000000
 20
28.000000
 11
-171.000000
 21
21.000000
  0
LINE
  8
0
  6
CENTER
 62
2
 10
-174.500000
 20
24.500000
 11
-167.500000
 21
24.500000
  0
LINE
  8
0
  6
CENTER
 62
2
 10
-191.000000
 20
28.000000
 11
-191.000000
 21
21.000000
  0
LINE
  8
0
  6
CENTER
 62
2
 10
-194.500000
 20
24.500000
 11
-187.500000
 21
24.500000
  0
LINE
  8
0
  6
CENTER
 62
2
 10
-216.000000
 20
-43.099998
 11
-216.000000
 21
-52.900002
  0
LINE
  8
0
  6
CENTER
 62
2
 10
-220.899994
 20
-48.000000
 11
-211.199997
 21
-48.000000
  0
LINE
  8
0
  6
CENTER
 62
2
 10
-152.000000
 20
-43.099998
 11
-152.000000
 21
-52.900002
  0
LINE
  8
0
  6
CENTER
 62
2
 10
-156.800003
 20
-48.000000
 11
-147.100006
 21
-48.000000
  0
LINE
  8
0
  6
CENTER
 62
2
 10
-212.000000
 20
-92.000000
 11
-212.000000
 21
-97.000000
  0
LINE
  8
0
  6
CENTER
 62
2
 10
-214.500000
 20
-94.500000
 11
-209.500000
 21
-94.500000
  0
LINE
  8
0
  6
CENTER
 62
2
 10
-207.000000
 20
-90.000000
 11
-207.000000
 21
-100.000000
  0
LINE
  8
0
  6
CENTER
 62
2
 10
-212.000000
 20
-95.000000
 11
-202.000000
 21
-95.000000
  0
LINE
  8
0
  6
CENTER
 62
2
 10
-212.000000
 20
-117.000000
 11
-212.000000
 21
-122.000000
  0
LINE
  8
0
  6
CENTER
 62
2
 10
-214.500000
 20
-119.500000
 11
-209.500000
 21
-119.500000
  0
LINE
  8
0
  6
CENTER
 62
2
 10
-207.000000
 20
-114.000000
 11
-207.000000
 21
-124.000000
  0
LINE
  8
0
  6
CENTER
 62
2
 10
-212.000000
 20
-119.000000
 11
-202.000000
 21
-119.000000
  0
LINE
  8
0
  6
CENTER
 62
2
 10
-187.000000
 20
-92.000000
 11
-187.000000
 21
-97.000000
  0
LINE
  8
0
  6
CENTER
 62
2
 10
-189.500000
 20
-94.500000
 11
-184.500000
 21
-94.500000
  0
LINE
  8
0
  6
CENTER
 62
2
 10
-187.000000
 20
-117.000000
 11
-187.000000
 21
-122.000000
  0
LINE
  8
0
  6
CENTER
 62
2
 10
-189.500000
 20
-119.500000
 11
-184.500000
 21
-119.500000
  0
LINE
  8
0
  6
CENTER
 62
2
 10
-179.000000
 20
-116.500000
 11
-179.000000
 21
-122.500000
  0
LINE
  8
0
  6
CENTER
 62
2
 10
-182.000000
 20
-119.500000
 11
-176.000000
 21
-119.500000
  0
LINE
  8
0
  6
CENTER
 62
2
 10
-179.000000
 20
-91.500000
 11
-179.000000
 21
-97.500000
  0
LINE
  8
0
  6
CENTER
 62
2
 10
-182.000000
 20
-94.500000
 11
-176.000000
 21
-94.500000
  0
LINE
  8
0
  6
CENTER
 62
2
 10
-162.000000
 20
-92.000000
 11
-162.000000
 21
-97.000000
  0
LINE
  8
0
  6
CENTER
 62
2
 10
-164.500000
 20
-94.500000
 11
-159.500000
 21
-94.500000
  0
LINE
  8
0
  6
CENTER
 62
2
 10
-161.000000
 20
-90.000000
 11
-161.000000
 21
-100.000000
  0
LINE
  8
0
  6
CENTER
 62
2
 10
-166.000000
 20
-95.000000
 11
-156.000000
 21
-95.000000
  0
LINE
  8
0
  6
CENTER
 62
2
 10
-161.000000
 20
-114.000000
 11
-161.000000
 21
-124.000000
  0
LINE
  8
0
  6
CENTER
 62
2
 10
-166.000000
 20
-119.000000
 11
-156.000000
 21
-119.000000
  0
LINE
  8
0
  6
CENTER
 62
2
 10
-162.000000
 20
-117.000000
 11
-162.000000
 21
-122.000000
  0
LINE
  8
0
  6
CENTER
 62
2
 10
-164.500000
 20
-119.500000
 11
-159.500000
 21
-119.500000
  0
LINE
  8
0
  6
CENTER
 62
2
 10
-216.000000
 20
-162.500000
 11
-216.000000
 21
-169.500000
  0
LINE
  8
0
  6
CENTER
 62
2
 10
-219.500000
 20
-166.000000
 11
-212.500000
 21
-166.000000
  0
LINE
  8
0
  6
CENTER
 62
2
 10
-199.000000
 20
-163.500000
 11
-199.000000
 21
-168.500000
  0
LINE
  8
0
  6
CENTER
 62
2
 10
-201.500000
 20
-166.000000
 11
-196.500000
 21
-166.000000
  0
LINE
  8
0
  6
CENTER
 62
2
 10
-169.000000
 20
-163.500000
 11
-169.000000
 21
-168.500000
  0
LINE
  8
0
  6
CENTER
 62
2
 10
-171.500000
 20
-166.000000
 11
-166.500000
 21
-166.000000
  0
LINE
  8
0
  6
CENTER
 62
2
 10
-152.000000
 20
-162.500000
 11
-152.000000
 21
-169.500000
  0
LINE
  8
0
  6
CENTER
 62
2
 10
-155.500000
 20
-166.000000
 11
-148.500000
 21
-166.000000
  0
LINE
  8
0
  6
CENTER
 62
2
 10
-151.800003
 20
-151.500000
 11
-151.800003
 21
-156.500000
  0
LINE
  8
0
  6
CENTER
 62
2
 10
-154.300003
 20
-154.000000
 11
-149.300003
 21
-154.000000
  0
LINE
  8
0
  6
CENTER
 62
2
 10
-155.199997
 20
-151.699997
 11
-155.199997
 21
-155.699997
  0
LINE
  8
0
  6
CENTER
 62
2
 10
-157.199997
 20
-153.699997
 11
-153.199997
 21
-153.699997
  0
LINE
  8
0
  6
CENTER
 62
2
 10
-158.300003
 20
-151.500000
 11
-158.300003
 21
-156.500000
  0
LINE
  8
0
  6
CENTER
 62
2
 10
-160.800003
 20
-154.000000
 11
-155.800003
 21
-154.000000
  0
LINE
  8
0
  6
CENTER
 62
2
 10
-165.199997
 20
-151.699997
 11
-165.199997
 21
-155.699997
  0
LINE
  8
0
  6
CENTER
 62
2
 10
-167.199997
 20
-153.699997
 11
-163.199997
 21
-153.699997
  0
LINE
  8
0
  6
CENTER
 62
2
 10
-207.000000
 20
-198.300003
 11
-207.000000
 21
-204.699997
  0
LINE
  8
0
  6
CENTER
 62
2
 10
-210.199997
 20
-201.500000
 11
-203.800003
 21
-201.500000
  0
LINE
  8
0
  6
CENTER
 62
2
 10
-207.000000
 20
-222.300003
 11
-207.000000
 21
-228.699997
  0
LINE
  8
0
  6
CENTER
 62
2
 10
-210.199997
 20
-225.500000
 11
-203.800003
 21
-225.500000
  0
LINE
  8
0
  6
CENTER
 62
2
 10
-191.000000
 20
-221.500000
 11
-191.000000
 21
-229.500000
  0
LINE
  8
0
  6
CENTER
 62
2
 10
-195.000000
 20
-225.500000
 11
-187.000000
 21
-225.500000
  0
LINE
  8
0
  6
CENTER
 62
2
 10
-191.000000
 20
-197.500000
 11
-191.000000
 21
-205.500000
  0
LINE
  8
0
  6
CENTER
 62
2
 10
-195.000000
 20
-201.500000
 11
-187.000000
 21
-201.500000
  0
LINE
  8
0
  6
CENTER
 62
2
 10
-161.000000
 20
-198.000000
 11
-161.000000
 21
-205.000000
  0
LINE
  8
0
  6
CENTER
 62
2
 10
-164.500000
 20
-201.500000
 11
-157.500000
 21
-201.500000
  0
LINE
  8
0
  6
CENTER
 62
2
 10
-161.000000
 20
-222.000000
 11
-161.000000
 21
-229.000000
  0
LINE
  8
0
  6
CENTER
 62
2
 10
-164.500000
 20
-225.500000
 11
-157.500000
 21
-225.500000
  0
LINE
  8
0
  6
CENTER
 62
2
 10
154.000000
 20
206.899994
 11
154.000000
 21
197.100006
  0
LINE
  8
0
  6
CENTER
 62
2
 10
149.100006
 20
202.000000
 11
158.899994
 21
202.000000
  0
LINE
  8
0
  6
CENTER
 62
2
 10
233.000000
 20
206.899994
 11
233.000000
 21
197.100006
  0
LINE
  8
0
  6
CENTER
 62
2
 10
228.100006
 20
202.000000
 11
237.899994
 21
202.000000
  0
LINE
  8
0
  6
CENTER
 62
2
 10
158.000000
 20
158.000000
 11
158.000000
 21
153.000000
  0
LINE
  8
0
  6
CENTER
 62
2
 10
155.500000
 20
155.500000
 11
160.500000
 21
155.500000
  0
LINE
  8
0
  6
CENTER
 62
2
 10
158.000000
 20
133.000000
 11
158.000000
 21
128.000000
  0
LINE
  8
0
  6
CENTER
 62
2
 10
155.500000
 20
130.500000
 11
160.500000
 21
130.500000
  0
LINE
  8
0
  6
CENTER
 62
2
 10
163.000000
 20
136.000000
 11
163.000000
 21
126.000000
  0
LINE
  8
0
  6
CENTER
 62
2
 10
158.000000
 20
131.000000
 11
168.000000
 21
131.000000
  0
LINE
  8
0
  6
CENTER
 62
2
 10
163.000000
 20
160.000000
 11
163.000000
 21
150.000000
  0
LINE
  8
0
  6
CENTER
 62
2
 10
158.000000
 20
155.000000
 11
168.000000
 21
155.000000
  0
LINE
  8
0
  6
CENTER
 62
2
 10
183.000000
 20
158.000000
 11
183.000000
 21
153.000000
  0
LINE
  8
0
  6
CENTER
 62
2
 10
180.500000
 20
155.500000
 11
185.500000
 21
155.500000
  0
LINE
  8
0
  6
CENTER
 62
2
 10
191.000000
 20
158.500000
 11
191.000000
 21
152.500000
  0
LINE
  8
0
  6
CENTER
 62
2
 10
188.000000
 20
155.500000
 11
194.000000
 21
155.500000
  0
LINE
  8
0
  6
CENTER
 62
2
 10
183.000000
 20
133.000000
 11
183.000000
 21
128.000000
  0
LINE
  8
0
  6
CENTER
 62
2
 10
180.500000
 20
130.500000
 11
185.500000
 21
130.500000
  0
LINE
  8
0
  6
CENTER
 62
2
 10
191.000000
 20
133.500000
 11
191.000000
 21
127.500000
  0
LINE
  8
0
  6
CENTER
 62
2
 10
188.000000
 20
130.500000
 11
194.000000
 21
130.500000
  0
LINE
  8
0
  6
CENTER
 62
2
 10
198.000000
 20
133.000000
 11
198.000000
 21
128.000000
  0
LINE
  8
0
  6
CENTER
 62
2
 10
195.500000
 20
130.500000
 11
200.500000
 21
130.500000
  0
LINE
  8
0
  6
CENTER
 62
2
 10
198.000000
 20
158.000000
 11
198.000000
 21
153.000000
  0
LINE
  8
0
  6
CENTER
 62
2
 10
195.500000
 20
155.500000
 11
200.500000
 21
155.500000
  0
LINE
  8
0
  6
CENTER
 62
2
 10
224.000000
 20
160.000000
 11
224.000000
 21
150.000000
  0
LINE
  8
0
  6
CENTER
 62
2
 10
219.000000
 20
155.000000
 11
229.000000
 21
155.000000
  0
LINE
  8
0
  6
CENTER
 62
2
 10
223.000000
 20
158.000000
 11
223.000000
 21
153.000000
  0
LINE
  8
0
  6
CENTER
 62
2
 10
220.500000
 20
155.500000
 11
225.500000
 21
155.500000
  0
LINE
  8
0
  6
CENTER
 62
2
 10
223.000000
 20
133.000000
 11
223.000000
 21
128.000000
  0
LINE
  8
0
  6
CENTER
 62
2
 10
220.500000
 20
130.500000
 11
225.500000
 21
130.500000
  0
LINE
  8
0
  6
CENTER
 62
2
 10
224.000000
 20
136.000000
 11
224.000000
 21
126.000000
  0
LINE
  8
0
  6
CENTER
 62
2
 10
219.000000
 20
131.000000
 11
229.000000
 21
131.000000
  0
LINE
  8
0
  6
CENTER
 62
2
 10
99.000000
 20
158.000000
 11
99.000000
 21
152.000000
  0
LINE
  8
0
  6
CENTER
 62
2
 10
96.000000
 20
155.000000
 11
102.000000
 21
155.000000
  0
LINE
  8
0
  6
CENTER
 62
2
 10
99.000000
 20
134.000000
 11
99.000000
 21
128.000000
  0
LINE
  8
0
  6
CENTER
 62
2
 10
96.000000
 20
131.000000
 11
102.000000
 21
131.000000
  0
LINE
  8
0
  6
CENTER
 62
2
 10
108.000000
 20
136.500000
 11
108.000000
 21
126.500000
  0
LINE
  8
0
  6
CENTER
 62
2
 10
103.000000
 20
131.500000
 11
113.000000
 21
131.500000
  0
LINE
  8
0
  6
CENTER
 62
2
 10
108.000000
 20
159.500000
 11
108.000000
 21
149.500000
  0
LINE
  8
0
  6
CENTER
 62
2
 10
103.000000
 20
154.500000
 11
113.000000
 21
154.500000
  0
LINE
  8
0
  6
CENTER
 62
2
 10
154.000000
 20
87.500000
 11
154.000000
 21
80.500000
  0
LINE
  8
0
  6
CENTER
 62
2
 10
150.500000
 20
84.000000
 11
157.500000
 21
84.000000
  0
LINE
  8
0
  6
CENTER
 62
2
 10
171.000000
 20
86.500000
 11
171.000000
 21
81.500000
  0
LINE
  8
0
  6
CENTER
 62
2
 10
168.500000
 20
84.000000
 11
173.500000
 21
84.000000
  0
LINE
  8
0
  6
CENTER
 62
2
 10
219.800003
 20
98.300003
 11
219.800003
 21
94.300003
  0
LINE
  8
0
  6
CENTER
 62
2
 10
217.800003
 20
96.300003
 11
221.800003
 21
96.300003
  0
LINE
  8
0
  6
CENTER
 62
2
 10
226.699997
 20
98.500000
 11
226.699997
 21
93.500000
  0
LINE
  8
0
  6
CENTER
 62
2
 10
224.199997
 20
96.000000
 11
229.199997
 21
96.000000
  0
LINE
  8
0
  6
CENTER
 62
2
 10
229.800003
 20
98.300003
 11
229.800003
 21
94.300003
  0
LINE
  8
0
  6
CENTER
 62
2
 10
227.800003
 20
96.300003
 11
231.800003
 21
96.300003
  0
LINE
  8
0
  6
CENTER
 62
2
 10
233.199997
 20
98.500000
 11
233.199997
 21
93.500000
  0
LINE
  8
0
  6
CENTER
 62
2
 10
230.699997
 20
96.000000
 11
235.699997
 21
96.000000
  0
LINE
  8
0
  6
CENTER
 62
2
 10
216.000000
 20
86.500000
 11
216.000000
 21
81.500000
  0
LINE
  8
0
  6
CENTER
 62
2
 10
213.500000
 20
84.000000
 11
218.500000
 21
84.000000
  0
LINE
  8
0
  6
CENTER
 62
2
 10
233.000000
 20
87.500000
 11
233.000000
 21
80.500000
  0
LINE
  8
0
  6
CENTER
 62
2
 10
229.500000
 20
84.000000
 11
236.500000
 21
84.000000
  0
LINE
  8
0
  6
CENTER
 62
2
 10
163.000000
 20
27.700001
 11
163.000000
 21
21.299999
  0
LINE
  8
0
  6
CENTER
 62
2
 10
159.800003
 20
24.500000
 11
166.199997
 21
24.500000
  0
LINE
  8
0
  6
CENTER
 62
2
 10
163.000000
 20
51.700001
 11
163.000000
 21
45.299999
  0
LINE
  8
0
  6
CENTER
 62
2
 10
159.800003
 20
48.500000
 11
166.199997
 21
48.500000
  0
LINE
  8
0
  6
CENTER
 62
2
 10
179.000000
 20
52.000000
 11
179.000000
 21
45.000000
  0
LINE
  8
0
  6
CENTER
 62
2
 10
175.500000
 20
48.500000
 11
182.500000
 21
48.500000
  0
LINE
  8
0
  6
CENTER
 62
2
 10
179.000000
 20
28.000000
 11
179.000000
 21
21.000000
  0
LINE
  8
0
  6
CENTER
 62
2
 10
175.500000
 20
24.500000
 11
182.500000
 21
24.500000
  0
LINE
  8
0
  6
CENTER
 62
2
 10
224.000000
 20
28.000000
 11
224.000000
 21
21.000000
  0
LINE
  8
0
  6
CENTER
 62
2
 10
220.500000
 20
24.500000
 11
227.500000
 21
24.500000
  0
LINE
  8
0
  6
CENTER
 62
2
 10
224.000000
 20
52.000000
 11
224.000000
 21
45.000000
  0
LINE
  8
0
  6
CENTER
 62
2
 10
220.500000
 20
48.500000
 11
227.500000
 21
48.500000
  0
LINE
  8
0
  6
CENTER
 62
2
 10
154.000000
 20
-43.099998
 11
154.000000
 21
-52.900002
  0
LINE
  8
0
  6
CENTER
 62
2
 10
149.100006
 20
-48.000000
 11
158.899994
 21
-48.000000
  0
LINE
  8
0
  6
CENTER
 62
2
 10
248.000000
 20
-43.099998
 11
248.000000
 21
-52.900002
  0
LINE
  8
0
  6
CENTER
 62
2
 10
243.100006
 20
-48.000000
 11
252.899994
 21
-48.000000
  0
LINE
  8
0
  6
CENTER
 62
2
 10
163.000000
 20
-90.000000
 11
163.000000
 21
-100.000000
  0
LINE
  8
0
  6
CENTER
 62
2
 10
158.000000
 20
-95.000000
 11
168.000000
 21
-95.000000
  0
LINE
  8
0
  6
CENTER
 62
2
 10
158.000000
 20
-92.000000
 11
158.000000
 21
-97.000000
  0
LINE
  8
0
  6
CENTER
 62
2
 10
155.500000
 20
-94.500000
 11
160.500000
 21
-94.500000
  0
LINE
  8
0
  6
CENTER
 62
2
 10
158.000000
 20
-117.000000
 11
158.000000
 21
-122.000000
  0
LINE
  8
0
  6
CENTER
 62
2
 10
155.500000
 20
-119.500000
 11
160.500000
 21
-119.500000
  0
LINE
  8
0
  6
CENTER
 62
2
 10
163.000000
 20
-114.000000
 11
163.000000
 21
-124.000000
  0
LINE
  8
0
  6
CENTER
 62
2
 10
158.000000
 20
-119.000000
 11
168.000000
 21
-119.000000
  0
LINE
  8
0
  6
CENTER
 62
2
 10
183.000000
 20
-117.000000
 11
183.000000
 21
-122.000000
  0
LINE
  8
0
  6
CENTER
 62
2
 10
180.500000
 20
-119.500000
 11
185.500000
 21
-119.500000
  0
LINE
  8
0
  6
CENTER
 62
2
 10
191.000000
 20
-116.500000
 11
191.000000
 21
-122.500000
  0
LINE
  8
0
  6
CENTER
 62
2
 10
188.000000
 20
-119.500000
 11
194.000000
 21
-119.500000
  0
LINE
  8
0
  6
CENTER
 62
2
 10
191.000000
 20
-91.500000
 11
191.000000
 21
-97.500000
  0
LINE
  8
0
  6
CENTER
 62
2
 10
188.000000
 20
-94.500000
 11
194.000000
 21
-94.500000
  0
LINE
  8
0
  6
CENTER
 62
2
 10
183.000000
 20
-92.000000
 11
183.000000
 21
-97.000000
  0
LINE
  8
0
  6
CENTER
 62
2
 10
180.500000
 20
-94.500000
 11
185.500000
 21
-94.500000
  0
LINE
  8
0
  6
CENTER
 62
2
 10
239.000000
 20
-90.000000
 11
239.000000
 21
-100.000000
  0
LINE
  8
0
  6
CENTER
 62
2
 10
234.000000
 20
-95.000000
 11
244.000000
 21
-95.000000
  0
LINE
  8
0
  6
CENTER
 62
2
 10
238.000000
 20
-92.000000
 11
238.000000
 21
-97.000000
  0
LINE
  8
0
  6
CENTER
 62
2
 10
235.500000
 20
-94.500000
 11
240.500000
 21
-94.500000
  0
LINE
  8
0
  6
CENTER
 62
2
 10
238.000000
 20
-117.000000
 11
238.000000
 21
-122.000000
  0
LINE
  8
0
  6
CENTER
 62
2
 10
235.500000
 20
-119.500000
 11
240.500000
 21
-119.500000
  0
LINE
  8
0
  6
CENTER
 62
2
 10
239.000000
 20
-114.000000
 11
239.000000
 21
-124.000000
  0
LINE
  8
0
  6
CENTER
 62
2
 10
234.000000
 20
-119.000000
 11
244.000000
 21
-119.000000
  0
LINE
  8
0
  6
CENTER
 62
2
 10
213.000000
 20
-117.000000
 11
213.000000
 21
-122.000000
  0
LINE
  8
0
  6
CENTER
 62
2
 10
210.500000
 20
-119.500000
 11
215.500000
 21
-119.500000
  0
LINE
  8
0
  6
CENTER
 62
2
 10
213.000000
 20
-92.000000
 11
213.000000
 21
-97.000000
  0
LINE
  8
0
  6
CENTER
 62
2
 10
210.500000
 20
-94.500000
 11
215.500000
 21
-94.500000
  0
LINE
  8
0
  6
CENTER
 62
2
 10
154.000000
 20
-162.500000
 11
154.000000
 21
-169.500000
  0
LINE
  8
0
  6
CENTER
 62
2
 10
150.500000
 20
-166.000000
 11
157.500000
 21
-166.000000
  0
LINE
  8
0
  6
CENTER
 62
2
 10
171.000000
 20
-163.500000
 11
171.000000
 21
-168.500000
  0
LINE
  8
0
  6
CENTER
 62
2
 10
168.500000
 20
-166.000000
 11
173.500000
 21
-166.000000
  0
LINE
  8
0
  6
CENTER
 62
2
 10
231.000000
 20
-163.500000
 11
231.000000
 21
-168.500000
  0
LINE
  8
0
  6
CENTER
 62
2
 10
228.500000
 20
-166.000000
 11
233.500000
 21
-166.000000
  0
LINE
  8
0
  6
CENTER
 62
2
 10
248.000000
 20
-162.500000
 11
248.000000
 21
-169.500000
  0
LINE
  8
0
  6
CENTER
 62
2
 10
244.500000
 20
-166.000000
 11
251.500000
 21
-166.000000
  0
LINE
  8
0
  6
CENTER
 62
2
 10
248.199997
 20
-151.500000
 11
248.199997
 21
-156.500000
  0
LINE
  8
0
  6
CENTER
 62
2
 10
245.699997
 20
-154.000000
 11
250.699997
 21
-154.000000
  0
LINE
  8
0
  6
CENTER
 62
2
 10
244.800003
 20
-151.699997
 11
244.800003
 21
-155.699997
  0
LINE
  8
0
  6
CENTER
 62
2
 10
242.800003
 20
-153.699997
 11
246.800003
 21
-153.699997
  0
LINE
  8
0
  6
CENTER
 62
2
 10
241.699997
 20
-151.500000
 11
241.699997
 21
-156.500000
  0
LINE
  8
0
  6
CENTER
 62
2
 10
239.199997
 20
-154.000000
 11
244.199997
 21
-154.000000
  0
LINE
  8
0
  6
CENTER
 62
2
 10
234.800003
 20
-151.699997
 11
234.800003
 21
-155.699997
  0
LINE
  8
0
  6
CENTER
 62
2
 10
232.800003
 20
-153.699997
 11
236.800003
 21
-153.699997
  0
LINE
  8
0
  6
CENTER
 62
2
 10
163.000000
 20
-198.300003
 11
163.000000
 21
-204.699997
  0
LINE
  8
0
  6
CENTER
 62
2
 10
159.800003
 20
-201.500000
 11
166.199997
 21
-201.500000
  0
LINE
  8
0
  6
CENTER
 62
2
 10
163.000000
 20
-222.300003
 11
163.000000
 21
-228.699997
  0
LINE
  8
0
  6
CENTER
 62
2
 10
159.800003
 20
-225.500000
 11
166.199997
 21
-225.500000
  0
LINE
  8
0
  6
CENTER
 62
2
 10
179.000000
 20
-197.500000
 11
179.000000
 21
-205.500000
  0
LINE
  8
0
  6
CENTER
 62
2
 10
175.000000
 20
-201.500000
 11
183.000000
 21
-201.500000
  0
LINE
  8
0
  6
CENTER
 62
2
 10
179.000000
 20
-221.500000
 11
179.000000
 21
-229.500000
  0
LINE
  8
0
  6
CENTER
 62
2
 10
175.000000
 20
-225.500000
 11
183.000000
 21
-225.500000
  0
LINE
  8
0
  6
CENTER
 62
2
 10
239.000000
 20
-222.000000
 11
239.000000
 21
-229.000000
  0
LINE
  8
0
  6
CENTER
 62
2
 10
235.500000
 20
-225.500000
 11
242.500000
 21
-225.500000
  0
LINE
  8
0
  6
CENTER
 62
2
 10
239.000000
 20
-198.000000
 11
239.000000
 21
-205.000000
  0
LINE
  8
0
  6
CENTER
 62
2
 10
235.500000
 20
-201.500000
 11
242.500000
 21
-201.500000
  0
LINE
  8
0
  6
CONTINUOUS
 62
7
 10
-175.000000
 20
159.500000
 11
-175.000000
 21
169.500000
  0
LINE
  8
0
  6
CENTER
 62
2
 10
-223.800003
 20
164.500000
 11
-191.800003
 21
164.500000
  0
LINE
  8
0
  6
CONTINUOUS
 62
7
 10
-222.800003
 20
161.500000
 11
-208.000000
 21
161.500000
  0
LINE
  8
0
  6
CONTINUOUS
 62
7
 10
-222.800003
 20
161.500000
 11
-222.800003
 21
167.500000
  0
LINE
  8
0
  6
CONTINUOUS
 62
7
 10
-222.800003
 20
167.500000
 11
-208.000000
 21
167.500000
  0
LINE
  8
0
  6
CONTINUOUS
 62
2
 10
-222.800003
 20
162.000000
 11
-208.000000
 21
162.000000
  0
LINE
  8
0
  6
CONTINUOUS
 62
2
 10
-222.800003
 20
167.000000
 11
-208.000000
 21
167.000000
  0
LINE
  8
0
  6
CONTINUOUS
 62
7
 10
-172.800003
 20
159.000000
 11
-172.800003
 21
168.000000
  0
LINE
  8
0
  6
CONTINUOUS
 62
7
 10
-157.300003
 20
168.000000
 11
-172.800003
 21
168.000000
  0
LINE
  8
0
  6
CONTINUOUS
 62
7
 10
-157.300003
 20
159.000000
 11
-157.300003
 21
168.000000
  0
LINE
  8
0
  6
CONTINUOUS
 62
7
 10
-203.000000
 20
169.500000
 11
-175.000000
 21
169.500000
  0
LINE
  8
0
  6
CONTINUOUS
 62
7
 10
-203.000000
 20
159.500000
 11
-203.000000
 21
169.500000
  0
LINE
  8
0
  6
CONTINUOUS
 62
7
 10
-195.500000
 20
159.500000
 11
-195.500000
 21
169.500000
  0
LINE
  8
0
  6
CONTINUOUS
 62
7
 10
-203.000000
 20
160.500000
 11
-208.000000
 21
160.500000
  0
LINE
  8
0
  6
CONTINUOUS
 62
7
 10
-208.000000
 20
168.500000
 11
-208.000000
 21
160.500000
  0
LINE
  8
0
  6
CONTINUOUS
 62
7
 10
-203.000000
 20
168.500000
 11
-208.000000
 21
168.500000
  0
LINE
  8
0
  6
CONTINUOUS
 62
7
 10
-203.000000
 20
167.744003
 11
-208.000000
 21
167.744003
  0
LINE
  8
0
  6
CONTINUOUS
 62
7
 10
-203.000000
 20
165.255997
 11
-208.000000
 21
165.255997
  0
LINE
  8
0
  6
CONTINUOUS
 62
7
 10
-203.000000
 20
163.744003
 11
-208.000000
 21
163.744003
  0
LINE
  8
0
  6
CONTINUOUS
 62
7
 10
-203.000000
 20
161.255997
 11
-208.000000
 21
161.255997
  0
LINE
  8
0
  6
CONTINUOUS
 62
7
 10
-157.300003
 20
159.500000
 11
-156.000000
 21
159.500000
  0
LINE
  8
0
  6
CONTINUOUS
 62
7
 10
220.000000
 20
159.500000
 11
220.000000
 21
169.500000
  0
LINE
  8
0
  6
CENTER
 62
2
 10
146.199997
 20
164.500000
 11
178.199997
 21
164.500000
  0
LINE
  8
0
  6
CONTINUOUS
 62
7
 10
147.199997
 20
161.500000
 11
162.000000
 21
161.500000
  0
LINE
  8
0
  6
CONTINUOUS
 62
7
 10
147.199997
 20
161.500000
 11
147.199997
 21
167.500000
  0
LINE
  8
0
  6
CONTINUOUS
 62
7
 10
147.199997
 20
167.500000
 11
162.000000
 21
167.500000
  0
LINE
  8
0
  6
CONTINUOUS
 62
2
 10
147.199997
 20
162.000000
 11
162.000000
 21
162.000000
  0
LINE
  8
0
  6
CONTINUOUS
 62
2
 10
147.199997
 20
167.000000
 11
162.000000
 21
167.000000
  0
LINE
  8
0
  6
CONTINUOUS
 62
7
 10
222.199997
 20
159.000000
 11
222.199997
 21
168.000000
  0
LINE
  8
0
  6
CONTINUOUS
 62
7
 10
237.699997
 20
168.000000
 11
222.199997
 21
168.000000
  0
LINE
  8
0
  6
CONTINUOUS
 62
7
 10
237.699997
 20
159.000000
 11
237.699997
 21
168.000000
  0
LINE
  8
0
  6
CONTINUOUS
 62
7
 10
167.000000
 20
169.500000
 11
220.000000
 21
169.500000
  0
LINE
  8
0
  6
CONTINUOUS
 62
7
 10
167.000000
 20
159.500000
 11
167.000000
 21
169.500000
  0
LINE
  8
0
  6
CONTINUOUS
 62
7
 10
174.500000
 20
159.500000
 11
174.500000
 21
169.500000
  0
LINE
  8
0
  6
CONTINUOUS
 62
7
 10
167.000000
 20
160.500000
 11
162.000000
 21
160.500000
  0
LINE
  8
0
  6
CONTINUOUS
 62
7
 10
162.000000
 20
168.500000
 11
162.000000
 21
160.500000
  0
LINE
  8
0
  6
CONTINUOUS
 62
7
 10
167.000000
 20
168.500000
 11
162.000000
 21
168.500000
  0
LINE
  8
0
  6
CONTINUOUS
 62
7
 10
167.000000
 20
167.744003
 11
162.000000
 21
167.744003
  0
LINE
  8
0
  6
CONTINUOUS
 62
7
 10
167.000000
 20
165.255997
 11
162.000000
 21
165.255997
  0
LINE
  8
0
  6
CONTINUOUS
 62
7
 10
167.000000
 20
163.744003
 11
162.000000
 21
163.744003
  0
LINE
  8
0
  6
CONTINUOUS
 62
7
 10
167.000000
 20
161.255997
 11
162.000000
 21
161.255997
  0
LINE
  8
0
  6
CONTINUOUS
 62
7
 10
237.699997
 20
159.500000
 11
239.000000
 21
159.500000
  0
LINE
  8
0
  6
CONTINUOUS
 62
7
 10
-165.000000
 20
-90.500000
 11
-165.000000
 21
-80.500000
  0
LINE
  8
0
  6
CENTER
 62
2
 10
-223.800003
 20
-85.500000
 11
-191.800003
 21
-85.500000
  0
LINE
  8
0
  6
CONTINUOUS
 62
7
 10
-222.800003
 20
-88.500000
 11
-208.000000
 21
-88.500000
  0
LINE
  8
0
  6
CONTINUOUS
 62
7
 10
-222.800003
 20
-88.500000
 11
-222.800003
 21
-82.500000
  0
LINE
  8
0
  6
CONTINUOUS
 62
7
 10
-222.800003
 20
-82.500000
 11
-208.000000
 21
-82.500000
  0
LINE
  8
0
  6
CONTINUOUS
 62
2
 10
-222.800003
 20
-88.000000
 11
-208.000000
 21
-88.000000
  0
LINE
  8
0
  6
CONTINUOUS
 62
2
 10
-222.800003
 20
-83.000000
 11
-208.000000
 21
-83.000000
  0
LINE
  8
0
  6
CONTINUOUS
 62
7
 10
-162.800003
 20
-91.000000
 11
-162.800003
 21
-82.000000
  0
LINE
  8
0
  6
CONTINUOUS
 62
7
 10
-147.300003
 20
-82.000000
 11
-162.800003
 21
-82.000000
  0
LINE
  8
0
  6
CONTINUOUS
 62
7
 10
-147.300003
 20
-91.000000
 11
-147.300003
 21
-82.000000
  0
LINE
  8
0
  6
CONTINUOUS
 62
7
 10
-203.000000
 20
-80.500000
 11
-165.000000
 21
-80.500000
  0
LINE
  8
0
  6
CONTINUOUS
 62
7
 10
-203.000000
 20
-90.500000
 11
-203.000000
 21
-80.500000
  0
LINE
  8
0
  6
CONTINUOUS
 62
7
 10
-195.500000
 20
-90.500000
 11
-195.500000
 21
-80.500000
  0
LINE
  8
0
  6
CONTINUOUS
 62
7
 10
-203.000000
 20
-89.500000
 11
-208.000000
 21
-89.500000
  0
LINE
  8
0
  6
CONTINUOUS
 62
7
 10
-208.000000
 20
-81.500000
 11
-208.000000
 21
-89.500000
  0
LINE
  8
0
  6
CONTINUOUS
 62
7
 10
-203.000000
 20
-81.500000
 11
-208.000000
 21
-81.500000
  0
LINE
  8
0
  6
CONTINUOUS
 62
7
 10
-203.000000
 20
-82.256203
 11
-208.000000
 21
-82.256203
  0
LINE
  8
0
  6
CONTINUOUS
 62
7
 10
-203.000000
 20
-84.743698
 11
-208.000000
 21
-84.743698
  0
LINE
  8
0
  6
CONTINUOUS
 62
7
 10
-203.000000
 20
-86.256203
 11
-208.000000
 21
-86.256203
  0
LINE
  8
0
  6
CONTINUOUS
 62
7
 10
-203.000000
 20
-88.743698
 11
-208.000000
 21
-88.743698
  0
LINE
  8
0
  6
CONTINUOUS
 62
7
 10
-147.300003
 20
-90.500000
 11
-146.000000
 21
-90.500000
  0
LINE
  8
0
  6
CONTINUOUS
 62
7
 10
235.000000
 20
-90.500000
 11
235.000000
 21
-80.500000
  0
LINE
  8
0
  6
CENTER
 62
2
 10
146.199997
 20
-85.500000
 11
178.199997
 21
-85.500000
  0
LINE
  8
0
  6
CONTINUOUS
 62
7
 10
147.199997
 20
-88.500000
 11
162.000000
 21
-88.500000
  0
LINE
  8
0
  6
CONTINUOUS
 62
7
 10
147.199997
 20
-88.500000
 11
147.199997
 21
-82.500000
  0
LINE
  8
0
  6
CONTINUOUS
 62
7
 10
147.199997
 20
-82.500000
 11
162.000000
 21
-82.500000
  0
LINE
  8
0
  6
CONTINUOUS
 62
2
 10
147.199997
 20
-88.000000
 11
162.000000
 21
-88.000000
  0
LINE
  8
0
  6
CONTINUOUS
 62
2
 10
147.199997
 20
-83.000000
 11
162.000000
 21
-83.000000
  0
LINE
  8
0
  6
CONTINUOUS
 62
7
 10
237.199997
 20
-91.000000
 11
237.199997
 21
-82.000000
  0
LINE
  8
0
  6
CONTINUOUS
 62
7
 10
252.699997
 20
-82.000000
 11
237.199997
 21
-82.000000
  0
LINE
  8
0
  6
CONTINUOUS
 62
7
 10
252.699997
 20
-91.000000
 11
252.699997
 21
-82.000000
  0
LINE
  8
0
  6
CONTINUOUS
 62
7
 10
167.000000
 20
-80.500000
 11
235.000000
 21
-80.500000
  0
LINE
  8
0
  6
CONTINUOUS
 62
7
 10
167.000000
 20
-90.500000
 11
167.000000
 21
-80.500000
  0
LINE
  8
0
  6
CONTINUOUS
 62
7
 10
174.500000
 20
-90.500000
 11
174.500000
 21
-80.500000
  0
LINE
  8
0
  6
CONTINUOUS
 62
7
 10
167.000000
 20
-89.500000
 11
162.000000
 21
-89.500000
  0
LINE
  8
0
  6
CONTINUOUS
 62
7
 10
162.000000
 20
-81.500000
 11
162.000000
 21
-89.500000
  0
LINE
  8
0
  6
CONTINUOUS
 62
7
 10
167.000000
 20
-81.500000
 11
162.000000
 21
-81.500000
  0
LINE
  8
0
  6
CONTINUOUS
 62
7
 10
167.000000
 20
-82.256203
 11
162.000000
 21
-82.256203
  0
LINE
  8
0
  6
CONTINUOUS
 62
7
 10
167.000000
 20
-84.743698
 11
162.000000
 21
-84.743698
  0
LINE
  8
0
  6
CONTINUOUS
 62
7
 10
167.000000
 20
-86.256203
 11
162.000000
 21
-86.256203
  0
LINE
  8
0
  6
CONTINUOUS
 62
7
 10
167.000000
 20
-88.743698
 11
162.000000
 21
-88.743698
  0
LINE
  8
0
  6
CONTINUOUS
 62
7
 10
252.699997
 20
-90.500000
 11
254.000000
 21
-90.500000
  0
LINE
  8
0
  6
CONTINUOUS
 62
7
 10
-257.500000
 20
169.500000
 11
-278.500000
 21
169.500000
  0
LINE
  8
0
  6
CONTINUOUS
 62
7
 10
-261.563995
 20
168.500000
 11
-264.436005
 21
168.500000
  0
LINE
  8
0
  6
CONTINUOUS
 62
7
 10
-260.253998
 20
167.744003
 11
-258.817993
 21
165.255997
  0
LINE
  8
0
  6
CONTINUOUS
 62
7
 10
-258.817993
 20
163.744003
 11
-260.253998
 21
161.255997
  0
LINE
  8
0
  6
CONTINUOUS
 62
7
 10
-264.436005
 20
160.500000
 11
-261.563995
 21
160.500000
  0
LINE
  8
0
  6
CONTINUOUS
 62
7
 10
-267.182007
 20
163.744003
 11
-265.746002
 21
161.255997
  0
LINE
  8
0
  6
CONTINUOUS
 62
7
 10
-265.746002
 20
167.744003
 11
-267.182007
 21
165.255997
  0
LINE
  8
0
  6
CENTER
 62
2
 10
-257.750000
 20
164.500000
 11
-268.250000
 21
164.500000
  0
LINE
  8
0
  6
CENTER
 62
2
 10
-263.000000
 20
159.250000
 11
-263.000000
 21
169.750000
  0
LINE
  8
0
  6
CONTINUOUS
 62
7
 10
-262.134003
 20
166.000000
 11
-261.268005
 21
164.500000
  0
LINE
  8
0
  6
CONTINUOUS
 62
7
 10
-261.268005
 20
164.500000
 11
-262.134003
 21
163.000000
  0
LINE
  8
0
  6
CONTINUOUS
 62
7
 10
-263.865997
 20
163.000000
 11
-262.134003
 21
163.000000
  0
LINE
  8
0
  6
CONTINUOUS
 62
7
 10
-264.731995
 20
164.500000
 11
-263.865997
 21
163.000000
  0
LINE
  8
0
  6
CONTINUOUS
 62
7
 10
-263.865997
 20
166.000000
 11
-264.731995
 21
164.500000
  0
LINE
  8
0
  6
CONTINUOUS
 62
7
 10
-262.134003
 20
166.000000
 11
-263.865997
 21
166.000000
  0
LINE
  8
0
  6
CONTINUOUS
 62
7
 10
-257.500000
 20
159.500000
 11
-257.500000
 21
169.500000
  0
LINE
  8
0
  6
CONTINUOUS
 62
7
 10
-278.500000
 20
159.500000
 11
-278.500000
 21
169.500000
  0
LINE
  8
0
  6
CONTINUOUS
 62
7
 10
112.500000
 20
169.500000
 11
91.500000
 21
169.500000
  0
LINE
  8
0
  6
CONTINUOUS
 62
7
 10
108.435997
 20
168.500000
 11
105.564003
 21
168.500000
  0
LINE
  8
0
  6
CONTINUOUS
 62
7
 10
109.746002
 20
167.744003
 11
111.181999
 21
165.255997
  0
LINE
  8
0
  6
CONTINUOUS
 62
7
 10
111.181999
 20
163.744003
 11
109.746002
 21
161.255997
  0
LINE
  8
0
  6
CONTINUOUS
 62
7
 10
105.564003
 20
160.500000
 11
108.435997
 21
160.500000
  0
LINE
  8
0
  6
CONTINUOUS
 62
7
 10
102.818001
 20
163.744003
 11
104.253998
 21
161.255997
  0
LINE
  8
0
  6
CONTINUOUS
 62
7
 10
104.253998
 20
167.744003
 11
102.818001
 21
165.255997
  0
LINE
  8
0
  6
CENTER
 62
2
 10
112.250000
 20
164.500000
 11
101.750000
 21
164.500000
  0
LINE
  8
0
  6
CENTER
 62
2
 10
107.000000
 20
159.250000
 11
107.000000
 21
169.750000
  0
LINE
  8
0
  6
CONTINUOUS
 62
7
 10
107.865997
 20
166.000000
 11
108.732002
 21
164.500000
  0
LINE
  8
0
  6
CONTINUOUS
 62
7
 10
108.732002
 20
164.500000
 11
107.865997
 21
163.000000
  0
LINE
  8
0
  6
CONTINUOUS
 62
7
 10
106.134003
 20
163.000000
 11
107.865997
 21
163.000000
  0
LINE
  8
0
  6
CONTINUOUS
 62
7
 10
105.267998
 20
164.500000
 11
106.134003
 21
163.000000
  0
LINE
  8
0
  6
CONTINUOUS
 62
7
 10
106.134003
 20
166.000000
 11
105.267998
 21
164.500000
  0
LINE
  8
0
  6
CONTINUOUS
 62
7
 10
107.865997
 20
166.000000
 11
106.134003
 21
166.000000
  0
LINE
  8
0
  6
CONTINUOUS
 62
7
 10
112.500000
 20
159.500000
 11
112.500000
 21
169.500000
  0
LINE
  8
0
  6
CONTINUOUS
 62
7
 10
91.500000
 20
159.500000
 11
91.500000
 21
169.500000
  0
LINE
  8
0
  6
CONTINUOUS
 62
7
 10
-203.000000
 20
186.000000
 11
-203.000000
 21
207.000000
  0
LINE
  8
0
  6
CENTER
 62
2
 10
-223.800003
 20
191.500000
 11
-191.800003
 21
191.500000
  0
LINE
  8
0
  6
CONTINUOUS
 62
7
 10
-208.000000
 20
187.250000
 11
-203.000000
 21
187.250000
  0
LINE
  8
0
  6
CONTINUOUS
 62
7
 10
-208.000000
 20
187.250000
 11
-208.000000
 21
195.750000
  0
LINE
  8
0
  6
CONTINUOUS
 62
7
 10
-208.000000
 20
195.750000
 11
-203.000000
 21
195.750000
  0
LINE
  8
0
  6
CONTINUOUS
 62
7
 10
-208.000000
 20
194.246002
 11
-203.000000
 21
194.246002
  0
LINE
  8
0
  6
CONTINUOUS
 62
7
 10
-208.000000
 20
192.936005
 11
-203.000000
 21
192.936005
  0
LINE
  8
0
  6
CONTINUOUS
 62
7
 10
-208.000000
 20
190.063995
 11
-203.000000
 21
190.063995
  0
LINE
  8
0
  6
CONTINUOUS
 62
7
 10
-208.000000
 20
188.753998
 11
-203.000000
 21
188.753998
  0
LINE
  8
0
  6
CONTINUOUS
 62
7
 10
-222.800003
 20
188.500000
 11
-208.000000
 21
188.500000
  0
LINE
  8
0
  6
CONTINUOUS
 62
7
 10
-222.800003
 20
188.500000
 11
-222.800003
 21
194.500000
  0
LINE
  8
0
  6
CONTINUOUS
 62
7
 10
-222.800003
 20
194.500000
 11
-208.000000
 21
194.500000
  0
LINE
  8
0
  6
CONTINUOUS
 62
2
 10
-222.800003
 20
189.000000
 11
-208.000000
 21
189.000000
  0
LINE
  8
0
  6
CONTINUOUS
 62
2
 10
-222.800003
 20
194.000000
 11
-208.000000
 21
194.000000
  0
LINE
  8
0
  6
CONTINUOUS
 62
7
 10
-195.500000
 20
186.000000
 11
-195.500000
 21
193.500000
  0
LINE
  8
0
  6
CONTINUOUS
 62
7
 10
-224.000000
 20
193.029007
 11
-222.800003
 21
193.029007
  0
LINE
  8
0
  6
CONTINUOUS
 62
7
 10
-224.000000
 20
191.970993
 11
-222.800003
 21
191.970993
  0
LINE
  8
0
  6
CONTINUOUS
 62
7
 10
-172.800003
 20
187.500000
 11
-172.800003
 21
195.500000
  0
LINE
  8
0
  6
CONTINUOUS
 62
7
 10
-172.800003
 20
195.500000
 11
-157.300003
 21
195.500000
  0
LINE
  8
0
  6
CONTINUOUS
 62
7
 10
-157.300003
 20
187.500000
 11
-157.300003
 21
195.500000
  0
LINE
  8
0
  6
CONTINUOUS
 62
7
 10
-172.800003
 20
187.500000
 11
-157.300003
 21
187.500000
  0
LINE
  8
0
  6
CONTINUOUS
 62
7
 10
-175.000000
 20
196.500000
 11
-175.000000
 21
207.000000
  0
LINE
  8
0
  6
CONTINUOUS
 62
7
 10
-192.500000
 20
196.500000
 11
-175.000000
 21
196.500000
  0
LINE
  8
0
  6
CONTINUOUS
 62
7
 10
-203.000000
 20
207.000000
 11
-175.000000
 21
207.000000
  0
LINE
  8
0
  6
CONTINUOUS
 62
7
 10
-175.000000
 20
198.000000
 11
-156.000000
 21
198.000000
  0
LINE
  8
0
  6
CONTINUOUS
 62
7
 10
-175.000000
 20
197.500000
 11
-155.800003
 21
197.500000
  0
LINE
  8
0
  6
CONTINUOUS
 62
7
 10
-203.000000
 20
186.000000
 11
-195.500000
 21
186.000000
  0
LINE
  8
0
  6
CONTINUOUS
 62
7
 10
237.699997
 20
187.500000
 11
237.699997
 21
195.500000
  0
LINE
  8
0
  6
CENTER
 62
2
 10
219.800003
 20
191.699997
 11
219.800003
 21
187.699997
  0
LINE
  8
0
  6
CENTER
 62
2
 10
217.800003
 20
189.699997
 11
221.800003
 21
189.699997
  0
LINE
  8
0
  6
CONTINUOUS
 62
7
 10
167.000000
 20
186.000000
 11
167.000000
 21
207.000000
  0
LINE
  8
0
  6
CENTER
 62
2
 10
146.199997
 20
191.500000
 11
178.199997
 21
191.500000
  0
LINE
  8
0
  6
CONTINUOUS
 62
7
 10
162.000000
 20
187.250000
 11
167.000000
 21
187.250000
  0
LINE
  8
0
  6
CONTINUOUS
 62
7
 10
162.000000
 20
187.250000
 11
162.000000
 21
195.750000
  0
LINE
  8
0
  6
CONTINUOUS
 62
7
 10
162.000000
 20
195.750000
 11
167.000000
 21
195.750000
  0
LINE
  8
0
  6
CONTINUOUS
 62
7
 10
162.000000
 20
194.246002
 11
167.000000
 21
194.246002
  0
LINE
  8
0
  6
CONTINUOUS
 62
7
 10
162.000000
 20
192.936005
 11
167.000000
 21
192.936005
  0
LINE
  8
0
  6
CONTINUOUS
 62
7
 10
162.000000
 20
190.063995
 11
167.000000
 21
190.063995
  0
LINE
  8
0
  6
CONTINUOUS
 62
7
 10
162.000000
 20
188.753998
 11
167.000000
 21
188.753998
  0
LINE
  8
0
  6
CONTINUOUS
 62
7
 10
147.199997
 20
188.500000
 11
162.000000
 21
188.500000
  0
LINE
  8
0
  6
CONTINUOUS
 62
7
 10
147.199997
 20
188.500000
 11
147.199997
 21
194.500000
  0
LINE
  8
0
  6
CONTINUOUS
 62
7
 10
147.199997
 20
194.500000
 11
162.000000
 21
194.500000
  0
LINE
  8
0
  6
CONTINUOUS
 62
2
 10
147.199997
 20
189.000000
 11
162.000000
 21
189.000000
  0
LINE
  8
0
  6
CONTINUOUS
 62
2
 10
147.199997
 20
194.000000
 11
162.000000
 21
194.000000
  0
LINE
  8
0
  6
CONTINUOUS
 62
7
 10
174.500000
 20
186.000000
 11
174.500000
 21
193.500000
  0
LINE
  8
0
  6
CONTINUOUS
 62
7
 10
146.000000
 20
193.029007
 11
147.199997
 21
193.029007
  0
LINE
  8
0
  6
CONTINUOUS
 62
7
 10
146.000000
 20
191.970993
 11
147.199997
 21
191.970993
  0
LINE
  8
0
  6
CONTINUOUS
 62
7
 10
222.199997
 20
187.500000
 11
222.199997
 21
195.500000
  0
LINE
  8
0
  6
CONTINUOUS
 62
7
 10
222.199997
 20
195.500000
 11
237.699997
 21
195.500000
  0
LINE
  8
0
  6
CONTINUOUS
 62
7
 10
222.199997
 20
187.500000
 11
237.699997
 21
187.500000
  0
LINE
  8
0
  6
CONTINUOUS
 62
7
 10
167.000000
 20
186.000000
 11
174.500000
 21
186.000000
  0
LINE
  8
0
  6
DASHED
 62
2
 10
176.500000
 20
200.199997
 11
176.500000
 21
207.500000
  0
LINE
  8
0
  6
DASHED
 62
2
 10
176.899994
 20
200.199997
 11
176.899994
 21
207.500000
  0
LINE
  8
0
  6
CENTER
 62
2
 10
179.000000
 20
199.199997
 11
179.000000
 21
208.500000
  0
LINE
  8
0
  6
DASHED
 62
2
 10
181.100006
 20
200.199997
 11
181.100006
 21
207.500000
  0
LINE
  8
0
  6
DASHED
 62
2
 10
181.500000
 20
200.199997
 11
181.500000
 21
207.500000
  0
LINE
  8
0
  6
DASHED
 62
2
 10
175.000000
 20
200.199997
 11
183.000000
 21
200.199997
  0
LINE
  8
0
  6
CONTINUOUS
 62
7
 10
167.000000
 20
207.000000
 11
220.000000
 21
207.000000
  0
LINE
  8
0
  6
CONTINUOUS
 62
7
 10
177.500000
 20
196.500000
 11
220.000000
 21
196.500000
  0
LINE
  8
0
  6
CONTINUOUS
 62
7
 10
220.000000
 20
196.500000
 11
220.000000
 21
207.000000
  0
LINE
  8
0
  6
CONTINUOUS
 62
7
 10
220.000000
 20
198.000000
 11
239.000000
 21
198.000000
  0
LINE
  8
0
  6
CONTINUOUS
 62
7
 10
220.000000
 20
197.500000
 11
239.199997
 21
197.500000
  0
LINE
  8
0
  6
CONTINUOUS
 62
7
 10
-147.300003
 20
-62.500000
 11
-147.300003
 21
-54.500000
  0
LINE
  8
0
  6
CENTER
 62
2
 10
-165.199997
 20
-58.299999
 11
-165.199997
 21
-62.299999
  0
LINE
  8
0
  6
CENTER
 62
2
 10
-167.199997
 20
-60.299999
 11
-163.199997
 21
-60.299999
  0
LINE
  8
0
  6
CONTINUOUS
 62
7
 10
-203.000000
 20
-64.000000
 11
-203.000000
 21
-43.000000
  0
LINE
  8
0
  6
CENTER
 62
2
 10
-223.800003
 20
-58.500000
 11
-191.800003
 21
-58.500000
  0
LINE
  8
0
  6
CONTINUOUS
 62
7
 10
-208.000000
 20
-62.750000
 11
-203.000000
 21
-62.750000
  0
LINE
  8
0
  6
CONTINUOUS
 62
7
 10
-208.000000
 20
-62.750000
 11
-208.000000
 21
-54.250000
  0
LINE
  8
0
  6
CONTINUOUS
 62
7
 10
-208.000000
 20
-54.250000
 11
-203.000000
 21
-54.250000
  0
LINE
  8
0
  6
CONTINUOUS
 62
7
 10
-208.000000
 20
-55.753899
 11
-203.000000
 21
-55.753899
  0
LINE
  8
0
  6
CONTINUOUS
 62
7
 10
-208.000000
 20
-57.063801
 11
-203.000000
 21
-57.063801
  0
LINE
  8
0
  6
CONTINUOUS
 62
7
 10
-208.000000
 20
-59.936100
 11
-203.000000
 21
-59.936100
  0
LINE
  8
0
  6
CONTINUOUS
 62
7
 10
-208.000000
 20
-61.245998
 11
-203.000000
 21
-61.245998
  0
LINE
  8
0
  6
CONTINUOUS
 62
7
 10
-222.800003
 20
-61.500000
 11
-208.000000
 21
-61.500000
  0
LINE
  8
0
  6
CONTINUOUS
 62
7
 10
-222.800003
 20
-61.500000
 11
-222.800003
 21
-55.500000
  0
LINE
  8
0
  6
CONTINUOUS
 62
7
 10
-222.800003
 20
-55.500000
 11
-208.000000
 21
-55.500000
  0
LINE
  8
0
  6
CONTINUOUS
 62
2
 10
-222.800003
 20
-61.000000
 11
-208.000000
 21
-61.000000
  0
LINE
  8
0
  6
CONTINUOUS
 62
2
 10
-222.800003
 20
-56.000000
 11
-208.000000
 21
-56.000000
  0
LINE
  8
0
  6
CONTINUOUS
 62
7
 10
-195.500000
 20
-64.000000
 11
-195.500000
 21
-56.500000
  0
LINE
  8
0
  6
CONTINUOUS
 62
7
 10
-224.000000
 20
-56.970901
 11
-222.800003
 21
-56.970901
  0
LINE
  8
0
  6
CONTINUOUS
 62
7
 10
-224.000000
 20
-58.029099
 11
-222.800003
 21
-58.029099
  0
LINE
  8
0
  6
CONTINUOUS
 62
7
 10
-162.800003
 20
-62.500000
 11
-162.800003
 21
-54.500000
  0
LINE
  8
0
  6
CONTINUOUS
 62
7
 10
-162.800003
 20
-54.500000
 11
-147.300003
 21
-54.500000
  0
LINE
  8
0
  6
CONTINUOUS
 62
7
 10
-162.800003
 20
-62.500000
 11
-147.300003
 21
-62.500000
  0
LINE
  8
0
  6
CONTINUOUS
 62
7
 10
-203.000000
 20
-64.000000
 11
-195.500000
 21
-64.000000
  0
LINE
  8
0
  6
DASHED
 62
2
 10
-193.500000
 20
-48.000000
 11
-193.500000
 21
-44.099998
  0
LINE
  8
0
  6
DASHED
 62
2
 10
-193.100006
 20
-48.000000
 11
-193.100006
 21
-44.099998
  0
LINE
  8
0
  6
CENTER
 62
2
 10
-191.000000
 20
-49.000000
 11
-191.000000
 21
-41.500000
  0
LINE
  8
0
  6
DASHED
 62
2
 10
-188.899994
 20
-48.000000
 11
-188.899994
 21
-44.099998
  0
LINE
  8
0
  6
DASHED
 62
2
 10
-188.500000
 20
-48.000000
 11
-188.500000
 21
-44.099998
  0
LINE
  8
0
  6
DASHED
 62
2
 10
-195.000000
 20
-48.000000
 11
-187.000000
 21
-48.000000
  0
LINE
  8
0
  6
CONTINUOUS
 62
7
 10
-203.000000
 20
-43.000000
 11
-165.000000
 21
-43.000000
  0
LINE
  8
0
  6
CONTINUOUS
 62
7
 10
-192.500000
 20
-53.500000
 11
-165.000000
 21
-53.500000
  0
LINE
  8
0
  6
CONTINUOUS
 62
7
 10
-165.000000
 20
-53.500000
 11
-165.000000
 21
-43.000000
  0
LINE
  8
0
  6
CONTINUOUS
 62
7
 10
-165.000000
 20
-52.000000
 11
-146.000000
 21
-52.000000
  0
LINE
  8
0
  6
CONTINUOUS
 62
7
 10
-165.000000
 20
-52.500000
 11
-145.800003
 21
-52.500000
  0
LINE
  8
0
  6
CONTINUOUS
 62
7
 10
252.699997
 20
-62.500000
 11
252.699997
 21
-54.500000
  0
LINE
  8
0
  6
CENTER
 62
2
 10
234.800003
 20
-58.299999
 11
234.800003
 21
-62.299999
  0
LINE
  8
0
  6
CENTER
 62
2
 10
232.800003
 20
-60.299999
 11
236.800003
 21
-60.299999
  0
LINE
  8
0
  6
CONTINUOUS
 62
7
 10
167.000000
 20
-64.000000
 11
167.000000
 21
-43.000000
  0
LINE
  8
0
  6
CENTER
 62
2
 10
146.199997
 20
-58.500000
 11
178.199997
 21
-58.500000
  0
LINE
  8
0
  6
CONTINUOUS
 62
7
 10
162.000000
 20
-62.750000
 11
167.000000
 21
-62.750000
  0
LINE
  8
0
  6
CONTINUOUS
 62
7
 10
162.000000
 20
-62.750000
 11
162.000000
 21
-54.250000
  0
LINE
  8
0
  6
CONTINUOUS
 62
7
 10
162.000000
 20
-54.250000
 11
167.000000
 21
-54.250000
  0
LINE
  8
0
  6
CONTINUOUS
 62
7
 10
162.000000
 20
-55.753899
 11
167.000000
 21
-55.753899
  0
LINE
  8
0
  6
CONTINUOUS
 62
7
 10
162.000000
 20
-57.063801
 11
167.000000
 21
-57.063801
  0
LINE
  8
0
  6
CONTINUOUS
 62
7
 10
162.000000
 20
-59.936100
 11
167.000000
 21
-59.936100
  0
LINE
  8
0
  6
CONTINUOUS
 62
7
 10
162.000000
 20
-61.245998
 11
167.000000
 21
-61.245998
  0
LINE
  8
0
  6
CONTINUOUS
 62
7
 10
147.199997
 20
-61.500000
 11
162.000000
 21
-61.500000
  0
LINE
  8
0
  6
CONTINUOUS
 62
7
 10
147.199997
 20
-61.500000
 11
147.199997
 21
-55.500000
  0
LINE
  8
0
  6
CONTINUOUS
 62
7
 10
147.199997
 20
-55.500000
 11
162.000000
 21
-55.500000
  0
LINE
  8
0
  6
CONTINUOUS
 62
2
 10
147.199997
 20
-61.000000
 11
162.000000
 21
-61.000000
  0
LINE
  8
0
  6
CONTINUOUS
 62
2
 10
147.199997
 20
-56.000000
 11
162.000000
 21
-56.000000
  0
LINE
  8
0
  6
CONTINUOUS
 62
7
 10
174.500000
 20
-64.000000
 11
174.500000
 21
-56.500000
  0
LINE
  8
0
  6
CONTINUOUS
 62
7
 10
146.000000
 20
-56.970901
 11
147.199997
 21
-56.970901
  0
LINE
  8
0
  6
CONTINUOUS
 62
7
 10
146.000000
 20
-58.029099
 11
147.199997
 21
-58.029099
  0
LINE
  8
0
  6
CONTINUOUS
 62
7
 10
237.199997
 20
-62.500000
 11
237.199997
 21
-54.500000
  0
LINE
  8
0
  6
CONTINUOUS
 62
7
 10
237.199997
 20
-54.500000
 11
252.699997
 21
-54.500000
  0
LINE
  8
0
  6
CONTINUOUS
 62
7
 10
237.199997
 20
-62.500000
 11
252.699997
 21
-62.500000
  0
LINE
  8
0
  6
CONTINUOUS
 62
7
 10
167.000000
 20
-64.000000
 11
174.500000
 21
-64.000000
  0
LINE
  8
0
  6
DASHED
 62
2
 10
176.500000
 20
-48.000000
 11
176.500000
 21
-44.099998
  0
LINE
  8
0
  6
DASHED
 62
2
 10
176.899994
 20
-48.000000
 11
176.899994
 21
-44.099998
  0
LINE
  8
0
  6
CENTER
 62
2
 10
179.000000
 20
-49.000000
 11
179.000000
 21
-41.500000
  0
LINE
  8
0
  6
DASHED
 62
2
 10
181.100006
 20
-48.000000
 11
181.100006
 21
-44.099998
  0
LINE
  8
0
  6
DASHED
 62
2
 10
181.500000
 20
-48.000000
 11
181.500000
 21
-44.099998
  0
LINE
  8
0
  6
DASHED
 62
2
 10
175.000000
 20
-48.000000
 11
183.000000
 21
-48.000000
  0
LINE
  8
0
  6
CONTINUOUS
 62
7
 10
167.000000
 20
-43.000000
 11
235.000000
 21
-43.000000
  0
LINE
  8
0
  6
CONTINUOUS
 62
7
 10
177.500000
 20
-53.500000
 11
235.000000
 21
-53.500000
  0
LINE
  8
0
  6
CONTINUOUS
 62
7
 10
235.000000
 20
-53.500000
 11
235.000000
 21
-43.000000
  0
LINE
  8
0
  6
CONTINUOUS
 62
7
 10
235.000000
 20
-52.000000
 11
254.000000
 21
-52.000000
  0
LINE
  8
0
  6
CONTINUOUS
 62
7
 10
235.000000
 20
-52.500000
 11
254.199997
 21
-52.500000
  0
LINE
  8
0
  6
CONTINUOUS
 62
7
 10
-124.000000
 20
168.000000
 11
-116.000000
 21
168.000000
  0
LINE
  8
0
  6
CONTINUOUS
 62
7
 10
-259.000000
 20
159.500000
 11
-259.000000
 21
159.000000
  0
LINE
  8
0
  6
CONTINUOUS
 62
7
 10
-267.000000
 20
159.500000
 11
-267.000000
 21
159.000000
  0
LINE
  8
0
  6
CONTINUOUS
 62
7
 10
-104.000000
 20
159.500000
 11
-116.000000
 21
159.500000
  0
LINE
  8
0
  6
CONTINUOUS
 62
7
 10
-104.500000
 20
159.500000
 11
-104.500000
 21
169.500000
  0
LINE
  8
0
  6
CONTINUOUS
 62
7
 10
-125.500000
 20
169.500000
 11
-104.500000
 21
169.500000
  0
LINE
  8
0
  6
CONTINUOUS
 62
7
 10
-125.500000
 20
159.500000
 11
-125.500000
 21
169.500000
  0
LINE
  8
0
  6
CONTINUOUS
 62
7
 10
-124.000000
 20
168.000000
 11
-124.000000
 21
159.000000
  0
LINE
  8
0
  6
CONTINUOUS
 62
7
 10
-116.000000
 20
168.000000
 11
-116.000000
 21
159.000000
  0
LINE
  8
0
  6
CONTINUOUS
 62
7
 10
-124.000000
 20
159.500000
 11
-125.500000
 21
159.500000
  0
LINE
  8
0
  6
CONTINUOUS
 62
7
 10
-115.000000
 20
159.500000
 11
-115.000000
 21
169.500000
  0
LINE
  8
0
  6
CONTINUOUS
 62
7
 10
-222.000000
 20
31.500000
 11
-224.000000
 21
31.500000
  0
LINE
  8
0
  6
CONTINUOUS
 62
7
 10
-222.000000
 20
41.500000
 11
-224.000000
 21
41.500000
  0
LINE
  8
0
  6
CONTINUOUS
 62
7
 10
-203.000000
 20
18.243799
 11
-208.000000
 21
18.243799
  0
LINE
  8
0
  6
CONTINUOUS
 62
7
 10
-175.000000
 20
20.000000
 11
-175.000000
 21
10.000000
  0
LINE
  8
0
  6
CENTER
 62
2
 10
-223.800003
 20
15.000000
 11
-202.000000
 21
15.000000
  0
LINE
  8
0
  6
CONTINUOUS
 62
7
 10
-222.800003
 20
18.000000
 11
-219.500000
 21
18.000000
  0
LINE
  8
0
  6
CONTINUOUS
 62
7
 10
-222.800003
 20
12.000000
 11
-208.000000
 21
12.000000
  0
LINE
  8
0
  6
CONTINUOUS
 62
2
 10
-222.800003
 20
17.500000
 11
-219.500000
 21
17.500000
  0
LINE
  8
0
  6
CONTINUOUS
 62
2
 10
-222.800003
 20
12.500000
 11
-208.000000
 21
12.500000
  0
LINE
  8
0
  6
CONTINUOUS
 62
7
 10
-172.800003
 20
20.000000
 11
-172.800003
 21
11.500000
  0
LINE
  8
0
  6
CONTINUOUS
 62
7
 10
-157.300003
 20
11.500000
 11
-172.800003
 21
11.500000
  0
LINE
  8
0
  6
CONTINUOUS
 62
7
 10
-157.300003
 20
20.000000
 11
-157.300003
 21
11.500000
  0
LINE
  8
0
  6
CONTINUOUS
 62
7
 10
-203.000000
 20
10.000000
 11
-175.000000
 21
10.000000
  0
LINE
  8
0
  6
CONTINUOUS
 62
7
 10
-203.000000
 20
20.000000
 11
-203.000000
 21
10.000000
  0
LINE
  8
0
  6
CONTINUOUS
 62
7
 10
-203.000000
 20
19.000000
 11
-208.000000
 21
19.000000
  0
LINE
  8
0
  6
CONTINUOUS
 62
7
 10
-208.000000
 20
11.000000
 11
-208.000000
 21
19.000000
  0
LINE
  8
0
  6
CONTINUOUS
 62
7
 10
-203.000000
 20
11.000000
 11
-208.000000
 21
11.000000
  0
LINE
  8
0
  6
CONTINUOUS
 62
7
 10
-203.000000
 20
11.756300
 11
-208.000000
 21
11.756300
  0
LINE
  8
0
  6
CONTINUOUS
 62
7
 10
-203.000000
 20
14.243800
 11
-208.000000
 21
14.243800
  0
LINE
  8
0
  6
CONTINUOUS
 62
7
 10
-203.000000
 20
15.756300
 11
-208.000000
 21
15.756300
  0
LINE
  8
0
  6
CONTINUOUS
 62
7
 10
-222.800003
 20
18.000000
 11
-222.800003
 21
12.000000
  0
LINE
  8
0
  6
CONTINUOUS
 62
7
 10
-212.500000
 20
18.000000
 11
-208.000000
 21
18.000000
  0
LINE
  8
0
  6
CONTINUOUS
 62
2
 10
-212.500000
 20
17.500000
 11
-208.000000
 21
17.500000
  0
LINE
  8
0
  6
CONTINUOUS
 62
7
 10
111.000000
 20
159.500000
 11
111.000000
 21
159.000000
  0
LINE
  8
0
  6
CONTINUOUS
 62
7
 10
103.000000
 20
159.500000
 11
103.000000
 21
159.000000
  0
LINE
  8
0
  6
CENTER
 62
2
 10
-112.000000
 20
-114.400002
 11
-112.000000
 21
-99.599998
  0
LINE
  8
0
  6
CONTINUOUS
 62
7
 10
-117.113998
 20
-99.500000
 11
-113.500000
 21
-99.500000
  0
LINE
  8
0
  6
CONTINUOUS
 62
7
 10
-121.000000
 20
-99.500000
 11
-119.886002
 21
-99.500000
  0
LINE
  8
0
  6
CONTINUOUS
 62
7
 10
-126.000000
 20
-91.000000
 11
-126.000000
 21
-98.000000
  0
LINE
  8
0
  6
CONTINUOUS
 62
7
 10
-125.699997
 20
-98.300003
 11
-125.699997
 21
-115.699997
  0
LINE
  8
0
  6
CONTINUOUS
 62
7
 10
-126.000000
 20
-98.000000
 11
-125.699997
 21
-98.300003
  0
LINE
  8
0
  6
CONTINUOUS
 62
7
 10
-121.000000
 20
-114.500000
 11
-119.886002
 21
-114.500000
  0
LINE
  8
0
  6
CONTINUOUS
 62
7
 10
-126.000000
 20
-123.000000
 11
-113.500000
 21
-123.000000
  0
LINE
  8
0
  6
CONTINUOUS
 62
7
 10
-126.000000
 20
-123.000000
 11
-126.000000
 21
-116.000000
  0
LINE
  8
0
  6
CONTINUOUS
 62
7
 10
-126.000000
 20
-116.000000
 11
-125.699997
 21
-115.699997
  0
LINE
  8
0
  6
CONTINUOUS
 62
7
 10
-126.000000
 20
-91.000000
 11
-113.500000
 21
-91.000000
  0
LINE
  8
0
  6
CONTINUOUS
 62
7
 10
-104.000000
 20
-123.500000
 11
-104.000000
 21
-90.500000
  0
LINE
  8
0
  6
CONTINUOUS
 62
7
 10
-113.500000
 20
-90.500000
 11
-113.500000
 21
-99.500000
  0
LINE
  8
0
  6
CONTINUOUS
 62
7
 10
-113.500000
 20
-123.500000
 11
-104.000000
 21
-123.500000
  0
LINE
  8
0
  6
CENTER
 62
2
 10
-126.699997
 20
-107.000000
 11
-103.000000
 21
-107.000000
  0
LINE
  8
0
  6
CONTINUOUS
 62
7
 10
-114.000000
 20
-123.000000
 11
-114.000000
 21
-114.500000
  0
LINE
  8
0
  6
CONTINUOUS
 62
7
 10
-121.000000
 20
-99.500000
 11
-121.000000
 21
-114.500000
  0
LINE
  8
0
  6
CONTINUOUS
 62
7
 10
-113.500000
 20
-123.500000
 11
-113.500000
 21
-114.500000
  0
LINE
  8
0
  6
CONTINUOUS
 62
7
 10
-117.113998
 20
-114.500000
 11
-113.500000
 21
-114.500000
  0
LINE
  8
0
  6
CONTINUOUS
 62
7
 10
-114.000000
 20
-91.000000
 11
-114.000000
 21
-99.500000
  0
LINE
  8
0
  6
CENTER
 62
2
 10
-128.000000
 20
-94.500000
 11
-124.000000
 21
-94.500000
  0
LINE
  8
0
  6
CENTER
 62
2
 10
-106.000000
 20
-95.000000
 11
-102.000000
 21
-95.000000
  0
LINE
  8
0
  6
CENTER
 62
2
 10
-106.000000
 20
-119.000000
 11
-102.000000
 21
-119.000000
  0
LINE
  8
0
  6
CENTER
 62
2
 10
-128.000000
 20
-119.500000
 11
-124.000000
 21
-119.500000
  0
LINE
  8
0
  6
CONTINUOUS
 62
7
 10
-113.541000
 20
-87.000000
 11
-113.541000
 21
-89.900002
  0
LINE
  8
0
  6
CONTINUOUS
 62
7
 10
-113.400002
 20
-89.900002
 11
-113.400002
 21
-90.500000
  0
LINE
  8
0
  6
CONTINUOUS
 62
7
 10
-105.459000
 20
-89.900002
 11
-113.541000
 21
-89.900002
  0
LINE
  8
0
  6
CONTINUOUS
 62
7
 10
-111.521004
 20
-87.000000
 11
-111.521004
 21
-89.900002
  0
LINE
  8
0
  6
CENTER
 62
2
 10
-109.500000
 20
-86.000000
 11
-109.500000
 21
-91.500000
  0
LINE
  8
0
  6
CONTINUOUS
 62
7
 10
-105.459000
 20
-87.000000
 11
-113.541000
 21
-87.000000
  0
LINE
  8
0
  6
CONTINUOUS
 62
7
 10
-105.459000
 20
-87.000000
 11
-105.459000
 21
-89.900002
  0
LINE
  8
0
  6
CONTINUOUS
 62
7
 10
-107.478996
 20
-87.000000
 11
-107.478996
 21
-89.900002
  0
LINE
  8
0
  6
CONTINUOUS
 62
7
 10
-105.599998
 20
-89.900002
 11
-105.599998
 21
-90.500000
  0
LINE
  8
0
  6
CONTINUOUS
 62
7
 10
-124.000000
 20
-82.000000
 11
-116.000000
 21
-82.000000
  0
LINE
  8
0
  6
CONTINUOUS
 62
7
 10
-104.000000
 20
-90.500000
 11
-116.000000
 21
-90.500000
  0
LINE
  8
0
  6
CONTINUOUS
 62
7
 10
-104.500000
 20
-90.500000
 11
-104.500000
 21
-80.500000
  0
LINE
  8
0
  6
CONTINUOUS
 62
7
 10
-125.500000
 20
-80.500000
 11
-104.500000
 21
-80.500000
  0
LINE
  8
0
  6
CONTINUOUS
 62
7
 10
-125.500000
 20
-90.500000
 11
-125.500000
 21
-80.500000
  0
LINE
  8
0
  6
CONTINUOUS
 62
7
 10
-124.000000
 20
-82.000000
 11
-124.000000
 21
-91.000000
  0
LINE
  8
0
  6
CONTINUOUS
 62
7
 10
-116.000000
 20
-82.000000
 11
-116.000000
 21
-91.000000
  0
LINE
  8
0
  6
CONTINUOUS
 62
7
 10
-124.000000
 20
-90.500000
 11
-125.500000
 21
-90.500000
  0
LINE
  8
0
  6
CONTINUOUS
 62
7
 10
-115.000000
 20
-90.500000
 11
-115.000000
 21
-80.500000
  0
LINE
  8
0
  6
CENTER
 62
2
 10
298.000000
 20
135.600006
 11
298.000000
 21
150.399994
  0
LINE
  8
0
  6
CONTINUOUS
 62
7
 10
292.885986
 20
150.500000
 11
296.500000
 21
150.500000
  0
LINE
  8
0
  6
CONTINUOUS
 62
7
 10
289.000000
 20
150.500000
 11
290.114014
 21
150.500000
  0
LINE
  8
0
  6
CONTINUOUS
 62
7
 10
284.000000
 20
159.000000
 11
284.000000
 21
152.000000
  0
LINE
  8
0
  6
CONTINUOUS
 62
7
 10
284.299988
 20
151.699997
 11
284.299988
 21
134.300003
  0
LINE
  8
0
  6
CONTINUOUS
 62
7
 10
284.000000
 20
152.000000
 11
284.299988
 21
151.699997
  0
LINE
  8
0
  6
CONTINUOUS
 62
7
 10
289.000000
 20
135.500000
 11
290.114014
 21
135.500000
  0
LINE
  8
0
  6
CONTINUOUS
 62
7
 10
284.000000
 20
127.000000
 11
296.500000
 21
127.000000
  0
LINE
  8
0
  6
CONTINUOUS
 62
7
 10
284.000000
 20
127.000000
 11
284.000000
 21
134.000000
  0
LINE
  8
0
  6
CONTINUOUS
 62
7
 10
284.000000
 20
134.000000
 11
284.299988
 21
134.300003
  0
LINE
  8
0
  6
CONTINUOUS
 62
7
 10
284.000000
 20
159.000000
 11
296.500000
 21
159.000000
  0
LINE
  8
0
  6
CONTINUOUS
 62
7
 10
306.000000
 20
126.500000
 11
306.000000
 21
159.500000
  0
LINE
  8
0
  6
CONTINUOUS
 62
7
 10
296.500000
 20
159.500000
 11
296.500000
 21
150.500000
  0
LINE
  8
0
  6
CONTINUOUS
 62
7
 10
296.500000
 20
126.500000
 11
306.000000
 21
126.500000
  0
LINE
  8
0
  6
CENTER
 62
2
 10
283.299988
 20
143.000000
 11
307.000000
 21
143.000000
  0
LINE
  8
0
  6
CONTINUOUS
 62
7
 10
296.000000
 20
127.000000
 11
296.000000
 21
135.500000
  0
LINE
  8
0
  6
CONTINUOUS
 62
7
 10
289.000000
 20
150.500000
 11
289.000000
 21
135.500000
  0
LINE
  8
0
  6
CONTINUOUS
 62
7
 10
296.500000
 20
126.500000
 11
296.500000
 21
135.500000
  0
LINE
  8
0
  6
CONTINUOUS
 62
7
 10
292.885986
 20
135.500000
 11
296.500000
 21
135.500000
  0
LINE
  8
0
  6
CONTINUOUS
 62
7
 10
296.000000
 20
159.000000
 11
296.000000
 21
150.500000
  0
LINE
  8
0
  6
CENTER
 62
2
 10
282.000000
 20
155.500000
 11
286.000000
 21
155.500000
  0
LINE
  8
0
  6
CENTER
 62
2
 10
304.000000
 20
155.000000
 11
308.000000
 21
155.000000
  0
LINE
  8
0
  6
CENTER
 62
2
 10
304.000000
 20
131.000000
 11
308.000000
 21
131.000000
  0
LINE
  8
0
  6
CENTER
 62
2
 10
282.000000
 20
130.500000
 11
286.000000
 21
130.500000
  0
LINE
  8
0
  6
CONTINUOUS
 62
7
 10
296.459015
 20
163.000000
 11
296.459015
 21
160.100006
  0
LINE
  8
0
  6
CONTINUOUS
 62
7
 10
296.600006
 20
160.100006
 11
296.600006
 21
159.500000
  0
LINE
  8
0
  6
CONTINUOUS
 62
7
 10
304.540985
 20
160.100006
 11
296.459015
 21
160.100006
  0
LINE
  8
0
  6
CONTINUOUS
 62
7
 10
298.479004
 20
163.000000
 11
298.479004
 21
160.100006
  0
LINE
  8
0
  6
CENTER
 62
2
 10
300.500000
 20
164.000000
 11
300.500000
 21
158.500000
  0
LINE
  8
0
  6
CONTINUOUS
 62
7
 10
304.540985
 20
163.000000
 11
296.459015
 21
163.000000
  0
LINE
  8
0
  6
CONTINUOUS
 62
7
 10
304.540985
 20
163.000000
 11
304.540985
 21
160.100006
  0
LINE
  8
0
  6
CONTINUOUS
 62
7
 10
302.520996
 20
163.000000
 11
302.520996
 21
160.100006
  0
LINE
  8
0
  6
CONTINUOUS
 62
7
 10
304.399994
 20
160.100006
 11
304.399994
 21
159.500000
  0
LINE
  8
0
  6
CONTINUOUS
 62
7
 10
286.000000
 20
168.000000
 11
294.000000
 21
168.000000
  0
LINE
  8
0
  6
CONTINUOUS
 62
7
 10
306.000000
 20
159.500000
 11
294.000000
 21
159.500000
  0
LINE
  8
0
  6
CONTINUOUS
 62
7
 10
305.500000
 20
159.500000
 11
305.500000
 21
169.500000
  0
LINE
  8
0
  6
CONTINUOUS
 62
7
 10
284.500000
 20
169.500000
 11
305.500000
 21
169.500000
  0
LINE
  8
0
  6
CONTINUOUS
 62
7
 10
284.500000
 20
159.500000
 11
284.500000
 21
169.500000
  0
LINE
  8
0
  6
CONTINUOUS
 62
7
 10
286.000000
 20
168.000000
 11
286.000000
 21
159.000000
  0
LINE
  8
0
  6
CONTINUOUS
 62
7
 10
294.000000
 20
168.000000
 11
294.000000
 21
159.000000
  0
LINE
  8
0
  6
CONTINUOUS
 62
7
 10
286.000000
 20
159.500000
 11
284.500000
 21
159.500000
  0
LINE
  8
0
  6
CONTINUOUS
 62
7
 10
295.000000
 20
159.500000
 11
295.000000
 21
169.500000
  0
LINE
  8
0
  6
CONTINUOUS
 62
7
 10
-257.000000
 20
-123.000000
 11
-257.000000
 21
-116.000000
  0
LINE
  8
0
  6
CONTINUOUS
 62
7
 10
-257.299988
 20
-115.699997
 11
-257.299988
 21
-98.300003
  0
LINE
  8
0
  6
CONTINUOUS
 62
7
 10
-257.000000
 20
-116.000000
 11
-257.299988
 21
-115.699997
  0
LINE
  8
0
  6
CONTINUOUS
 62
7
 10
-257.000000
 20
-123.000000
 11
-278.000000
 21
-123.000000
  0
LINE
  8
0
  6
CONTINUOUS
 62
7
 10
-257.000000
 20
-91.000000
 11
-257.000000
 21
-98.000000
  0
LINE
  8
0
  6
CONTINUOUS
 62
7
 10
-257.000000
 20
-98.000000
 11
-257.299988
 21
-98.300003
  0
LINE
  8
0
  6
CONTINUOUS
 62
7
 10
-257.000000
 20
-91.000000
 11
-278.000000
 21
-91.000000
  0
LINE
  8
0
  6
CONTINUOUS
 62
7
 10
-269.500000
 20
-90.500000
 11
-269.500000
 21
-91.000000
  0
LINE
  8
0
  6
CONTINUOUS
 62
7
 10
-279.000000
 20
-90.500000
 11
-279.000000
 21
-123.500000
  0
LINE
  8
0
  6
CONTINUOUS
 62
7
 10
-269.500000
 20
-123.500000
 11
-279.000000
 21
-123.500000
  0
LINE
  8
0
  6
CONTINUOUS
 62
7
 10
-269.500000
 20
-123.500000
 11
-269.500000
 21
-123.000000
  0
LINE
  8
0
  6
CENTER
 62
2
 10
-256.299988
 20
-107.000000
 11
-280.000000
 21
-107.000000
  0
LINE
  8
0
  6
CONTINUOUS
 62
7
 10
-257.500000
 20
-91.000000
 11
-257.500000
 21
-123.000000
  0
LINE
  8
0
  6
CONTINUOUS
 62
7
 10
-278.000000
 20
-91.000000
 11
-278.000000
 21
-123.000000
  0
LINE
  8
0
  6
CONTINUOUS
 62
7
 10
-279.000000
 20
-90.500000
 11
-257.500000
 21
-90.500000
  0
LINE
  8
0
  6
CENTER
 62
2
 10
-271.000000
 20
-100.000000
 11
-271.000000
 21
-114.000000
  0
LINE
  8
0
  6
CONTINUOUS
 62
7
 10
-277.540985
 20
-87.000000
 11
-277.540985
 21
-89.900002
  0
LINE
  8
0
  6
CONTINUOUS
 62
7
 10
-277.399994
 20
-89.900002
 11
-277.399994
 21
-90.500000
  0
LINE
  8
0
  6
CONTINUOUS
 62
7
 10
-269.459015
 20
-89.900002
 11
-277.540985
 21
-89.900002
  0
LINE
  8
0
  6
CONTINUOUS
 62
7
 10
-275.520996
 20
-87.000000
 11
-275.520996
 21
-89.900002
  0
LINE
  8
0
  6
CENTER
 62
2
 10
-273.500000
 20
-86.000000
 11
-273.500000
 21
-91.500000
  0
LINE
  8
0
  6
CONTINUOUS
 62
7
 10
-269.459015
 20
-87.000000
 11
-277.540985
 21
-87.000000
  0
LINE
  8
0
  6
CONTINUOUS
 62
7
 10
-269.459015
 20
-87.000000
 11
-269.459015
 21
-89.900002
  0
LINE
  8
0
  6
CONTINUOUS
 62
7
 10
-271.479004
 20
-87.000000
 11
-271.479004
 21
-89.900002
  0
LINE
  8
0
  6
CONTINUOUS
 62
7
 10
-269.600006
 20
-89.900002
 11
-269.600006
 21
-90.500000
  0
LINE
  8
0
  6
CENTER
 62
2
 10
-271.000000
 20
-116.000000
 11
-271.000000
 21
-122.000000
  0
LINE
  8
0
  6
CENTER
 62
2
 10
-274.000000
 20
-119.000000
 11
-268.000000
 21
-119.000000
  0
LINE
  8
0
  6
CENTER
 62
2
 10
-262.000000
 20
-113.500000
 11
-262.000000
 21
-123.500000
  0
LINE
  8
0
  6
CENTER
 62
2
 10
-267.000000
 20
-118.500000
 11
-257.000000
 21
-118.500000
  0
LINE
  8
0
  6
CENTER
 62
2
 10
-262.000000
 20
-90.500000
 11
-262.000000
 21
-100.500000
  0
LINE
  8
0
  6
CENTER
 62
2
 10
-267.000000
 20
-95.500000
 11
-257.000000
 21
-95.500000
  0
LINE
  8
0
  6
CENTER
 62
2
 10
-271.000000
 20
-92.000000
 11
-271.000000
 21
-98.000000
  0
LINE
  8
0
  6
CENTER
 62
2
 10
-274.000000
 20
-95.000000
 11
-268.000000
 21
-95.000000
  0
LINE
  8
0
  6
CENTER
 62
2
 10
-262.000000
 20
-104.000000
 11
-262.000000
 21
-110.000000
  0
LINE
  8
0
  6
CONTINUOUS
 62
7
 10
-257.500000
 20
-80.500000
 11
-278.500000
 21
-80.500000
  0
LINE
  8
0
  6
CONTINUOUS
 62
7
 10
-261.563995
 20
-81.500000
 11
-264.436005
 21
-81.500000
  0
LINE
  8
0
  6
CONTINUOUS
 62
7
 10
-260.253998
 20
-82.256203
 11
-258.817993
 21
-84.743698
  0
LINE
  8
0
  6
CONTINUOUS
 62
7
 10
-258.817993
 20
-86.256203
 11
-260.253998
 21
-88.743698
  0
LINE
  8
0
  6
CONTINUOUS
 62
7
 10
-264.436005
 20
-89.500000
 11
-261.563995
 21
-89.500000
  0
LINE
  8
0
  6
CONTINUOUS
 62
7
 10
-267.182007
 20
-86.256203
 11
-265.746002
 21
-88.743698
  0
LINE
  8
0
  6
CONTINUOUS
 62
7
 10
-265.746002
 20
-82.256203
 11
-267.182007
 21
-84.743698
  0
LINE
  8
0
  6
CENTER
 62
2
 10
-257.750000
 20
-85.500000
 11
-268.250000
 21
-85.500000
  0
LINE
  8
0
  6
CENTER
 62
2
 10
-263.000000
 20
-90.750000
 11
-263.000000
 21
-80.250000
  0
LINE
  8
0
  6
CONTINUOUS
 62
7
 10
-262.134003
 20
-83.999901
 11
-261.268005
 21
-85.499901
  0
LINE
  8
0
  6
CONTINUOUS
 62
7
 10
-261.268005
 20
-85.500000
 11
-262.134003
 21
-87.000000
  0
LINE
  8
0
  6
CONTINUOUS
 62
7
 10
-263.865997
 20
-87.000000
 11
-262.134003
 21
-87.000000
  0
LINE
  8
0
  6
CONTINUOUS
 62
7
 10
-264.731995
 20
-85.500000
 11
-263.865997
 21
-87.000000
  0
LINE
  8
0
  6
CONTINUOUS
 62
7
 10
-263.865997
 20
-84.000000
 11
-264.731995
 21
-85.500000
  0
LINE
  8
0
  6
CONTINUOUS
 62
7
 10
-262.134003
 20
-84.000000
 11
-263.865997
 21
-84.000000
  0
LINE
  8
0
  6
CONTINUOUS
 62
7
 10
-257.500000
 20
-90.500000
 11
-257.500000
 21
-80.500000
  0
LINE
  8
0
  6
CONTINUOUS
 62
7
 10
-278.500000
 20
-90.500000
 11
-278.500000
 21
-80.500000
  0
LINE
  8
0
  6
CONTINUOUS
 62
7
 10
-259.000000
 20
-90.500000
 11
-259.000000
 21
-91.000000
  0
LINE
  8
0
  6
CONTINUOUS
 62
7
 10
-267.000000
 20
-90.500000
 11
-267.000000
 21
-91.000000
  0
LINE
  8
0
  6
CONTINUOUS
 62
7
 10
113.000000
 20
-123.000000
 11
113.000000
 21
-116.000000
  0
LINE
  8
0
  6
CONTINUOUS
 62
7
 10
112.699997
 20
-115.699997
 11
112.699997
 21
-98.300003
  0
LINE
  8
0
  6
CONTINUOUS
 62
7
 10
113.000000
 20
-116.000000
 11
112.699997
 21
-115.699997
  0
LINE
  8
0
  6
CONTINUOUS
 62
7
 10
113.000000
 20
-123.000000
 11
92.000000
 21
-123.000000
  0
LINE
  8
0
  6
CONTINUOUS
 62
7
 10
113.000000
 20
-91.000000
 11
113.000000
 21
-98.000000
  0
LINE
  8
0
  6
CONTINUOUS
 62
7
 10
113.000000
 20
-97.999901
 11
112.699997
 21
-98.299896
  0
LINE
  8
0
  6
CONTINUOUS
 62
7
 10
113.000000
 20
-91.000000
 11
92.000000
 21
-91.000000
  0
LINE
  8
0
  6
CONTINUOUS
 62
7
 10
100.500000
 20
-90.500000
 11
100.500000
 21
-91.000000
  0
LINE
  8
0
  6
CONTINUOUS
 62
7
 10
91.000000
 20
-90.500000
 11
91.000000
 21
-123.500000
  0
LINE
  8
0
  6
CONTINUOUS
 62
7
 10
100.500000
 20
-123.500000
 11
91.000000
 21
-123.500000
  0
LINE
  8
0
  6
CONTINUOUS
 62
7
 10
100.500000
 20
-123.500000
 11
100.500000
 21
-123.000000
  0
LINE
  8
0
  6
CENTER
 62
2
 10
113.699997
 20
-107.000000
 11
90.000000
 21
-107.000000
  0
LINE
  8
0
  6
CONTINUOUS
 62
7
 10
112.500000
 20
-91.000000
 11
112.500000
 21
-123.000000
  0
LINE
  8
0
  6
CONTINUOUS
 62
7
 10
92.000000
 20
-91.000000
 11
92.000000
 21
-123.000000
  0
LINE
  8
0
  6
CONTINUOUS
 62
7
 10
91.000000
 20
-90.500000
 11
112.500000
 21
-90.500000
  0
LINE
  8
0
  6
CENTER
 62
2
 10
99.000000
 20
-100.000000
 11
99.000000
 21
-114.000000
  0
LINE
  8
0
  6
CONTINUOUS
 62
7
 10
92.458603
 20
-87.000000
 11
92.458603
 21
-89.900002
  0
LINE
  8
0
  6
CONTINUOUS
 62
7
 10
92.599998
 20
-89.900002
 11
92.599998
 21
-90.500000
  0
LINE
  8
0
  6
CONTINUOUS
 62
7
 10
100.541000
 20
-89.900002
 11
92.458603
 21
-89.900002
  0
LINE
  8
0
  6
CONTINUOUS
 62
7
 10
94.479301
 20
-87.000000
 11
94.479301
 21
-89.900002
  0
LINE
  8
0
  6
CENTER
 62
2
 10
96.500000
 20
-86.000000
 11
96.500000
 21
-91.500000
  0
LINE
  8
0
  6
CONTINUOUS
 62
7
 10
100.541000
 20
-87.000000
 11
92.458603
 21
-87.000000
  0
LINE
  8
0
  6
CONTINUOUS
 62
7
 10
100.541000
 20
-87.000000
 11
100.541000
 21
-89.900002
  0
LINE
  8
0
  6
CONTINUOUS
 62
7
 10
98.520798
 20
-87.000000
 11
98.520798
 21
-89.900002
  0
LINE
  8
0
  6
CONTINUOUS
 62
7
 10
100.400002
 20
-89.900002
 11
100.400002
 21
-90.500000
  0
LINE
  8
0
  6
CENTER
 62
2
 10
99.000000
 20
-116.000000
 11
99.000000
 21
-122.000000
  0
LINE
  8
0
  6
CENTER
 62
2
 10
96.000000
 20
-119.000000
 11
102.000000
 21
-119.000000
  0
LINE
  8
0
  6
CENTER
 62
2
 10
108.000000
 20
-113.500000
 11
108.000000
 21
-123.500000
  0
LINE
  8
0
  6
CENTER
 62
2
 10
103.000000
 20
-118.500000
 11
113.000000
 21
-118.500000
  0
LINE
  8
0
  6
CENTER
 62
2
 10
108.000000
 20
-90.500000
 11
108.000000
 21
-100.500000
  0
LINE
  8
0
  6
CENTER
 62
2
 10
103.000000
 20
-95.500000
 11
113.000000
 21
-95.500000
  0
LINE
  8
0
  6
CENTER
 62
2
 10
99.000000
 20
-92.000000
 11
99.000000
 21
-98.000000
  0
LINE
  8
0
  6
CENTER
 62
2
 10
96.000000
 20
-95.000000
 11
102.000000
 21
-95.000000
  0
LINE
  8
0
  6
CENTER
 62
2
 10
108.000000
 20
-104.000000
 11
108.000000
 21
-110.000000
  0
LINE
  8
0
  6
CONTINUOUS
 62
7
 10
112.500000
 20
-80.500000
 11
91.500000
 21
-80.500000
  0
LINE
  8
0
  6
CONTINUOUS
 62
7
 10
108.435997
 20
-81.500000
 11
105.564003
 21
-81.500000
  0
LINE
  8
0
  6
CONTINUOUS
 62
7
 10
109.746002
 20
-82.256203
 11
111.181999
 21
-84.743698
  0
LINE
  8
0
  6
CONTINUOUS
 62
7
 10
111.181999
 20
-86.256203
 11
109.746002
 21
-88.743698
  0
LINE
  8
0
  6
CONTINUOUS
 62
7
 10
105.564003
 20
-89.500000
 11
108.435997
 21
-89.500000
  0
LINE
  8
0
  6
CONTINUOUS
 62
7
 10
102.818001
 20
-86.256203
 11
104.253998
 21
-88.743698
  0
LINE
  8
0
  6
CONTINUOUS
 62
7
 10
104.253998
 20
-82.256203
 11
102.818001
 21
-84.743698
  0
LINE
  8
0
  6
CENTER
 62
2
 10
112.250000
 20
-85.500000
 11
101.750000
 21
-85.500000
  0
LINE
  8
0
  6
CENTER
 62
2
 10
107.000000
 20
-90.750000
 11
107.000000
 21
-80.250000
  0
LINE
  8
0
  6
CONTINUOUS
 62
7
 10
107.865997
 20
-84.000000
 11
108.732002
 21
-85.500000
  0
LINE
  8
0
  6
CONTINUOUS
 62
7
 10
108.732002
 20
-85.499901
 11
107.865997
 21
-87.000000
  0
LINE
  8
0
  6
CONTINUOUS
 62
7
 10
106.134003
 20
-87.000000
 11
107.865997
 21
-87.000000
  0
LINE
  8
0
  6
CONTINUOUS
 62
7
 10
105.267998
 20
-85.500000
 11
106.134003
 21
-87.000000
  0
LINE
  8
0
  6
CONTINUOUS
 62
7
 10
106.134003
 20
-83.999901
 11
105.267998
 21
-85.500000
  0
LINE
  8
0
  6
CONTINUOUS
 62
7
 10
107.865997
 20
-84.000000
 11
106.134003
 21
-84.000000
  0
LINE
  8
0
  6
CONTINUOUS
 62
7
 10
112.500000
 20
-90.500000
 11
112.500000
 21
-80.500000
  0
LINE
  8
0
  6
CONTINUOUS
 62
7
 10
91.500000
 20
-90.500000
 11
91.500000
 21
-80.500000
  0
LINE
  8
0
  6
CONTINUOUS
 62
7
 10
111.000000
 20
-90.500000
 11
111.000000
 21
-91.000000
  0
LINE
  8
0
  6
CONTINUOUS
 62
7
 10
103.000000
 20
-90.500000
 11
103.000000
 21
-91.000000
  0
LINE
  8
0
  6
CONTINUOUS
 62
7
 10
167.000000
 20
18.243799
 11
162.000000
 21
18.243799
  0
LINE
  8
0
  6
CONTINUOUS
 62
7
 10
220.000000
 20
20.000000
 11
220.000000
 21
10.000000
  0
LINE
  8
0
  6
CENTER
 62
2
 10
146.199997
 20
15.000000
 11
168.000000
 21
15.000000
  0
LINE
  8
0
  6
CONTINUOUS
 62
7
 10
147.199997
 20
12.000000
 11
162.000000
 21
12.000000
  0
LINE
  8
0
  6
CONTINUOUS
 62
2
 10
147.199997
 20
12.500000
 11
162.000000
 21
12.500000
  0
LINE
  8
0
  6
CONTINUOUS
 62
7
 10
222.199997
 20
20.000000
 11
222.199997
 21
11.500000
  0
LINE
  8
0
  6
CONTINUOUS
 62
7
 10
237.699997
 20
11.500000
 11
222.199997
 21
11.500000
  0
LINE
  8
0
  6
CONTINUOUS
 62
7
 10
167.000000
 20
10.000000
 11
220.000000
 21
10.000000
  0
LINE
  8
0
  6
CONTINUOUS
 62
7
 10
167.000000
 20
20.000000
 11
167.000000
 21
10.000000
  0
LINE
  8
0
  6
CONTINUOUS
 62
7
 10
167.000000
 20
19.000000
 11
162.000000
 21
19.000000
  0
LINE
  8
0
  6
CONTINUOUS
 62
7
 10
162.000000
 20
11.000000
 11
162.000000
 21
19.000000
  0
LINE
  8
0
  6
CONTINUOUS
 62
7
 10
167.000000
 20
11.000000
 11
162.000000
 21
11.000000
  0
LINE
  8
0
  6
CONTINUOUS
 62
7
 10
167.000000
 20
11.756300
 11
162.000000
 21
11.756300
  0
LINE
  8
0
  6
CONTINUOUS
 62
7
 10
167.000000
 20
14.243800
 11
162.000000
 21
14.243800
  0
LINE
  8
0
  6
CONTINUOUS
 62
7
 10
167.000000
 20
15.756300
 11
162.000000
 21
15.756300
  0
LINE
  8
0
  6
CONTINUOUS
 62
7
 10
157.500000
 20
18.000000
 11
162.000000
 21
18.000000
  0
LINE
  8
0
  6
CONTINUOUS
 62
2
 10
157.500000
 20
17.500000
 11
162.000000
 21
17.500000
  0
LINE
  8
0
  6
CONTINUOUS
 62
7
 10
147.199997
 20
18.000000
 11
150.500000
 21
18.000000
  0
LINE
  8
0
  6
CONTINUOUS
 62
2
 10
147.199997
 20
17.500000
 11
150.500000
 21
17.500000
  0
LINE
  8
0
  6
CONTINUOUS
 62
7
 10
147.199997
 20
18.000000
 11
147.199997
 21
12.000000
  0
LINE
  8
0
  6
CONTINUOUS
 62
7
 10
237.699997
 20
20.000000
 11
237.699997
 21
11.500000
  0
LINE
  8
0
  6
CONTINUOUS
 62
7
 10
148.000000
 20
31.500000
 11
146.000000
 21
31.500000
  0
LINE
  8
0
  6
CONTINUOUS
 62
7
 10
148.000000
 20
41.500000
 11
146.000000
 21
41.500000
  0
LINE
  8
0
  6
CONTINUOUS
 62
7
 10
-203.000000
 20
-231.755997
 11
-208.000000
 21
-231.755997
  0
LINE
  8
0
  6
CONTINUOUS
 62
7
 10
-165.000000
 20
-230.000000
 11
-165.000000
 21
-240.000000
  0
LINE
  8
0
  6
CENTER
 62
2
 10
-223.800003
 20
-235.000000
 11
-202.000000
 21
-235.000000
  0
LINE
  8
0
  6
CONTINUOUS
 62
7
 10
-222.800003
 20
-238.000000
 11
-208.000000
 21
-238.000000
  0
LINE
  8
0
  6
CONTINUOUS
 62
2
 10
-222.800003
 20
-237.500000
 11
-208.000000
 21
-237.500000
  0
LINE
  8
0
  6
CONTINUOUS
 62
7
 10
-162.800003
 20
-230.000000
 11
-162.800003
 21
-238.500000
  0
LINE
  8
0
  6
CONTINUOUS
 62
7
 10
-147.300003
 20
-238.500000
 11
-162.800003
 21
-238.500000
  0
LINE
  8
0
  6
CONTINUOUS
 62
7
 10
-203.000000
 20
-240.000000
 11
-165.000000
 21
-240.000000
  0
LINE
  8
0
  6
CONTINUOUS
 62
7
 10
-203.000000
 20
-230.000000
 11
-203.000000
 21
-240.000000
  0
LINE
  8
0
  6
CONTINUOUS
 62
7
 10
-203.000000
 20
-231.000000
 11
-208.000000
 21
-231.000000
  0
LINE
  8
0
  6
CONTINUOUS
 62
7
 10
-208.000000
 20
-239.000000
 11
-208.000000
 21
-231.000000
  0
LINE
  8
0
  6
CONTINUOUS
 62
7
 10
-203.000000
 20
-239.000000
 11
-208.000000
 21
-239.000000
  0
LINE
  8
0
  6
CONTINUOUS
 62
7
 10
-203.000000
 20
-238.244003
 11
-208.000000
 21
-238.244003
  0
LINE
  8
0
  6
CONTINUOUS
 62
7
 10
-203.000000
 20
-235.755997
 11
-208.000000
 21
-235.755997
  0
LINE
  8
0
  6
CONTINUOUS
 62
7
 10
-203.000000
 20
-234.244003
 11
-208.000000
 21
-234.244003
  0
LINE
  8
0
  6
CONTINUOUS
 62
7
 10
-212.500000
 20
-232.000000
 11
-208.000000
 21
-232.000000
  0
LINE
  8
0
  6
CONTINUOUS
 62
2
 10
-212.500000
 20
-232.500000
 11
-208.000000
 21
-232.500000
  0
LINE
  8
0
  6
CONTINUOUS
 62
7
 10
-222.800003
 20
-232.000000
 11
-219.500000
 21
-232.000000
  0
LINE
  8
0
  6
CONTINUOUS
 62
2
 10
-222.800003
 20
-232.500000
 11
-219.500000
 21
-232.500000
  0
LINE
  8
0
  6
CONTINUOUS
 62
7
 10
-222.800003
 20
-232.000000
 11
-222.800003
 21
-238.000000
  0
LINE
  8
0
  6
CONTINUOUS
 62
7
 10
-147.300003
 20
-230.000000
 11
-147.300003
 21
-238.500000
  0
LINE
  8
0
  6
CONTINUOUS
 62
7
 10
-222.000000
 20
-218.500000
 11
-224.000000
 21
-218.500000
  0
LINE
  8
0
  6
CONTINUOUS
 62
7
 10
-222.000000
 20
-208.500000
 11
-224.000000
 21
-208.500000
  0
LINE
  8
0
  6
CONTINUOUS
 62
7
 10
167.000000
 20
-231.755997
 11
162.000000
 21
-231.755997
  0
LINE
  8
0
  6
CONTINUOUS
 62
7
 10
235.000000
 20
-230.000000
 11
235.000000
 21
-240.000000
  0
LINE
  8
0
  6
CENTER
 62
2
 10
146.199997
 20
-235.000000
 11
168.000000
 21
-235.000000
  0
LINE
  8
0
  6
CONTINUOUS
 62
7
 10
147.199997
 20
-238.000000
 11
162.000000
 21
-238.000000
  0
LINE
  8
0
  6
CONTINUOUS
 62
2
 10
147.199997
 20
-237.500000
 11
162.000000
 21
-237.500000
  0
LINE
  8
0
  6
CONTINUOUS
 62
7
 10
237.199997
 20
-230.000000
 11
237.199997
 21
-238.500000
  0
LINE
  8
0
  6
CONTINUOUS
 62
7
 10
252.699997
 20
-238.500000
 11
237.199997
 21
-238.500000
  0
LINE
  8
0
  6
CONTINUOUS
 62
7
 10
167.000000
 20
-240.000000
 11
235.000000
 21
-240.000000
  0
LINE
  8
0
  6
CONTINUOUS
 62
7
 10
167.000000
 20
-230.000000
 11
167.000000
 21
-240.000000
  0
LINE
  8
0
  6
CONTINUOUS
 62
7
 10
167.000000
 20
-231.000000
 11
162.000000
 21
-231.000000
  0
LINE
  8
0
  6
CONTINUOUS
 62
7
 10
162.000000
 20
-239.000000
 11
162.000000
 21
-231.000000
  0
LINE
  8
0
  6
CONTINUOUS
 62
7
 10
167.000000
 20
-239.000000
 11
162.000000
 21
-239.000000
  0
LINE
  8
0
  6
CONTINUOUS
 62
7
 10
167.000000
 20
-238.244003
 11
162.000000
 21
-238.244003
  0
LINE
  8
0
  6
CONTINUOUS
 62
7
 10
167.000000
 20
-235.755997
 11
162.000000
 21
-235.755997
  0
LINE
  8
0
  6
CONTINUOUS
 62
7
 10
167.000000
 20
-234.244003
 11
162.000000
 21
-234.244003
  0
LINE
  8
0
  6
CONTINUOUS
 62
7
 10
157.500000
 20
-232.000000
 11
162.000000
 21
-232.000000
  0
LINE
  8
0
  6
CONTINUOUS
 62
2
 10
157.500000
 20
-232.500000
 11
162.000000
 21
-232.500000
  0
LINE
  8
0
  6
CONTINUOUS
 62
7
 10
147.199997
 20
-232.000000
 11
150.500000
 21
-232.000000
  0
LINE
  8
0
  6
CONTINUOUS
 62
2
 10
147.199997
 20
-232.500000
 11
150.500000
 21
-232.500000
  0
LINE
  8
0
  6
CONTINUOUS
 62
7
 10
147.199997
 20
-232.000000
 11
147.199997
 21
-238.000000
  0
LINE
  8
0
  6
CONTINUOUS
 62
7
 10
252.699997
 20
-230.000000
 11
252.699997
 21
-238.500000
  0
LINE
  8
0
  6
CONTINUOUS
 62
7
 10
148.000000
 20
-218.500000
 11
146.000000
 21
-218.500000
  0
LINE
  8
0
  6
CONTINUOUS
 62
7
 10
148.000000
 20
-208.500000
 11
146.000000
 21
-208.500000
  0
LINE
  8
0
  6
CENTER
 62
2
 10
298.000000
 20
-114.400002
 11
298.000000
 21
-99.599998
  0
LINE
  8
0
  6
CONTINUOUS
 62
7
 10
292.885986
 20
-99.500000
 11
296.500000
 21
-99.500000
  0
LINE
  8
0
  6
CONTINUOUS
 62
7
 10
289.000000
 20
-99.500000
 11
290.114014
 21
-99.500000
  0
LINE
  8
0
  6
CONTINUOUS
 62
7
 10
284.000000
 20
-91.000000
 11
284.000000
 21
-98.000000
  0
LINE
  8
0
  6
CONTINUOUS
 62
7
 10
284.299988
 20
-98.300003
 11
284.299988
 21
-115.699997
  0
LINE
  8
0
  6
CONTINUOUS
 62
7
 10
284.000000
 20
-98.000000
 11
284.299988
 21
-98.300003
  0
LINE
  8
0
  6
CONTINUOUS
 62
7
 10
289.000000
 20
-114.500000
 11
290.114014
 21
-114.500000
  0
LINE
  8
0
  6
CONTINUOUS
 62
7
 10
284.000000
 20
-123.000000
 11
296.500000
 21
-123.000000
  0
LINE
  8
0
  6
CONTINUOUS
 62
7
 10
284.000000
 20
-123.000000
 11
284.000000
 21
-116.000000
  0
LINE
  8
0
  6
CONTINUOUS
 62
7
 10
284.000000
 20
-116.000000
 11
284.299988
 21
-115.699997
  0
LINE
  8
0
  6
CONTINUOUS
 62
7
 10
284.000000
 20
-91.000000
 11
296.500000
 21
-91.000000
  0
LINE
  8
0
  6
CONTINUOUS
 62
7
 10
306.000000
 20
-123.500000
 11
306.000000
 21
-90.500000
  0
LINE
  8
0
  6
CONTINUOUS
 62
7
 10
296.500000
 20
-90.500000
 11
296.500000
 21
-99.500000
  0
LINE
  8
0
  6
CONTINUOUS
 62
7
 10
296.500000
 20
-123.500000
 11
306.000000
 21
-123.500000
  0
LINE
  8
0
  6
CENTER
 62
2
 10
283.299988
 20
-107.000000
 11
307.000000
 21
-107.000000
  0
LINE
  8
0
  6
CONTINUOUS
 62
7
 10
296.000000
 20
-123.000000
 11
296.000000
 21
-114.500000
  0
LINE
  8
0
  6
CONTINUOUS
 62
7
 10
289.000000
 20
-99.500000
 11
289.000000
 21
-114.500000
  0
LINE
  8
0
  6
CONTINUOUS
 62
7
 10
296.500000
 20
-123.500000
 11
296.500000
 21
-114.500000
  0
LINE
  8
0
  6
CONTINUOUS
 62
7
 10
292.885986
 20
-114.500000
 11
296.500000
 21
-114.500000
  0
LINE
  8
0
  6
CONTINUOUS
 62
7
 10
296.000000
 20
-91.000000
 11
296.000000
 21
-99.500000
  0
LINE
  8
0
  6
CENTER
 62
2
 10
282.000000
 20
-94.500000
 11
286.000000
 21
-94.500000
  0
LINE
  8
0
  6
CENTER
 62
2
 10
304.000000
 20
-95.000000
 11
308.000000
 21
-95.000000
  0
LINE
  8
0
  6
CENTER
 62
2
 10
304.000000
 20
-119.000000
 11
308.000000
 21
-119.000000
  0
LINE
  8
0
  6
CENTER
 62
2
 10
282.000000
 20
-119.500000
 11
286.000000
 21
-119.500000
  0
LINE
  8
0
  6
CONTINUOUS
 62
7
 10
296.459015
 20
-87.000000
 11
296.459015
 21
-89.900002
  0
LINE
  8
0
  6
CONTINUOUS
 62
7
 10
296.600006
 20
-89.900002
 11
296.600006
 21
-90.500000
  0
LINE
  8
0
  6
CONTINUOUS
 62
7
 10
304.540985
 20
-89.900002
 11
296.459015
 21
-89.900002
  0
LINE
  8
0
  6
CONTINUOUS
 62
7
 10
298.479004
 20
-87.000000
 11
298.479004
 21
-89.900002
  0
LINE
  8
0
  6
CENTER
 62
2
 10
300.500000
 20
-86.000000
 11
300.500000
 21
-91.500000
  0
LINE
  8
0
  6
CONTINUOUS
 62
7
 10
304.540985
 20
-87.000000
 11
296.459015
 21
-87.000000
  0
LINE
  8
0
  6
CONTINUOUS
 62
7
 10
304.540985
 20
-87.000000
 11
304.540985
 21
-89.900002
  0
LINE
  8
0
  6
CONTINUOUS
 62
7
 10
302.520996
 20
-87.000000
 11
302.520996
 21
-89.900002
  0
LINE
  8
0
  6
CONTINUOUS
 62
7
 10
304.399994
 20
-89.900002
 11
304.399994
 21
-90.500000
  0
LINE
  8
0
  6
CONTINUOUS
 62
7
 10
286.000000
 20
-82.000000
 11
294.000000
 21
-82.000000
  0
LINE
  8
0
  6
CONTINUOUS
 62
7
 10
306.000000
 20
-90.500000
 11
294.000000
 21
-90.500000
  0
LINE
  8
0
  6
CONTINUOUS
 62
7
 10
305.500000
 20
-90.500000
 11
305.500000
 21
-80.500000
  0
LINE
  8
0
  6
CONTINUOUS
 62
7
 10
284.500000
 20
-80.500000
 11
305.500000
 21
-80.500000
  0
LINE
  8
0
  6
CONTINUOUS
 62
7
 10
284.500000
 20
-90.500000
 11
284.500000
 21
-80.500000
  0
LINE
  8
0
  6
CONTINUOUS
 62
7
 10
286.000000
 20
-82.000000
 11
286.000000
 21
-91.000000
  0
LINE
  8
0
  6
CONTINUOUS
 62
7
 10
294.000000
 20
-82.000000
 11
294.000000
 21
-91.000000
  0
LINE
  8
0
  6
CONTINUOUS
 62
7
 10
286.000000
 20
-90.500000
 11
284.500000
 21
-90.500000
  0
LINE
  8
0
  6
CONTINUOUS
 62
7
 10
295.000000
 20
-90.500000
 11
295.000000
 21
-80.500000
  0
LINE
  8
0
  6
CONTINUOUS
 62
7
 10
-195.500000
 20
161.500000
 11
-194.300003
 21
161.500000
  0
LINE
  8
0
  6
CONTINUOUS
 62
2
 10
-195.500000
 20
162.000000
 11
-194.300003
 21
162.000000
  0
LINE
  8
0
  6
CONTINUOUS
 62
7
 10
-194.300003
 20
161.500000
 11
-194.300003
 21
167.500000
  0
LINE
  8
0
  6
CONTINUOUS
 62
7
 10
-194.300003
 20
162.699997
 11
-192.800003
 21
162.699997
  0
LINE
  8
0
  6
CONTINUOUS
 62
7
 10
-194.300003
 20
166.300003
 11
-192.800003
 21
166.300003
  0
LINE
  8
0
  6
CONTINUOUS
 62
7
 10
-192.800003
 20
162.699997
 11
-192.800003
 21
166.300003
  0
LINE
  8
0
  6
CONTINUOUS
 62
2
 10
-195.500000
 20
167.000000
 11
-194.300003
 21
167.000000
  0
LINE
  8
0
  6
CONTINUOUS
 62
7
 10
-195.500000
 20
167.500000
 11
-194.300003
 21
167.500000
  0
LINE
  8
0
  6
CONTINUOUS
 62
7
 10
-195.500000
 20
188.500000
 11
-194.300003
 21
188.500000
  0
LINE
  8
0
  6
CONTINUOUS
 62
2
 10
-195.500000
 20
189.000000
 11
-194.300003
 21
189.000000
  0
LINE
  8
0
  6
CONTINUOUS
 62
7
 10
-194.300003
 20
188.500000
 11
-194.300003
 21
194.500000
  0
LINE
  8
0
  6
CONTINUOUS
 62
7
 10
-194.300003
 20
189.699997
 11
-192.800003
 21
189.699997
  0
LINE
  8
0
  6
CONTINUOUS
 62
7
 10
-194.300003
 20
193.300003
 11
-192.800003
 21
193.300003
  0
LINE
  8
0
  6
CONTINUOUS
 62
7
 10
-192.800003
 20
189.699997
 11
-192.800003
 21
193.300003
  0
LINE
  8
0
  6
CONTINUOUS
 62
2
 10
-195.457993
 20
194.000000
 11
-194.300003
 21
194.000000
  0
LINE
  8
0
  6
CONTINUOUS
 62
7
 10
-195.328003
 20
194.500000
 11
-194.300003
 21
194.500000
  0
LINE
  8
0
  6
CONTINUOUS
 62
7
 10
174.500000
 20
188.500000
 11
175.699997
 21
188.500000
  0
LINE
  8
0
  6
CONTINUOUS
 62
2
 10
174.500000
 20
189.000000
 11
175.699997
 21
189.000000
  0
LINE
  8
0
  6
CONTINUOUS
 62
7
 10
175.699997
 20
188.500000
 11
175.699997
 21
194.500000
  0
LINE
  8
0
  6
CONTINUOUS
 62
7
 10
175.699997
 20
189.699997
 11
177.199997
 21
189.699997
  0
LINE
  8
0
  6
CONTINUOUS
 62
7
 10
175.699997
 20
193.300003
 11
177.199997
 21
193.300003
  0
LINE
  8
0
  6
CONTINUOUS
 62
7
 10
177.199997
 20
189.699997
 11
177.199997
 21
193.300003
  0
LINE
  8
0
  6
CONTINUOUS
 62
2
 10
174.542007
 20
194.000000
 11
175.699997
 21
194.000000
  0
LINE
  8
0
  6
CONTINUOUS
 62
7
 10
174.671997
 20
194.500000
 11
175.699997
 21
194.500000
  0
LINE
  8
0
  6
CONTINUOUS
 62
7
 10
174.500000
 20
161.500000
 11
175.699997
 21
161.500000
  0
LINE
  8
0
  6
CONTINUOUS
 62
2
 10
174.500000
 20
162.000000
 11
175.699997
 21
162.000000
  0
LINE
  8
0
  6
CONTINUOUS
 62
7
 10
175.699997
 20
161.500000
 11
175.699997
 21
167.500000
  0
LINE
  8
0
  6
CONTINUOUS
 62
7
 10
175.699997
 20
162.699997
 11
177.199997
 21
162.699997
  0
LINE
  8
0
  6
CONTINUOUS
 62
7
 10
175.699997
 20
166.300003
 11
177.199997
 21
166.300003
  0
LINE
  8
0
  6
CONTINUOUS
 62
7
 10
177.199997
 20
162.699997
 11
177.199997
 21
166.300003
  0
LINE
  8
0
  6
CONTINUOUS
 62
2
 10
174.500000
 20
167.000000
 11
175.699997
 21
167.000000
  0
LINE
  8
0
  6
CONTINUOUS
 62
7
 10
174.500000
 20
167.500000
 11
175.699997
 21
167.500000
  0
LINE
  8
0
  6
CONTINUOUS
 62
7
 10
-195.500000
 20
-61.500000
 11
-194.300003
 21
-61.500000
  0
LINE
  8
0
  6
CONTINUOUS
 62
2
 10
-195.500000
 20
-61.000000
 11
-194.300003
 21
-61.000000
  0
LINE
  8
0
  6
CONTINUOUS
 62
7
 10
-194.300003
 20
-61.500000
 11
-194.300003
 21
-55.500000
  0
LINE
  8
0
  6
CONTINUOUS
 62
7
 10
-194.300003
 20
-60.299999
 11
-192.800003
 21
-60.299999
  0
LINE
  8
0
  6
CONTINUOUS
 62
7
 10
-194.300003
 20
-56.700001
 11
-192.800003
 21
-56.700001
  0
LINE
  8
0
  6
CONTINUOUS
 62
7
 10
-192.800003
 20
-60.299999
 11
-192.800003
 21
-56.700001
  0
LINE
  8
0
  6
CONTINUOUS
 62
2
 10
-195.457993
 20
-56.000000
 11
-194.300003
 21
-56.000000
  0
LINE
  8
0
  6
CONTINUOUS
 62
7
 10
-195.328003
 20
-55.500000
 11
-194.300003
 21
-55.500000
  0
LINE
  8
0
  6
CONTINUOUS
 62
7
 10
-195.500000
 20
-88.500000
 11
-194.300003
 21
-88.500000
  0
LINE
  8
0
  6
CONTINUOUS
 62
2
 10
-195.500000
 20
-88.000000
 11
-194.300003
 21
-88.000000
  0
LINE
  8
0
  6
CONTINUOUS
 62
7
 10
-194.300003
 20
-88.500000
 11
-194.300003
 21
-82.500000
  0
LINE
  8
0
  6
CONTINUOUS
 62
7
 10
-194.300003
 20
-87.300003
 11
-192.800003
 21
-87.300003
  0
LINE
  8
0
  6
CONTINUOUS
 62
7
 10
-194.300003
 20
-83.699997
 11
-192.800003
 21
-83.699997
  0
LINE
  8
0
  6
CONTINUOUS
 62
7
 10
-192.800003
 20
-87.300003
 11
-192.800003
 21
-83.699997
  0
LINE
  8
0
  6
CONTINUOUS
 62
2
 10
-195.500000
 20
-83.000000
 11
-194.300003
 21
-83.000000
  0
LINE
  8
0
  6
CONTINUOUS
 62
7
 10
-195.500000
 20
-82.500000
 11
-194.300003
 21
-82.500000
  0
LINE
  8
0
  6
CONTINUOUS
 62
7
 10
174.500000
 20
-61.500000
 11
175.699997
 21
-61.500000
  0
LINE
  8
0
  6
CONTINUOUS
 62
2
 10
174.500000
 20
-61.000000
 11
175.699997
 21
-61.000000
  0
LINE
  8
0
  6
CONTINUOUS
 62
7
 10
175.699997
 20
-61.500000
 11
175.699997
 21
-55.500000
  0
LINE
  8
0
  6
CONTINUOUS
 62
7
 10
175.699997
 20
-60.299999
 11
177.199997
 21
-60.299999
  0
LINE
  8
0
  6
CONTINUOUS
 62
7
 10
175.699997
 20
-56.700001
 11
177.199997
 21
-56.700001
  0
LINE
  8
0
  6
CONTINUOUS
 62
7
 10
177.199997
 20
-60.299999
 11
177.199997
 21
-56.700001
  0
LINE
  8
0
  6
CONTINUOUS
 62
2
 10
174.542007
 20
-56.000000
 11
175.699997
 21
-56.000000
  0
LINE
  8
0
  6
CONTINUOUS
 62
7
 10
174.671997
 20
-55.500000
 11
175.699997
 21
-55.500000
  0
LINE
  8
0
  6
CONTINUOUS
 62
7
 10
174.500000
 20
-88.500000
 11
175.699997
 21
-88.500000
  0
LINE
  8
0
  6
CONTINUOUS
 62
2
 10
174.500000
 20
-88.000000
 11
175.699997
 21
-88.000000
  0
LINE
  8
0
  6
CONTINUOUS
 62
7
 10
175.699997
 20
-88.500000
 11
175.699997
 21
-82.500000
  0
LINE
  8
0
  6
CONTINUOUS
 62
7
 10
175.699997
 20
-87.300003
 11
177.199997
 21
-87.300003
  0
LINE
  8
0
  6
CONTINUOUS
 62
7
 10
175.699997
 20
-83.699997
 11
177.199997
 21
-83.699997
  0
LINE
  8
0
  6
CONTINUOUS
 62
7
 10
177.199997
 20
-87.300003
 11
177.199997
 21
-83.699997
  0
LINE
  8
0
  6
CONTINUOUS
 62
2
 10
174.500000
 20
-83.000000
 11
175.699997
 21
-83.000000
  0
LINE
  8
0
  6
CONTINUOUS
 62
7
 10
174.500000
 20
-82.500000
 11
175.699997
 21
-82.500000
  0
LINE
  8
0
  6
CENTER
 62
2
 10
-234.000000
 20
131.000000
 11
-230.000000
 21
131.000000
  0
LINE
  8
0
  6
CENTER
 62
2
 10
-234.000000
 20
155.000000
 11
-230.000000
 21
155.000000
  0
LINE
  8
0
  6
CENTER
 62
2
 10
136.000000
 20
131.000000
 11
140.000000
 21
131.000000
  0
LINE
  8
0
  6
CENTER
 62
2
 10
136.000000
 20
155.000000
 11
140.000000
 21
155.000000
  0
LINE
  8
0
  6
CENTER
 62
2
 10
-234.000000
 20
-119.000000
 11
-230.000000
 21
-119.000000
  0
LINE
  8
0
  6
CENTER
 62
2
 10
-234.000000
 20
-95.000000
 11
-230.000000
 21
-95.000000
  0
LINE
  8
0
  6
CENTER
 62
2
 10
136.000000
 20
-119.000000
 11
140.000000
 21
-119.000000
  0
LINE
  8
0
  6
CENTER
 62
2
 10
136.000000
 20
-95.000000
 11
140.000000
 21
-95.000000
  0
LINE
  8
0
  6
CENTER
 62
2
 10
-152.000000
 20
-234.500000
 11
-152.000000
 21
-228.500000
  0
LINE
  8
0
  6
CONTINUOUS
 62
7
 10
0.274994
 20
276.250000
 11
0.274994
 21
-276.750000
  0
LINE
  8
0
  6
CONTINUOUS
 62
7
 10
-399.250000
 20
-0.250000
 11
399.799988
 21
-0.250000
  0
CIRCLE
  8
0
  6
CONTINUOUS
 62
7
 10
191.000000
 20
-94.500000
 40
2.000000
  0
CIRCLE
  8
0
  6
CONTINUOUS
 62
2
 10
213.000000
 20
-119.500000
 40
1.500000
  0
CIRCLE
  8
0
  6
CONTINUOUS
 62
7
 10
213.000000
 20
-119.500000
 40
1.200000
  0
CIRCLE
  8
0
  6
CONTINUOUS
 62
7
 10
158.000000
 20
-119.500000
 40
1.200000
  0
CIRCLE
  8
0
  6
CONTINUOUS
 62
2
 10
158.000000
 20
-119.500000
 40
1.500000
  0
CIRCLE
  8
0
  6
CONTINUOUS
 62
7
 10
191.000000
 20
-119.500000
 40
2.000000
  0
CIRCLE
  8
0
  6
CONTINUOUS
 62
2
 10
238.000000
 20
-119.500000
 40
1.500000
  0
CIRCLE
  8
0
  6
CONTINUOUS
 62
7
 10
238.000000
 20
-119.500000
 40
1.200000
  0
CIRCLE
  8
0
  6
CONTINUOUS
 62
7
 10
158.000000
 20
-94.500000
 40
1.200000
  0
CIRCLE
  8
0
  6
CONTINUOUS
 62
2
 10
158.000000
 20
-94.500000
 40
1.500000
  0
CIRCLE
  8
0
  6
CONTINUOUS
 62
7
 10
238.000000
 20
-94.500000
 40
1.200000
  0
CIRCLE
  8
0
  6
CONTINUOUS
 62
2
 10
238.000000
 20
-94.500000
 40
1.500000
  0
CIRCLE
  8
0
  6
CONTINUOUS
 62
7
 10
213.000000
 20
-94.500000
 40
1.200000
  0
CIRCLE
  8
0
  6
CONTINUOUS
 62
2
 10
213.000000
 20
-94.500000
 40
1.500000
  0
ARC
  8
0
  6
DASHED
 62
2
 10
163.000000
 20
-95.000000
 40
2.200000
 50
180.000000
 51
0.000000
  0
ARC
  8
0
  6
DASHED
 62
2
 10
163.000000
 20
-119.000000
 40
2.200000
 50
0.000000
 51
180.000000
  0
CIRCLE
  8
0
  6
DASHED
 62
2
 10
239.000000
 20
-95.000000
 40
4.000000
  0
ARC
  8
0
  6
DASHED
 62
2
 10
163.000000
 20
-95.000000
 40
4.000000
 50
123.366997
 51
416.632996
  0
CIRCLE
  8
0
  6
DASHED
 62
2
 10
239.000000
 20
-119.000000
 40
4.000000
  0
ARC
  8
0
  6
DASHED
 62
2
 10
163.000000
 20
-119.000000
 40
4.000000
 50
303.367004
 51
236.632996
  0
CIRCLE
  8
0
  6
DASHED
 62
2
 10
239.000000
 20
-95.000000
 40
2.500000
  0
CIRCLE
  8
0
  6
DASHED
 62
2
 10
239.000000
 20
-119.000000
 40
2.500000
  0
CIRCLE
  8
0
  6
DASHED
 62
2
 10
239.000000
 20
-119.000000
 40
2.100000
  0
CIRCLE
  8
0
  6
DASHED
 62
2
 10
239.000000
 20
-95.000000
 40
2.100000
  0
CIRCLE
  8
0
  6
CONTINUOUS
 62
2
 10
154.000000
 20
-166.000000
 40
2.500000
  0
CIRCLE
  8
0
  6
CONTINUOUS
 62
7
 10
154.000000
 20
-166.000000
 40
2.100000
  0
CIRCLE
  8
0
  6
CONTINUOUS
 62
2
 10
248.000000
 20
-166.000000
 40
2.500000
  0
CIRCLE
  8
0
  6
CONTINUOUS
 62
7
 10
248.000000
 20
-166.000000
 40
2.100000
  0
ARC
  8
0
  6
CONTINUOUS
 62
7
 10
154.000000
 20
-166.000000
 40
4.800000
 50
0.000000
 51
56.442600
  0
ARC
  8
0
  6
CONTINUOUS
 62
7
 10
248.000000
 20
-166.000000
 40
4.800000
 50
123.556999
 51
180.000000
  0
CIRCLE
  8
0
  6
CONTINUOUS
 62
2
 10
171.000000
 20
-166.000000
 40
1.500000
  0
CIRCLE
  8
0
  6
CONTINUOUS
 62
2
 10
231.000000
 20
-166.000000
 40
1.500000
  0
ARC
  8
0
  6
CONTINUOUS
 62
7
 10
171.000000
 20
-166.000000
 40
3.000000
 50
0.000000
 51
180.000000
  0
ARC
  8
0
  6
CONTINUOUS
 62
7
 10
231.000000
 20
-166.000000
 40
3.000000
 50
0.000000
 51
180.000000
  0
CIRCLE
  8
0
  6
CONTINUOUS
 62
2
 10
244.800003
 20
-153.699997
 40
1.000000
  0
CIRCLE
  8
0
  6
CONTINUOUS
 62
2
 10
234.800003
 20
-153.699997
 40
1.000000
  0
CIRCLE
  8
0
  6
CONTINUOUS
 62
2
 10
241.699997
 20
-154.000000
 40
1.500000
  0
CIRCLE
  8
0
  6
CONTINUOUS
 62
2
 10
248.199997
 20
-154.000000
 40
1.500000
  0
ARC
  8
0
  6
CONTINUOUS
 62
7
 10
154.000000
 20
-48.000000
 40
4.800000
 50
303.557007
 51
0.000000
  0
ARC
  8
0
  6
CONTINUOUS
 62
7
 10
248.000000
 20
-48.000000
 40
4.800000
 50
180.000000
 51
236.442993
  0
CIRCLE
  8
0
  6
CONTINUOUS
 62
7
 10
-179.000000
 20
-94.500000
 40
2.000000
  0
CIRCLE
  8
0
  6
CONTINUOUS
 62
2
 10
-187.000000
 20
-119.500000
 40
1.500000
  0
CIRCLE
  8
0
  6
CONTINUOUS
 62
7
 10
-187.000000
 20
-119.500000
 40
1.200000
  0
CIRCLE
  8
0
  6
CONTINUOUS
 62
7
 10
-212.000000
 20
-119.500000
 40
1.200000
  0
CIRCLE
  8
0
  6
CONTINUOUS
 62
2
 10
-212.000000
 20
-119.500000
 40
1.500000
  0
CIRCLE
  8
0
  6
CONTINUOUS
 62
7
 10
-179.000000
 20
-119.500000
 40
2.000000
  0
CIRCLE
  8
0
  6
CONTINUOUS
 62
2
 10
-162.000000
 20
-119.500000
 40
1.500000
  0
CIRCLE
  8
0
  6
CONTINUOUS
 62
7
 10
-162.000000
 20
-119.500000
 40
1.200000
  0
CIRCLE
  8
0
  6
CONTINUOUS
 62
7
 10
-212.000000
 20
-94.500000
 40
1.200000
  0
CIRCLE
  8
0
  6
CONTINUOUS
 62
2
 10
-212.000000
 20
-94.500000
 40
1.500000
  0
CIRCLE
  8
0
  6
CONTINUOUS
 62
7
 10
-162.000000
 20
-94.500000
 40
1.200000
  0
CIRCLE
  8
0
  6
CONTINUOUS
 62
2
 10
-162.000000
 20
-94.500000
 40
1.500000
  0
CIRCLE
  8
0
  6
CONTINUOUS
 62
7
 10
-187.000000
 20
-94.500000
 40
1.200000
  0
CIRCLE
  8
0
  6
CONTINUOUS
 62
2
 10
-187.000000
 20
-94.500000
 40
1.500000
  0
ARC
  8
0
  6
DASHED
 62
2
 10
-207.000000
 20
-95.000000
 40
2.200000
 50
180.000000
 51
0.000000
  0
ARC
  8
0
  6
DASHED
 62
2
 10
-207.000000
 20
-119.000000
 40
2.200000
 50
0.000000
 51
180.000000
  0
CIRCLE
  8
0
  6
DASHED
 62
2
 10
-161.000000
 20
-95.000000
 40
4.000000
  0
ARC
  8
0
  6
DASHED
 62
2
 10
-207.000000
 20
-95.000000
 40
4.000000
 50
123.366997
 51
416.632996
  0
CIRCLE
  8
0
  6
DASHED
 62
2
 10
-161.000000
 20
-119.000000
 40
4.000000
  0
ARC
  8
0
  6
DASHED
 62
2
 10
-207.000000
 20
-119.000000
 40
4.000000
 50
303.367004
 51
236.632996
  0
CIRCLE
  8
0
  6
DASHED
 62
2
 10
-161.000000
 20
-95.000000
 40
2.500000
  0
CIRCLE
  8
0
  6
DASHED
 62
2
 10
-161.000000
 20
-119.000000
 40
2.500000
  0
CIRCLE
  8
0
  6
DASHED
 62
2
 10
-161.000000
 20
-119.000000
 40
2.100000
  0
CIRCLE
  8
0
  6
DASHED
 62
2
 10
-161.000000
 20
-95.000000
 40
2.100000
  0
CIRCLE
  8
0
  6
CONTINUOUS
 62
2
 10
-216.000000
 20
-166.000000
 40
2.500000
  0
CIRCLE
  8
0
  6
CONTINUOUS
 62
7
 10
-216.000000
 20
-166.000000
 40
2.100000
  0
CIRCLE
  8
0
  6
CONTINUOUS
 62
2
 10
-152.000000
 20
-166.000000
 40
2.500000
  0
CIRCLE
  8
0
  6
CONTINUOUS
 62
7
 10
-152.000000
 20
-166.000000
 40
2.100000
  0
ARC
  8
0
  6
CONTINUOUS
 62
7
 10
-216.000000
 20
-166.000000
 40
4.800000
 50
0.000000
 51
56.442600
  0
ARC
  8
0
  6
CONTINUOUS
 62
7
 10
-152.000000
 20
-166.000000
 40
4.800000
 50
123.556999
 51
180.000000
  0
CIRCLE
  8
0
  6
CONTINUOUS
 62
2
 10
-199.000000
 20
-166.000000
 40
1.500000
  0
CIRCLE
  8
0
  6
CONTINUOUS
 62
2
 10
-169.000000
 20
-166.000000
 40
1.500000
  0
ARC
  8
0
  6
CONTINUOUS
 62
7
 10
-199.000000
 20
-166.000000
 40
3.000000
 50
0.000000
 51
180.000000
  0
ARC
  8
0
  6
CONTINUOUS
 62
7
 10
-169.000000
 20
-166.000000
 40
3.000000
 50
0.000000
 51
180.000000
  0
CIRCLE
  8
0
  6
CONTINUOUS
 62
2
 10
-155.199997
 20
-153.699997
 40
1.000000
  0
CIRCLE
  8
0
  6
CONTINUOUS
 62
2
 10
-165.199997
 20
-153.699997
 40
1.000000
  0
CIRCLE
  8
0
  6
CONTINUOUS
 62
2
 10
-158.300003
 20
-154.000000
 40
1.500000
  0
CIRCLE
  8
0
  6
CONTINUOUS
 62
2
 10
-151.800003
 20
-154.000000
 40
1.500000
  0
ARC
  8
0
  6
CONTINUOUS
 62
7
 10
-216.000000
 20
-48.000000
 40
4.800000
 50
303.557007
 51
0.000000
  0
ARC
  8
0
  6
CONTINUOUS
 62
7
 10
-152.000000
 20
-48.000000
 40
4.800000
 50
180.000000
 51
236.442993
  0
CIRCLE
  8
0
  6
CONTINUOUS
 62
7
 10
183.000000
 20
-94.500000
 40
1.200000
  0
CIRCLE
  8
0
  6
CONTINUOUS
 62
2
 10
183.000000
 20
-94.500000
 40
1.500000
  0
CIRCLE
  8
0
  6
CONTINUOUS
 62
2
 10
183.000000
 20
-119.500000
 40
1.500000
  0
CIRCLE
  8
0
  6
CONTINUOUS
 62
7
 10
183.000000
 20
-119.500000
 40
1.200000
  0
CIRCLE
  8
0
  6
CONTINUOUS
 62
7
 10
191.000000
 20
155.500000
 40
2.000000
  0
CIRCLE
  8
0
  6
CONTINUOUS
 62
2
 10
198.000000
 20
130.500000
 40
1.500000
  0
CIRCLE
  8
0
  6
CONTINUOUS
 62
7
 10
198.000000
 20
130.500000
 40
1.200000
  0
CIRCLE
  8
0
  6
CONTINUOUS
 62
7
 10
158.000000
 20
130.500000
 40
1.200000
  0
CIRCLE
  8
0
  6
CONTINUOUS
 62
2
 10
158.000000
 20
130.500000
 40
1.500000
  0
CIRCLE
  8
0
  6
CONTINUOUS
 62
7
 10
191.000000
 20
130.500000
 40
2.000000
  0
CIRCLE
  8
0
  6
CONTINUOUS
 62
2
 10
223.000000
 20
130.500000
 40
1.500000
  0
CIRCLE
  8
0
  6
CONTINUOUS
 62
7
 10
223.000000
 20
130.500000
 40
1.200000
  0
CIRCLE
  8
0
  6
CONTINUOUS
 62
7
 10
158.000000
 20
155.500000
 40
1.200000
  0
CIRCLE
  8
0
  6
CONTINUOUS
 62
2
 10
158.000000
 20
155.500000
 40
1.500000
  0
CIRCLE
  8
0
  6
CONTINUOUS
 62
7
 10
223.000000
 20
155.500000
 40
1.200000
  0
CIRCLE
  8
0
  6
CONTINUOUS
 62
2
 10
223.000000
 20
155.500000
 40
1.500000
  0
CIRCLE
  8
0
  6
CONTINUOUS
 62
7
 10
198.000000
 20
155.500000
 40
1.200000
  0
CIRCLE
  8
0
  6
CONTINUOUS
 62
2
 10
198.000000
 20
155.500000
 40
1.500000
  0
ARC
  8
0
  6
DASHED
 62
2
 10
163.000000
 20
155.000000
 40
2.200000
 50
180.000000
 51
0.000000
  0
ARC
  8
0
  6
DASHED
 62
2
 10
163.000000
 20
131.000000
 40
2.200000
 50
0.000000
 51
180.000000
  0
CIRCLE
  8
0
  6
DASHED
 62
2
 10
224.000000
 20
155.000000
 40
4.000000
  0
ARC
  8
0
  6
DASHED
 62
2
 10
163.000000
 20
155.000000
 40
3.999990
 50
123.366997
 51
416.632996
  0
CIRCLE
  8
0
  6
DASHED
 62
2
 10
224.000000
 20
131.000000
 40
4.000000
  0
ARC
  8
0
  6
DASHED
 62
2
 10
163.000000
 20
131.000000
 40
4.000000
 50
303.367004
 51
236.632996
  0
CIRCLE
  8
0
  6
DASHED
 62
2
 10
224.000000
 20
155.000000
 40
2.500000
  0
CIRCLE
  8
0
  6
DASHED
 62
2
 10
224.000000
 20
131.000000
 40
2.500000
  0
CIRCLE
  8
0
  6
DASHED
 62
2
 10
224.000000
 20
131.000000
 40
2.100000
  0
CIRCLE
  8
0
  6
DASHED
 62
2
 10
224.000000
 20
155.000000
 40
2.100000
  0
CIRCLE
  8
0
  6
CONTINUOUS
 62
7
 10
99.000000
 20
143.000000
 40
6.000000
  0
CIRCLE
  8
0
  6
CONTINUOUS
 62
7
 10
108.000000
 20
131.500000
 40
4.000000
  0
CIRCLE
  8
0
  6
CONTINUOUS
 62
7
 10
108.000000
 20
154.500000
 40
4.000000
  0
CIRCLE
  8
0
  6
CONTINUOUS
 62
2
 10
99.000000
 20
155.000000
 40
2.000000
  0
CIRCLE
  8
0
  6
CONTINUOUS
 62
7
 10
99.000000
 20
155.000000
 40
1.650000
  0
CIRCLE
  8
0
  6
CONTINUOUS
 62
2
 10
108.000000
 20
143.000000
 40
2.000000
  0
CIRCLE
  8
0
  6
CONTINUOUS
 62
7
 10
108.000000
 20
143.000000
 40
1.650000
  0
CIRCLE
  8
0
  6
CONTINUOUS
 62
2
 10
99.000000
 20
131.000000
 40
2.000000
  0
CIRCLE
  8
0
  6
CONTINUOUS
 62
7
 10
99.000000
 20
131.000000
 40
1.650000
  0
CIRCLE
  8
0
  6
CONTINUOUS
 62
2
 10
154.000000
 20
84.000000
 40
2.500000
  0
CIRCLE
  8
0
  6
CONTINUOUS
 62
7
 10
154.000000
 20
84.000000
 40
2.100000
  0
CIRCLE
  8
0
  6
CONTINUOUS
 62
2
 10
233.000000
 20
84.000000
 40
2.500000
  0
CIRCLE
  8
0
  6
CONTINUOUS
 62
7
 10
233.000000
 20
84.000000
 40
2.100000
  0
CIRCLE
  8
0
  6
CONTINUOUS
 62
2
 10
171.000000
 20
84.000000
 40
1.500000
  0
CIRCLE
  8
0
  6
CONTINUOUS
 62
2
 10
216.000000
 20
84.000000
 40
1.500000
  0
CIRCLE
  8
0
  6
CONTINUOUS
 62
2
 10
229.800003
 20
96.300003
 40
1.000000
  0
CIRCLE
  8
0
  6
CONTINUOUS
 62
2
 10
219.800003
 20
96.300003
 40
1.000000
  0
CIRCLE
  8
0
  6
CONTINUOUS
 62
2
 10
226.699997
 20
96.000000
 40
1.500000
  0
CIRCLE
  8
0
  6
CONTINUOUS
 62
2
 10
233.199997
 20
96.000000
 40
1.500000
  0
ARC
  8
0
  6
CONTINUOUS
 62
7
 10
163.000000
 20
-201.500000
 40
2.200000
 50
180.000000
 51
0.000000
  0
ARC
  8
0
  6
CONTINUOUS
 62
7
 10
163.000000
 20
-225.500000
 40
2.200000
 50
0.000000
 51
180.000000
  0
CIRCLE
  8
0
  6
CONTINUOUS
 62
2
 10
179.000000
 20
-225.500000
 40
2.500000
  0
CIRCLE
  8
0
  6
CONTINUOUS
 62
7
 10
179.000000
 20
-225.500000
 40
2.100000
  0
CIRCLE
  8
0
  6
CONTINUOUS
 62
7
 10
179.000000
 20
-225.500000
 40
3.000000
  0
CIRCLE
  8
0
  6
CONTINUOUS
 62
2
 10
179.000000
 20
-201.500000
 40
2.500000
  0
CIRCLE
  8
0
  6
CONTINUOUS
 62
7
 10
179.000000
 20
-201.500000
 40
2.100000
  0
CIRCLE
  8
0
  6
CONTINUOUS
 62
7
 10
179.000000
 20
-201.500000
 40
3.000000
  0
CIRCLE
  8
0
  6
CONTINUOUS
 62
2
 10
239.000000
 20
-201.500000
 40
2.500000
  0
CIRCLE
  8
0
  6
CONTINUOUS
 62
7
 10
239.000000
 20
-201.500000
 40
2.100000
  0
CIRCLE
  8
0
  6
CONTINUOUS
 62
7
 10
239.000000
 20
-225.500000
 40
2.100000
  0
CIRCLE
  8
0
  6
CONTINUOUS
 62
2
 10
239.000000
 20
-225.500000
 40
2.500000
  0
CIRCLE
  8
0
  6
CONTINUOUS
 62
7
 10
183.000000
 20
155.500000
 40
1.200000
  0
CIRCLE
  8
0
  6
CONTINUOUS
 62
2
 10
183.000000
 20
155.500000
 40
1.500000
  0
CIRCLE
  8
0
  6
CONTINUOUS
 62
2
 10
183.000000
 20
130.500000
 40
1.500000
  0
CIRCLE
  8
0
  6
CONTINUOUS
 62
7
 10
183.000000
 20
130.500000
 40
1.200000
  0
CIRCLE
  8
0
  6
CONTINUOUS
 62
7
 10
-187.000000
 20
155.500000
 40
2.000000
  0
CIRCLE
  8
0
  6
CONTINUOUS
 62
2
 10
-192.000000
 20
130.500000
 40
1.500000
  0
CIRCLE
  8
0
  6
CONTINUOUS
 62
7
 10
-192.000000
 20
130.500000
 40
1.200000
  0
CIRCLE
  8
0
  6
CONTINUOUS
 62
7
 10
-212.000000
 20
130.500000
 40
1.200000
  0
CIRCLE
  8
0
  6
CONTINUOUS
 62
2
 10
-212.000000
 20
130.500000
 40
1.500000
  0
CIRCLE
  8
0
  6
CONTINUOUS
 62
7
 10
-187.000000
 20
130.500000
 40
2.000000
  0
CIRCLE
  8
0
  6
CONTINUOUS
 62
2
 10
-172.000000
 20
130.500000
 40
1.500000
  0
CIRCLE
  8
0
  6
CONTINUOUS
 62
7
 10
-172.000000
 20
130.500000
 40
1.200000
  0
CIRCLE
  8
0
  6
CONTINUOUS
 62
7
 10
-212.000000
 20
155.500000
 40
1.200000
  0
CIRCLE
  8
0
  6
CONTINUOUS
 62
2
 10
-212.000000
 20
155.500000
 40
1.500000
  0
CIRCLE
  8
0
  6
CONTINUOUS
 62
7
 10
-172.000000
 20
155.500000
 40
1.200000
  0
CIRCLE
  8
0
  6
CONTINUOUS
 62
2
 10
-172.000000
 20
155.500000
 40
1.500000
  0
CIRCLE
  8
0
  6
CONTINUOUS
 62
7
 10
-192.000000
 20
155.500000
 40
1.200000
  0
CIRCLE
  8
0
  6
CONTINUOUS
 62
2
 10
-192.000000
 20
155.500000
 40
1.500000
  0
ARC
  8
0
  6
DASHED
 62
2
 10
-207.000000
 20
155.000000
 40
2.200000
 50
180.000000
 51
0.000000
  0
ARC
  8
0
  6
DASHED
 62
2
 10
-207.000000
 20
131.000000
 40
2.200000
 50
0.000000
 51
180.000000
  0
CIRCLE
  8
0
  6
DASHED
 62
2
 10
-171.000000
 20
155.000000
 40
4.000000
  0
ARC
  8
0
  6
DASHED
 62
2
 10
-207.000000
 20
155.000000
 40
3.999990
 50
123.366997
 51
416.632996
  0
CIRCLE
  8
0
  6
DASHED
 62
2
 10
-171.000000
 20
131.000000
 40
4.000000
  0
ARC
  8
0
  6
DASHED
 62
2
 10
-207.000000
 20
131.000000
 40
4.000000
 50
303.367004
 51
236.632996
  0
CIRCLE
  8
0
  6
DASHED
 62
2
 10
-171.000000
 20
155.000000
 40
2.500000
  0
CIRCLE
  8
0
  6
DASHED
 62
2
 10
-171.000000
 20
131.000000
 40
2.500000
  0
CIRCLE
  8
0
  6
DASHED
 62
2
 10
-171.000000
 20
131.000000
 40
2.100000
  0
CIRCLE
  8
0
  6
DASHED
 62
2
 10
-171.000000
 20
155.000000
 40
2.100000
  0
CIRCLE
  8
0
  6
CONTINUOUS
 62
7
 10
-271.000000
 20
143.000000
 40
6.000000
  0
CIRCLE
  8
0
  6
CONTINUOUS
 62
7
 10
-262.000000
 20
131.500000
 40
4.000000
  0
CIRCLE
  8
0
  6
CONTINUOUS
 62
7
 10
-262.000000
 20
154.500000
 40
4.000000
  0
CIRCLE
  8
0
  6
CONTINUOUS
 62
2
 10
-271.000000
 20
155.000000
 40
2.000000
  0
CIRCLE
  8
0
  6
CONTINUOUS
 62
7
 10
-271.000000
 20
155.000000
 40
1.650000
  0
CIRCLE
  8
0
  6
CONTINUOUS
 62
2
 10
-262.000000
 20
143.000000
 40
2.000000
  0
CIRCLE
  8
0
  6
CONTINUOUS
 62
7
 10
-262.000000
 20
143.000000
 40
1.650000
  0
CIRCLE
  8
0
  6
CONTINUOUS
 62
2
 10
-271.000000
 20
131.000000
 40
2.000000
  0
CIRCLE
  8
0
  6
CONTINUOUS
 62
7
 10
-271.000000
 20
131.000000
 40
1.650000
  0
ARC
  8
0
  6
CONTINUOUS
 62
7
 10
-120.500000
 20
136.000000
 40
2.300000
 50
180.000000
 51
183.186996
  0
ARC
  8
0
  6
CONTINUOUS
 62
7
 10
-120.500000
 20
150.000000
 40
2.300000
 50
176.815002
 51
180.000000
  0
ARC
  8
0
  6
CONTINUOUS
 62
7
 10
-118.500000
 20
151.300003
 40
1.600000
 50
209.998993
 51
330.001007
  0
ARC
  8
0
  6
CONTINUOUS
 62
7
 10
-118.500000
 20
134.699997
 40
1.600000
 50
29.999399
 51
150.001007
  0
CIRCLE
  8
0
  6
CONTINUOUS
 62
7
 10
-112.000000
 20
143.000000
 40
6.400000
  0
CIRCLE
  8
0
  6
CONTINUOUS
 62
2
 10
-216.000000
 20
84.000000
 40
2.500000
  0
CIRCLE
  8
0
  6
CONTINUOUS
 62
7
 10
-216.000000
 20
84.000000
 40
2.100000
  0
CIRCLE
  8
0
  6
CONTINUOUS
 62
2
 10
-162.000000
 20
84.000000
 40
2.500000
  0
CIRCLE
  8
0
  6
CONTINUOUS
 62
7
 10
-162.000000
 20
84.000000
 40
2.100000
  0
CIRCLE
  8
0
  6
CONTINUOUS
 62
2
 10
-199.000000
 20
84.000000
 40
1.500000
  0
CIRCLE
  8
0
  6
CONTINUOUS
 62
2
 10
-179.000000
 20
84.000000
 40
1.500000
  0
CIRCLE
  8
0
  6
CONTINUOUS
 62
2
 10
-165.199997
 20
96.300003
 40
1.000000
  0
CIRCLE
  8
0
  6
CONTINUOUS
 62
2
 10
-175.199997
 20
96.300003
 40
1.000000
  0
CIRCLE
  8
0
  6
CONTINUOUS
 62
2
 10
-168.300003
 20
96.000000
 40
1.500000
  0
CIRCLE
  8
0
  6
CONTINUOUS
 62
2
 10
-161.800003
 20
96.000000
 40
1.500000
  0
ARC
  8
0
  6
CONTINUOUS
 62
7
 10
-207.000000
 20
-201.500000
 40
2.200000
 50
180.000000
 51
0.000000
  0
ARC
  8
0
  6
CONTINUOUS
 62
7
 10
-207.000000
 20
-225.500000
 40
2.200000
 50
0.000000
 51
180.000000
  0
CIRCLE
  8
0
  6
CONTINUOUS
 62
2
 10
-191.000000
 20
-225.500000
 40
2.500000
  0
CIRCLE
  8
0
  6
CONTINUOUS
 62
7
 10
-191.000000
 20
-225.500000
 40
2.100000
  0
CIRCLE
  8
0
  6
CONTINUOUS
 62
7
 10
-191.000000
 20
-225.500000
 40
3.000000
  0
CIRCLE
  8
0
  6
CONTINUOUS
 62
2
 10
-191.000000
 20
-201.500000
 40
2.500000
  0
CIRCLE
  8
0
  6
CONTINUOUS
 62
7
 10
-191.000000
 20
-201.500000
 40
2.100000
  0
CIRCLE
  8
0
  6
CONTINUOUS
 62
7
 10
-191.000000
 20
-201.500000
 40
3.000000
  0
CIRCLE
  8
0
  6
CONTINUOUS
 62
2
 10
-161.000000
 20
-201.500000
 40
2.500000
  0
CIRCLE
  8
0
  6
CONTINUOUS
 62
7
 10
-161.000000
 20
-201.500000
 40
2.100000
  0
CIRCLE
  8
0
  6
CONTINUOUS
 62
7
 10
-161.000000
 20
-225.500000
 40
2.100000
  0
CIRCLE
  8
0
  6
CONTINUOUS
 62
2
 10
-161.000000
 20
-225.500000
 40
2.500000
  0
CIRCLE
  8
0
  6
CONTINUOUS
 62
2
 10
-175.199997
 20
189.699997
 40
1.000000
  0
ARC
  8
0
  6
CONTINUOUS
 62
7
 10
-207.000000
 20
48.500000
 40
2.200000
 50
180.000000
 51
0.000000
  0
ARC
  8
0
  6
CONTINUOUS
 62
7
 10
-207.000000
 20
24.500000
 40
2.200000
 50
0.000000
 51
180.000000
  0
CIRCLE
  8
0
  6
CONTINUOUS
 62
2
 10
-191.000000
 20
24.500000
 40
2.500000
  0
CIRCLE
  8
0
  6
CONTINUOUS
 62
7
 10
-191.000000
 20
24.500000
 40
2.100000
  0
CIRCLE
  8
0
  6
CONTINUOUS
 62
2
 10
-191.000000
 20
48.500000
 40
2.500000
  0
CIRCLE
  8
0
  6
CONTINUOUS
 62
7
 10
-191.000000
 20
48.500000
 40
2.100000
  0
CIRCLE
  8
0
  6
CONTINUOUS
 62
2
 10
-171.000000
 20
48.500000
 40
2.500000
  0
CIRCLE
  8
0
  6
CONTINUOUS
 62
7
 10
-171.000000
 20
48.500000
 40
2.100000
  0
CIRCLE
  8
0
  6
CONTINUOUS
 62
7
 10
-171.000000
 20
24.500000
 40
2.100000
  0
CIRCLE
  8
0
  6
CONTINUOUS
 62
2
 10
-171.000000
 20
24.500000
 40
2.500000
  0
ARC
  8
0
  6
CONTINUOUS
 62
7
 10
163.000000
 20
48.500000
 40
2.200000
 50
180.000000
 51
0.000000
  0
ARC
  8
0
  6
CONTINUOUS
 62
7
 10
163.000000
 20
24.500000
 40
2.200000
 50
0.000000
 51
180.000000
  0
CIRCLE
  8
0
  6
CONTINUOUS
 62
2
 10
179.000000
 20
24.500000
 40
2.500000
  0
CIRCLE
  8
0
  6
CONTINUOUS
 62
7
 10
179.000000
 20
24.500000
 40
2.100000
  0
CIRCLE
  8
0
  6
CONTINUOUS
 62
2
 10
179.000000
 20
48.500000
 40
2.500000
  0
CIRCLE
  8
0
  6
CONTINUOUS
 62
7
 10
179.000000
 20
48.500000
 40
2.100000
  0
CIRCLE
  8
0
  6
CONTINUOUS
 62
2
 10
224.000000
 20
48.500000
 40
2.500000
  0
CIRCLE
  8
0
  6
CONTINUOUS
 62
7
 10
224.000000
 20
48.500000
 40
2.100000
  0
CIRCLE
  8
0
  6
CONTINUOUS
 62
7
 10
224.000000
 20
24.500000
 40
2.100000
  0
CIRCLE
  8
0
  6
CONTINUOUS
 62
2
 10
224.000000
 20
24.500000
 40
2.500000
  0
ARC
  8
0
  6
CONTINUOUS
 62
7
 10
-216.000000
 20
83.800003
 40
4.800000
 50
0.000000
 51
61.044498
  0
ARC
  8
0
  6
CONTINUOUS
 62
7
 10
-199.000000
 20
83.800003
 40
3.000000
 50
41.809898
 51
180.000000
  0
ARC
  8
0
  6
CONTINUOUS
 62
7
 10
-179.000000
 20
83.800003
 40
3.000000
 50
0.000000
 51
138.190002
  0
ARC
  8
0
  6
CONTINUOUS
 62
7
 10
-162.000000
 20
83.800003
 40
4.800000
 50
118.955002
 51
180.000000
  0
ARC
  8
0
  6
CONTINUOUS
 62
7
 10
-216.000000
 20
202.199997
 40
4.800000
 50
298.954987
 51
0.000000
  0
ARC
  8
0
  6
CONTINUOUS
 62
7
 10
-162.000000
 20
202.199997
 40
4.800000
 50
180.000000
 51
241.044998
  0
ARC
  8
0
  6
CONTINUOUS
 62
7
 10
154.000000
 20
202.199997
 40
4.800000
 50
298.954987
 51
0.000000
  0
ARC
  8
0
  6
CONTINUOUS
 62
7
 10
233.000000
 20
202.199997
 40
4.800000
 50
180.000000
 51
241.044998
  0
ARC
  8
0
  6
CONTINUOUS
 62
7
 10
154.000000
 20
83.800003
 40
4.800000
 50
0.000000
 51
61.044899
  0
ARC
  8
0
  6
CONTINUOUS
 62
7
 10
171.000000
 20
83.800003
 40
3.000000
 50
41.810299
 51
180.000000
  0
ARC
  8
0
  6
CONTINUOUS
 62
7
 10
216.000000
 20
83.800003
 40
3.000000
 50
0.000000
 51
138.190002
  0
ARC
  8
0
  6
CONTINUOUS
 62
7
 10
233.000000
 20
83.800003
 40
4.800000
 50
118.955002
 51
180.000000
  0
CIRCLE
  8
0
  6
CONTINUOUS
 62
7
 10
-168.300003
 20
96.000000
 40
1.200000
  0
CIRCLE
  8
0
  6
CONTINUOUS
 62
7
 10
-161.800003
 20
96.000000
 40
1.200000
  0
CIRCLE
  8
0
  6
CONTINUOUS
 62
7
 10
-199.000000
 20
84.000000
 40
1.200000
  0
CIRCLE
  8
0
  6
CONTINUOUS
 62
7
 10
-179.000000
 20
84.000000
 40
1.200000
  0
CIRCLE
  8
0
  6
CONTINUOUS
 62
7
 10
-199.000000
 20
-166.000000
 40
1.200000
  0
CIRCLE
  8
0
  6
CONTINUOUS
 62
7
 10
-169.000000
 20
-166.000000
 40
1.200000
  0
CIRCLE
  8
0
  6
CONTINUOUS
 62
7
 10
-158.300003
 20
-154.000000
 40
1.200000
  0
CIRCLE
  8
0
  6
CONTINUOUS
 62
7
 10
-151.800003
 20
-154.000000
 40
1.200000
  0
CIRCLE
  8
0
  6
CONTINUOUS
 62
7
 10
233.199997
 20
96.000000
 40
1.200000
  0
CIRCLE
  8
0
  6
CONTINUOUS
 62
7
 10
226.699997
 20
96.000000
 40
1.200000
  0
CIRCLE
  8
0
  6
CONTINUOUS
 62
7
 10
216.000000
 20
84.000000
 40
1.200000
  0
CIRCLE
  8
0
  6
CONTINUOUS
 62
7
 10
171.000000
 20
84.000000
 40
1.200000
  0
CIRCLE
  8
0
  6
CONTINUOUS
 62
7
 10
231.000000
 20
-166.000000
 40
1.200000
  0
CIRCLE
  8
0
  6
CONTINUOUS
 62
7
 10
241.699997
 20
-154.000000
 40
1.200000
  0
CIRCLE
  8
0
  6
CONTINUOUS
 62
7
 10
248.199997
 20
-154.000000
 40
1.200000
  0
CIRCLE
  8
0
  6
CONTINUOUS
 62
7
 10
171.000000
 20
-166.000000
 40
1.200000
  0
CIRCLE
  8
0
  6
CONTINUOUS
 62
7
 10
234.800003
 20
-153.699997
 40
0.800000
  0
CIRCLE
  8
0
  6
CONTINUOUS
 62
7
 10
244.800003
 20
-153.699997
 40
0.800000
  0
CIRCLE
  8
0
  6
CONTINUOUS
 62
7
 10
-175.199997
 20
189.699997
 40
0.800000
  0
CIRCLE
  8
0
  6
CONTINUOUS
 62
7
 10
-175.199997
 20
96.300003
 40
0.800000
  0
CIRCLE
  8
0
  6
CONTINUOUS
 62
7
 10
-165.199997
 20
96.300003
 40
0.800000
  0
CIRCLE
  8
0
  6
CONTINUOUS
 62
7
 10
-165.199997
 20
-153.699997
 40
0.800000
  0
CIRCLE
  8
0
  6
CONTINUOUS
 62
7
 10
-155.199997
 20
-153.699997
 40
0.800000
  0
CIRCLE
  8
0
  6
CONTINUOUS
 62
7
 10
219.800003
 20
96.300003
 40
0.800000
  0
CIRCLE
  8
0
  6
CONTINUOUS
 62
7
 10
229.800003
 20
96.300003
 40
0.800000
  0
ARC
  8
0
  6
CONTINUOUS
 62
7
 10
-263.000000
 20
164.500000
 40
4.250000
 50
49.749901
 51
70.250298
  0
ARC
  8
0
  6
CONTINUOUS
 62
7
 10
-263.000000
 20
164.500000
 40
4.249990
 50
349.750000
 51
10.250200
  0
ARC
  8
0
  6
CONTINUOUS
 62
7
 10
-263.000000
 20
164.500000
 40
4.250000
 50
289.750000
 51
310.250000
  0
ARC
  8
0
  6
CONTINUOUS
 62
7
 10
-263.000000
 20
164.500000
 40
4.250000
 50
229.750000
 51
250.250000
  0
ARC
  8
0
  6
CONTINUOUS
 62
7
 10
-263.000000
 20
164.500000
 40
4.249990
 50
169.750000
 51
190.250000
  0
ARC
  8
0
  6
CONTINUOUS
 62
7
 10
-263.000000
 20
164.500000
 40
4.250000
 50
109.750000
 51
130.250000
  0
CIRCLE
  8
0
  6
CONTINUOUS
 62
7
 10
-263.000000
 20
164.500000
 40
3.000000
  0
CIRCLE
  8
0
  6
CONTINUOUS
 62
2
 10
107.000000
 20
164.500000
 40
2.500000
  0
ARC
  8
0
  6
CONTINUOUS
 62
7
 10
107.000000
 20
164.500000
 40
4.250000
 50
49.749901
 51
70.250099
  0
ARC
  8
0
  6
CONTINUOUS
 62
7
 10
107.000000
 20
164.500000
 40
4.250000
 50
349.750000
 51
10.250100
  0
ARC
  8
0
  6
CONTINUOUS
 62
7
 10
107.000000
 20
164.500000
 40
4.250000
 50
289.750000
 51
310.250000
  0
ARC
  8
0
  6
CONTINUOUS
 62
7
 10
107.000000
 20
164.500000
 40
4.250000
 50
229.750000
 51
250.250000
  0
ARC
  8
0
  6
CONTINUOUS
 62
7
 10
107.000000
 20
164.500000
 40
4.250000
 50
169.750000
 51
190.250000
  0
ARC
  8
0
  6
CONTINUOUS
 62
7
 10
107.000000
 20
164.500000
 40
4.250000
 50
109.750000
 51
130.250000
  0
CIRCLE
  8
0
  6
CONTINUOUS
 62
7
 10
107.000000
 20
164.500000
 40
3.000000
  0
ARC
  8
0
  6
CONTINUOUS
 62
7
 10
-192.500000
 20
193.500000
 40
3.000000
 50
90.000000
 51
180.000000
  0
CIRCLE
  8
0
  6
CONTINUOUS
 62
7
 10
219.800003
 20
189.699997
 40
0.800000
  0
ARC
  8
0
  6
CONTINUOUS
 62
7
 10
177.500000
 20
193.500000
 40
3.000000
 50
90.000000
 51
180.000000
  0
CIRCLE
  8
0
  6
CONTINUOUS
 62
2
 10
219.800003
 20
189.699997
 40
1.000000
  0
CIRCLE
  8
0
  6
CONTINUOUS
 62
7
 10
-165.199997
 20
-60.299999
 40
0.800000
  0
ARC
  8
0
  6
CONTINUOUS
 62
7
 10
-192.500000
 20
-56.500000
 40
3.000000
 50
90.000000
 51
180.000000
  0
CIRCLE
  8
0
  6
CONTINUOUS
 62
2
 10
-165.199997
 20
-60.299999
 40
1.000000
  0
CIRCLE
  8
0
  6
CONTINUOUS
 62
7
 10
234.800003
 20
-60.299999
 40
0.800000
  0
ARC
  8
0
  6
CONTINUOUS
 62
7
 10
177.500000
 20
-56.500000
 40
3.000000
 50
90.000000
 51
180.000000
  0
CIRCLE
  8
0
  6
CONTINUOUS
 62
2
 10
234.800003
 20
-60.299999
 40
1.000000
  0
ARC
  8
0
  6
CONTINUOUS
 62
7
 10
-120.500000
 20
-114.000000
 40
2.300000
 50
180.000000
 51
183.186996
  0
ARC
  8
0
  6
CONTINUOUS
 62
7
 10
-120.500000
 20
-100.000000
 40
2.300000
 50
176.815002
 51
180.000000
  0
ARC
  8
0
  6
CONTINUOUS
 62
7
 10
-118.500000
 20
-98.699997
 40
1.600000
 50
209.998993
 51
330.001007
  0
ARC
  8
0
  6
CONTINUOUS
 62
7
 10
-118.500000
 20
-115.300003
 40
1.600000
 50
29.999399
 51
150.001007
  0
CIRCLE
  8
0
  6
CONTINUOUS
 62
7
 10
-112.000000
 20
-107.000000
 40
6.400000
  0
ARC
  8
0
  6
CONTINUOUS
 62
7
 10
289.500000
 20
136.000000
 40
2.300020
 50
180.000000
 51
183.186996
  0
ARC
  8
0
  6
CONTINUOUS
 62
7
 10
289.500000
 20
150.000000
 40
2.300000
 50
176.815002
 51
180.000000
  0
ARC
  8
0
  6
CONTINUOUS
 62
7
 10
291.500000
 20
151.300003
 40
1.600000
 50
209.998993
 51
330.001007
  0
ARC
  8
0
  6
CONTINUOUS
 62
7
 10
291.500000
 20
134.699997
 40
1.600000
 50
29.999399
 51
150.001007
  0
CIRCLE
  8
0
  6
CONTINUOUS
 62
7
 10
298.000000
 20
143.000000
 40
6.400000
  0
CIRCLE
  8
0
  6
CONTINUOUS
 62
7
 10
-271.000000
 20
-107.000000
 40
6.000000
  0
CIRCLE
  8
0
  6
CONTINUOUS
 62
7
 10
-262.000000
 20
-118.500000
 40
4.000000
  0
CIRCLE
  8
0
  6
CONTINUOUS
 62
7
 10
-262.000000
 20
-95.500000
 40
4.000000
  0
CIRCLE
  8
0
  6
CONTINUOUS
 62
2
 10
-271.000000
 20
-95.000000
 40
2.000000
  0
CIRCLE
  8
0
  6
CONTINUOUS
 62
7
 10
-271.000000
 20
-95.000000
 40
1.650000
  0
CIRCLE
  8
0
  6
CONTINUOUS
 62
2
 10
-262.000000
 20
-107.000000
 40
2.000000
  0
CIRCLE
  8
0
  6
CONTINUOUS
 62
7
 10
-262.000000
 20
-107.000000
 40
1.650000
  0
CIRCLE
  8
0
  6
CONTINUOUS
 62
2
 10
-271.000000
 20
-119.000000
 40
2.000000
  0
CIRCLE
  8
0
  6
CONTINUOUS
 62
7
 10
-271.000000
 20
-119.000000
 40
1.650000
  0
ARC
  8
0
  6
CONTINUOUS
 62
7
 10
-263.000000
 20
-85.500000
 40
4.250000
 50
49.749901
 51
70.250298
  0
ARC
  8
0
  6
CONTINUOUS
 62
7
 10
-263.000000
 20
-85.500000
 40
4.249990
 50
349.750000
 51
10.250100
  0
ARC
  8
0
  6
CONTINUOUS
 62
7
 10
-263.000000
 20
-85.500000
 40
4.250000
 50
289.750000
 51
310.250000
  0
ARC
  8
0
  6
CONTINUOUS
 62
7
 10
-263.000000
 20
-85.500000
 40
4.250000
 50
229.750000
 51
250.250000
  0
ARC
  8
0
  6
CONTINUOUS
 62
7
 10
-263.000000
 20
-85.500000
 40
4.249990
 50
169.750000
 51
190.250000
  0
ARC
  8
0
  6
CONTINUOUS
 62
7
 10
-263.000000
 20
-85.500000
 40
4.250000
 50
109.750000
 51
130.250000
  0
CIRCLE
  8
0
  6
CONTINUOUS
 62
7
 10
-263.000000
 20
-85.500000
 40
3.000000
  0
CIRCLE
  8
0
  6
CONTINUOUS
 62
7
 10
99.000000
 20
-107.000000
 40
6.000000
  0
CIRCLE
  8
0
  6
CONTINUOUS
 62
7
 10
108.000000
 20
-118.500000
 40
4.000000
  0
CIRCLE
  8
0
  6
CONTINUOUS
 62
7
 10
108.000000
 20
-95.500000
 40
4.000000
  0
CIRCLE
  8
0
  6
CONTINUOUS
 62
2
 10
99.000000
 20
-95.000000
 40
2.000000
  0
CIRCLE
  8
0
  6
CONTINUOUS
 62
7
 10
99.000000
 20
-95.000000
 40
1.650000
  0
CIRCLE
  8
0
  6
CONTINUOUS
 62
2
 10
108.000000
 20
-107.000000
 40
2.000000
  0
CIRCLE
  8
0
  6
CONTINUOUS
 62
7
 10
108.000000
 20
-107.000000
 40
1.650000
  0
CIRCLE
  8
0
  6
CONTINUOUS
 62
2
 10
99.000000
 20
-119.000000
 40
2.000000
  0
CIRCLE
  8
0
  6
CONTINUOUS
 62
7
 10
99.000000
 20
-119.000000
 40
1.650000
  0
CIRCLE
  8
0
  6
CONTINUOUS
 62
2
 10
107.000000
 20
-85.500000
 40
2.500000
  0
ARC
  8
0
  6
CONTINUOUS
 62
7
 10
107.000000
 20
-85.500000
 40
4.250000
 50
49.749901
 51
70.250099
  0
ARC
  8
0
  6
CONTINUOUS
 62
7
 10
107.000000
 20
-85.500000
 40
4.250000
 50
349.750000
 51
10.250000
  0
ARC
  8
0
  6
CONTINUOUS
 62
7
 10
107.000000
 20
-85.500000
 40
4.250000
 50
289.750000
 51
310.250000
  0
ARC
  8
0
  6
CONTINUOUS
 62
7
 10
107.000000
 20
-85.500000
 40
4.250000
 50
229.750000
 51
250.250000
  0
ARC
  8
0
  6
CONTINUOUS
 62
7
 10
107.000000
 20
-85.500000
 40
4.250000
 50
169.750000
 51
190.250000
  0
ARC
  8
0
  6
CONTINUOUS
 62
7
 10
107.000000
 20
-85.500000
 40
4.250000
 50
109.750000
 51
130.250000
  0
CIRCLE
  8
0
  6
CONTINUOUS
 62
7
 10
107.000000
 20
-85.500000
 40
3.000000
  0
ARC
  8
0
  6
CONTINUOUS
 62
7
 10
289.500000
 20
-114.000000
 40
2.300020
 50
180.000000
 51
183.186996
  0
ARC
  8
0
  6
CONTINUOUS
 62
7
 10
289.500000
 20
-100.000000
 40
2.300000
 50
176.815002
 51
180.000000
  0
ARC
  8
0
  6
CONTINUOUS
 62
7
 10
291.500000
 20
-98.699997
 40
1.600000
 50
209.998993
 51
330.001007
  0
ARC
  8
0
  6
CONTINUOUS
 62
7
 10
291.500000
 20
-115.300003
 40
1.600000
 50
29.999399
 51
150.001007
  0
CIRCLE
  8
0
  6
CONTINUOUS
 62
7
 10
298.000000
 20
-107.000000
 40
6.400000
  0
TEXT
  8
0
 62
7
 10
249.264832
 20
-267.375000
 40
12.500000
  1
KOGANEI CORP.
 50
0.000000
 41
0.771525
 51
0.000000
  7
STANDARD
  0
TEXT
  8
0
 62
7
 10
292.414673
 20
261.500000
 40
9.000000
  1
Ver.1.0
 50
0.000000
 41
1.010331
 51
0.000000
  7
STANDARD
  0
TEXT
  8
0
 62
7
 10
15.774433
 20
-22.500000
 40
9.000000
  1
MODEL:APU-SD12-60-TP-QS
 50
0.000000
 41
0.774955
 51
0.000000
  7
STANDARD
  0
TEXT
  8
0
 62
7
 10
-346.635315
 20
261.500000
 40
9.000000
  1
AP UNIT
 50
0.000000
 41
0.832036
 51
0.000000
  7
STANDARD
  0
TEXT
  8
0
 62
7
 10
-383.750580
 20
-22.500000
 40
9.000000
  1
MODEL:APU-SD12-30-TP-QS
 50
0.000000
 41
0.774955
 51
0.000000
  7
STANDARD
  0
TEXT
  8
0
 62
7
 10
15.774433
 20
229.000000
 40
9.000000
  1
MODEL:APU-SD12-45-TP-QS
 50
0.000000
 41
0.768804
 51
0.000000
  7
STANDARD
  0
TEXT
  8
0
 62
7
 10
-383.750580
 20
229.000000
 40
9.000000
  1
MODEL:APU-SD12-20-TP-QS
 50
0.000000
 41
0.774955
 51
0.000000
  7
STANDARD
  0
ENDSEC
  0
EOF
