  0
SECTION
  2
HEADER
  0
ENDSEC
  0
SECTION
  2
TABLES
  0
TABLE
  2
LTYPE
 70
     4
  0
LTYPE
  2
CONTINUOUS
 70
    64
  3
Solid line
 72
    65
 73
     0
 40
0.000000
  0
LTYPE
  2
DASHED
 70
    64
  3
__ __ __ __ __ __ __ __ __ __ __ __ __ __ __
 72
    65
 73
     2
 40
3.500000
 49
2.000000
 49
-1.500000
  0
LTYPE
  2
CENTER
 70
    64
  3
____ _ ____ _ ____ _ ____ _ ____ _ ____ _ ____
 72
    65
 73
     4
 40
17.500000
 49
13.000000
 49
-1.500000
 49
1.500000
 49
-1.500000
  0
LTYPE
  2
PHANTOM
 70
    64
  3
_____ _ _ _____ _ _ _____ _ _ _____ _ _ ____  
 72
    65
 73
     6
 40
15.500000
 49
8.000000
 49
-1.500000
 49
1.500000
 49
-1.500000
 49
1.500000
 49
-1.500000
  0
ENDTAB
  0
TABLE
  2
LAYER
 70
     1
  0
LAYER
  2
0
 70
     0
 62
     7
  6
CONTINUOUS
  0
ENDTAB
  0
TABLE
  2
STYLE
 70
     1
  0
STYLE
  2
STANDARD
 70
     0
 40
0.000000
 41
1.000000
 50
0.000000
 71
     0
 42
0.200000
  3
txt
  4
BIGFONT
  0
ENDTAB
  0
TABLE
  2
VIEW
 70
     0
  0
ENDTAB
  0
ENDSEC
  0
SECTION
  2
BLOCKS
  0
ENDSEC
  0
SECTION
  2
ENTITIES
  0
LINE
  8
0
  6
CONTINUOUS
 62
7
 10
-281.250000
 20
195.500000
 11
282.100006
 21
195.500000
  0
LINE
  8
0
  6
CONTINUOUS
 62
7
 10
-281.250000
 20
195.500000
 11
-281.250000
 21
-195.000000
  0
LINE
  8
0
  6
CONTINUOUS
 62
7
 10
282.100006
 20
195.500000
 11
282.100006
 21
-195.000000
  0
LINE
  8
0
  6
CONTINUOUS
 62
7
 10
-281.250000
 20
-195.000000
 11
282.100006
 21
-195.000000
  0
LINE
  8
0
  6
CONTINUOUS
 62
7
 10
162.100006
 20
-175.000000
 11
162.100006
 21
-195.000000
  0
LINE
  8
0
  6
CONTINUOUS
 62
7
 10
162.100006
 20
-175.000000
 11
282.100006
 21
-175.000000
  0
LINE
  8
0
  6
CONTINUOUS
 62
7
 10
162.100006
 20
175.500000
 11
282.100006
 21
175.500000
  0
LINE
  8
0
  6
CONTINUOUS
 62
7
 10
-281.250000
 20
175.500000
 11
-161.250000
 21
175.500000
  0
LINE
  8
0
  6
CONTINUOUS
 62
7
 10
162.100006
 20
195.500000
 11
162.100006
 21
175.500000
  0
LINE
  8
0
  6
CONTINUOUS
 62
7
 10
-161.250000
 20
195.500000
 11
-161.250000
 21
175.500000
  0
LINE
  8
0
  6
CENTER
 62
2
 10
224.000000
 20
28.000000
 11
122.000000
 21
28.000000
  0
LINE
  8
0
  6
CONTINUOUS
 62
7
 10
220.699997
 20
41.500000
 11
123.000000
 21
41.500000
  0
LINE
  8
0
  6
CONTINUOUS
 62
7
 10
220.000000
 20
14.500000
 11
123.000000
 21
14.500000
  0
LINE
  8
0
  6
CONTINUOUS
 62
7
 10
220.000000
 20
21.000000
 11
131.000000
 21
21.000000
  0
LINE
  8
0
  6
CONTINUOUS
 62
7
 10
220.000000
 20
35.000000
 11
131.000000
 21
35.000000
  0
LINE
  8
0
  6
CONTINUOUS
 62
7
 10
223.000000
 20
14.000000
 11
148.649994
 21
14.000000
  0
LINE
  8
0
  6
CONTINUOUS
 62
7
 10
223.000000
 20
42.000000
 11
223.000000
 21
14.000000
  0
LINE
  8
0
  6
CONTINUOUS
 62
7
 10
131.000000
 20
41.500000
 11
131.000000
 21
14.500000
  0
LINE
  8
0
  6
CONTINUOUS
 62
7
 10
220.000000
 20
41.500000
 11
220.000000
 21
14.500000
  0
LINE
  8
0
  6
CONTINUOUS
 62
7
 10
133.000000
 20
14.500000
 11
133.000000
 21
14.000000
  0
LINE
  8
0
  6
CONTINUOUS
 62
7
 10
133.000000
 20
42.000000
 11
133.000000
 21
41.500000
  0
LINE
  8
0
  6
CONTINUOUS
 62
7
 10
145.350006
 20
14.000000
 11
145.350006
 21
14.500000
  0
LINE
  8
0
  6
CONTINUOUS
 62
7
 10
148.649994
 20
14.000000
 11
148.649994
 21
14.500000
  0
LINE
  8
0
  6
CONTINUOUS
 62
7
 10
148.649994
 20
41.500000
 11
148.649994
 21
42.000000
  0
LINE
  8
0
  6
CONTINUOUS
 62
7
 10
145.350006
 20
41.500000
 11
145.350006
 21
42.000000
  0
LINE
  8
0
  6
CONTINUOUS
 62
7
 10
145.350006
 20
14.000000
 11
133.000000
 21
14.000000
  0
LINE
  8
0
  6
CONTINUOUS
 62
7
 10
145.350006
 20
42.000000
 11
133.000000
 21
42.000000
  0
LINE
  8
0
  6
CONTINUOUS
 62
7
 10
123.000000
 20
41.500000
 11
123.000000
 21
14.500000
  0
LINE
  8
0
  6
CENTER
 62
2
 10
140.000000
 20
40.500000
 11
140.000000
 21
35.500000
  0
LINE
  8
0
  6
CENTER
 62
2
 10
137.500000
 20
38.000000
 11
142.500000
 21
38.000000
  0
LINE
  8
0
  6
CENTER
 62
2
 10
140.000000
 20
20.500000
 11
140.000000
 21
15.500000
  0
LINE
  8
0
  6
CENTER
 62
2
 10
137.500000
 20
18.000000
 11
142.500000
 21
18.000000
  0
LINE
  8
0
  6
CENTER
 62
2
 10
206.000000
 20
40.500000
 11
206.000000
 21
35.500000
  0
LINE
  8
0
  6
CENTER
 62
2
 10
203.500000
 20
38.000000
 11
208.500000
 21
38.000000
  0
LINE
  8
0
  6
CENTER
 62
2
 10
172.000000
 20
41.099998
 11
172.000000
 21
35.900002
  0
LINE
  8
0
  6
CENTER
 62
2
 10
169.399994
 20
38.500000
 11
174.600006
 21
38.500000
  0
LINE
  8
0
  6
CENTER
 62
2
 10
206.000000
 20
20.500000
 11
206.000000
 21
15.500000
  0
LINE
  8
0
  6
CENTER
 62
2
 10
203.500000
 20
18.000000
 11
208.500000
 21
18.000000
  0
LINE
  8
0
  6
CENTER
 62
2
 10
188.000000
 20
40.500000
 11
188.000000
 21
35.500000
  0
LINE
  8
0
  6
CENTER
 62
2
 10
185.500000
 20
38.000000
 11
190.500000
 21
38.000000
  0
LINE
  8
0
  6
CENTER
 62
2
 10
188.000000
 20
20.500000
 11
188.000000
 21
15.500000
  0
LINE
  8
0
  6
CENTER
 62
2
 10
185.500000
 20
18.000000
 11
190.500000
 21
18.000000
  0
LINE
  8
0
  6
CONTINUOUS
 62
7
 10
221.199997
 20
14.700000
 11
220.000000
 21
14.700000
  0
LINE
  8
0
  6
CONTINUOUS
 62
7
 10
221.199997
 20
19.250000
 11
221.199997
 21
14.700000
  0
LINE
  8
0
  6
CONTINUOUS
 62
7
 10
221.199997
 20
33.250000
 11
221.199997
 21
22.750000
  0
LINE
  8
0
  6
CONTINUOUS
 62
7
 10
220.600006
 20
33.250000
 11
220.600006
 21
36.750000
  0
LINE
  8
0
  6
CONTINUOUS
 62
7
 10
220.600006
 20
33.250000
 11
221.600006
 21
33.250000
  0
LINE
  8
0
  6
CONTINUOUS
 62
7
 10
221.600006
 20
33.250000
 11
221.600006
 21
36.750000
  0
LINE
  8
0
  6
CONTINUOUS
 62
7
 10
220.600006
 20
36.750000
 11
221.600006
 21
36.750000
  0
LINE
  8
0
  6
CONTINUOUS
 62
7
 10
221.199997
 20
36.750000
 11
221.199997
 21
41.299999
  0
LINE
  8
0
  6
CONTINUOUS
 62
7
 10
221.199997
 20
41.299999
 11
220.000000
 21
41.299999
  0
LINE
  8
0
  6
CONTINUOUS
 62
7
 10
135.100006
 20
42.599998
 11
135.100006
 21
42.000000
  0
LINE
  8
0
  6
CONTINUOUS
 62
7
 10
220.600006
 20
22.750000
 11
220.600006
 21
19.250000
  0
LINE
  8
0
  6
CONTINUOUS
 62
7
 10
220.600006
 20
22.750000
 11
221.600006
 21
22.750000
  0
LINE
  8
0
  6
CONTINUOUS
 62
7
 10
221.600006
 20
19.250000
 11
221.600006
 21
22.750000
  0
LINE
  8
0
  6
CONTINUOUS
 62
7
 10
220.600006
 20
19.250000
 11
221.600006
 21
19.250000
  0
LINE
  8
0
  6
DASHED
 62
2
 10
148.649994
 20
17.500000
 11
148.649994
 21
14.500000
  0
LINE
  8
0
  6
DASHED
 62
2
 10
145.350006
 20
17.500000
 11
145.350006
 21
14.500000
  0
LINE
  8
0
  6
DASHED
 62
2
 10
148.649994
 20
38.500000
 11
148.649994
 21
41.500000
  0
LINE
  8
0
  6
DASHED
 62
2
 10
145.350006
 20
38.500000
 11
145.350006
 21
41.500000
  0
LINE
  8
0
  6
CENTER
 62
2
 10
209.000000
 20
42.500000
 11
209.000000
 21
34.500000
  0
LINE
  8
0
  6
CENTER
 62
2
 10
205.000000
 20
38.500000
 11
213.000000
 21
38.500000
  0
LINE
  8
0
  6
CENTER
 62
2
 10
209.000000
 20
21.500000
 11
209.000000
 21
13.500000
  0
LINE
  8
0
  6
CENTER
 62
2
 10
205.000000
 20
17.500000
 11
213.000000
 21
17.500000
  0
LINE
  8
0
  6
CENTER
 62
2
 10
147.000000
 20
21.500000
 11
147.000000
 21
13.500000
  0
LINE
  8
0
  6
CENTER
 62
2
 10
143.000000
 20
17.500000
 11
151.000000
 21
17.500000
  0
LINE
  8
0
  6
CENTER
 62
2
 10
147.000000
 20
42.500000
 11
147.000000
 21
34.500000
  0
LINE
  8
0
  6
CENTER
 62
2
 10
143.000000
 20
38.500000
 11
151.000000
 21
38.500000
  0
LINE
  8
0
  6
CENTER
 62
2
 10
139.000000
 20
45.000099
 11
139.000000
 21
41.000000
  0
LINE
  8
0
  6
CONTINUOUS
 62
7
 10
143.000000
 20
42.599998
 11
143.000000
 21
42.000000
  0
LINE
  8
0
  6
CONTINUOUS
 62
7
 10
135.500000
 20
44.000099
 11
135.500000
 21
42.599998
  0
LINE
  8
0
  6
CONTINUOUS
 62
7
 10
142.500000
 20
44.000099
 11
142.500000
 21
42.599998
  0
LINE
  8
0
  6
CONTINUOUS
 62
7
 10
143.000000
 20
42.599998
 11
135.100006
 21
42.599998
  0
LINE
  8
0
  6
CENTER
 62
2
 10
121.000000
 20
38.000000
 11
125.000000
 21
38.000000
  0
LINE
  8
0
  6
CENTER
 62
2
 10
121.000000
 20
18.000000
 11
125.000000
 21
18.000000
  0
LINE
  8
0
  6
CONTINUOUS
 62
7
 10
118.000000
 20
41.500000
 11
118.000000
 21
35.000000
  0
LINE
  8
0
  6
CONTINUOUS
 62
7
 10
117.699997
 20
34.700001
 11
117.699997
 21
21.299999
  0
LINE
  8
0
  6
CONTINUOUS
 62
7
 10
118.000000
 20
14.500000
 11
118.000000
 21
21.000000
  0
LINE
  8
0
  6
CONTINUOUS
 62
7
 10
118.000000
 20
14.500000
 11
99.000000
 21
14.500000
  0
LINE
  8
0
  6
CONTINUOUS
 62
7
 10
118.000000
 20
41.500000
 11
99.000000
 21
41.500000
  0
LINE
  8
0
  6
CONTINUOUS
 62
7
 10
118.000000
 20
35.000000
 11
117.699997
 21
34.700001
  0
LINE
  8
0
  6
CONTINUOUS
 62
7
 10
118.000000
 20
21.000000
 11
117.699997
 21
21.299999
  0
LINE
  8
0
  6
CONTINUOUS
 62
7
 10
107.500000
 20
14.000000
 11
107.500000
 21
14.500000
  0
LINE
  8
0
  6
CONTINUOUS
 62
7
 10
98.000000
 20
14.000000
 11
98.000000
 21
42.000000
  0
LINE
  8
0
  6
CONTINUOUS
 62
7
 10
107.500000
 20
14.000000
 11
98.000000
 21
14.000000
  0
LINE
  8
0
  6
CONTINUOUS
 62
7
 10
99.000000
 20
14.500000
 11
99.000000
 21
41.500000
  0
LINE
  8
0
  6
CONTINUOUS
 62
7
 10
117.500000
 20
41.500000
 11
117.500000
 21
14.500000
  0
LINE
  8
0
  6
CONTINUOUS
 62
7
 10
117.500000
 20
42.000000
 11
98.000000
 21
42.000000
  0
LINE
  8
0
  6
CONTINUOUS
 62
7
 10
107.500000
 20
42.000000
 11
107.500000
 21
41.500000
  0
LINE
  8
0
  6
CONTINUOUS
 62
7
 10
99.458603
 20
45.500000
 11
99.458603
 21
42.599998
  0
LINE
  8
0
  6
CONTINUOUS
 62
7
 10
101.478996
 20
45.500000
 11
101.478996
 21
42.599998
  0
LINE
  8
0
  6
CONTINUOUS
 62
7
 10
105.521004
 20
45.500000
 11
105.521004
 21
42.599998
  0
LINE
  8
0
  6
CONTINUOUS
 62
7
 10
107.541000
 20
45.500000
 11
99.458603
 21
45.500000
  0
LINE
  8
0
  6
CONTINUOUS
 62
7
 10
107.541000
 20
45.500000
 11
107.541000
 21
42.599998
  0
LINE
  8
0
  6
CONTINUOUS
 62
7
 10
107.541000
 20
42.599998
 11
99.458603
 21
42.599998
  0
LINE
  8
0
  6
CONTINUOUS
 62
7
 10
107.400002
 20
42.599998
 11
107.400002
 21
42.000000
  0
LINE
  8
0
  6
CONTINUOUS
 62
7
 10
99.599998
 20
42.599998
 11
99.599998
 21
42.000000
  0
LINE
  8
0
  6
CENTER
 62
2
 10
105.000000
 20
41.000000
 11
105.000000
 21
15.000000
  0
LINE
  8
0
  6
CENTER
 62
2
 10
97.000000
 20
28.000000
 11
119.000000
 21
28.000000
  0
LINE
  8
0
  6
CENTER
 62
2
 10
114.000000
 20
31.000000
 11
114.000000
 21
25.000000
  0
LINE
  8
0
  6
CENTER
 62
2
 10
102.000000
 20
38.000000
 11
118.000000
 21
38.000000
  0
LINE
  8
0
  6
CENTER
 62
2
 10
114.000000
 20
42.000000
 11
114.000000
 21
34.000000
  0
LINE
  8
0
  6
CENTER
 62
2
 10
102.000000
 20
18.000000
 11
118.000000
 21
18.000000
  0
LINE
  8
0
  6
CENTER
 62
2
 10
114.000000
 20
22.000000
 11
114.000000
 21
14.000000
  0
LINE
  8
0
  6
CENTER
 62
2
 10
103.500000
 20
46.500000
 11
103.500000
 21
41.000000
  0
LINE
  8
0
  6
CONTINUOUS
 62
7
 10
131.000000
 20
91.500000
 11
131.000000
 21
83.000000
  0
LINE
  8
0
  6
CONTINUOUS
 62
7
 10
123.000000
 20
91.500000
 11
123.000000
 21
73.000000
  0
LINE
  8
0
  6
CONTINUOUS
 62
7
 10
131.000000
 20
89.500000
 11
133.000000
 21
89.500000
  0
LINE
  8
0
  6
CONTINUOUS
 62
7
 10
123.000000
 20
91.500000
 11
131.000000
 21
91.500000
  0
LINE
  8
0
  6
CONTINUOUS
 62
7
 10
123.000000
 20
73.000000
 11
131.000000
 21
73.000000
  0
LINE
  8
0
  6
CONTINUOUS
 62
7
 10
131.000000
 20
72.500000
 11
220.000000
 21
72.500000
  0
LINE
  8
0
  6
CONTINUOUS
 62
7
 10
133.000000
 20
92.500000
 11
133.000000
 21
83.000000
  0
LINE
  8
0
  6
CONTINUOUS
 62
7
 10
223.000000
 20
92.500000
 11
223.000000
 21
92.000000
  0
LINE
  8
0
  6
CONTINUOUS
 62
7
 10
133.000000
 20
92.500000
 11
223.000000
 21
92.500000
  0
LINE
  8
0
  6
DASHED
 62
2
 10
212.000000
 20
87.000000
 11
206.000000
 21
87.000000
  0
LINE
  8
0
  6
CONTINUOUS
 62
7
 10
129.199997
 20
83.000000
 11
147.500000
 21
83.000000
  0
LINE
  8
0
  6
DASHED
 62
2
 10
162.000000
 20
88.500000
 11
156.000000
 21
88.500000
  0
LINE
  8
0
  6
CONTINUOUS
 62
7
 10
160.199997
 20
82.500000
 11
220.699997
 21
82.500000
  0
LINE
  8
0
  6
CONTINUOUS
 62
7
 10
143.800003
 20
87.000000
 11
149.500000
 21
87.000000
  0
LINE
  8
0
  6
CONTINUOUS
 62
7
 10
220.000000
 20
82.500000
 11
220.000000
 21
82.000000
  0
LINE
  8
0
  6
CONTINUOUS
 62
7
 10
145.350006
 20
92.500000
 11
145.350006
 21
87.000000
  0
LINE
  8
0
  6
DASHED
 62
2
 10
144.000000
 20
87.500000
 11
145.350006
 21
87.500000
  0
LINE
  8
0
  6
CENTER
 62
2
 10
147.000000
 20
93.500000
 11
147.000000
 21
86.000000
  0
LINE
  8
0
  6
CONTINUOUS
 62
7
 10
148.649994
 20
92.500000
 11
148.649994
 21
87.000000
  0
LINE
  8
0
  6
CONTINUOUS
 62
7
 10
139.000000
 20
82.958603
 11
142.500000
 21
84.979301
  0
LINE
  8
0
  6
CONTINUOUS
 62
7
 10
142.500000
 20
89.020798
 11
142.500000
 21
84.979301
  0
LINE
  8
0
  6
CONTINUOUS
 62
7
 10
139.000000
 20
91.041397
 11
142.500000
 21
89.020699
  0
LINE
  8
0
  6
CONTINUOUS
 62
7
 10
135.500000
 20
89.020798
 11
139.000000
 21
91.041496
  0
LINE
  8
0
  6
CONTINUOUS
 62
7
 10
135.500000
 20
84.979301
 11
135.500000
 21
89.020798
  0
LINE
  8
0
  6
CONTINUOUS
 62
7
 10
142.500000
 20
87.500000
 11
135.500000
 21
87.500000
  0
LINE
  8
0
  6
CONTINUOUS
 62
7
 10
142.500000
 20
86.500000
 11
135.500000
 21
86.500000
  0
LINE
  8
0
  6
CONTINUOUS
 62
7
 10
135.500000
 20
84.979202
 11
139.000000
 21
82.958504
  0
LINE
  8
0
  6
CONTINUOUS
 62
7
 10
220.000000
 20
73.000000
 11
223.000000
 21
73.000000
  0
LINE
  8
0
  6
CONTINUOUS
 62
7
 10
221.199997
 20
73.500000
 11
221.199997
 21
73.000000
  0
LINE
  8
0
  6
CENTER
 62
2
 10
139.000000
 20
92.041496
 11
139.000000
 21
81.958603
  0
LINE
  8
0
  6
CENTER
 62
2
 10
133.959000
 20
87.000000
 11
144.041000
 21
87.000000
  0
LINE
  8
0
  6
CENTER
 62
2
 10
202.850006
 20
78.199997
 11
202.850006
 21
74.199997
  0
LINE
  8
0
  6
CENTER
 62
2
 10
200.850006
 20
76.199997
 11
204.850006
 21
76.199997
  0
LINE
  8
0
  6
CENTER
 62
2
 10
159.000000
 20
93.500000
 11
159.000000
 21
87.500000
  0
LINE
  8
0
  6
DASHED
 62
2
 10
157.000000
 20
90.900002
 11
157.000000
 21
88.500000
  0
LINE
  8
0
  6
DASHED
 62
2
 10
161.000000
 20
90.900002
 11
161.000000
 21
88.500000
  0
LINE
  8
0
  6
DASHED
 62
2
 10
156.500000
 20
92.500000
 11
156.500000
 21
90.900002
  0
LINE
  8
0
  6
DASHED
 62
2
 10
161.500000
 20
92.500000
 11
161.500000
 21
90.900002
  0
LINE
  8
0
  6
DASHED
 62
2
 10
207.000000
 20
92.500000
 11
207.000000
 21
87.500000
  0
LINE
  8
0
  6
CENTER
 62
2
 10
209.000000
 20
93.500000
 11
209.000000
 21
86.000000
  0
LINE
  8
0
  6
DASHED
 62
2
 10
206.000000
 20
87.500000
 11
206.000000
 21
86.992500
  0
LINE
  8
0
  6
DASHED
 62
2
 10
206.000000
 20
87.500000
 11
212.000000
 21
87.500000
  0
LINE
  8
0
  6
DASHED
 62
2
 10
212.000000
 20
87.500000
 11
212.000000
 21
87.000000
  0
LINE
  8
0
  6
DASHED
 62
2
 10
211.000000
 20
92.500000
 11
211.000000
 21
87.500000
  0
LINE
  8
0
  6
CENTER
 62
2
 10
140.000000
 20
74.500000
 11
140.000000
 21
70.500000
  0
LINE
  8
0
  6
CENTER
 62
2
 10
158.000000
 20
74.500000
 11
158.000000
 21
70.500000
  0
LINE
  8
0
  6
CENTER
 62
2
 10
206.000000
 20
74.500000
 11
206.000000
 21
70.500000
  0
LINE
  8
0
  6
CENTER
 62
2
 10
121.000000
 20
85.500000
 11
125.000000
 21
85.500000
  0
LINE
  8
0
  6
CENTER
 62
2
 10
121.000000
 20
76.500000
 11
125.000000
 21
76.500000
  0
LINE
  8
0
  6
DASHED
 62
2
 10
144.000000
 20
87.500000
 11
144.000000
 21
87.000000
  0
LINE
  8
0
  6
DASHED
 62
2
 10
150.000000
 20
87.500000
 11
150.000000
 21
87.000000
  0
LINE
  8
0
  6
CONTINUOUS
 62
7
 10
145.350006
 20
87.500000
 11
148.649994
 21
87.500000
  0
LINE
  8
0
  6
DASHED
 62
2
 10
148.649994
 20
87.500000
 11
150.000000
 21
87.500000
  0
LINE
  8
0
  6
CONTINUOUS
 62
7
 10
131.000000
 20
-102.000000
 11
131.000000
 21
-75.000000
  0
LINE
  8
0
  6
CONTINUOUS
 62
7
 10
148.649994
 20
-102.000000
 11
145.350006
 21
-102.000000
  0
LINE
  8
0
  6
CONTINUOUS
 62
7
 10
148.649994
 20
-75.000000
 11
145.350006
 21
-75.000000
  0
LINE
  8
0
  6
CONTINUOUS
 62
7
 10
133.000000
 20
-102.500000
 11
133.000000
 21
-74.500000
  0
LINE
  8
0
  6
CONTINUOUS
 62
7
 10
223.000000
 20
-74.500000
 11
148.649994
 21
-74.500000
  0
LINE
  8
0
  6
CONTINUOUS
 62
7
 10
223.000000
 20
-102.500000
 11
223.000000
 21
-74.500000
  0
LINE
  8
0
  6
CENTER
 62
2
 10
224.000000
 20
-88.500000
 11
122.000000
 21
-88.500000
  0
LINE
  8
0
  6
CONTINUOUS
 62
7
 10
234.500000
 20
-102.500000
 11
148.649994
 21
-102.500000
  0
LINE
  8
0
  6
CONTINUOUS
 62
7
 10
145.350006
 20
-74.500000
 11
133.000000
 21
-74.500000
  0
LINE
  8
0
  6
CONTINUOUS
 62
7
 10
145.350006
 20
-102.500000
 11
133.000000
 21
-102.500000
  0
LINE
  8
0
  6
CONTINUOUS
 62
7
 10
133.000000
 20
-75.000000
 11
123.000000
 21
-75.000000
  0
LINE
  8
0
  6
CONTINUOUS
 62
7
 10
133.000000
 20
-102.000000
 11
123.000000
 21
-102.000000
  0
LINE
  8
0
  6
CONTINUOUS
 62
7
 10
123.000000
 20
-102.000000
 11
123.000000
 21
-75.000000
  0
LINE
  8
0
  6
CONTINUOUS
 62
7
 10
133.000000
 20
-92.500000
 11
131.000000
 21
-92.500000
  0
LINE
  8
0
  6
CONTINUOUS
 62
7
 10
133.000000
 20
-84.500000
 11
131.000000
 21
-84.500000
  0
LINE
  8
0
  6
CONTINUOUS
 62
7
 10
142.500000
 20
-106.000000
 11
135.500000
 21
-106.000000
  0
LINE
  8
0
  6
CENTER
 62
2
 10
147.000000
 20
-75.349998
 11
147.000000
 21
-80.650002
  0
LINE
  8
0
  6
CENTER
 62
2
 10
144.350006
 20
-78.000000
 11
149.649994
 21
-78.000000
  0
LINE
  8
0
  6
CENTER
 62
2
 10
147.000000
 20
-96.349998
 11
147.000000
 21
-101.650002
  0
LINE
  8
0
  6
CENTER
 62
2
 10
144.350006
 20
-99.000000
 11
149.649994
 21
-99.000000
  0
LINE
  8
0
  6
CENTER
 62
2
 10
159.000000
 20
-95.500000
 11
159.000000
 21
-102.500000
  0
LINE
  8
0
  6
CENTER
 62
2
 10
155.500000
 20
-99.000000
 11
161.500000
 21
-99.000000
  0
LINE
  8
0
  6
CENTER
 62
2
 10
159.000000
 20
-74.500000
 11
159.000000
 21
-81.500000
  0
LINE
  8
0
  6
CENTER
 62
2
 10
155.500000
 20
-78.000000
 11
162.500000
 21
-78.000000
  0
LINE
  8
0
  6
CENTER
 62
2
 10
209.000000
 20
-75.000000
 11
209.000000
 21
-81.000000
  0
LINE
  8
0
  6
CENTER
 62
2
 10
206.000000
 20
-78.000000
 11
212.000000
 21
-78.000000
  0
LINE
  8
0
  6
CENTER
 62
2
 10
209.000000
 20
-96.000000
 11
209.000000
 21
-102.000000
  0
LINE
  8
0
  6
CENTER
 62
2
 10
206.000000
 20
-99.000000
 11
212.000000
 21
-99.000000
  0
LINE
  8
0
  6
CONTINUOUS
 62
7
 10
145.350006
 20
-74.500000
 11
145.350006
 21
-78.000000
  0
LINE
  8
0
  6
CONTINUOUS
 62
7
 10
148.649994
 20
-74.500000
 11
148.649994
 21
-78.000000
  0
LINE
  8
0
  6
CONTINUOUS
 62
7
 10
145.350006
 20
-99.000000
 11
145.350006
 21
-102.500000
  0
LINE
  8
0
  6
CONTINUOUS
 62
7
 10
148.649994
 20
-99.000000
 11
148.649994
 21
-102.500000
  0
LINE
  8
0
  6
CENTER
 62
2
 10
139.000000
 20
-101.500000
 11
139.000000
 21
-107.000000
  0
LINE
  8
0
  6
CONTINUOUS
 62
7
 10
142.899994
 20
-103.099998
 11
135.100006
 21
-103.099998
  0
LINE
  8
0
  6
CONTINUOUS
 62
7
 10
135.100006
 20
-102.500000
 11
135.100006
 21
-103.099998
  0
LINE
  8
0
  6
CONTINUOUS
 62
7
 10
142.899994
 20
-102.500000
 11
142.899994
 21
-103.099998
  0
LINE
  8
0
  6
CONTINUOUS
 62
7
 10
142.500000
 20
-103.099998
 11
142.500000
 21
-106.000000
  0
LINE
  8
0
  6
CONTINUOUS
 62
7
 10
135.500000
 20
-103.099998
 11
135.500000
 21
-106.000000
  0
LINE
  8
0
  6
CONTINUOUS
 62
7
 10
-47.000000
 20
-102.000000
 11
-47.000000
 21
-75.000000
  0
LINE
  8
0
  6
CONTINUOUS
 62
7
 10
-29.350000
 20
-102.000000
 11
-32.650002
 21
-102.000000
  0
LINE
  8
0
  6
CONTINUOUS
 62
7
 10
-29.350000
 20
-75.000000
 11
-32.650002
 21
-75.000000
  0
LINE
  8
0
  6
CONTINUOUS
 62
7
 10
-45.000000
 20
-102.500000
 11
-45.000000
 21
-74.500000
  0
LINE
  8
0
  6
CONTINUOUS
 62
7
 10
30.000000
 20
-74.500000
 11
-29.350000
 21
-74.500000
  0
LINE
  8
0
  6
CONTINUOUS
 62
7
 10
30.000000
 20
-102.500000
 11
30.000000
 21
-74.500000
  0
LINE
  8
0
  6
CENTER
 62
2
 10
31.000000
 20
-88.500000
 11
-56.000000
 21
-88.500000
  0
LINE
  8
0
  6
CONTINUOUS
 62
7
 10
41.500000
 20
-102.500000
 11
-29.350000
 21
-102.500000
  0
LINE
  8
0
  6
CONTINUOUS
 62
7
 10
-32.650002
 20
-74.500000
 11
-45.000000
 21
-74.500000
  0
LINE
  8
0
  6
CONTINUOUS
 62
7
 10
-32.650002
 20
-102.500000
 11
-45.000000
 21
-102.500000
  0
LINE
  8
0
  6
CONTINUOUS
 62
7
 10
-45.000000
 20
-75.000000
 11
-55.000000
 21
-75.000000
  0
LINE
  8
0
  6
CONTINUOUS
 62
7
 10
-45.000000
 20
-102.000000
 11
-55.000000
 21
-102.000000
  0
LINE
  8
0
  6
CONTINUOUS
 62
7
 10
-55.000000
 20
-102.000000
 11
-55.000000
 21
-75.000000
  0
LINE
  8
0
  6
CONTINUOUS
 62
7
 10
-45.000000
 20
-92.500000
 11
-47.000000
 21
-92.500000
  0
LINE
  8
0
  6
CONTINUOUS
 62
7
 10
-45.000000
 20
-84.500000
 11
-47.000000
 21
-84.500000
  0
LINE
  8
0
  6
CONTINUOUS
 62
7
 10
-35.500000
 20
-106.000000
 11
-42.500000
 21
-106.000000
  0
LINE
  8
0
  6
CENTER
 62
2
 10
-31.000000
 20
-75.349998
 11
-31.000000
 21
-80.650002
  0
LINE
  8
0
  6
CENTER
 62
2
 10
-33.650002
 20
-78.000000
 11
-28.350000
 21
-78.000000
  0
LINE
  8
0
  6
CENTER
 62
2
 10
-31.000000
 20
-96.349998
 11
-31.000000
 21
-101.650002
  0
LINE
  8
0
  6
CENTER
 62
2
 10
-33.650002
 20
-99.000000
 11
-28.350000
 21
-99.000000
  0
LINE
  8
0
  6
CENTER
 62
2
 10
-19.000000
 20
-95.500000
 11
-19.000000
 21
-102.500000
  0
LINE
  8
0
  6
CENTER
 62
2
 10
-22.500000
 20
-99.000000
 11
-15.500000
 21
-99.000000
  0
LINE
  8
0
  6
CENTER
 62
2
 10
-19.000000
 20
-74.500000
 11
-19.000000
 21
-81.500000
  0
LINE
  8
0
  6
CENTER
 62
2
 10
-22.500000
 20
-78.000000
 11
-15.500000
 21
-78.000000
  0
LINE
  8
0
  6
CENTER
 62
2
 10
16.000000
 20
-75.000000
 11
16.000000
 21
-81.000000
  0
LINE
  8
0
  6
CENTER
 62
2
 10
13.000000
 20
-78.000000
 11
19.000000
 21
-78.000000
  0
LINE
  8
0
  6
CENTER
 62
2
 10
16.000000
 20
-96.000000
 11
16.000000
 21
-102.000000
  0
LINE
  8
0
  6
CENTER
 62
2
 10
13.000000
 20
-99.000000
 11
19.000000
 21
-99.000000
  0
LINE
  8
0
  6
CONTINUOUS
 62
7
 10
-32.650002
 20
-74.500000
 11
-32.650002
 21
-78.000000
  0
LINE
  8
0
  6
CONTINUOUS
 62
7
 10
-29.350000
 20
-74.500000
 11
-29.350000
 21
-78.000000
  0
LINE
  8
0
  6
CONTINUOUS
 62
7
 10
-32.650002
 20
-99.000000
 11
-32.650002
 21
-102.500000
  0
LINE
  8
0
  6
CONTINUOUS
 62
7
 10
-29.350000
 20
-99.000000
 11
-29.350000
 21
-102.500000
  0
LINE
  8
0
  6
CENTER
 62
2
 10
-39.000000
 20
-101.500000
 11
-39.000000
 21
-107.000000
  0
LINE
  8
0
  6
CONTINUOUS
 62
7
 10
-35.099998
 20
-103.099998
 11
-42.900002
 21
-103.099998
  0
LINE
  8
0
  6
CONTINUOUS
 62
7
 10
-42.900002
 20
-102.500000
 11
-42.900002
 21
-103.099998
  0
LINE
  8
0
  6
CONTINUOUS
 62
7
 10
-35.099998
 20
-102.500000
 11
-35.099998
 21
-103.099998
  0
LINE
  8
0
  6
CONTINUOUS
 62
7
 10
-35.500000
 20
-103.099998
 11
-35.500000
 21
-106.000000
  0
LINE
  8
0
  6
CONTINUOUS
 62
7
 10
-42.500000
 20
-103.099998
 11
-42.500000
 21
-106.000000
  0
LINE
  8
0
  6
CENTER
 62
2
 10
31.000000
 20
28.000000
 11
-56.000000
 21
28.000000
  0
LINE
  8
0
  6
CONTINUOUS
 62
7
 10
27.700001
 20
41.500000
 11
-55.000000
 21
41.500000
  0
LINE
  8
0
  6
CONTINUOUS
 62
7
 10
27.000000
 20
14.500000
 11
-55.000000
 21
14.500000
  0
LINE
  8
0
  6
CONTINUOUS
 62
7
 10
27.000000
 20
21.000000
 11
-47.000000
 21
21.000000
  0
LINE
  8
0
  6
CONTINUOUS
 62
7
 10
27.000000
 20
35.000000
 11
-47.000000
 21
35.000000
  0
LINE
  8
0
  6
CONTINUOUS
 62
7
 10
30.000000
 20
14.000000
 11
-29.350000
 21
14.000000
  0
LINE
  8
0
  6
CONTINUOUS
 62
7
 10
30.000000
 20
42.000000
 11
30.000000
 21
14.000000
  0
LINE
  8
0
  6
CONTINUOUS
 62
7
 10
-47.000000
 20
41.500000
 11
-47.000000
 21
14.500000
  0
LINE
  8
0
  6
CONTINUOUS
 62
7
 10
27.000000
 20
41.500000
 11
27.000000
 21
14.500000
  0
LINE
  8
0
  6
CONTINUOUS
 62
7
 10
-45.000000
 20
14.500000
 11
-45.000000
 21
14.000000
  0
LINE
  8
0
  6
CONTINUOUS
 62
7
 10
-45.000000
 20
42.000000
 11
-45.000000
 21
41.500000
  0
LINE
  8
0
  6
CONTINUOUS
 62
7
 10
-32.650002
 20
14.000000
 11
-32.650002
 21
14.500000
  0
LINE
  8
0
  6
CONTINUOUS
 62
7
 10
-29.350000
 20
14.000000
 11
-29.350000
 21
14.500000
  0
LINE
  8
0
  6
CONTINUOUS
 62
7
 10
-29.350000
 20
41.500000
 11
-29.350000
 21
42.000000
  0
LINE
  8
0
  6
CONTINUOUS
 62
7
 10
-32.650002
 20
41.500000
 11
-32.650002
 21
42.000000
  0
LINE
  8
0
  6
CONTINUOUS
 62
7
 10
-32.650002
 20
14.000000
 11
-45.000000
 21
14.000000
  0
LINE
  8
0
  6
CONTINUOUS
 62
7
 10
-32.650002
 20
42.000000
 11
-45.000000
 21
42.000000
  0
LINE
  8
0
  6
CONTINUOUS
 62
7
 10
-55.000000
 20
41.500000
 11
-55.000000
 21
14.500000
  0
LINE
  8
0
  6
CENTER
 62
2
 10
-38.000000
 20
40.500000
 11
-38.000000
 21
35.500000
  0
LINE
  8
0
  6
CENTER
 62
2
 10
-40.500000
 20
38.000000
 11
-35.500000
 21
38.000000
  0
LINE
  8
0
  6
CENTER
 62
2
 10
-38.000000
 20
20.500000
 11
-38.000000
 21
15.500000
  0
LINE
  8
0
  6
CENTER
 62
2
 10
-40.500000
 20
18.000000
 11
-35.500000
 21
18.000000
  0
LINE
  8
0
  6
CENTER
 62
2
 10
13.000000
 20
40.500000
 11
13.000000
 21
35.500000
  0
LINE
  8
0
  6
CENTER
 62
2
 10
10.500000
 20
38.000000
 11
15.500000
 21
38.000000
  0
LINE
  8
0
  6
CENTER
 62
2
 10
-16.000000
 20
41.099998
 11
-16.000000
 21
35.900002
  0
LINE
  8
0
  6
CENTER
 62
2
 10
-18.600000
 20
38.500000
 11
-13.400000
 21
38.500000
  0
LINE
  8
0
  6
CENTER
 62
2
 10
13.000000
 20
20.500000
 11
13.000000
 21
15.500000
  0
LINE
  8
0
  6
CENTER
 62
2
 10
10.500000
 20
18.000000
 11
15.500000
 21
18.000000
  0
LINE
  8
0
  6
CENTER
 62
2
 10
-20.000000
 20
40.500000
 11
-20.000000
 21
35.500000
  0
LINE
  8
0
  6
CENTER
 62
2
 10
-22.500000
 20
38.000000
 11
-17.500000
 21
38.000000
  0
LINE
  8
0
  6
CENTER
 62
2
 10
-20.000000
 20
20.500000
 11
-20.000000
 21
15.500000
  0
LINE
  8
0
  6
CENTER
 62
2
 10
-22.500000
 20
18.000000
 11
-17.500000
 21
18.000000
  0
LINE
  8
0
  6
CONTINUOUS
 62
7
 10
28.200001
 20
14.700000
 11
27.000000
 21
14.700000
  0
LINE
  8
0
  6
CONTINUOUS
 62
7
 10
28.200001
 20
19.250000
 11
28.200001
 21
14.700000
  0
LINE
  8
0
  6
CONTINUOUS
 62
7
 10
28.200001
 20
33.250000
 11
28.200001
 21
22.750000
  0
LINE
  8
0
  6
CONTINUOUS
 62
7
 10
27.600000
 20
33.250000
 11
27.600000
 21
36.750000
  0
LINE
  8
0
  6
CONTINUOUS
 62
7
 10
27.600000
 20
33.250000
 11
28.600000
 21
33.250000
  0
LINE
  8
0
  6
CONTINUOUS
 62
7
 10
28.600000
 20
33.250000
 11
28.600000
 21
36.750000
  0
LINE
  8
0
  6
CONTINUOUS
 62
7
 10
27.600000
 20
36.750000
 11
28.600000
 21
36.750000
  0
LINE
  8
0
  6
CONTINUOUS
 62
7
 10
28.200001
 20
36.750000
 11
28.200001
 21
41.299999
  0
LINE
  8
0
  6
CONTINUOUS
 62
7
 10
28.200001
 20
41.299999
 11
27.000000
 21
41.299999
  0
LINE
  8
0
  6
CONTINUOUS
 62
7
 10
-42.900002
 20
42.599998
 11
-42.900002
 21
42.000000
  0
LINE
  8
0
  6
CONTINUOUS
 62
7
 10
27.600000
 20
22.750000
 11
27.600000
 21
19.250000
  0
LINE
  8
0
  6
CONTINUOUS
 62
7
 10
27.600000
 20
22.750000
 11
28.600000
 21
22.750000
  0
LINE
  8
0
  6
CONTINUOUS
 62
7
 10
28.600000
 20
19.250000
 11
28.600000
 21
22.750000
  0
LINE
  8
0
  6
CONTINUOUS
 62
7
 10
27.600000
 20
19.250000
 11
28.600000
 21
19.250000
  0
LINE
  8
0
  6
DASHED
 62
2
 10
-29.350000
 20
17.500000
 11
-29.350000
 21
14.500000
  0
LINE
  8
0
  6
DASHED
 62
2
 10
-32.650002
 20
17.500000
 11
-32.650002
 21
14.500000
  0
LINE
  8
0
  6
DASHED
 62
2
 10
-29.350000
 20
38.500000
 11
-29.350000
 21
41.500000
  0
LINE
  8
0
  6
DASHED
 62
2
 10
-32.650002
 20
38.500000
 11
-32.650002
 21
41.500000
  0
LINE
  8
0
  6
CENTER
 62
2
 10
16.000000
 20
42.500000
 11
16.000000
 21
34.500000
  0
LINE
  8
0
  6
CENTER
 62
2
 10
12.000000
 20
38.500000
 11
20.000000
 21
38.500000
  0
LINE
  8
0
  6
CENTER
 62
2
 10
16.000000
 20
21.500000
 11
16.000000
 21
13.500000
  0
LINE
  8
0
  6
CENTER
 62
2
 10
12.000000
 20
17.500000
 11
20.000000
 21
17.500000
  0
LINE
  8
0
  6
CENTER
 62
2
 10
-31.000000
 20
21.500000
 11
-31.000000
 21
13.500000
  0
LINE
  8
0
  6
CENTER
 62
2
 10
-35.000000
 20
17.500000
 11
-27.000000
 21
17.500000
  0
LINE
  8
0
  6
CENTER
 62
2
 10
-31.000000
 20
42.500000
 11
-31.000000
 21
34.500000
  0
LINE
  8
0
  6
CENTER
 62
2
 10
-35.000000
 20
38.500000
 11
-27.000000
 21
38.500000
  0
LINE
  8
0
  6
CENTER
 62
2
 10
-39.000000
 20
45.000000
 11
-39.000000
 21
41.000000
  0
LINE
  8
0
  6
CENTER
 62
2
 10
24.000000
 20
45.000000
 11
24.000000
 21
41.000000
  0
LINE
  8
0
  6
CONTINUOUS
 62
7
 10
-35.000000
 20
42.599998
 11
-35.000000
 21
42.000000
  0
LINE
  8
0
  6
CONTINUOUS
 62
7
 10
-42.500000
 20
44.000000
 11
-42.500000
 21
42.599998
  0
LINE
  8
0
  6
CONTINUOUS
 62
7
 10
-35.500000
 20
44.000000
 11
-35.500000
 21
42.599998
  0
LINE
  8
0
  6
CONTINUOUS
 62
7
 10
-35.000000
 20
42.599998
 11
-42.900002
 21
42.599998
  0
LINE
  8
0
  6
CENTER
 62
2
 10
-57.000000
 20
38.000000
 11
-53.000000
 21
38.000000
  0
LINE
  8
0
  6
CENTER
 62
2
 10
-57.000000
 20
18.000000
 11
-53.000000
 21
18.000000
  0
LINE
  8
0
  6
CENTER
 62
2
 10
-5.000020
 20
20.500000
 11
-5.000020
 21
15.500000
  0
LINE
  8
0
  6
CENTER
 62
2
 10
-7.500020
 20
18.000000
 11
-2.500020
 21
18.000000
  0
LINE
  8
0
  6
CENTER
 62
2
 10
-5.000020
 20
40.500000
 11
-5.000020
 21
35.500000
  0
LINE
  8
0
  6
CENTER
 62
2
 10
-7.500020
 20
38.000000
 11
-2.500020
 21
38.000000
  0
LINE
  8
0
  6
CONTINUOUS
 62
7
 10
-47.000000
 20
91.500000
 11
-47.000000
 21
83.000000
  0
LINE
  8
0
  6
CONTINUOUS
 62
7
 10
-55.000000
 20
91.500000
 11
-55.000000
 21
73.000000
  0
LINE
  8
0
  6
CONTINUOUS
 62
7
 10
-47.000000
 20
89.500000
 11
-45.000000
 21
89.500000
  0
LINE
  8
0
  6
CONTINUOUS
 62
7
 10
-55.000000
 20
91.500000
 11
-47.000000
 21
91.500000
  0
LINE
  8
0
  6
CONTINUOUS
 62
7
 10
-55.000000
 20
73.000000
 11
-47.000000
 21
73.000000
  0
LINE
  8
0
  6
CONTINUOUS
 62
7
 10
-47.000000
 20
72.500000
 11
27.000000
 21
72.500000
  0
LINE
  8
0
  6
CONTINUOUS
 62
7
 10
-45.000000
 20
92.500000
 11
-45.000000
 21
83.000000
  0
LINE
  8
0
  6
CONTINUOUS
 62
7
 10
30.000000
 20
92.500000
 11
30.000000
 21
92.000000
  0
LINE
  8
0
  6
CONTINUOUS
 62
7
 10
-45.000000
 20
92.500000
 11
30.000000
 21
92.500000
  0
LINE
  8
0
  6
CONTINUOUS
 62
7
 10
-48.799999
 20
83.000000
 11
-30.500000
 21
83.000000
  0
LINE
  8
0
  6
CONTINUOUS
 62
7
 10
-17.799999
 20
82.500000
 11
27.700001
 21
82.500000
  0
LINE
  8
0
  6
CONTINUOUS
 62
7
 10
27.000000
 20
82.500000
 11
27.000000
 21
82.000000
  0
LINE
  8
0
  6
CONTINUOUS
 62
7
 10
-39.000000
 20
82.958603
 11
-35.500000
 21
84.979301
  0
LINE
  8
0
  6
CONTINUOUS
 62
7
 10
-35.500000
 20
89.020798
 11
-35.500000
 21
84.979301
  0
LINE
  8
0
  6
CONTINUOUS
 62
7
 10
-39.000000
 20
91.041496
 11
-35.500000
 21
89.020798
  0
LINE
  8
0
  6
CONTINUOUS
 62
7
 10
-42.500000
 20
89.020798
 11
-39.000000
 21
91.041496
  0
LINE
  8
0
  6
CONTINUOUS
 62
7
 10
-42.500000
 20
84.979301
 11
-42.500000
 21
89.020798
  0
LINE
  8
0
  6
CONTINUOUS
 62
7
 10
-35.500000
 20
87.500000
 11
-42.500000
 21
87.500000
  0
LINE
  8
0
  6
CONTINUOUS
 62
7
 10
-35.500000
 20
86.500000
 11
-42.500000
 21
86.500000
  0
LINE
  8
0
  6
CONTINUOUS
 62
7
 10
-42.500000
 20
84.979301
 11
-39.000000
 21
82.958603
  0
LINE
  8
0
  6
CONTINUOUS
 62
7
 10
27.000000
 20
73.000000
 11
30.000000
 21
73.000000
  0
LINE
  8
0
  6
CONTINUOUS
 62
7
 10
28.200001
 20
73.500000
 11
28.200001
 21
73.000000
  0
LINE
  8
0
  6
CENTER
 62
2
 10
-39.000000
 20
92.041496
 11
-39.000000
 21
81.958603
  0
LINE
  8
0
  6
CENTER
 62
2
 10
-44.041500
 20
87.000000
 11
-33.958500
 21
87.000000
  0
LINE
  8
0
  6
CENTER
 62
2
 10
9.849990
 20
78.199997
 11
9.849990
 21
74.199997
  0
LINE
  8
0
  6
CENTER
 62
2
 10
7.849990
 20
76.199997
 11
11.850000
 21
76.199997
  0
LINE
  8
0
  6
CENTER
 62
2
 10
-19.000000
 20
93.500000
 11
-19.000000
 21
85.500000
  0
LINE
  8
0
  6
DASHED
 62
2
 10
-21.000000
 20
92.500000
 11
-21.000000
 21
86.500000
  0
LINE
  8
0
  6
DASHED
 62
2
 10
-17.000000
 20
92.500000
 11
-17.000000
 21
86.500000
  0
LINE
  8
0
  6
DASHED
 62
2
 10
14.000000
 20
92.500000
 11
14.000000
 21
87.500000
  0
LINE
  8
0
  6
CENTER
 62
2
 10
16.000000
 20
93.500000
 11
16.000000
 21
86.000000
  0
LINE
  8
0
  6
DASHED
 62
2
 10
13.000000
 20
87.500000
 11
13.000000
 21
87.199997
  0
LINE
  8
0
  6
DASHED
 62
2
 10
13.000000
 20
87.500000
 11
19.000000
 21
87.500000
  0
LINE
  8
0
  6
DASHED
 62
2
 10
19.000000
 20
87.500000
 11
19.000000
 21
87.199997
  0
LINE
  8
0
  6
DASHED
 62
2
 10
18.000000
 20
92.500000
 11
18.000000
 21
87.500000
  0
LINE
  8
0
  6
CENTER
 62
2
 10
-38.000000
 20
74.500000
 11
-38.000000
 21
70.500000
  0
LINE
  8
0
  6
CENTER
 62
2
 10
-20.000000
 20
74.500000
 11
-20.000000
 21
70.500000
  0
LINE
  8
0
  6
CENTER
 62
2
 10
13.000000
 20
74.500000
 11
13.000000
 21
70.500000
  0
LINE
  8
0
  6
CENTER
 62
2
 10
-57.000000
 20
85.500000
 11
-53.000000
 21
85.500000
  0
LINE
  8
0
  6
CENTER
 62
2
 10
-57.000000
 20
76.500000
 11
-53.000000
 21
76.500000
  0
LINE
  8
0
  6
CENTER
 62
2
 10
-5.000000
 20
74.500000
 11
-5.000000
 21
70.500000
  0
LINE
  8
0
  6
CONTINUOUS
 62
7
 10
-28.500000
 20
87.199997
 11
-34.200001
 21
87.199997
  0
LINE
  8
0
  6
DASHED
 62
2
 10
-34.000000
 20
87.500000
 11
-32.650002
 21
87.500000
  0
LINE
  8
0
  6
CONTINUOUS
 62
7
 10
-32.650002
 20
92.500000
 11
-32.650002
 21
87.199997
  0
LINE
  8
0
  6
CONTINUOUS
 62
7
 10
-29.350000
 20
92.500000
 11
-29.350000
 21
87.199997
  0
LINE
  8
0
  6
CENTER
 62
2
 10
-31.000000
 20
93.500000
 11
-31.000000
 21
86.000000
  0
LINE
  8
0
  6
DASHED
 62
2
 10
-16.000000
 20
86.500000
 11
-22.000000
 21
86.500000
  0
LINE
  8
0
  6
DASHED
 62
2
 10
19.000000
 20
87.199997
 11
13.000000
 21
87.199997
  0
LINE
  8
0
  6
CONTINUOUS
 62
7
 10
-39.000000
 20
-103.099998
 11
-39.000000
 21
-106.000000
  0
LINE
  8
0
  6
CONTINUOUS
 62
7
 10
139.000000
 20
-103.099998
 11
139.000000
 21
-106.000000
  0
LINE
  8
0
  6
DASHED
 62
2
 10
-34.000000
 20
87.500000
 11
-34.000000
 21
87.199997
  0
LINE
  8
0
  6
DASHED
 62
2
 10
-28.000000
 20
87.500000
 11
-28.000000
 21
87.199997
  0
LINE
  8
0
  6
CONTINUOUS
 62
7
 10
-32.650002
 20
87.500000
 11
-29.350000
 21
87.500000
  0
LINE
  8
0
  6
DASHED
 62
2
 10
-29.350000
 20
87.500000
 11
-28.000000
 21
87.500000
  0
LINE
  8
0
  6
CONTINUOUS
 62
7
 10
149.500000
 20
92.000000
 11
234.500000
 21
92.000000
  0
LINE
  8
0
  6
CONTINUOUS
 62
7
 10
149.500000
 20
92.000000
 11
149.500000
 21
73.000000
  0
LINE
  8
0
  6
CONTINUOUS
 62
7
 10
147.500000
 20
73.000000
 11
153.699997
 21
73.000000
  0
LINE
  8
0
  6
CONTINUOUS
 62
7
 10
205.199997
 20
82.000000
 11
220.699997
 21
82.000000
  0
LINE
  8
0
  6
CONTINUOUS
 62
7
 10
205.199997
 20
74.000000
 11
220.699997
 21
74.000000
  0
LINE
  8
0
  6
CONTINUOUS
 62
7
 10
205.199997
 20
74.000000
 11
205.199997
 21
82.000000
  0
LINE
  8
0
  6
CONTINUOUS
 62
7
 10
155.199997
 20
85.000000
 11
228.800003
 21
85.000000
  0
LINE
  8
0
  6
CONTINUOUS
 62
7
 10
154.199997
 20
84.500000
 11
160.199997
 21
84.500000
  0
LINE
  8
0
  6
CONTINUOUS
 62
7
 10
160.199997
 20
73.500000
 11
160.199997
 21
84.500000
  0
LINE
  8
0
  6
CONTINUOUS
 62
7
 10
160.199997
 20
80.000000
 11
164.199997
 21
80.000000
  0
LINE
  8
0
  6
CONTINUOUS
 62
7
 10
164.199997
 20
78.000000
 11
164.199997
 21
80.000000
  0
LINE
  8
0
  6
CONTINUOUS
 62
7
 10
160.199997
 20
78.000000
 11
164.199997
 21
78.000000
  0
LINE
  8
0
  6
CENTER
 62
2
 10
127.199997
 20
79.000000
 11
165.199997
 21
79.000000
  0
LINE
  8
0
  6
CONTINUOUS
 62
7
 10
154.199997
 20
73.500000
 11
160.199997
 21
73.500000
  0
LINE
  8
0
  6
CONTINUOUS
 62
7
 10
153.699997
 20
73.000000
 11
153.699997
 21
83.500000
  0
LINE
  8
0
  6
CONTINUOUS
 62
7
 10
154.199997
 20
73.500000
 11
154.199997
 21
84.500000
  0
LINE
  8
0
  6
CONTINUOUS
 62
7
 10
147.500000
 20
85.000000
 11
149.500000
 21
85.000000
  0
LINE
  8
0
  6
CONTINUOUS
 62
7
 10
147.500000
 20
73.000000
 11
147.500000
 21
85.000000
  0
LINE
  8
0
  6
CONTINUOUS
 62
7
 10
147.500000
 20
82.564201
 11
149.500000
 21
82.564201
  0
LINE
  8
0
  6
CONTINUOUS
 62
7
 10
147.500000
 20
81.397903
 11
149.500000
 21
81.397903
  0
LINE
  8
0
  6
CONTINUOUS
 62
7
 10
147.500000
 20
76.602097
 11
149.500000
 21
76.602097
  0
LINE
  8
0
  6
CONTINUOUS
 62
7
 10
147.500000
 20
75.435898
 11
149.500000
 21
75.435898
  0
LINE
  8
0
  6
CONTINUOUS
 62
2
 10
154.199997
 20
75.699997
 11
153.699997
 21
75.699997
  0
LINE
  8
0
  6
CONTINUOUS
 62
7
 10
154.199997
 20
75.000000
 11
153.699997
 21
75.000000
  0
LINE
  8
0
  6
CONTINUOUS
 62
2
 10
154.199997
 20
82.300003
 11
153.699997
 21
82.300003
  0
LINE
  8
0
  6
CONTINUOUS
 62
7
 10
154.199997
 20
83.000000
 11
153.699997
 21
83.000000
  0
LINE
  8
0
  6
CONTINUOUS
 62
7
 10
129.199997
 20
75.000000
 11
129.199997
 21
83.000000
  0
LINE
  8
0
  6
CONTINUOUS
 62
7
 10
129.199997
 20
82.300003
 11
128.199997
 21
82.300003
  0
LINE
  8
0
  6
CONTINUOUS
 62
7
 10
128.199997
 20
79.750000
 11
128.199997
 21
82.300003
  0
LINE
  8
0
  6
CONTINUOUS
 62
7
 10
129.199997
 20
79.750000
 11
128.199997
 21
79.750000
  0
LINE
  8
0
  6
CONTINUOUS
 62
7
 10
129.199997
 20
78.250000
 11
128.199997
 21
78.250000
  0
LINE
  8
0
  6
CONTINUOUS
 62
7
 10
128.199997
 20
75.699997
 11
128.199997
 21
78.250000
  0
LINE
  8
0
  6
CONTINUOUS
 62
7
 10
129.199997
 20
75.699997
 11
128.199997
 21
75.699997
  0
LINE
  8
0
  6
CONTINUOUS
 62
7
 10
147.500000
 20
75.000000
 11
129.199997
 21
75.000000
  0
LINE
  8
0
  6
CONTINUOUS
 62
2
 10
147.500000
 20
75.699997
 11
129.199997
 21
75.699997
  0
LINE
  8
0
  6
CONTINUOUS
 62
2
 10
147.500000
 20
82.300003
 11
129.199997
 21
82.300003
  0
LINE
  8
0
  6
CONTINUOUS
 62
7
 10
160.199997
 20
83.000000
 11
220.699997
 21
83.000000
  0
LINE
  8
0
  6
CONTINUOUS
 62
7
 10
131.000000
 20
75.000000
 11
131.000000
 21
72.500000
  0
LINE
  8
0
  6
CONTINUOUS
 62
7
 10
220.000000
 20
74.000000
 11
220.000000
 21
72.500000
  0
LINE
  8
0
  6
CONTINUOUS
 62
7
 10
205.199997
 20
41.500099
 11
205.199997
 21
50.500000
  0
LINE
  8
0
  6
CONTINUOUS
 62
7
 10
220.699997
 20
50.500000
 11
205.199997
 21
50.500000
  0
LINE
  8
0
  6
CONTINUOUS
 62
7
 10
220.699997
 20
41.500099
 11
220.699997
 21
53.500000
  0
LINE
  8
0
  6
CONTINUOUS
 62
7
 10
149.500000
 20
42.000000
 11
149.500000
 21
54.000000
  0
LINE
  8
0
  6
CONTINUOUS
 62
7
 10
160.199997
 20
42.500000
 11
160.199997
 21
53.500000
  0
LINE
  8
0
  6
CENTER
 62
2
 10
127.199997
 20
48.000000
 11
165.199997
 21
48.000000
  0
LINE
  8
0
  6
CONTINUOUS
 62
7
 10
154.199997
 20
53.500000
 11
160.199997
 21
53.500000
  0
LINE
  8
0
  6
CONTINUOUS
 62
7
 10
154.199997
 20
42.500000
 11
160.199997
 21
42.500000
  0
LINE
  8
0
  6
CONTINUOUS
 62
7
 10
154.199997
 20
42.500000
 11
154.199997
 21
53.500000
  0
LINE
  8
0
  6
CONTINUOUS
 62
7
 10
160.199997
 20
47.000000
 11
164.199997
 21
47.000000
  0
LINE
  8
0
  6
CONTINUOUS
 62
7
 10
160.199997
 20
49.000099
 11
164.199997
 21
49.000099
  0
LINE
  8
0
  6
CONTINUOUS
 62
7
 10
164.199997
 20
47.000000
 11
164.199997
 21
49.000099
  0
LINE
  8
0
  6
CONTINUOUS
 62
2
 10
154.199997
 20
51.299999
 11
153.699997
 21
51.299999
  0
LINE
  8
0
  6
CONTINUOUS
 62
7
 10
154.199997
 20
44.000099
 11
153.699997
 21
44.000099
  0
LINE
  8
0
  6
CONTINUOUS
 62
7
 10
129.199997
 20
44.700001
 11
128.199997
 21
44.700001
  0
LINE
  8
0
  6
CONTINUOUS
 62
7
 10
154.199997
 20
52.000000
 11
153.699997
 21
52.000000
  0
LINE
  8
0
  6
CONTINUOUS
 62
7
 10
129.199997
 20
44.000099
 11
129.199997
 21
52.000000
  0
LINE
  8
0
  6
CONTINUOUS
 62
7
 10
128.199997
 20
44.700001
 11
128.199997
 21
51.299999
  0
LINE
  8
0
  6
CONTINUOUS
 62
7
 10
129.199997
 20
51.299999
 11
128.199997
 21
51.299999
  0
LINE
  8
0
  6
CONTINUOUS
 62
2
 10
154.199997
 20
44.700001
 11
153.699997
 21
44.700001
  0
LINE
  8
0
  6
CONTINUOUS
 62
7
 10
234.500000
 20
54.000000
 11
149.500000
 21
54.000000
  0
LINE
  8
0
  6
CONTINUOUS
 62
7
 10
153.699997
 20
42.000000
 11
153.699997
 21
54.000000
  0
LINE
  8
0
  6
CONTINUOUS
 62
7
 10
149.500000
 20
42.500000
 11
147.500000
 21
42.500000
  0
LINE
  8
0
  6
CONTINUOUS
 62
7
 10
147.500000
 20
53.500000
 11
147.500000
 21
42.500000
  0
LINE
  8
0
  6
CONTINUOUS
 62
7
 10
149.500000
 20
43.173401
 11
147.500000
 21
43.173401
  0
LINE
  8
0
  6
CONTINUOUS
 62
7
 10
149.500000
 20
47.326698
 11
147.500000
 21
47.326698
  0
LINE
  8
0
  6
CONTINUOUS
 62
7
 10
149.500000
 20
48.673401
 11
147.500000
 21
48.673401
  0
LINE
  8
0
  6
CONTINUOUS
 62
7
 10
149.500000
 20
52.826698
 11
147.500000
 21
52.826698
  0
LINE
  8
0
  6
CONTINUOUS
 62
7
 10
149.500000
 20
53.500000
 11
147.500000
 21
53.500000
  0
LINE
  8
0
  6
CONTINUOUS
 62
7
 10
147.500000
 20
44.000099
 11
129.199997
 21
44.000099
  0
LINE
  8
0
  6
CONTINUOUS
 62
2
 10
147.500000
 20
44.700001
 11
129.199997
 21
44.700001
  0
LINE
  8
0
  6
CONTINUOUS
 62
2
 10
147.500000
 20
51.299999
 11
129.199997
 21
51.299999
  0
LINE
  8
0
  6
CONTINUOUS
 62
7
 10
147.500000
 20
52.000000
 11
129.199997
 21
52.000000
  0
LINE
  8
0
  6
CONTINUOUS
 62
7
 10
139.000000
 20
44.000099
 11
139.000000
 21
42.599998
  0
LINE
  8
0
  6
CONTINUOUS
 62
7
 10
205.199997
 20
42.000000
 11
148.649994
 21
42.000000
  0
LINE
  8
0
  6
CONTINUOUS
 62
7
 10
108.500000
 20
42.000000
 11
108.500000
 21
41.500099
  0
LINE
  8
0
  6
CONTINUOUS
 62
7
 10
116.500000
 20
42.000000
 11
116.500000
 21
41.500099
  0
LINE
  8
0
  6
CONTINUOUS
 62
7
 10
98.500000
 20
54.000000
 11
98.500000
 21
42.000000
  0
LINE
  8
0
  6
CONTINUOUS
 62
7
 10
117.500000
 20
54.000000
 11
117.500000
 21
42.000000
  0
LINE
  8
0
  6
CONTINUOUS
 62
7
 10
98.500000
 20
54.000000
 11
117.500000
 21
54.000000
  0
LINE
  8
0
  6
CONTINUOUS
 62
7
 10
105.538002
 20
47.326599
 11
106.592003
 21
45.500000
  0
LINE
  8
0
  6
CONTINUOUS
 62
7
 10
107.935997
 20
52.826698
 11
105.538002
 21
48.673302
  0
LINE
  8
0
  6
CONTINUOUS
 62
7
 10
113.898003
 20
53.500000
 11
109.101997
 21
53.500000
  0
LINE
  8
0
  6
CONTINUOUS
 62
7
 10
117.461998
 20
48.673302
 11
115.064003
 21
52.826599
  0
LINE
  8
0
  6
CONTINUOUS
 62
7
 10
115.064003
 20
43.173401
 11
117.461998
 21
47.326698
  0
LINE
  8
0
  6
CONTINUOUS
 62
7
 10
113.898003
 20
42.500000
 11
109.101997
 21
42.500000
  0
LINE
  8
0
  6
CONTINUOUS
 62
7
 10
110.750000
 20
46.363701
 11
110.750000
 21
44.070999
  0
LINE
  8
0
  6
CONTINUOUS
 62
7
 10
112.250000
 20
46.363701
 11
112.250000
 21
44.070999
  0
LINE
  8
0
  6
CONTINUOUS
 62
7
 10
112.250000
 20
51.929100
 11
112.250000
 21
49.636299
  0
LINE
  8
0
  6
CONTINUOUS
 62
7
 10
110.750000
 20
51.929100
 11
110.750000
 21
49.636299
  0
LINE
  8
0
  6
CENTER
 62
2
 10
118.500000
 20
48.000000
 11
104.500000
 21
48.000000
  0
LINE
  8
0
  6
CENTER
 62
2
 10
111.500000
 20
41.000000
 11
111.500000
 21
55.000000
  0
LINE
  8
0
  6
CONTINUOUS
 62
7
 10
107.541000
 20
43.856400
 11
107.935997
 21
43.173401
  0
LINE
  8
0
  6
CONTINUOUS
 62
7
 10
234.500000
 20
-114.500000
 11
149.500000
 21
-114.500000
  0
LINE
  8
0
  6
CONTINUOUS
 62
7
 10
149.500000
 20
-102.500000
 11
149.500000
 21
-114.500000
  0
LINE
  8
0
  6
CENTER
 62
2
 10
127.199997
 20
-108.500000
 11
150.500000
 21
-108.500000
  0
LINE
  8
0
  6
CONTINUOUS
 62
7
 10
149.500000
 20
-103.000000
 11
147.500000
 21
-103.000000
  0
LINE
  8
0
  6
CONTINUOUS
 62
7
 10
147.500000
 20
-114.000000
 11
147.500000
 21
-103.000000
  0
LINE
  8
0
  6
CONTINUOUS
 62
7
 10
149.500000
 20
-103.672997
 11
147.500000
 21
-103.672997
  0
LINE
  8
0
  6
CONTINUOUS
 62
7
 10
149.500000
 20
-107.827003
 11
147.500000
 21
-107.827003
  0
LINE
  8
0
  6
CONTINUOUS
 62
7
 10
149.500000
 20
-109.172997
 11
147.500000
 21
-109.172997
  0
LINE
  8
0
  6
CONTINUOUS
 62
7
 10
149.500000
 20
-113.327003
 11
147.500000
 21
-113.327003
  0
LINE
  8
0
  6
CONTINUOUS
 62
7
 10
149.500000
 20
-114.000000
 11
147.500000
 21
-114.000000
  0
LINE
  8
0
  6
CONTINUOUS
 62
7
 10
147.500000
 20
-104.500000
 11
142.500000
 21
-104.500000
  0
LINE
  8
0
  6
CONTINUOUS
 62
2
 10
147.500000
 20
-105.199997
 11
142.500000
 21
-105.199997
  0
LINE
  8
0
  6
CONTINUOUS
 62
2
 10
147.500000
 20
-111.800003
 11
129.199997
 21
-111.800003
  0
LINE
  8
0
  6
CONTINUOUS
 62
7
 10
147.500000
 20
-112.500000
 11
129.199997
 21
-112.500000
  0
LINE
  8
0
  6
CONTINUOUS
 62
7
 10
129.199997
 20
-105.199997
 11
128.199997
 21
-105.199997
  0
LINE
  8
0
  6
CONTINUOUS
 62
7
 10
129.199997
 20
-104.500000
 11
129.199997
 21
-112.500000
  0
LINE
  8
0
  6
CONTINUOUS
 62
7
 10
128.199997
 20
-105.199997
 11
128.199997
 21
-111.800003
  0
LINE
  8
0
  6
CONTINUOUS
 62
7
 10
129.199997
 20
-111.800003
 11
128.199997
 21
-111.800003
  0
LINE
  8
0
  6
CONTINUOUS
 62
7
 10
135.500000
 20
-104.500000
 11
129.199997
 21
-104.500000
  0
LINE
  8
0
  6
CONTINUOUS
 62
2
 10
135.500000
 20
-105.199997
 11
129.199997
 21
-105.199997
  0
LINE
  8
0
  6
CENTER
 62
2
 10
-164.000000
 20
28.000000
 11
-236.000000
 21
28.000000
  0
LINE
  8
0
  6
CONTINUOUS
 62
7
 10
-167.300003
 20
41.500000
 11
-235.000000
 21
41.500000
  0
LINE
  8
0
  6
CONTINUOUS
 62
7
 10
-168.000000
 20
14.500000
 11
-235.000000
 21
14.500000
  0
LINE
  8
0
  6
CONTINUOUS
 62
7
 10
-168.000000
 20
21.000000
 11
-227.000000
 21
21.000000
  0
LINE
  8
0
  6
CONTINUOUS
 62
7
 10
-168.000000
 20
35.000000
 11
-227.000000
 21
35.000000
  0
LINE
  8
0
  6
CONTINUOUS
 62
7
 10
-165.000000
 20
14.000000
 11
-209.350006
 21
14.000000
  0
LINE
  8
0
  6
CONTINUOUS
 62
7
 10
-165.000000
 20
42.000000
 11
-165.000000
 21
14.000000
  0
LINE
  8
0
  6
CONTINUOUS
 62
7
 10
-227.000000
 20
41.500000
 11
-227.000000
 21
14.500000
  0
LINE
  8
0
  6
CONTINUOUS
 62
7
 10
-168.000000
 20
41.500000
 11
-168.000000
 21
14.500000
  0
LINE
  8
0
  6
CONTINUOUS
 62
7
 10
-225.000000
 20
14.500000
 11
-225.000000
 21
14.000000
  0
LINE
  8
0
  6
CONTINUOUS
 62
7
 10
-225.000000
 20
42.000000
 11
-225.000000
 21
41.500000
  0
LINE
  8
0
  6
CONTINUOUS
 62
7
 10
-212.649994
 20
14.000000
 11
-212.649994
 21
14.500000
  0
LINE
  8
0
  6
CONTINUOUS
 62
7
 10
-209.350006
 20
14.000000
 11
-209.350006
 21
14.500000
  0
LINE
  8
0
  6
CONTINUOUS
 62
7
 10
-209.350006
 20
41.500000
 11
-209.350006
 21
42.000000
  0
LINE
  8
0
  6
CONTINUOUS
 62
7
 10
-212.649994
 20
41.500000
 11
-212.649994
 21
42.000000
  0
LINE
  8
0
  6
CONTINUOUS
 62
7
 10
-212.649994
 20
14.000000
 11
-225.000000
 21
14.000000
  0
LINE
  8
0
  6
CONTINUOUS
 62
7
 10
-212.649994
 20
42.000000
 11
-225.000000
 21
42.000000
  0
LINE
  8
0
  6
CONTINUOUS
 62
7
 10
-235.000000
 20
41.500000
 11
-235.000000
 21
14.500000
  0
LINE
  8
0
  6
CENTER
 62
2
 10
-218.000000
 20
40.500000
 11
-218.000000
 21
35.500000
  0
LINE
  8
0
  6
CENTER
 62
2
 10
-220.500000
 20
38.000000
 11
-215.500000
 21
38.000000
  0
LINE
  8
0
  6
CENTER
 62
2
 10
-218.000000
 20
20.500000
 11
-218.000000
 21
15.500000
  0
LINE
  8
0
  6
CENTER
 62
2
 10
-220.500000
 20
18.000000
 11
-215.500000
 21
18.000000
  0
LINE
  8
0
  6
CENTER
 62
2
 10
-182.000000
 20
40.500000
 11
-182.000000
 21
35.500000
  0
LINE
  8
0
  6
CENTER
 62
2
 10
-184.500000
 20
38.000000
 11
-179.500000
 21
38.000000
  0
LINE
  8
0
  6
CENTER
 62
2
 10
-196.000000
 20
41.099998
 11
-196.000000
 21
35.900002
  0
LINE
  8
0
  6
CENTER
 62
2
 10
-198.600006
 20
38.500000
 11
-193.399994
 21
38.500000
  0
LINE
  8
0
  6
CENTER
 62
2
 10
-182.000000
 20
20.500000
 11
-182.000000
 21
15.500000
  0
LINE
  8
0
  6
CENTER
 62
2
 10
-184.500000
 20
18.000000
 11
-179.500000
 21
18.000000
  0
LINE
  8
0
  6
CENTER
 62
2
 10
-200.000000
 20
40.500000
 11
-200.000000
 21
35.500000
  0
LINE
  8
0
  6
CENTER
 62
2
 10
-202.500000
 20
38.000000
 11
-197.500000
 21
38.000000
  0
LINE
  8
0
  6
CENTER
 62
2
 10
-200.000000
 20
20.500000
 11
-200.000000
 21
15.500000
  0
LINE
  8
0
  6
CENTER
 62
2
 10
-202.500000
 20
18.000000
 11
-197.500000
 21
18.000000
  0
LINE
  8
0
  6
CONTINUOUS
 62
7
 10
-166.800003
 20
14.700000
 11
-168.000000
 21
14.700000
  0
LINE
  8
0
  6
CONTINUOUS
 62
7
 10
-166.800003
 20
19.250000
 11
-166.800003
 21
14.700000
  0
LINE
  8
0
  6
CONTINUOUS
 62
7
 10
-166.800003
 20
33.250000
 11
-166.800003
 21
22.750000
  0
LINE
  8
0
  6
CONTINUOUS
 62
7
 10
-167.399994
 20
33.250000
 11
-167.399994
 21
36.750000
  0
LINE
  8
0
  6
CONTINUOUS
 62
7
 10
-167.399994
 20
33.250000
 11
-166.399994
 21
33.250000
  0
LINE
  8
0
  6
CONTINUOUS
 62
7
 10
-166.399994
 20
33.250000
 11
-166.399994
 21
36.750000
  0
LINE
  8
0
  6
CONTINUOUS
 62
7
 10
-167.399994
 20
36.750000
 11
-166.399994
 21
36.750000
  0
LINE
  8
0
  6
CONTINUOUS
 62
7
 10
-166.800003
 20
36.750000
 11
-166.800003
 21
41.299999
  0
LINE
  8
0
  6
CONTINUOUS
 62
7
 10
-166.800003
 20
41.299999
 11
-168.000000
 21
41.299999
  0
LINE
  8
0
  6
CONTINUOUS
 62
7
 10
-222.899994
 20
42.599998
 11
-222.899994
 21
42.000000
  0
LINE
  8
0
  6
CONTINUOUS
 62
7
 10
-167.399994
 20
22.750000
 11
-167.399994
 21
19.250000
  0
LINE
  8
0
  6
CONTINUOUS
 62
7
 10
-167.399994
 20
22.750000
 11
-166.399994
 21
22.750000
  0
LINE
  8
0
  6
CONTINUOUS
 62
7
 10
-166.399994
 20
19.250000
 11
-166.399994
 21
22.750000
  0
LINE
  8
0
  6
CONTINUOUS
 62
7
 10
-167.399994
 20
19.250000
 11
-166.399994
 21
19.250000
  0
LINE
  8
0
  6
DASHED
 62
2
 10
-209.350006
 20
17.500000
 11
-209.350006
 21
14.500000
  0
LINE
  8
0
  6
DASHED
 62
2
 10
-212.649994
 20
17.500000
 11
-212.649994
 21
14.500000
  0
LINE
  8
0
  6
DASHED
 62
2
 10
-209.350006
 20
38.500000
 11
-209.350006
 21
41.500000
  0
LINE
  8
0
  6
DASHED
 62
2
 10
-212.649994
 20
38.500000
 11
-212.649994
 21
41.500000
  0
LINE
  8
0
  6
CENTER
 62
2
 10
-179.000000
 20
42.500000
 11
-179.000000
 21
34.500000
  0
LINE
  8
0
  6
CENTER
 62
2
 10
-183.000000
 20
38.500000
 11
-175.000000
 21
38.500000
  0
LINE
  8
0
  6
CENTER
 62
2
 10
-179.000000
 20
21.500000
 11
-179.000000
 21
13.500000
  0
LINE
  8
0
  6
CENTER
 62
2
 10
-183.000000
 20
17.500000
 11
-175.000000
 21
17.500000
  0
LINE
  8
0
  6
CENTER
 62
2
 10
-211.000000
 20
21.500000
 11
-211.000000
 21
13.500000
  0
LINE
  8
0
  6
CENTER
 62
2
 10
-215.000000
 20
17.500000
 11
-207.000000
 21
17.500000
  0
LINE
  8
0
  6
CENTER
 62
2
 10
-211.000000
 20
42.500000
 11
-211.000000
 21
34.500000
  0
LINE
  8
0
  6
CENTER
 62
2
 10
-215.000000
 20
38.500000
 11
-207.000000
 21
38.500000
  0
LINE
  8
0
  6
CENTER
 62
2
 10
-219.000000
 20
45.000099
 11
-219.000000
 21
41.000000
  0
LINE
  8
0
  6
CONTINUOUS
 62
7
 10
-215.000000
 20
42.599998
 11
-215.000000
 21
42.000000
  0
LINE
  8
0
  6
CONTINUOUS
 62
7
 10
-222.500000
 20
44.000099
 11
-222.500000
 21
42.599998
  0
LINE
  8
0
  6
CONTINUOUS
 62
7
 10
-215.500000
 20
44.000099
 11
-215.500000
 21
42.599998
  0
LINE
  8
0
  6
CONTINUOUS
 62
7
 10
-215.000000
 20
42.599998
 11
-222.899994
 21
42.599998
  0
LINE
  8
0
  6
CENTER
 62
2
 10
-237.000000
 20
38.000000
 11
-233.000000
 21
38.000000
  0
LINE
  8
0
  6
CENTER
 62
2
 10
-237.000000
 20
18.000000
 11
-233.000000
 21
18.000000
  0
LINE
  8
0
  6
CONTINUOUS
 62
7
 10
-227.000000
 20
91.500000
 11
-227.000000
 21
83.000000
  0
LINE
  8
0
  6
CONTINUOUS
 62
7
 10
-235.000000
 20
91.500000
 11
-235.000000
 21
73.000000
  0
LINE
  8
0
  6
CONTINUOUS
 62
7
 10
-227.000000
 20
89.500000
 11
-225.000000
 21
89.500000
  0
LINE
  8
0
  6
CONTINUOUS
 62
7
 10
-235.000000
 20
91.500000
 11
-227.000000
 21
91.500000
  0
LINE
  8
0
  6
CONTINUOUS
 62
7
 10
-235.000000
 20
73.000000
 11
-227.000000
 21
73.000000
  0
LINE
  8
0
  6
CONTINUOUS
 62
7
 10
-227.000000
 20
72.500000
 11
-168.000000
 21
72.500000
  0
LINE
  8
0
  6
CONTINUOUS
 62
7
 10
-225.000000
 20
92.500000
 11
-225.000000
 21
83.000000
  0
LINE
  8
0
  6
CONTINUOUS
 62
7
 10
-165.000000
 20
92.500000
 11
-165.000000
 21
92.000000
  0
LINE
  8
0
  6
CONTINUOUS
 62
7
 10
-225.000000
 20
92.500000
 11
-165.000000
 21
92.500000
  0
LINE
  8
0
  6
DASHED
 62
2
 10
-176.000000
 20
87.000000
 11
-182.000000
 21
87.000000
  0
LINE
  8
0
  6
CONTINUOUS
 62
7
 10
-228.800003
 20
83.000000
 11
-210.500000
 21
83.000000
  0
LINE
  8
0
  6
DASHED
 62
2
 10
-196.000000
 20
88.500000
 11
-202.000000
 21
88.500000
  0
LINE
  8
0
  6
CONTINUOUS
 62
7
 10
-197.800003
 20
82.500000
 11
-167.300003
 21
82.500000
  0
LINE
  8
0
  6
CONTINUOUS
 62
7
 10
-214.199997
 20
87.000000
 11
-208.500000
 21
87.000000
  0
LINE
  8
0
  6
CONTINUOUS
 62
7
 10
-168.000000
 20
82.500000
 11
-168.000000
 21
82.000000
  0
LINE
  8
0
  6
CONTINUOUS
 62
7
 10
-212.649994
 20
92.500000
 11
-212.649994
 21
87.000000
  0
LINE
  8
0
  6
DASHED
 62
2
 10
-214.000000
 20
87.500000
 11
-212.649994
 21
87.500000
  0
LINE
  8
0
  6
CENTER
 62
2
 10
-211.000000
 20
93.500000
 11
-211.000000
 21
86.000000
  0
LINE
  8
0
  6
CONTINUOUS
 62
7
 10
-209.350006
 20
92.500000
 11
-209.350006
 21
87.000000
  0
LINE
  8
0
  6
CONTINUOUS
 62
7
 10
-219.000000
 20
82.958603
 11
-215.500000
 21
84.979301
  0
LINE
  8
0
  6
CONTINUOUS
 62
7
 10
-215.500000
 20
89.020798
 11
-215.500000
 21
84.979301
  0
LINE
  8
0
  6
CONTINUOUS
 62
7
 10
-219.000000
 20
91.041496
 11
-215.500000
 21
89.020798
  0
LINE
  8
0
  6
CONTINUOUS
 62
7
 10
-222.500000
 20
89.020699
 11
-219.000000
 21
91.041496
  0
LINE
  8
0
  6
CONTINUOUS
 62
7
 10
-222.500000
 20
84.979301
 11
-222.500000
 21
89.020798
  0
LINE
  8
0
  6
CONTINUOUS
 62
7
 10
-215.500000
 20
87.500000
 11
-222.500000
 21
87.500000
  0
LINE
  8
0
  6
CONTINUOUS
 62
7
 10
-215.500000
 20
86.500000
 11
-222.500000
 21
86.500000
  0
LINE
  8
0
  6
CONTINUOUS
 62
7
 10
-222.500000
 20
84.979301
 11
-219.000000
 21
82.958603
  0
LINE
  8
0
  6
CONTINUOUS
 62
7
 10
-168.000000
 20
73.000000
 11
-165.000000
 21
73.000000
  0
LINE
  8
0
  6
CONTINUOUS
 62
7
 10
-166.800003
 20
73.500000
 11
-166.800003
 21
73.000000
  0
LINE
  8
0
  6
CENTER
 62
2
 10
-219.000000
 20
92.041496
 11
-219.000000
 21
81.958603
  0
LINE
  8
0
  6
CENTER
 62
2
 10
-224.041000
 20
87.000000
 11
-213.959000
 21
87.000000
  0
LINE
  8
0
  6
CENTER
 62
2
 10
-185.149994
 20
78.199997
 11
-185.149994
 21
74.199997
  0
LINE
  8
0
  6
CENTER
 62
2
 10
-187.149994
 20
76.199997
 11
-183.149994
 21
76.199997
  0
LINE
  8
0
  6
CENTER
 62
2
 10
-199.000000
 20
93.500000
 11
-199.000000
 21
87.500000
  0
LINE
  8
0
  6
DASHED
 62
2
 10
-201.000000
 20
90.900002
 11
-201.000000
 21
88.500000
  0
LINE
  8
0
  6
DASHED
 62
2
 10
-197.000000
 20
90.900002
 11
-197.000000
 21
88.500000
  0
LINE
  8
0
  6
DASHED
 62
2
 10
-201.500000
 20
92.500000
 11
-201.500000
 21
90.900002
  0
LINE
  8
0
  6
DASHED
 62
2
 10
-196.500000
 20
92.500000
 11
-196.500000
 21
90.900002
  0
LINE
  8
0
  6
DASHED
 62
2
 10
-181.000000
 20
92.500000
 11
-181.000000
 21
87.500000
  0
LINE
  8
0
  6
CENTER
 62
2
 10
-179.000000
 20
93.500000
 11
-179.000000
 21
86.000000
  0
LINE
  8
0
  6
DASHED
 62
2
 10
-182.000000
 20
87.500000
 11
-182.000000
 21
86.992500
  0
LINE
  8
0
  6
DASHED
 62
2
 10
-182.000000
 20
87.500000
 11
-176.000000
 21
87.500000
  0
LINE
  8
0
  6
DASHED
 62
2
 10
-176.000000
 20
87.500000
 11
-176.000000
 21
87.000000
  0
LINE
  8
0
  6
DASHED
 62
2
 10
-177.000000
 20
92.500000
 11
-177.000000
 21
87.500000
  0
LINE
  8
0
  6
CENTER
 62
2
 10
-218.000000
 20
74.500000
 11
-218.000000
 21
70.500000
  0
LINE
  8
0
  6
CENTER
 62
2
 10
-200.000000
 20
74.500000
 11
-200.000000
 21
70.500000
  0
LINE
  8
0
  6
CENTER
 62
2
 10
-182.000000
 20
74.500000
 11
-182.000000
 21
70.500000
  0
LINE
  8
0
  6
CENTER
 62
2
 10
-237.000000
 20
85.500000
 11
-233.000000
 21
85.500000
  0
LINE
  8
0
  6
CENTER
 62
2
 10
-237.000000
 20
76.500000
 11
-233.000000
 21
76.500000
  0
LINE
  8
0
  6
DASHED
 62
2
 10
-214.000000
 20
87.500000
 11
-214.000000
 21
87.000000
  0
LINE
  8
0
  6
DASHED
 62
2
 10
-208.000000
 20
87.500000
 11
-208.000000
 21
87.000000
  0
LINE
  8
0
  6
CONTINUOUS
 62
7
 10
-212.649994
 20
87.500000
 11
-209.350006
 21
87.500000
  0
LINE
  8
0
  6
DASHED
 62
2
 10
-209.350006
 20
87.500000
 11
-208.000000
 21
87.500000
  0
LINE
  8
0
  6
CONTINUOUS
 62
7
 10
-227.000000
 20
-102.000000
 11
-227.000000
 21
-75.000000
  0
LINE
  8
0
  6
CONTINUOUS
 62
7
 10
-209.350006
 20
-102.000000
 11
-212.649994
 21
-102.000000
  0
LINE
  8
0
  6
CONTINUOUS
 62
7
 10
-209.350006
 20
-75.000000
 11
-212.649994
 21
-75.000000
  0
LINE
  8
0
  6
CONTINUOUS
 62
7
 10
-225.000000
 20
-102.500000
 11
-225.000000
 21
-74.500000
  0
LINE
  8
0
  6
CONTINUOUS
 62
7
 10
-165.000000
 20
-74.500000
 11
-209.350006
 21
-74.500000
  0
LINE
  8
0
  6
CONTINUOUS
 62
7
 10
-165.000000
 20
-102.500000
 11
-165.000000
 21
-74.500000
  0
LINE
  8
0
  6
CENTER
 62
2
 10
-164.000000
 20
-88.500000
 11
-236.000000
 21
-88.500000
  0
LINE
  8
0
  6
CONTINUOUS
 62
7
 10
-212.649994
 20
-74.500000
 11
-225.000000
 21
-74.500000
  0
LINE
  8
0
  6
CONTINUOUS
 62
7
 10
-212.649994
 20
-102.500000
 11
-225.000000
 21
-102.500000
  0
LINE
  8
0
  6
CONTINUOUS
 62
7
 10
-225.000000
 20
-75.000000
 11
-235.000000
 21
-75.000000
  0
LINE
  8
0
  6
CONTINUOUS
 62
7
 10
-225.000000
 20
-102.000000
 11
-235.000000
 21
-102.000000
  0
LINE
  8
0
  6
CONTINUOUS
 62
7
 10
-235.000000
 20
-102.000000
 11
-235.000000
 21
-75.000000
  0
LINE
  8
0
  6
CONTINUOUS
 62
7
 10
-225.000000
 20
-92.500000
 11
-227.000000
 21
-92.500000
  0
LINE
  8
0
  6
CONTINUOUS
 62
7
 10
-225.000000
 20
-84.500000
 11
-227.000000
 21
-84.500000
  0
LINE
  8
0
  6
CONTINUOUS
 62
7
 10
-215.500000
 20
-106.000000
 11
-222.500000
 21
-106.000000
  0
LINE
  8
0
  6
CENTER
 62
2
 10
-211.000000
 20
-75.349998
 11
-211.000000
 21
-80.650002
  0
LINE
  8
0
  6
CENTER
 62
2
 10
-213.649994
 20
-78.000000
 11
-208.350006
 21
-78.000000
  0
LINE
  8
0
  6
CENTER
 62
2
 10
-211.000000
 20
-96.349998
 11
-211.000000
 21
-101.650002
  0
LINE
  8
0
  6
CENTER
 62
2
 10
-213.649994
 20
-99.000000
 11
-208.350006
 21
-99.000000
  0
LINE
  8
0
  6
CENTER
 62
2
 10
-199.000000
 20
-95.500000
 11
-199.000000
 21
-102.500000
  0
LINE
  8
0
  6
CENTER
 62
2
 10
-202.500000
 20
-99.000000
 11
-195.500000
 21
-99.000000
  0
LINE
  8
0
  6
CENTER
 62
2
 10
-199.000000
 20
-74.500000
 11
-199.000000
 21
-81.500000
  0
LINE
  8
0
  6
CENTER
 62
2
 10
-202.500000
 20
-78.000000
 11
-195.500000
 21
-78.000000
  0
LINE
  8
0
  6
CENTER
 62
2
 10
-179.000000
 20
-75.000000
 11
-179.000000
 21
-81.000000
  0
LINE
  8
0
  6
CENTER
 62
2
 10
-182.000000
 20
-78.000000
 11
-176.000000
 21
-78.000000
  0
LINE
  8
0
  6
CENTER
 62
2
 10
-179.000000
 20
-96.000000
 11
-179.000000
 21
-102.000000
  0
LINE
  8
0
  6
CENTER
 62
2
 10
-182.000000
 20
-99.000000
 11
-176.000000
 21
-99.000000
  0
LINE
  8
0
  6
CONTINUOUS
 62
7
 10
-212.649994
 20
-74.500000
 11
-212.649994
 21
-78.000000
  0
LINE
  8
0
  6
CONTINUOUS
 62
7
 10
-209.350006
 20
-74.500000
 11
-209.350006
 21
-78.000000
  0
LINE
  8
0
  6
CONTINUOUS
 62
7
 10
-212.649994
 20
-99.000000
 11
-212.649994
 21
-102.500000
  0
LINE
  8
0
  6
CONTINUOUS
 62
7
 10
-209.350006
 20
-99.000000
 11
-209.350006
 21
-102.500000
  0
LINE
  8
0
  6
CENTER
 62
2
 10
-219.000000
 20
-101.500000
 11
-219.000000
 21
-107.000000
  0
LINE
  8
0
  6
CONTINUOUS
 62
7
 10
-215.100006
 20
-103.099998
 11
-222.899994
 21
-103.099998
  0
LINE
  8
0
  6
CONTINUOUS
 62
7
 10
-222.899994
 20
-102.500000
 11
-222.899994
 21
-103.099998
  0
LINE
  8
0
  6
CONTINUOUS
 62
7
 10
-215.100006
 20
-102.500000
 11
-215.100006
 21
-103.099998
  0
LINE
  8
0
  6
CONTINUOUS
 62
7
 10
-215.500000
 20
-103.099998
 11
-215.500000
 21
-106.000000
  0
LINE
  8
0
  6
CONTINUOUS
 62
7
 10
-222.500000
 20
-103.099998
 11
-222.500000
 21
-106.000000
  0
LINE
  8
0
  6
CONTINUOUS
 62
7
 10
-219.000000
 20
-103.099998
 11
-219.000000
 21
-106.000000
  0
LINE
  8
0
  6
CONTINUOUS
 62
7
 10
-208.500000
 20
92.000000
 11
-153.500000
 21
92.000000
  0
LINE
  8
0
  6
CONTINUOUS
 62
7
 10
-208.500000
 20
92.000000
 11
-208.500000
 21
73.000000
  0
LINE
  8
0
  6
CONTINUOUS
 62
7
 10
-210.500000
 20
73.000000
 11
-204.300003
 21
73.000000
  0
LINE
  8
0
  6
CONTINUOUS
 62
7
 10
-182.800003
 20
82.000000
 11
-167.300003
 21
82.000000
  0
LINE
  8
0
  6
CONTINUOUS
 62
7
 10
-182.800003
 20
74.000000
 11
-167.300003
 21
74.000000
  0
LINE
  8
0
  6
CONTINUOUS
 62
7
 10
-182.800003
 20
74.000000
 11
-182.800003
 21
82.000000
  0
LINE
  8
0
  6
CONTINUOUS
 62
7
 10
-202.800003
 20
85.000000
 11
-159.199997
 21
85.000000
  0
LINE
  8
0
  6
CONTINUOUS
 62
7
 10
-203.800003
 20
84.500000
 11
-197.800003
 21
84.500000
  0
LINE
  8
0
  6
CONTINUOUS
 62
7
 10
-197.800003
 20
73.500000
 11
-197.800003
 21
84.500000
  0
LINE
  8
0
  6
CONTINUOUS
 62
7
 10
-197.800003
 20
80.000000
 11
-193.800003
 21
80.000000
  0
LINE
  8
0
  6
CONTINUOUS
 62
7
 10
-193.800003
 20
78.000000
 11
-193.800003
 21
80.000000
  0
LINE
  8
0
  6
CONTINUOUS
 62
7
 10
-197.800003
 20
78.000000
 11
-193.800003
 21
78.000000
  0
LINE
  8
0
  6
CENTER
 62
2
 10
-230.800003
 20
79.000000
 11
-192.800003
 21
79.000000
  0
LINE
  8
0
  6
CONTINUOUS
 62
7
 10
-203.800003
 20
73.500000
 11
-197.800003
 21
73.500000
  0
LINE
  8
0
  6
CONTINUOUS
 62
7
 10
-204.300003
 20
73.000000
 11
-204.300003
 21
83.500000
  0
LINE
  8
0
  6
CONTINUOUS
 62
7
 10
-203.800003
 20
73.500000
 11
-203.800003
 21
84.500000
  0
LINE
  8
0
  6
CONTINUOUS
 62
7
 10
-210.500000
 20
85.000000
 11
-208.500000
 21
85.000000
  0
LINE
  8
0
  6
CONTINUOUS
 62
7
 10
-210.500000
 20
73.000000
 11
-210.500000
 21
85.000000
  0
LINE
  8
0
  6
CONTINUOUS
 62
7
 10
-210.500000
 20
82.564201
 11
-208.500000
 21
82.564201
  0
LINE
  8
0
  6
CONTINUOUS
 62
7
 10
-210.500000
 20
81.397903
 11
-208.500000
 21
81.397903
  0
LINE
  8
0
  6
CONTINUOUS
 62
7
 10
-210.500000
 20
76.602097
 11
-208.500000
 21
76.602097
  0
LINE
  8
0
  6
CONTINUOUS
 62
7
 10
-210.500000
 20
75.435898
 11
-208.500000
 21
75.435898
  0
LINE
  8
0
  6
CONTINUOUS
 62
2
 10
-203.800003
 20
75.699997
 11
-204.300003
 21
75.699997
  0
LINE
  8
0
  6
CONTINUOUS
 62
7
 10
-203.800003
 20
75.000000
 11
-204.300003
 21
75.000000
  0
LINE
  8
0
  6
CONTINUOUS
 62
2
 10
-203.800003
 20
82.300003
 11
-204.300003
 21
82.300003
  0
LINE
  8
0
  6
CONTINUOUS
 62
7
 10
-203.800003
 20
83.000000
 11
-204.300003
 21
83.000000
  0
LINE
  8
0
  6
CONTINUOUS
 62
7
 10
-228.800003
 20
75.000000
 11
-228.800003
 21
83.000000
  0
LINE
  8
0
  6
CONTINUOUS
 62
7
 10
-228.800003
 20
82.300003
 11
-229.800003
 21
82.300003
  0
LINE
  8
0
  6
CONTINUOUS
 62
7
 10
-229.800003
 20
79.750000
 11
-229.800003
 21
82.300003
  0
LINE
  8
0
  6
CONTINUOUS
 62
7
 10
-228.800003
 20
79.750000
 11
-229.800003
 21
79.750000
  0
LINE
  8
0
  6
CONTINUOUS
 62
7
 10
-228.800003
 20
78.250000
 11
-229.800003
 21
78.250000
  0
LINE
  8
0
  6
CONTINUOUS
 62
7
 10
-229.800003
 20
75.699997
 11
-229.800003
 21
78.250000
  0
LINE
  8
0
  6
CONTINUOUS
 62
7
 10
-228.800003
 20
75.699997
 11
-229.800003
 21
75.699997
  0
LINE
  8
0
  6
CONTINUOUS
 62
7
 10
-210.500000
 20
75.000000
 11
-228.800003
 21
75.000000
  0
LINE
  8
0
  6
CONTINUOUS
 62
2
 10
-210.500000
 20
75.699997
 11
-228.800003
 21
75.699997
  0
LINE
  8
0
  6
CONTINUOUS
 62
2
 10
-210.500000
 20
82.300003
 11
-228.800003
 21
82.300003
  0
LINE
  8
0
  6
CONTINUOUS
 62
7
 10
-197.800003
 20
83.000000
 11
-167.300003
 21
83.000000
  0
LINE
  8
0
  6
CONTINUOUS
 62
7
 10
-227.000000
 20
75.000000
 11
-227.000000
 21
72.500000
  0
LINE
  8
0
  6
CONTINUOUS
 62
7
 10
-168.000000
 20
74.000000
 11
-168.000000
 21
72.500000
  0
LINE
  8
0
  6
CONTINUOUS
 62
7
 10
-182.800003
 20
41.500099
 11
-182.800003
 21
50.500000
  0
LINE
  8
0
  6
CONTINUOUS
 62
7
 10
-167.300003
 20
50.500000
 11
-182.800003
 21
50.500000
  0
LINE
  8
0
  6
CONTINUOUS
 62
7
 10
-167.300003
 20
41.500099
 11
-167.300003
 21
53.500000
  0
LINE
  8
0
  6
CONTINUOUS
 62
7
 10
-208.500000
 20
42.000000
 11
-208.500000
 21
54.000000
  0
LINE
  8
0
  6
CONTINUOUS
 62
7
 10
-197.800003
 20
42.500000
 11
-197.800003
 21
53.500000
  0
LINE
  8
0
  6
CENTER
 62
2
 10
-230.800003
 20
48.000000
 11
-192.800003
 21
48.000000
  0
LINE
  8
0
  6
CONTINUOUS
 62
7
 10
-203.800003
 20
53.500000
 11
-197.800003
 21
53.500000
  0
LINE
  8
0
  6
CONTINUOUS
 62
7
 10
-203.800003
 20
42.500000
 11
-197.800003
 21
42.500000
  0
LINE
  8
0
  6
CONTINUOUS
 62
7
 10
-203.800003
 20
42.500000
 11
-203.800003
 21
53.500000
  0
LINE
  8
0
  6
CONTINUOUS
 62
7
 10
-197.800003
 20
47.000000
 11
-193.800003
 21
47.000000
  0
LINE
  8
0
  6
CONTINUOUS
 62
7
 10
-197.800003
 20
49.000099
 11
-193.800003
 21
49.000099
  0
LINE
  8
0
  6
CONTINUOUS
 62
7
 10
-193.800003
 20
47.000000
 11
-193.800003
 21
49.000099
  0
LINE
  8
0
  6
CONTINUOUS
 62
2
 10
-203.800003
 20
51.299999
 11
-204.300003
 21
51.299999
  0
LINE
  8
0
  6
CONTINUOUS
 62
7
 10
-203.800003
 20
44.000099
 11
-204.300003
 21
44.000099
  0
LINE
  8
0
  6
CONTINUOUS
 62
7
 10
-228.800003
 20
44.700001
 11
-229.800003
 21
44.700001
  0
LINE
  8
0
  6
CONTINUOUS
 62
7
 10
-203.800003
 20
52.000000
 11
-204.300003
 21
52.000000
  0
LINE
  8
0
  6
CONTINUOUS
 62
7
 10
-228.800003
 20
44.000099
 11
-228.800003
 21
52.000000
  0
LINE
  8
0
  6
CONTINUOUS
 62
7
 10
-229.800003
 20
44.700001
 11
-229.800003
 21
51.299999
  0
LINE
  8
0
  6
CONTINUOUS
 62
7
 10
-228.800003
 20
51.299999
 11
-229.800003
 21
51.299999
  0
LINE
  8
0
  6
CONTINUOUS
 62
2
 10
-203.800003
 20
44.700001
 11
-204.300003
 21
44.700001
  0
LINE
  8
0
  6
CONTINUOUS
 62
7
 10
-153.500000
 20
54.000000
 11
-208.500000
 21
54.000000
  0
LINE
  8
0
  6
CONTINUOUS
 62
7
 10
-204.300003
 20
42.000000
 11
-204.300003
 21
54.000000
  0
LINE
  8
0
  6
CONTINUOUS
 62
7
 10
-208.500000
 20
42.500000
 11
-210.500000
 21
42.500000
  0
LINE
  8
0
  6
CONTINUOUS
 62
7
 10
-210.500000
 20
53.500000
 11
-210.500000
 21
42.500000
  0
LINE
  8
0
  6
CONTINUOUS
 62
7
 10
-208.500000
 20
43.173401
 11
-210.500000
 21
43.173401
  0
LINE
  8
0
  6
CONTINUOUS
 62
7
 10
-208.500000
 20
47.326698
 11
-210.500000
 21
47.326698
  0
LINE
  8
0
  6
CONTINUOUS
 62
7
 10
-208.500000
 20
48.673401
 11
-210.500000
 21
48.673401
  0
LINE
  8
0
  6
CONTINUOUS
 62
7
 10
-208.500000
 20
52.826698
 11
-210.500000
 21
52.826698
  0
LINE
  8
0
  6
CONTINUOUS
 62
7
 10
-208.500000
 20
53.500000
 11
-210.500000
 21
53.500000
  0
LINE
  8
0
  6
CONTINUOUS
 62
7
 10
-210.500000
 20
44.000099
 11
-228.800003
 21
44.000099
  0
LINE
  8
0
  6
CONTINUOUS
 62
2
 10
-210.500000
 20
44.700001
 11
-228.800003
 21
44.700001
  0
LINE
  8
0
  6
CONTINUOUS
 62
2
 10
-210.500000
 20
51.299999
 11
-228.800003
 21
51.299999
  0
LINE
  8
0
  6
CONTINUOUS
 62
7
 10
-210.500000
 20
52.000000
 11
-228.800003
 21
52.000000
  0
LINE
  8
0
  6
CONTINUOUS
 62
7
 10
-219.000000
 20
44.000099
 11
-219.000000
 21
42.599998
  0
LINE
  8
0
  6
CONTINUOUS
 62
7
 10
-182.800003
 20
42.000000
 11
-209.350006
 21
42.000000
  0
LINE
  8
0
  6
CONTINUOUS
 62
7
 10
-208.500000
 20
-102.500000
 11
-208.500000
 21
-114.500000
  0
LINE
  8
0
  6
CENTER
 62
2
 10
-230.800003
 20
-108.500000
 11
-207.500000
 21
-108.500000
  0
LINE
  8
0
  6
CONTINUOUS
 62
7
 10
-208.500000
 20
-103.000000
 11
-210.500000
 21
-103.000000
  0
LINE
  8
0
  6
CONTINUOUS
 62
7
 10
-210.500000
 20
-114.000000
 11
-210.500000
 21
-103.000000
  0
LINE
  8
0
  6
CONTINUOUS
 62
7
 10
-208.500000
 20
-103.672997
 11
-210.500000
 21
-103.672997
  0
LINE
  8
0
  6
CONTINUOUS
 62
7
 10
-208.500000
 20
-107.827003
 11
-210.500000
 21
-107.827003
  0
LINE
  8
0
  6
CONTINUOUS
 62
7
 10
-208.500000
 20
-109.172997
 11
-210.500000
 21
-109.172997
  0
LINE
  8
0
  6
CONTINUOUS
 62
7
 10
-208.500000
 20
-113.327003
 11
-210.500000
 21
-113.327003
  0
LINE
  8
0
  6
CONTINUOUS
 62
7
 10
-208.500000
 20
-114.000000
 11
-210.500000
 21
-114.000000
  0
LINE
  8
0
  6
CONTINUOUS
 62
7
 10
-210.500000
 20
-104.500000
 11
-215.500000
 21
-104.500000
  0
LINE
  8
0
  6
CONTINUOUS
 62
2
 10
-210.500000
 20
-105.199997
 11
-215.500000
 21
-105.199997
  0
LINE
  8
0
  6
CONTINUOUS
 62
2
 10
-210.500000
 20
-111.800003
 11
-228.800003
 21
-111.800003
  0
LINE
  8
0
  6
CONTINUOUS
 62
7
 10
-210.500000
 20
-112.500000
 11
-228.800003
 21
-112.500000
  0
LINE
  8
0
  6
CONTINUOUS
 62
7
 10
-228.800003
 20
-105.199997
 11
-229.800003
 21
-105.199997
  0
LINE
  8
0
  6
CONTINUOUS
 62
7
 10
-228.800003
 20
-104.500000
 11
-228.800003
 21
-112.500000
  0
LINE
  8
0
  6
CONTINUOUS
 62
7
 10
-229.800003
 20
-105.199997
 11
-229.800003
 21
-111.800003
  0
LINE
  8
0
  6
CONTINUOUS
 62
7
 10
-228.800003
 20
-111.800003
 11
-229.800003
 21
-111.800003
  0
LINE
  8
0
  6
CONTINUOUS
 62
7
 10
-222.500000
 20
-104.500000
 11
-228.800003
 21
-104.500000
  0
LINE
  8
0
  6
CONTINUOUS
 62
2
 10
-222.500000
 20
-105.199997
 11
-228.800003
 21
-105.199997
  0
LINE
  8
0
  6
CENTER
 62
2
 10
188.000000
 20
74.500000
 11
188.000000
 21
70.500000
  0
LINE
  8
0
  6
CENTER
 62
2
 10
158.000000
 20
20.500000
 11
158.000000
 21
15.500000
  0
LINE
  8
0
  6
CENTER
 62
2
 10
155.500000
 20
18.000000
 11
160.500000
 21
18.000000
  0
LINE
  8
0
  6
CENTER
 62
2
 10
158.000000
 20
40.500000
 11
158.000000
 21
35.500000
  0
LINE
  8
0
  6
CENTER
 62
2
 10
155.500000
 20
38.000000
 11
160.500000
 21
38.000000
  0
LINE
  8
0
  6
CONTINUOUS
 62
7
 10
-28.500000
 20
92.000000
 11
41.500000
 21
92.000000
  0
LINE
  8
0
  6
CONTINUOUS
 62
7
 10
-28.500000
 20
92.000000
 11
-28.500000
 21
73.000000
  0
LINE
  8
0
  6
CONTINUOUS
 62
7
 10
-30.500000
 20
73.000000
 11
-24.299999
 21
73.000000
  0
LINE
  8
0
  6
CONTINUOUS
 62
7
 10
12.200000
 20
82.000000
 11
27.700001
 21
82.000000
  0
LINE
  8
0
  6
CONTINUOUS
 62
7
 10
27.700001
 20
74.000000
 11
27.700001
 21
82.000000
  0
LINE
  8
0
  6
CONTINUOUS
 62
7
 10
12.200000
 20
74.000000
 11
27.700001
 21
74.000000
  0
LINE
  8
0
  6
CONTINUOUS
 62
7
 10
12.200000
 20
74.000000
 11
12.200000
 21
82.000000
  0
LINE
  8
0
  6
CONTINUOUS
 62
7
 10
-22.799999
 20
85.000000
 11
35.799999
 21
85.000000
  0
LINE
  8
0
  6
CONTINUOUS
 62
7
 10
-23.799999
 20
84.500000
 11
-17.799999
 21
84.500000
  0
LINE
  8
0
  6
CONTINUOUS
 62
7
 10
-17.799999
 20
73.500000
 11
-17.799999
 21
84.500000
  0
LINE
  8
0
  6
CONTINUOUS
 62
7
 10
-17.799999
 20
80.000000
 11
-13.800000
 21
80.000000
  0
LINE
  8
0
  6
CONTINUOUS
 62
7
 10
-13.800000
 20
78.000000
 11
-13.800000
 21
80.000000
  0
LINE
  8
0
  6
CONTINUOUS
 62
7
 10
-17.799999
 20
78.000000
 11
-13.800000
 21
78.000000
  0
LINE
  8
0
  6
CENTER
 62
2
 10
-50.799999
 20
79.000000
 11
-12.800000
 21
79.000000
  0
LINE
  8
0
  6
CONTINUOUS
 62
7
 10
-23.799999
 20
73.500000
 11
-17.799999
 21
73.500000
  0
LINE
  8
0
  6
CONTINUOUS
 62
7
 10
-24.299999
 20
73.000000
 11
-24.299999
 21
83.500000
  0
LINE
  8
0
  6
CONTINUOUS
 62
7
 10
-23.799999
 20
73.500000
 11
-23.799999
 21
84.500000
  0
LINE
  8
0
  6
CONTINUOUS
 62
7
 10
-30.500000
 20
85.000000
 11
-28.500000
 21
85.000000
  0
LINE
  8
0
  6
CONTINUOUS
 62
7
 10
-30.500000
 20
73.000000
 11
-30.500000
 21
85.000000
  0
LINE
  8
0
  6
CONTINUOUS
 62
7
 10
-30.500000
 20
82.564201
 11
-28.500000
 21
82.564201
  0
LINE
  8
0
  6
CONTINUOUS
 62
7
 10
-30.500000
 20
81.397903
 11
-28.500000
 21
81.397903
  0
LINE
  8
0
  6
CONTINUOUS
 62
7
 10
-30.500000
 20
76.602097
 11
-28.500000
 21
76.602097
  0
LINE
  8
0
  6
CONTINUOUS
 62
7
 10
-30.500000
 20
75.435898
 11
-28.500000
 21
75.435898
  0
LINE
  8
0
  6
CONTINUOUS
 62
2
 10
-23.799999
 20
75.699997
 11
-24.299999
 21
75.699997
  0
LINE
  8
0
  6
CONTINUOUS
 62
7
 10
-23.799999
 20
75.000000
 11
-24.299999
 21
75.000000
  0
LINE
  8
0
  6
CONTINUOUS
 62
2
 10
-23.799999
 20
82.300003
 11
-24.299999
 21
82.300003
  0
LINE
  8
0
  6
CONTINUOUS
 62
7
 10
-23.799999
 20
83.000000
 11
-24.299999
 21
83.000000
  0
LINE
  8
0
  6
CONTINUOUS
 62
7
 10
-48.799999
 20
75.000000
 11
-48.799999
 21
83.000000
  0
LINE
  8
0
  6
CONTINUOUS
 62
7
 10
-48.799999
 20
82.300003
 11
-49.799999
 21
82.300003
  0
LINE
  8
0
  6
CONTINUOUS
 62
7
 10
-49.799999
 20
79.750000
 11
-49.799999
 21
82.300003
  0
LINE
  8
0
  6
CONTINUOUS
 62
7
 10
-48.799999
 20
79.750000
 11
-49.799999
 21
79.750000
  0
LINE
  8
0
  6
CONTINUOUS
 62
7
 10
-48.799999
 20
78.250000
 11
-49.799999
 21
78.250000
  0
LINE
  8
0
  6
CONTINUOUS
 62
7
 10
-49.799999
 20
75.699997
 11
-49.799999
 21
78.250000
  0
LINE
  8
0
  6
CONTINUOUS
 62
7
 10
-48.799999
 20
75.699997
 11
-49.799999
 21
75.699997
  0
LINE
  8
0
  6
CONTINUOUS
 62
7
 10
-30.500000
 20
75.000000
 11
-48.799999
 21
75.000000
  0
LINE
  8
0
  6
CONTINUOUS
 62
2
 10
-30.500000
 20
75.699997
 11
-48.799999
 21
75.699997
  0
LINE
  8
0
  6
CONTINUOUS
 62
2
 10
-30.500000
 20
82.300003
 11
-48.799999
 21
82.300003
  0
LINE
  8
0
  6
CONTINUOUS
 62
7
 10
-47.000000
 20
75.000000
 11
-47.000000
 21
72.500000
  0
LINE
  8
0
  6
CONTINUOUS
 62
7
 10
-17.799999
 20
83.000000
 11
27.700001
 21
83.000000
  0
LINE
  8
0
  6
CONTINUOUS
 62
7
 10
27.000000
 20
74.000000
 11
27.000000
 21
72.500000
  0
LINE
  8
0
  6
CONTINUOUS
 62
7
 10
-66.000000
 20
41.500000
 11
-66.000000
 21
35.000000
  0
LINE
  8
0
  6
CONTINUOUS
 62
7
 10
-66.300003
 20
34.700001
 11
-66.300003
 21
21.299999
  0
LINE
  8
0
  6
CONTINUOUS
 62
7
 10
-66.000000
 20
14.500000
 11
-66.000000
 21
21.000000
  0
LINE
  8
0
  6
CONTINUOUS
 62
7
 10
-66.000000
 20
14.500000
 11
-85.000000
 21
14.500000
  0
LINE
  8
0
  6
CONTINUOUS
 62
7
 10
-66.000000
 20
41.500000
 11
-85.000000
 21
41.500000
  0
LINE
  8
0
  6
CONTINUOUS
 62
7
 10
-66.000000
 20
35.000000
 11
-66.300003
 21
34.700001
  0
LINE
  8
0
  6
CONTINUOUS
 62
7
 10
-66.000000
 20
21.000000
 11
-66.300003
 21
21.299999
  0
LINE
  8
0
  6
CONTINUOUS
 62
7
 10
-76.500000
 20
14.000000
 11
-76.500000
 21
14.500000
  0
LINE
  8
0
  6
CONTINUOUS
 62
7
 10
-86.000000
 20
14.000000
 11
-86.000000
 21
42.000000
  0
LINE
  8
0
  6
CONTINUOUS
 62
7
 10
-76.500000
 20
14.000000
 11
-86.000000
 21
14.000000
  0
LINE
  8
0
  6
CONTINUOUS
 62
7
 10
-85.000000
 20
14.500000
 11
-85.000000
 21
41.500000
  0
LINE
  8
0
  6
CONTINUOUS
 62
7
 10
-66.500000
 20
41.500000
 11
-66.500000
 21
14.500000
  0
LINE
  8
0
  6
CONTINUOUS
 62
7
 10
-66.500000
 20
42.000000
 11
-86.000000
 21
42.000000
  0
LINE
  8
0
  6
CONTINUOUS
 62
7
 10
-76.500000
 20
42.000000
 11
-76.500000
 21
41.500000
  0
LINE
  8
0
  6
CONTINUOUS
 62
7
 10
-84.541397
 20
45.500000
 11
-84.541397
 21
42.599998
  0
LINE
  8
0
  6
CONTINUOUS
 62
7
 10
-82.520699
 20
45.500000
 11
-82.520699
 21
42.599998
  0
LINE
  8
0
  6
CONTINUOUS
 62
7
 10
-78.479202
 20
45.500000
 11
-78.479202
 21
42.599998
  0
LINE
  8
0
  6
CONTINUOUS
 62
7
 10
-76.458603
 20
45.500000
 11
-84.541397
 21
45.500000
  0
LINE
  8
0
  6
CONTINUOUS
 62
7
 10
-76.458603
 20
45.500000
 11
-76.458603
 21
42.599998
  0
LINE
  8
0
  6
CONTINUOUS
 62
7
 10
-76.458603
 20
42.599998
 11
-84.541397
 21
42.599998
  0
LINE
  8
0
  6
CONTINUOUS
 62
7
 10
-76.599998
 20
42.599998
 11
-76.599998
 21
42.000000
  0
LINE
  8
0
  6
CONTINUOUS
 62
7
 10
-84.400002
 20
42.599998
 11
-84.400002
 21
42.000000
  0
LINE
  8
0
  6
CENTER
 62
2
 10
-79.000000
 20
41.000000
 11
-79.000000
 21
15.000000
  0
LINE
  8
0
  6
CENTER
 62
2
 10
-87.000000
 20
28.000000
 11
-65.000000
 21
28.000000
  0
LINE
  8
0
  6
CENTER
 62
2
 10
-70.000000
 20
31.000000
 11
-70.000000
 21
25.000000
  0
LINE
  8
0
  6
CENTER
 62
2
 10
-82.000000
 20
38.000000
 11
-66.000000
 21
38.000000
  0
LINE
  8
0
  6
CENTER
 62
2
 10
-70.000000
 20
42.000000
 11
-70.000000
 21
34.000000
  0
LINE
  8
0
  6
CENTER
 62
2
 10
-82.000000
 20
18.000000
 11
-66.000000
 21
18.000000
  0
LINE
  8
0
  6
CENTER
 62
2
 10
-70.000000
 20
22.000000
 11
-70.000000
 21
14.000000
  0
LINE
  8
0
  6
CENTER
 62
2
 10
-80.500000
 20
46.500000
 11
-80.500000
 21
41.000000
  0
LINE
  8
0
  6
CONTINUOUS
 62
7
 10
-75.500000
 20
42.000000
 11
-75.500000
 21
41.500000
  0
LINE
  8
0
  6
CONTINUOUS
 62
7
 10
-67.500000
 20
42.000000
 11
-67.500000
 21
41.500000
  0
LINE
  8
0
  6
CONTINUOUS
 62
7
 10
-85.500000
 20
54.000000
 11
-85.500000
 21
42.000000
  0
LINE
  8
0
  6
CONTINUOUS
 62
7
 10
-66.500000
 20
54.000000
 11
-66.500000
 21
42.000000
  0
LINE
  8
0
  6
CONTINUOUS
 62
7
 10
-85.500000
 20
54.000000
 11
-66.500000
 21
54.000000
  0
LINE
  8
0
  6
CONTINUOUS
 62
7
 10
-78.462097
 20
47.326698
 11
-77.407402
 21
45.500000
  0
LINE
  8
0
  6
CONTINUOUS
 62
7
 10
-76.064201
 20
52.826599
 11
-78.462097
 21
48.673302
  0
LINE
  8
0
  6
CONTINUOUS
 62
7
 10
-70.102097
 20
53.500000
 11
-74.897903
 21
53.500000
  0
LINE
  8
0
  6
CONTINUOUS
 62
7
 10
-66.537804
 20
48.673401
 11
-68.935699
 21
52.826698
  0
LINE
  8
0
  6
CONTINUOUS
 62
7
 10
-68.935799
 20
43.173302
 11
-66.537903
 21
47.326599
  0
LINE
  8
0
  6
CONTINUOUS
 62
7
 10
-70.102097
 20
42.500000
 11
-74.897903
 21
42.500000
  0
LINE
  8
0
  6
CONTINUOUS
 62
7
 10
-73.250000
 20
46.363701
 11
-73.250000
 21
44.070999
  0
LINE
  8
0
  6
CONTINUOUS
 62
7
 10
-71.750000
 20
46.363701
 11
-71.750000
 21
44.070999
  0
LINE
  8
0
  6
CONTINUOUS
 62
7
 10
-71.750000
 20
51.929100
 11
-71.750000
 21
49.636299
  0
LINE
  8
0
  6
CONTINUOUS
 62
7
 10
-73.250000
 20
51.929100
 11
-73.250000
 21
49.636299
  0
LINE
  8
0
  6
CENTER
 62
2
 10
-65.500000
 20
48.000000
 11
-79.500000
 21
48.000000
  0
LINE
  8
0
  6
CENTER
 62
2
 10
-72.500000
 20
41.000000
 11
-72.500000
 21
55.000000
  0
LINE
  8
0
  6
CONTINUOUS
 62
7
 10
-76.458504
 20
43.856400
 11
-76.064201
 21
43.173401
  0
LINE
  8
0
  6
CONTINUOUS
 62
7
 10
-251.000000
 20
41.500000
 11
-251.000000
 21
35.000000
  0
LINE
  8
0
  6
CONTINUOUS
 62
7
 10
-251.300003
 20
34.700001
 11
-251.300003
 21
21.299999
  0
LINE
  8
0
  6
CONTINUOUS
 62
7
 10
-251.000000
 20
14.500000
 11
-251.000000
 21
21.000000
  0
LINE
  8
0
  6
CONTINUOUS
 62
7
 10
-251.000000
 20
14.500000
 11
-270.000000
 21
14.500000
  0
LINE
  8
0
  6
CONTINUOUS
 62
7
 10
-251.000000
 20
41.500000
 11
-270.000000
 21
41.500000
  0
LINE
  8
0
  6
CONTINUOUS
 62
7
 10
-251.000000
 20
35.000000
 11
-251.300003
 21
34.700001
  0
LINE
  8
0
  6
CONTINUOUS
 62
7
 10
-251.000000
 20
21.000099
 11
-251.300003
 21
21.299999
  0
LINE
  8
0
  6
CONTINUOUS
 62
7
 10
-261.500000
 20
14.000000
 11
-261.500000
 21
14.500000
  0
LINE
  8
0
  6
CONTINUOUS
 62
7
 10
-271.000000
 20
14.000000
 11
-271.000000
 21
42.000000
  0
LINE
  8
0
  6
CONTINUOUS
 62
7
 10
-261.500000
 20
14.000000
 11
-271.000000
 21
14.000000
  0
LINE
  8
0
  6
CONTINUOUS
 62
7
 10
-270.000000
 20
14.500000
 11
-270.000000
 21
41.500000
  0
LINE
  8
0
  6
CONTINUOUS
 62
7
 10
-251.500000
 20
41.500000
 11
-251.500000
 21
14.500000
  0
LINE
  8
0
  6
CONTINUOUS
 62
7
 10
-251.500000
 20
42.000000
 11
-271.000000
 21
42.000000
  0
LINE
  8
0
  6
CONTINUOUS
 62
7
 10
-261.500000
 20
42.000000
 11
-261.500000
 21
41.500000
  0
LINE
  8
0
  6
CONTINUOUS
 62
7
 10
-269.540985
 20
45.500000
 11
-269.540985
 21
42.599998
  0
LINE
  8
0
  6
CONTINUOUS
 62
7
 10
-267.520996
 20
45.500000
 11
-267.520996
 21
42.599998
  0
LINE
  8
0
  6
CONTINUOUS
 62
7
 10
-263.479004
 20
45.500000
 11
-263.479004
 21
42.599998
  0
LINE
  8
0
  6
CONTINUOUS
 62
7
 10
-261.459015
 20
45.500000
 11
-269.540985
 21
45.500000
  0
LINE
  8
0
  6
CONTINUOUS
 62
7
 10
-261.459015
 20
45.500000
 11
-261.459015
 21
42.599998
  0
LINE
  8
0
  6
CONTINUOUS
 62
7
 10
-261.459015
 20
42.599998
 11
-269.540985
 21
42.599998
  0
LINE
  8
0
  6
CONTINUOUS
 62
7
 10
-261.600006
 20
42.599998
 11
-261.600006
 21
42.000000
  0
LINE
  8
0
  6
CONTINUOUS
 62
7
 10
-269.399994
 20
42.599998
 11
-269.399994
 21
42.000000
  0
LINE
  8
0
  6
CENTER
 62
2
 10
-264.000000
 20
41.000000
 11
-264.000000
 21
15.000000
  0
LINE
  8
0
  6
CENTER
 62
2
 10
-272.000000
 20
28.000000
 11
-250.000000
 21
28.000000
  0
LINE
  8
0
  6
CENTER
 62
2
 10
-255.000000
 20
31.000000
 11
-255.000000
 21
25.000000
  0
LINE
  8
0
  6
CENTER
 62
2
 10
-267.000000
 20
38.000000
 11
-251.000000
 21
38.000000
  0
LINE
  8
0
  6
CENTER
 62
2
 10
-255.000000
 20
42.000000
 11
-255.000000
 21
34.000000
  0
LINE
  8
0
  6
CENTER
 62
2
 10
-267.000000
 20
18.000000
 11
-251.000000
 21
18.000000
  0
LINE
  8
0
  6
CENTER
 62
2
 10
-255.000000
 20
22.000000
 11
-255.000000
 21
14.000000
  0
LINE
  8
0
  6
CENTER
 62
2
 10
-265.500000
 20
46.500000
 11
-265.500000
 21
41.000000
  0
LINE
  8
0
  6
CONTINUOUS
 62
7
 10
-260.500000
 20
42.000000
 11
-260.500000
 21
41.500099
  0
LINE
  8
0
  6
CONTINUOUS
 62
7
 10
-252.500000
 20
42.000000
 11
-252.500000
 21
41.500099
  0
LINE
  8
0
  6
CONTINUOUS
 62
7
 10
-270.500000
 20
54.000000
 11
-270.500000
 21
42.000000
  0
LINE
  8
0
  6
CONTINUOUS
 62
7
 10
-251.500000
 20
54.000000
 11
-251.500000
 21
42.000000
  0
LINE
  8
0
  6
CONTINUOUS
 62
7
 10
-270.500000
 20
54.000000
 11
-251.500000
 21
54.000000
  0
LINE
  8
0
  6
CONTINUOUS
 62
7
 10
-263.462006
 20
47.326698
 11
-262.407013
 21
45.500000
  0
LINE
  8
0
  6
CONTINUOUS
 62
7
 10
-261.063995
 20
52.826698
 11
-263.462006
 21
48.673401
  0
LINE
  8
0
  6
CONTINUOUS
 62
7
 10
-255.102005
 20
53.500000
 11
-259.898010
 21
53.500000
  0
LINE
  8
0
  6
CONTINUOUS
 62
7
 10
-251.537994
 20
48.673401
 11
-253.936005
 21
52.826698
  0
LINE
  8
0
  6
CONTINUOUS
 62
7
 10
-253.936005
 20
43.173302
 11
-251.537994
 21
47.326599
  0
LINE
  8
0
  6
CONTINUOUS
 62
7
 10
-255.102005
 20
42.500000
 11
-259.898010
 21
42.500000
  0
LINE
  8
0
  6
CONTINUOUS
 62
7
 10
-258.250000
 20
46.363701
 11
-258.250000
 21
44.070999
  0
LINE
  8
0
  6
CONTINUOUS
 62
7
 10
-256.750000
 20
46.363701
 11
-256.750000
 21
44.070999
  0
LINE
  8
0
  6
CONTINUOUS
 62
7
 10
-256.750000
 20
51.929100
 11
-256.750000
 21
49.636299
  0
LINE
  8
0
  6
CONTINUOUS
 62
7
 10
-258.250000
 20
51.929100
 11
-258.250000
 21
49.636299
  0
LINE
  8
0
  6
CENTER
 62
2
 10
-250.500000
 20
48.000000
 11
-264.500000
 21
48.000000
  0
LINE
  8
0
  6
CENTER
 62
2
 10
-257.500000
 20
41.000000
 11
-257.500000
 21
55.000000
  0
LINE
  8
0
  6
CONTINUOUS
 62
7
 10
263.792999
 20
48.707298
 11
265.207001
 21
47.293098
  0
LINE
  8
0
  6
CONTINUOUS
 62
7
 10
-261.459015
 20
43.856400
 11
-261.063995
 21
43.173401
  0
LINE
  8
0
  6
CONTINUOUS
 62
7
 10
268.500000
 20
14.000000
 11
278.000000
 21
14.000000
  0
LINE
  8
0
  6
CENTER
 62
2
 10
271.000000
 20
34.400002
 11
271.000000
 21
21.600000
  0
LINE
  8
0
  6
CENTER
 62
2
 10
257.000000
 20
28.000000
 11
279.000000
 21
28.000000
  0
LINE
  8
0
  6
CONTINUOUS
 62
7
 10
262.500000
 20
34.000000
 11
262.500000
 21
22.000000
  0
LINE
  8
0
  6
CONTINUOUS
 62
7
 10
265.709015
 20
34.000000
 11
268.500000
 21
34.000000
  0
LINE
  8
0
  6
CONTINUOUS
 62
7
 10
262.500000
 20
34.000000
 11
263.290985
 21
34.000000
  0
LINE
  8
0
  6
CONTINUOUS
 62
7
 10
265.709015
 20
22.000000
 11
268.500000
 21
22.000000
  0
LINE
  8
0
  6
CONTINUOUS
 62
7
 10
262.500000
 20
22.000000
 11
263.290985
 21
22.000000
  0
LINE
  8
0
  6
CONTINUOUS
 62
7
 10
268.500000
 20
14.000000
 11
268.500000
 21
22.000000
  0
LINE
  8
0
  6
CONTINUOUS
 62
7
 10
278.000000
 20
14.000000
 11
278.000000
 21
42.000000
  0
LINE
  8
0
  6
CONTINUOUS
 62
7
 10
268.500000
 20
42.000000
 11
268.500000
 21
34.000000
  0
LINE
  8
0
  6
CONTINUOUS
 62
7
 10
258.299988
 20
34.700001
 11
258.299988
 21
21.299999
  0
LINE
  8
0
  6
CONTINUOUS
 62
7
 10
258.000000
 20
14.500000
 11
258.000000
 21
21.000000
  0
LINE
  8
0
  6
CONTINUOUS
 62
7
 10
258.000000
 20
14.500000
 11
268.500000
 21
14.500000
  0
LINE
  8
0
  6
CONTINUOUS
 62
7
 10
268.000000
 20
14.500000
 11
268.000000
 21
22.000000
  0
LINE
  8
0
  6
CONTINUOUS
 62
7
 10
258.000000
 20
21.000099
 11
258.299988
 21
21.300100
  0
LINE
  8
0
  6
CONTINUOUS
 62
7
 10
258.000000
 20
41.500000
 11
258.000000
 21
35.000000
  0
LINE
  8
0
  6
CONTINUOUS
 62
7
 10
258.000000
 20
35.000000
 11
258.299988
 21
34.699902
  0
LINE
  8
0
  6
CONTINUOUS
 62
7
 10
268.000000
 20
41.500000
 11
268.000000
 21
34.000000
  0
LINE
  8
0
  6
CONTINUOUS
 62
7
 10
258.000000
 20
41.500000
 11
268.500000
 21
41.500000
  0
LINE
  8
0
  6
CENTER
 62
2
 10
276.000000
 20
38.500000
 11
280.000000
 21
38.500000
  0
LINE
  8
0
  6
CENTER
 62
2
 10
276.000000
 20
17.500000
 11
280.000000
 21
17.500000
  0
LINE
  8
0
  6
CENTER
 62
2
 10
256.000000
 20
38.000000
 11
260.000000
 21
38.000000
  0
LINE
  8
0
  6
CENTER
 62
2
 10
256.000000
 20
18.000000
 11
260.000000
 21
18.000000
  0
LINE
  8
0
  6
CONTINUOUS
 62
7
 10
267.500000
 20
42.000000
 11
267.500000
 21
41.500000
  0
LINE
  8
0
  6
CONTINUOUS
 62
7
 10
259.500000
 20
42.000000
 11
259.500000
 21
41.500099
  0
LINE
  8
0
  6
CONTINUOUS
 62
7
 10
258.500000
 20
54.000000
 11
258.500000
 21
42.000000
  0
LINE
  8
0
  6
CONTINUOUS
 62
7
 10
277.500000
 20
54.000000
 11
258.500000
 21
54.000000
  0
LINE
  8
0
  6
CONTINUOUS
 62
7
 10
277.500000
 20
54.000000
 11
277.500000
 21
42.000000
  0
LINE
  8
0
  6
CENTER
 62
2
 10
264.500000
 20
41.000000
 11
264.500000
 21
55.000000
  0
LINE
  8
0
  6
CENTER
 62
2
 10
257.500000
 20
48.000000
 11
271.500000
 21
48.000000
  0
LINE
  8
0
  6
CONTINUOUS
 62
7
 10
258.500000
 20
42.000000
 11
278.000000
 21
42.000000
  0
LINE
  8
0
  6
CONTINUOUS
 62
7
 10
12.200000
 20
41.500000
 11
12.200000
 21
50.500000
  0
LINE
  8
0
  6
CONTINUOUS
 62
7
 10
27.700001
 20
50.500000
 11
12.200000
 21
50.500000
  0
LINE
  8
0
  6
CONTINUOUS
 62
7
 10
27.700001
 20
41.500000
 11
27.700001
 21
53.500000
  0
LINE
  8
0
  6
CONTINUOUS
 62
7
 10
-28.500000
 20
42.000000
 11
-28.500000
 21
54.000000
  0
LINE
  8
0
  6
CONTINUOUS
 62
7
 10
-17.799999
 20
42.500000
 11
-17.799999
 21
53.500000
  0
LINE
  8
0
  6
CENTER
 62
2
 10
-50.799999
 20
48.000000
 11
-12.800000
 21
48.000000
  0
LINE
  8
0
  6
CONTINUOUS
 62
7
 10
-23.799999
 20
53.500000
 11
-17.799999
 21
53.500000
  0
LINE
  8
0
  6
CONTINUOUS
 62
7
 10
-23.799999
 20
42.500000
 11
-17.799999
 21
42.500000
  0
LINE
  8
0
  6
CONTINUOUS
 62
7
 10
-23.799999
 20
42.500000
 11
-23.799999
 21
53.500000
  0
LINE
  8
0
  6
CONTINUOUS
 62
7
 10
-17.799999
 20
47.000000
 11
-13.800000
 21
47.000000
  0
LINE
  8
0
  6
CONTINUOUS
 62
7
 10
-17.799999
 20
49.000000
 11
-13.800000
 21
49.000000
  0
LINE
  8
0
  6
CONTINUOUS
 62
7
 10
-13.800000
 20
47.000000
 11
-13.800000
 21
49.000000
  0
LINE
  8
0
  6
CONTINUOUS
 62
2
 10
-23.799999
 20
51.299999
 11
-24.299999
 21
51.299999
  0
LINE
  8
0
  6
CONTINUOUS
 62
7
 10
-23.799999
 20
44.000000
 11
-24.299999
 21
44.000000
  0
LINE
  8
0
  6
CONTINUOUS
 62
7
 10
-48.799999
 20
44.700001
 11
-49.799999
 21
44.700001
  0
LINE
  8
0
  6
CONTINUOUS
 62
7
 10
-23.799999
 20
52.000000
 11
-24.299999
 21
52.000000
  0
LINE
  8
0
  6
CONTINUOUS
 62
7
 10
-48.799999
 20
44.000000
 11
-48.799999
 21
52.000000
  0
LINE
  8
0
  6
CONTINUOUS
 62
7
 10
-49.799999
 20
44.700001
 11
-49.799999
 21
51.299999
  0
LINE
  8
0
  6
CONTINUOUS
 62
7
 10
-48.799999
 20
51.299999
 11
-49.799999
 21
51.299999
  0
LINE
  8
0
  6
CONTINUOUS
 62
2
 10
-23.799999
 20
44.700001
 11
-24.299999
 21
44.700001
  0
LINE
  8
0
  6
CONTINUOUS
 62
7
 10
41.500000
 20
54.000000
 11
-28.500000
 21
54.000000
  0
LINE
  8
0
  6
CONTINUOUS
 62
7
 10
-24.299999
 20
42.000000
 11
-24.299999
 21
54.000000
  0
LINE
  8
0
  6
CONTINUOUS
 62
7
 10
-28.500000
 20
42.500000
 11
-30.500000
 21
42.500000
  0
LINE
  8
0
  6
CONTINUOUS
 62
7
 10
-30.500000
 20
53.500000
 11
-30.500000
 21
42.500000
  0
LINE
  8
0
  6
CONTINUOUS
 62
7
 10
-28.500000
 20
43.173401
 11
-30.500000
 21
43.173401
  0
LINE
  8
0
  6
CONTINUOUS
 62
7
 10
-28.500000
 20
47.326698
 11
-30.500000
 21
47.326698
  0
LINE
  8
0
  6
CONTINUOUS
 62
7
 10
-28.500000
 20
48.673401
 11
-30.500000
 21
48.673401
  0
LINE
  8
0
  6
CONTINUOUS
 62
7
 10
-28.500000
 20
52.826698
 11
-30.500000
 21
52.826698
  0
LINE
  8
0
  6
CONTINUOUS
 62
7
 10
-28.500000
 20
53.500000
 11
-30.500000
 21
53.500000
  0
LINE
  8
0
  6
CONTINUOUS
 62
7
 10
-30.500000
 20
44.000000
 11
-48.799999
 21
44.000000
  0
LINE
  8
0
  6
CONTINUOUS
 62
2
 10
-30.500000
 20
44.700001
 11
-48.799999
 21
44.700001
  0
LINE
  8
0
  6
CONTINUOUS
 62
2
 10
-30.500000
 20
51.299999
 11
-48.799999
 21
51.299999
  0
LINE
  8
0
  6
CONTINUOUS
 62
7
 10
-30.500000
 20
52.000000
 11
-48.799999
 21
52.000000
  0
LINE
  8
0
  6
CONTINUOUS
 62
7
 10
12.200000
 20
42.000000
 11
-29.350000
 21
42.000000
  0
LINE
  8
0
  6
CONTINUOUS
 62
7
 10
-39.000000
 20
44.000000
 11
-39.000000
 21
42.599998
  0
LINE
  8
0
  6
CONTINUOUS
 62
7
 10
-28.500000
 20
-102.500000
 11
-28.500000
 21
-114.500000
  0
LINE
  8
0
  6
CENTER
 62
2
 10
-50.799999
 20
-108.500000
 11
-27.500000
 21
-108.500000
  0
LINE
  8
0
  6
CONTINUOUS
 62
7
 10
41.500000
 20
-114.500000
 11
-28.500000
 21
-114.500000
  0
LINE
  8
0
  6
CONTINUOUS
 62
7
 10
-28.500000
 20
-103.000000
 11
-30.500000
 21
-103.000000
  0
LINE
  8
0
  6
CONTINUOUS
 62
7
 10
-30.500000
 20
-114.000000
 11
-30.500000
 21
-103.000000
  0
LINE
  8
0
  6
CONTINUOUS
 62
7
 10
-28.500000
 20
-103.672997
 11
-30.500000
 21
-103.672997
  0
LINE
  8
0
  6
CONTINUOUS
 62
7
 10
-28.500000
 20
-107.827003
 11
-30.500000
 21
-107.827003
  0
LINE
  8
0
  6
CONTINUOUS
 62
7
 10
-28.500000
 20
-109.172997
 11
-30.500000
 21
-109.172997
  0
LINE
  8
0
  6
CONTINUOUS
 62
7
 10
-28.500000
 20
-113.327003
 11
-30.500000
 21
-113.327003
  0
LINE
  8
0
  6
CONTINUOUS
 62
7
 10
-28.500000
 20
-114.000000
 11
-30.500000
 21
-114.000000
  0
LINE
  8
0
  6
CONTINUOUS
 62
7
 10
-30.500000
 20
-104.500000
 11
-35.500000
 21
-104.500000
  0
LINE
  8
0
  6
CONTINUOUS
 62
2
 10
-30.500000
 20
-105.199997
 11
-35.500000
 21
-105.199997
  0
LINE
  8
0
  6
CONTINUOUS
 62
2
 10
-30.500000
 20
-111.800003
 11
-48.799999
 21
-111.800003
  0
LINE
  8
0
  6
CONTINUOUS
 62
7
 10
-30.500000
 20
-112.500000
 11
-48.799999
 21
-112.500000
  0
LINE
  8
0
  6
CONTINUOUS
 62
7
 10
-48.799999
 20
-105.199997
 11
-49.799999
 21
-105.199997
  0
LINE
  8
0
  6
CONTINUOUS
 62
7
 10
-48.799999
 20
-104.500000
 11
-48.799999
 21
-112.500000
  0
LINE
  8
0
  6
CONTINUOUS
 62
7
 10
-49.799999
 20
-105.199997
 11
-49.799999
 21
-111.800003
  0
LINE
  8
0
  6
CONTINUOUS
 62
7
 10
-48.799999
 20
-111.800003
 11
-49.799999
 21
-111.800003
  0
LINE
  8
0
  6
CONTINUOUS
 62
7
 10
-42.500000
 20
-104.500000
 11
-48.799999
 21
-104.500000
  0
LINE
  8
0
  6
CONTINUOUS
 62
2
 10
-42.500000
 20
-105.199997
 11
-48.799999
 21
-105.199997
  0
LINE
  8
0
  6
CONTINUOUS
 62
7
 10
-153.500000
 20
42.000000
 11
-167.300003
 21
42.000000
  0
LINE
  8
0
  6
CONTINUOUS
 62
7
 10
-161.300003
 20
42.500000
 11
-161.300003
 21
53.500000
  0
LINE
  8
0
  6
CONTINUOUS
 62
7
 10
-167.300003
 20
53.500000
 11
-161.300003
 21
53.500000
  0
LINE
  8
0
  6
CONTINUOUS
 62
7
 10
-167.300003
 20
42.500000
 11
-161.300003
 21
42.500000
  0
LINE
  8
0
  6
CONTINUOUS
 62
7
 10
-161.300003
 20
52.000000
 11
-157.699997
 21
52.000000
  0
LINE
  8
0
  6
CONTINUOUS
 62
7
 10
-161.300003
 20
44.000099
 11
-157.699997
 21
44.000099
  0
LINE
  8
0
  6
CENTER
 62
2
 10
-168.300003
 20
48.000000
 11
-134.300003
 21
48.000000
  0
LINE
  8
0
  6
CONTINUOUS
 62
2
 10
-161.300003
 20
44.700001
 11
-157.699997
 21
44.700001
  0
LINE
  8
0
  6
CONTINUOUS
 62
7
 10
-151.500000
 20
52.000000
 11
-136.300003
 21
52.000000
  0
LINE
  8
0
  6
CONTINUOUS
 62
7
 10
-136.300003
 20
51.299999
 11
-135.300003
 21
51.299999
  0
LINE
  8
0
  6
CONTINUOUS
 62
7
 10
-151.500000
 20
44.000099
 11
-136.300003
 21
44.000099
  0
LINE
  8
0
  6
CONTINUOUS
 62
7
 10
-136.300003
 20
52.000000
 11
-136.300003
 21
44.000099
  0
LINE
  8
0
  6
CONTINUOUS
 62
7
 10
-135.300003
 20
51.299999
 11
-135.300003
 21
44.700001
  0
LINE
  8
0
  6
CONTINUOUS
 62
7
 10
-136.300003
 20
44.700001
 11
-135.300003
 21
44.700001
  0
LINE
  8
0
  6
CONTINUOUS
 62
2
 10
-161.300003
 20
51.299999
 11
-157.699997
 21
51.299999
  0
LINE
  8
0
  6
CONTINUOUS
 62
7
 10
-153.500000
 20
54.000000
 11
-153.500000
 21
42.000000
  0
LINE
  8
0
  6
CONTINUOUS
 62
7
 10
-157.699997
 20
54.000000
 11
-157.699997
 21
42.000000
  0
LINE
  8
0
  6
CONTINUOUS
 62
7
 10
-153.500000
 20
53.500000
 11
-151.500000
 21
53.500000
  0
LINE
  8
0
  6
CONTINUOUS
 62
7
 10
-151.500000
 20
42.500000
 11
-151.500000
 21
53.500000
  0
LINE
  8
0
  6
CONTINUOUS
 62
7
 10
-153.500000
 20
52.826698
 11
-151.500000
 21
52.826698
  0
LINE
  8
0
  6
CONTINUOUS
 62
7
 10
-153.500000
 20
48.673401
 11
-151.500000
 21
48.673401
  0
LINE
  8
0
  6
CONTINUOUS
 62
7
 10
-153.500000
 20
47.326698
 11
-151.500000
 21
47.326698
  0
LINE
  8
0
  6
CONTINUOUS
 62
7
 10
-153.500000
 20
43.173401
 11
-151.500000
 21
43.173401
  0
LINE
  8
0
  6
CONTINUOUS
 62
7
 10
-153.500000
 20
42.500000
 11
-151.500000
 21
42.500000
  0
LINE
  8
0
  6
CONTINUOUS
 62
2
 10
-151.500000
 20
44.700001
 11
-136.300003
 21
44.700001
  0
LINE
  8
0
  6
CONTINUOUS
 62
2
 10
-151.500000
 20
51.299999
 11
-136.300003
 21
51.299999
  0
LINE
  8
0
  6
CONTINUOUS
 62
7
 10
234.500000
 20
42.000000
 11
220.699997
 21
42.000000
  0
LINE
  8
0
  6
CONTINUOUS
 62
7
 10
226.699997
 20
42.500000
 11
226.699997
 21
53.500000
  0
LINE
  8
0
  6
CONTINUOUS
 62
7
 10
220.699997
 20
53.500000
 11
226.699997
 21
53.500000
  0
LINE
  8
0
  6
CONTINUOUS
 62
7
 10
220.699997
 20
42.500000
 11
226.699997
 21
42.500000
  0
LINE
  8
0
  6
CONTINUOUS
 62
7
 10
226.699997
 20
52.000000
 11
230.300003
 21
52.000000
  0
LINE
  8
0
  6
CONTINUOUS
 62
7
 10
226.699997
 20
44.000099
 11
230.300003
 21
44.000099
  0
LINE
  8
0
  6
CENTER
 62
2
 10
219.699997
 20
48.000000
 11
253.699997
 21
48.000000
  0
LINE
  8
0
  6
CONTINUOUS
 62
2
 10
226.699997
 20
44.700001
 11
230.300003
 21
44.700001
  0
LINE
  8
0
  6
CONTINUOUS
 62
7
 10
236.500000
 20
52.000000
 11
251.699997
 21
52.000000
  0
LINE
  8
0
  6
CONTINUOUS
 62
7
 10
251.699997
 20
51.299999
 11
252.699997
 21
51.299999
  0
LINE
  8
0
  6
CONTINUOUS
 62
7
 10
236.500000
 20
44.000099
 11
251.699997
 21
44.000099
  0
LINE
  8
0
  6
CONTINUOUS
 62
7
 10
251.699997
 20
52.000000
 11
251.699997
 21
44.000099
  0
LINE
  8
0
  6
CONTINUOUS
 62
7
 10
252.699997
 20
51.299999
 11
252.699997
 21
44.700001
  0
LINE
  8
0
  6
CONTINUOUS
 62
7
 10
251.699997
 20
44.700001
 11
252.699997
 21
44.700001
  0
LINE
  8
0
  6
CONTINUOUS
 62
2
 10
226.699997
 20
51.299999
 11
230.300003
 21
51.299999
  0
LINE
  8
0
  6
CONTINUOUS
 62
7
 10
234.500000
 20
54.000000
 11
234.500000
 21
42.000000
  0
LINE
  8
0
  6
CONTINUOUS
 62
7
 10
230.300003
 20
54.000000
 11
230.300003
 21
42.000000
  0
LINE
  8
0
  6
CONTINUOUS
 62
7
 10
234.500000
 20
53.500000
 11
236.500000
 21
53.500000
  0
LINE
  8
0
  6
CONTINUOUS
 62
7
 10
236.500000
 20
42.500000
 11
236.500000
 21
53.500000
  0
LINE
  8
0
  6
CONTINUOUS
 62
7
 10
234.500000
 20
52.826698
 11
236.500000
 21
52.826698
  0
LINE
  8
0
  6
CONTINUOUS
 62
7
 10
234.500000
 20
48.673401
 11
236.500000
 21
48.673401
  0
LINE
  8
0
  6
CONTINUOUS
 62
7
 10
234.500000
 20
47.326698
 11
236.500000
 21
47.326698
  0
LINE
  8
0
  6
CONTINUOUS
 62
7
 10
234.500000
 20
43.173401
 11
236.500000
 21
43.173401
  0
LINE
  8
0
  6
CONTINUOUS
 62
7
 10
234.500000
 20
42.500000
 11
236.500000
 21
42.500000
  0
LINE
  8
0
  6
CONTINUOUS
 62
2
 10
236.500000
 20
44.700001
 11
251.699997
 21
44.700001
  0
LINE
  8
0
  6
CONTINUOUS
 62
2
 10
236.500000
 20
51.299999
 11
251.699997
 21
51.299999
  0
LINE
  8
0
  6
CONTINUOUS
 62
7
 10
41.500000
 20
42.000000
 11
27.700001
 21
42.000000
  0
LINE
  8
0
  6
CONTINUOUS
 62
7
 10
33.700001
 20
42.500000
 11
33.700001
 21
53.500000
  0
LINE
  8
0
  6
CONTINUOUS
 62
7
 10
27.700001
 20
53.500000
 11
33.700001
 21
53.500000
  0
LINE
  8
0
  6
CONTINUOUS
 62
7
 10
27.700001
 20
42.500000
 11
33.700001
 21
42.500000
  0
LINE
  8
0
  6
CONTINUOUS
 62
7
 10
33.700001
 20
52.000000
 11
37.299999
 21
52.000000
  0
LINE
  8
0
  6
CONTINUOUS
 62
7
 10
33.700001
 20
44.000099
 11
37.299999
 21
44.000099
  0
LINE
  8
0
  6
CENTER
 62
2
 10
26.700001
 20
48.000000
 11
60.700001
 21
48.000000
  0
LINE
  8
0
  6
CONTINUOUS
 62
2
 10
33.700001
 20
44.700001
 11
37.299999
 21
44.700001
  0
LINE
  8
0
  6
CONTINUOUS
 62
7
 10
43.500000
 20
52.000000
 11
58.700001
 21
52.000000
  0
LINE
  8
0
  6
CONTINUOUS
 62
7
 10
58.700001
 20
51.299999
 11
59.700001
 21
51.299999
  0
LINE
  8
0
  6
CONTINUOUS
 62
7
 10
43.500000
 20
44.000099
 11
58.700001
 21
44.000099
  0
LINE
  8
0
  6
CONTINUOUS
 62
7
 10
58.700001
 20
52.000000
 11
58.700001
 21
44.000099
  0
LINE
  8
0
  6
CONTINUOUS
 62
7
 10
59.700001
 20
51.299999
 11
59.700001
 21
44.700001
  0
LINE
  8
0
  6
CONTINUOUS
 62
7
 10
58.700001
 20
44.700001
 11
59.700001
 21
44.700001
  0
LINE
  8
0
  6
CONTINUOUS
 62
2
 10
33.700001
 20
51.299999
 11
37.299999
 21
51.299999
  0
LINE
  8
0
  6
CONTINUOUS
 62
7
 10
41.500000
 20
54.000000
 11
41.500000
 21
42.000000
  0
LINE
  8
0
  6
CONTINUOUS
 62
7
 10
37.299999
 20
54.000000
 11
37.299999
 21
42.000000
  0
LINE
  8
0
  6
CONTINUOUS
 62
7
 10
41.500000
 20
53.500000
 11
43.500000
 21
53.500000
  0
LINE
  8
0
  6
CONTINUOUS
 62
7
 10
43.500000
 20
42.500000
 11
43.500000
 21
53.500000
  0
LINE
  8
0
  6
CONTINUOUS
 62
7
 10
41.500000
 20
52.826698
 11
43.500000
 21
52.826698
  0
LINE
  8
0
  6
CONTINUOUS
 62
7
 10
41.500000
 20
48.673401
 11
43.500000
 21
48.673401
  0
LINE
  8
0
  6
CONTINUOUS
 62
7
 10
41.500000
 20
47.326698
 11
43.500000
 21
47.326698
  0
LINE
  8
0
  6
CONTINUOUS
 62
7
 10
41.500000
 20
43.173401
 11
43.500000
 21
43.173401
  0
LINE
  8
0
  6
CONTINUOUS
 62
7
 10
41.500000
 20
42.500000
 11
43.500000
 21
42.500000
  0
LINE
  8
0
  6
CONTINUOUS
 62
2
 10
43.500000
 20
44.700001
 11
58.700001
 21
44.700001
  0
LINE
  8
0
  6
CONTINUOUS
 62
2
 10
43.500000
 20
51.299999
 11
58.700001
 21
51.299999
  0
LINE
  8
0
  6
CONTINUOUS
 62
7
 10
-166.800003
 20
73.250000
 11
-166.800003
 21
73.250000
  0
LINE
  8
0
  6
CONTINUOUS
 62
7
 10
-157.699997
 20
73.000000
 11
-151.500000
 21
73.000000
  0
LINE
  8
0
  6
CONTINUOUS
 62
7
 10
-167.300003
 20
73.500000
 11
-167.300003
 21
84.500000
  0
LINE
  8
0
  6
CONTINUOUS
 62
7
 10
-151.500000
 20
73.000000
 11
-151.500000
 21
85.000000
  0
LINE
  8
0
  6
CONTINUOUS
 62
7
 10
-153.500000
 20
75.435799
 11
-151.500000
 21
75.435799
  0
LINE
  8
0
  6
CONTINUOUS
 62
7
 10
-153.500000
 20
76.602097
 11
-151.500000
 21
76.602097
  0
LINE
  8
0
  6
CONTINUOUS
 62
7
 10
-153.500000
 20
81.397903
 11
-151.500000
 21
81.397903
  0
LINE
  8
0
  6
CONTINUOUS
 62
7
 10
-153.500000
 20
82.564201
 11
-151.500000
 21
82.564201
  0
LINE
  8
0
  6
CONTINUOUS
 62
7
 10
-153.500000
 20
85.000000
 11
-151.500000
 21
85.000000
  0
LINE
  8
0
  6
CONTINUOUS
 62
7
 10
-157.699997
 20
73.000000
 11
-157.699997
 21
83.500000
  0
LINE
  8
0
  6
CONTINUOUS
 62
7
 10
-153.500000
 20
73.000000
 11
-153.500000
 21
92.000000
  0
LINE
  8
0
  6
CONTINUOUS
 62
7
 10
-136.300003
 20
79.750000
 11
-135.300003
 21
79.750000
  0
LINE
  8
0
  6
CONTINUOUS
 62
7
 10
-135.300003
 20
82.300003
 11
-135.300003
 21
79.750000
  0
LINE
  8
0
  6
CONTINUOUS
 62
7
 10
-136.300003
 20
78.250000
 11
-135.300003
 21
78.250000
  0
LINE
  8
0
  6
CONTINUOUS
 62
7
 10
-167.300003
 20
84.500000
 11
-161.300003
 21
84.500000
  0
LINE
  8
0
  6
CONTINUOUS
 62
7
 10
-167.300003
 20
73.500000
 11
-161.300003
 21
73.500000
  0
LINE
  8
0
  6
CONTINUOUS
 62
7
 10
-161.300003
 20
73.500000
 11
-161.300003
 21
84.500000
  0
LINE
  8
0
  6
CONTINUOUS
 62
7
 10
-161.300003
 20
83.000000
 11
-157.699997
 21
83.000000
  0
LINE
  8
0
  6
CONTINUOUS
 62
7
 10
-161.300003
 20
75.000000
 11
-157.699997
 21
75.000000
  0
LINE
  8
0
  6
CONTINUOUS
 62
2
 10
-161.300003
 20
75.699997
 11
-157.699997
 21
75.699997
  0
LINE
  8
0
  6
CONTINUOUS
 62
7
 10
-151.500000
 20
75.000000
 11
-136.300003
 21
75.000000
  0
LINE
  8
0
  6
CONTINUOUS
 62
7
 10
-136.300003
 20
83.000000
 11
-136.300003
 21
75.000000
  0
LINE
  8
0
  6
CONTINUOUS
 62
7
 10
-136.300003
 20
75.699997
 11
-135.300003
 21
75.699997
  0
LINE
  8
0
  6
CONTINUOUS
 62
7
 10
-135.300003
 20
78.250000
 11
-135.300003
 21
75.699997
  0
LINE
  8
0
  6
CONTINUOUS
 62
7
 10
-136.300003
 20
82.300003
 11
-135.300003
 21
82.300003
  0
LINE
  8
0
  6
CONTINUOUS
 62
2
 10
-161.300003
 20
82.300003
 11
-157.699997
 21
82.300003
  0
LINE
  8
0
  6
CONTINUOUS
 62
7
 10
-151.500000
 20
83.000000
 11
-136.300003
 21
83.000000
  0
LINE
  8
0
  6
CENTER
 62
2
 10
-168.300003
 20
79.000000
 11
-134.300003
 21
79.000000
  0
LINE
  8
0
  6
CONTINUOUS
 62
2
 10
-151.500000
 20
82.300003
 11
-136.300003
 21
82.300003
  0
LINE
  8
0
  6
CONTINUOUS
 62
2
 10
-151.500000
 20
75.699997
 11
-136.300003
 21
75.699997
  0
LINE
  8
0
  6
CONTINUOUS
 62
7
 10
-165.000000
 20
85.000000
 11
-165.000000
 21
84.500000
  0
LINE
  8
0
  6
CONTINUOUS
 62
7
 10
258.537994
 20
48.673401
 11
260.936005
 21
52.826698
  0
LINE
  8
0
  6
CONTINUOUS
 62
7
 10
260.936005
 20
43.173302
 11
258.537994
 21
47.326599
  0
LINE
  8
0
  6
CONTINUOUS
 62
7
 10
265.250000
 20
46.363701
 11
265.250000
 21
44.070999
  0
LINE
  8
0
  6
CONTINUOUS
 62
7
 10
263.750000
 20
46.363701
 11
263.750000
 21
44.070999
  0
LINE
  8
0
  6
CONTINUOUS
 62
7
 10
263.750000
 20
51.929100
 11
263.750000
 21
49.636299
  0
LINE
  8
0
  6
CONTINUOUS
 62
7
 10
265.250000
 20
51.929100
 11
265.250000
 21
49.636299
  0
LINE
  8
0
  6
CENTER
 62
2
 10
257.500000
 20
48.000000
 11
271.500000
 21
48.000000
  0
LINE
  8
0
  6
CENTER
 62
2
 10
264.500000
 20
41.000000
 11
264.500000
 21
55.000000
  0
LINE
  8
0
  6
CONTINUOUS
 62
7
 10
270.462006
 20
47.326698
 11
268.063995
 21
43.173401
  0
LINE
  8
0
  6
CONTINUOUS
 62
7
 10
268.063995
 20
52.826599
 11
270.462006
 21
48.673302
  0
LINE
  8
0
  6
CONTINUOUS
 62
7
 10
262.101990
 20
53.500000
 11
266.898010
 21
53.500000
  0
LINE
  8
0
  6
CONTINUOUS
 62
7
 10
262.101990
 20
42.500000
 11
266.898010
 21
42.500000
  0
LINE
  8
0
  6
CONTINUOUS
 62
7
 10
77.500000
 20
14.000000
 11
87.000000
 21
14.000000
  0
LINE
  8
0
  6
CENTER
 62
2
 10
80.000000
 20
34.400002
 11
80.000000
 21
21.600000
  0
LINE
  8
0
  6
CENTER
 62
2
 10
66.000000
 20
28.000000
 11
88.000000
 21
28.000000
  0
LINE
  8
0
  6
CONTINUOUS
 62
7
 10
71.500000
 20
34.000000
 11
71.500000
 21
22.000000
  0
LINE
  8
0
  6
CONTINUOUS
 62
7
 10
74.709396
 20
34.000000
 11
77.500000
 21
34.000000
  0
LINE
  8
0
  6
CONTINUOUS
 62
7
 10
71.500000
 20
34.000000
 11
72.290604
 21
34.000000
  0
LINE
  8
0
  6
CONTINUOUS
 62
7
 10
74.709297
 20
22.000000
 11
77.500000
 21
22.000000
  0
LINE
  8
0
  6
CONTINUOUS
 62
7
 10
71.500000
 20
22.000000
 11
72.290703
 21
22.000000
  0
LINE
  8
0
  6
CONTINUOUS
 62
7
 10
77.500000
 20
14.000000
 11
77.500000
 21
22.000000
  0
LINE
  8
0
  6
CONTINUOUS
 62
7
 10
87.000000
 20
14.000000
 11
87.000000
 21
42.000000
  0
LINE
  8
0
  6
CONTINUOUS
 62
7
 10
77.500000
 20
42.000000
 11
77.500000
 21
34.000000
  0
LINE
  8
0
  6
CONTINUOUS
 62
7
 10
67.300003
 20
34.700001
 11
67.300003
 21
21.299999
  0
LINE
  8
0
  6
CONTINUOUS
 62
7
 10
67.000000
 20
14.500000
 11
67.000000
 21
21.000000
  0
LINE
  8
0
  6
CONTINUOUS
 62
7
 10
67.000000
 20
14.500000
 11
77.500000
 21
14.500000
  0
LINE
  8
0
  6
CONTINUOUS
 62
7
 10
77.000000
 20
14.500000
 11
77.000000
 21
22.000000
  0
LINE
  8
0
  6
CONTINUOUS
 62
7
 10
67.000000
 20
21.000000
 11
67.300003
 21
21.299999
  0
LINE
  8
0
  6
CONTINUOUS
 62
7
 10
67.000000
 20
41.500000
 11
67.000000
 21
35.000000
  0
LINE
  8
0
  6
CONTINUOUS
 62
7
 10
67.000000
 20
35.000000
 11
67.300003
 21
34.700001
  0
LINE
  8
0
  6
CONTINUOUS
 62
7
 10
77.000000
 20
41.500000
 11
77.000000
 21
34.000000
  0
LINE
  8
0
  6
CONTINUOUS
 62
7
 10
67.000000
 20
41.500000
 11
77.500000
 21
41.500000
  0
LINE
  8
0
  6
CENTER
 62
2
 10
85.000000
 20
38.500000
 11
89.000000
 21
38.500000
  0
LINE
  8
0
  6
CENTER
 62
2
 10
85.000000
 20
17.500000
 11
89.000000
 21
17.500000
  0
LINE
  8
0
  6
CENTER
 62
2
 10
65.000000
 20
38.000000
 11
69.000000
 21
38.000000
  0
LINE
  8
0
  6
CENTER
 62
2
 10
65.000000
 20
18.000000
 11
69.000000
 21
18.000000
  0
LINE
  8
0
  6
CONTINUOUS
 62
7
 10
76.500000
 20
42.000000
 11
76.500000
 21
41.500000
  0
LINE
  8
0
  6
CONTINUOUS
 62
7
 10
68.500000
 20
42.000000
 11
68.500000
 21
41.500099
  0
LINE
  8
0
  6
CONTINUOUS
 62
7
 10
67.500000
 20
54.000000
 11
67.500000
 21
42.000000
  0
LINE
  8
0
  6
CONTINUOUS
 62
7
 10
86.500000
 20
54.000000
 11
67.500000
 21
54.000000
  0
LINE
  8
0
  6
CONTINUOUS
 62
7
 10
86.500000
 20
54.000000
 11
86.500000
 21
42.000000
  0
LINE
  8
0
  6
CENTER
 62
2
 10
73.500000
 20
41.000000
 11
73.500000
 21
55.000000
  0
LINE
  8
0
  6
CENTER
 62
2
 10
66.500000
 20
48.000000
 11
80.500000
 21
48.000000
  0
LINE
  8
0
  6
CONTINUOUS
 62
7
 10
67.500000
 20
42.000000
 11
87.000000
 21
42.000000
  0
LINE
  8
0
  6
CONTINUOUS
 62
7
 10
67.537903
 20
48.673401
 11
69.935799
 21
52.826698
  0
LINE
  8
0
  6
CONTINUOUS
 62
7
 10
69.935799
 20
43.173302
 11
67.537903
 21
47.326698
  0
LINE
  8
0
  6
CONTINUOUS
 62
7
 10
74.250000
 20
46.363701
 11
74.250000
 21
44.070999
  0
LINE
  8
0
  6
CONTINUOUS
 62
7
 10
72.750000
 20
46.363701
 11
72.750000
 21
44.070999
  0
LINE
  8
0
  6
CONTINUOUS
 62
7
 10
72.750000
 20
51.929100
 11
72.750000
 21
49.636299
  0
LINE
  8
0
  6
CONTINUOUS
 62
7
 10
74.250000
 20
51.929100
 11
74.250000
 21
49.636299
  0
LINE
  8
0
  6
CENTER
 62
2
 10
66.500000
 20
48.000000
 11
80.500000
 21
48.000000
  0
LINE
  8
0
  6
CENTER
 62
2
 10
73.500000
 20
41.000000
 11
73.500000
 21
55.000000
  0
LINE
  8
0
  6
CONTINUOUS
 62
7
 10
79.462097
 20
47.326698
 11
77.064201
 21
43.173401
  0
LINE
  8
0
  6
CONTINUOUS
 62
7
 10
77.064201
 20
52.826698
 11
79.462097
 21
48.673401
  0
LINE
  8
0
  6
CONTINUOUS
 62
7
 10
71.102097
 20
53.500000
 11
75.897903
 21
53.500000
  0
LINE
  8
0
  6
CONTINUOUS
 62
7
 10
71.102097
 20
42.500000
 11
75.897903
 21
42.500000
  0
LINE
  8
0
  6
CONTINUOUS
 62
7
 10
221.199997
 20
73.250000
 11
221.199997
 21
73.250000
  0
LINE
  8
0
  6
CONTINUOUS
 62
7
 10
230.300003
 20
73.000000
 11
236.500000
 21
73.000000
  0
LINE
  8
0
  6
CONTINUOUS
 62
7
 10
220.699997
 20
73.500000
 11
220.699997
 21
84.500000
  0
LINE
  8
0
  6
CONTINUOUS
 62
7
 10
236.500000
 20
73.000000
 11
236.500000
 21
85.000000
  0
LINE
  8
0
  6
CONTINUOUS
 62
7
 10
234.500000
 20
75.435799
 11
236.500000
 21
75.435799
  0
LINE
  8
0
  6
CONTINUOUS
 62
7
 10
234.500000
 20
76.602097
 11
236.500000
 21
76.602097
  0
LINE
  8
0
  6
CONTINUOUS
 62
7
 10
234.500000
 20
81.397903
 11
236.500000
 21
81.397903
  0
LINE
  8
0
  6
CONTINUOUS
 62
7
 10
234.500000
 20
82.564201
 11
236.500000
 21
82.564201
  0
LINE
  8
0
  6
CONTINUOUS
 62
7
 10
234.500000
 20
85.000000
 11
236.500000
 21
85.000000
  0
LINE
  8
0
  6
CONTINUOUS
 62
7
 10
230.300003
 20
73.000000
 11
230.300003
 21
83.500000
  0
LINE
  8
0
  6
CONTINUOUS
 62
7
 10
234.500000
 20
73.000000
 11
234.500000
 21
92.000000
  0
LINE
  8
0
  6
CONTINUOUS
 62
7
 10
251.699997
 20
79.750000
 11
252.699997
 21
79.750000
  0
LINE
  8
0
  6
CONTINUOUS
 62
7
 10
252.699997
 20
82.300003
 11
252.699997
 21
79.750000
  0
LINE
  8
0
  6
CONTINUOUS
 62
7
 10
251.699997
 20
78.250000
 11
252.699997
 21
78.250000
  0
LINE
  8
0
  6
CONTINUOUS
 62
7
 10
220.699997
 20
84.500000
 11
226.699997
 21
84.500000
  0
LINE
  8
0
  6
CONTINUOUS
 62
7
 10
220.699997
 20
73.500000
 11
226.699997
 21
73.500000
  0
LINE
  8
0
  6
CONTINUOUS
 62
7
 10
226.699997
 20
73.500000
 11
226.699997
 21
84.500000
  0
LINE
  8
0
  6
CONTINUOUS
 62
7
 10
226.699997
 20
83.000000
 11
230.300003
 21
83.000000
  0
LINE
  8
0
  6
CONTINUOUS
 62
7
 10
226.699997
 20
75.000000
 11
230.300003
 21
75.000000
  0
LINE
  8
0
  6
CONTINUOUS
 62
2
 10
226.699997
 20
75.699997
 11
230.300003
 21
75.699997
  0
LINE
  8
0
  6
CONTINUOUS
 62
7
 10
236.500000
 20
75.000000
 11
251.699997
 21
75.000000
  0
LINE
  8
0
  6
CONTINUOUS
 62
7
 10
251.699997
 20
83.000000
 11
251.699997
 21
75.000000
  0
LINE
  8
0
  6
CONTINUOUS
 62
7
 10
251.699997
 20
75.699997
 11
252.699997
 21
75.699997
  0
LINE
  8
0
  6
CONTINUOUS
 62
7
 10
252.699997
 20
78.250000
 11
252.699997
 21
75.699997
  0
LINE
  8
0
  6
CONTINUOUS
 62
7
 10
251.699997
 20
82.300003
 11
252.699997
 21
82.300003
  0
LINE
  8
0
  6
CONTINUOUS
 62
2
 10
226.699997
 20
82.300003
 11
230.300003
 21
82.300003
  0
LINE
  8
0
  6
CONTINUOUS
 62
7
 10
236.500000
 20
83.000000
 11
251.699997
 21
83.000000
  0
LINE
  8
0
  6
CENTER
 62
2
 10
219.699997
 20
79.000000
 11
253.699997
 21
79.000000
  0
LINE
  8
0
  6
CONTINUOUS
 62
2
 10
236.500000
 20
82.300003
 11
251.699997
 21
82.300003
  0
LINE
  8
0
  6
CONTINUOUS
 62
2
 10
236.500000
 20
75.699997
 11
251.699997
 21
75.699997
  0
LINE
  8
0
  6
CONTINUOUS
 62
7
 10
223.000000
 20
85.000000
 11
223.000000
 21
84.500000
  0
LINE
  8
0
  6
CONTINUOUS
 62
7
 10
28.200001
 20
73.250000
 11
28.200001
 21
73.250000
  0
LINE
  8
0
  6
CONTINUOUS
 62
7
 10
28.200001
 20
76.750000
 11
28.200001
 21
76.750000
  0
LINE
  8
0
  6
CONTINUOUS
 62
7
 10
37.299999
 20
73.000000
 11
43.500000
 21
73.000000
  0
LINE
  8
0
  6
CONTINUOUS
 62
7
 10
27.700001
 20
73.500000
 11
27.700001
 21
84.500000
  0
LINE
  8
0
  6
CONTINUOUS
 62
7
 10
43.500000
 20
73.000000
 11
43.500000
 21
85.000000
  0
LINE
  8
0
  6
CONTINUOUS
 62
7
 10
41.500000
 20
75.435799
 11
43.500000
 21
75.435799
  0
LINE
  8
0
  6
CONTINUOUS
 62
7
 10
41.500000
 20
76.602097
 11
43.500000
 21
76.602097
  0
LINE
  8
0
  6
CONTINUOUS
 62
7
 10
41.500000
 20
81.397903
 11
43.500000
 21
81.397903
  0
LINE
  8
0
  6
CONTINUOUS
 62
7
 10
41.500000
 20
82.564201
 11
43.500000
 21
82.564201
  0
LINE
  8
0
  6
CONTINUOUS
 62
7
 10
41.500000
 20
85.000000
 11
43.500000
 21
85.000000
  0
LINE
  8
0
  6
CONTINUOUS
 62
7
 10
37.299999
 20
73.000000
 11
37.299999
 21
83.500000
  0
LINE
  8
0
  6
CONTINUOUS
 62
7
 10
41.500000
 20
73.000000
 11
41.500000
 21
92.000000
  0
LINE
  8
0
  6
CONTINUOUS
 62
7
 10
58.700001
 20
79.750000
 11
59.700001
 21
79.750000
  0
LINE
  8
0
  6
CONTINUOUS
 62
7
 10
59.700001
 20
82.300003
 11
59.700001
 21
79.750000
  0
LINE
  8
0
  6
CONTINUOUS
 62
7
 10
58.700001
 20
78.250000
 11
59.700001
 21
78.250000
  0
LINE
  8
0
  6
CONTINUOUS
 62
7
 10
27.700001
 20
84.500000
 11
33.700001
 21
84.500000
  0
LINE
  8
0
  6
CONTINUOUS
 62
7
 10
27.700001
 20
73.500000
 11
33.700001
 21
73.500000
  0
LINE
  8
0
  6
CONTINUOUS
 62
7
 10
33.700001
 20
73.500000
 11
33.700001
 21
84.500000
  0
LINE
  8
0
  6
CONTINUOUS
 62
7
 10
33.700001
 20
83.000000
 11
37.299999
 21
83.000000
  0
LINE
  8
0
  6
CONTINUOUS
 62
7
 10
33.700001
 20
75.000000
 11
37.299999
 21
75.000000
  0
LINE
  8
0
  6
CONTINUOUS
 62
2
 10
33.700001
 20
75.699997
 11
37.299999
 21
75.699997
  0
LINE
  8
0
  6
CONTINUOUS
 62
7
 10
43.500000
 20
75.000000
 11
58.700001
 21
75.000000
  0
LINE
  8
0
  6
CONTINUOUS
 62
7
 10
58.700001
 20
83.000000
 11
58.700001
 21
75.000000
  0
LINE
  8
0
  6
CONTINUOUS
 62
7
 10
58.700001
 20
75.699997
 11
59.700001
 21
75.699997
  0
LINE
  8
0
  6
CONTINUOUS
 62
7
 10
59.700001
 20
78.250000
 11
59.700001
 21
75.699997
  0
LINE
  8
0
  6
CONTINUOUS
 62
7
 10
58.700001
 20
82.300003
 11
59.700001
 21
82.300003
  0
LINE
  8
0
  6
CONTINUOUS
 62
2
 10
33.700001
 20
82.300003
 11
37.299999
 21
82.300003
  0
LINE
  8
0
  6
CONTINUOUS
 62
7
 10
43.500000
 20
83.000000
 11
58.700001
 21
83.000000
  0
LINE
  8
0
  6
CENTER
 62
2
 10
26.700001
 20
79.000000
 11
60.700001
 21
79.000000
  0
LINE
  8
0
  6
CONTINUOUS
 62
2
 10
43.500000
 20
82.300003
 11
58.700001
 21
82.300003
  0
LINE
  8
0
  6
CONTINUOUS
 62
2
 10
43.500000
 20
75.699997
 11
58.700001
 21
75.699997
  0
LINE
  8
0
  6
CONTINUOUS
 62
7
 10
30.000000
 20
85.000000
 11
30.000000
 21
84.500000
  0
LINE
  8
0
  6
CONTINUOUS
 62
7
 10
-112.500000
 20
14.000000
 11
-103.000000
 21
14.000000
  0
LINE
  8
0
  6
CENTER
 62
2
 10
-110.000000
 20
34.400002
 11
-110.000000
 21
21.600000
  0
LINE
  8
0
  6
CENTER
 62
2
 10
-124.000000
 20
28.000000
 11
-102.000000
 21
28.000000
  0
LINE
  8
0
  6
CONTINUOUS
 62
7
 10
-118.500000
 20
34.000000
 11
-118.500000
 21
22.000000
  0
LINE
  8
0
  6
CONTINUOUS
 62
7
 10
-115.291000
 20
34.000000
 11
-112.500000
 21
34.000000
  0
LINE
  8
0
  6
CONTINUOUS
 62
7
 10
-118.500000
 20
34.000000
 11
-117.709000
 21
34.000000
  0
LINE
  8
0
  6
CONTINUOUS
 62
7
 10
-115.291000
 20
22.000000
 11
-112.500000
 21
22.000000
  0
LINE
  8
0
  6
CONTINUOUS
 62
7
 10
-118.500000
 20
22.000000
 11
-117.709000
 21
22.000000
  0
LINE
  8
0
  6
CONTINUOUS
 62
7
 10
-112.500000
 20
14.000000
 11
-112.500000
 21
22.000000
  0
LINE
  8
0
  6
CONTINUOUS
 62
7
 10
-103.000000
 20
14.000000
 11
-103.000000
 21
42.000000
  0
LINE
  8
0
  6
CONTINUOUS
 62
7
 10
-112.500000
 20
42.000000
 11
-112.500000
 21
34.000000
  0
LINE
  8
0
  6
CONTINUOUS
 62
7
 10
-122.699997
 20
34.700001
 11
-122.699997
 21
21.299999
  0
LINE
  8
0
  6
CONTINUOUS
 62
7
 10
-123.000000
 20
14.500000
 11
-123.000000
 21
21.000000
  0
LINE
  8
0
  6
CONTINUOUS
 62
7
 10
-123.000000
 20
14.500000
 11
-112.500000
 21
14.500000
  0
LINE
  8
0
  6
CONTINUOUS
 62
7
 10
-113.000000
 20
14.500000
 11
-113.000000
 21
22.000000
  0
LINE
  8
0
  6
CONTINUOUS
 62
7
 10
-123.000000
 20
21.000000
 11
-122.699997
 21
21.299999
  0
LINE
  8
0
  6
CONTINUOUS
 62
7
 10
-123.000000
 20
41.500000
 11
-123.000000
 21
35.000000
  0
LINE
  8
0
  6
CONTINUOUS
 62
7
 10
-123.000000
 20
35.000000
 11
-122.699997
 21
34.700001
  0
LINE
  8
0
  6
CONTINUOUS
 62
7
 10
-113.000000
 20
41.500000
 11
-113.000000
 21
34.000000
  0
LINE
  8
0
  6
CONTINUOUS
 62
7
 10
-123.000000
 20
41.500000
 11
-112.500000
 21
41.500000
  0
LINE
  8
0
  6
CENTER
 62
2
 10
-105.000000
 20
38.500000
 11
-101.000000
 21
38.500000
  0
LINE
  8
0
  6
CENTER
 62
2
 10
-105.000000
 20
17.500000
 11
-101.000000
 21
17.500000
  0
LINE
  8
0
  6
CENTER
 62
2
 10
-125.000000
 20
38.000000
 11
-121.000000
 21
38.000000
  0
LINE
  8
0
  6
CENTER
 62
2
 10
-125.000000
 20
18.000000
 11
-121.000000
 21
18.000000
  0
LINE
  8
0
  6
CONTINUOUS
 62
7
 10
-113.500000
 20
42.000000
 11
-113.500000
 21
41.500000
  0
LINE
  8
0
  6
CONTINUOUS
 62
7
 10
-121.500000
 20
42.000000
 11
-121.500000
 21
41.500099
  0
LINE
  8
0
  6
CONTINUOUS
 62
7
 10
-122.500000
 20
54.000000
 11
-122.500000
 21
42.000000
  0
LINE
  8
0
  6
CONTINUOUS
 62
7
 10
-103.500000
 20
54.000000
 11
-122.500000
 21
54.000000
  0
LINE
  8
0
  6
CONTINUOUS
 62
7
 10
-103.500000
 20
54.000000
 11
-103.500000
 21
42.000000
  0
LINE
  8
0
  6
CENTER
 62
2
 10
-116.500000
 20
41.000000
 11
-116.500000
 21
55.000000
  0
LINE
  8
0
  6
CENTER
 62
2
 10
-123.500000
 20
48.000000
 11
-109.500000
 21
48.000000
  0
LINE
  8
0
  6
CONTINUOUS
 62
7
 10
-122.500000
 20
42.000000
 11
-103.000000
 21
42.000000
  0
LINE
  8
0
  6
CONTINUOUS
 62
7
 10
-122.461998
 20
48.673302
 11
-120.064003
 21
52.826698
  0
LINE
  8
0
  6
CONTINUOUS
 62
7
 10
-120.064003
 20
43.173302
 11
-122.461998
 21
47.326698
  0
LINE
  8
0
  6
CONTINUOUS
 62
7
 10
-115.750000
 20
46.363701
 11
-115.750000
 21
44.070999
  0
LINE
  8
0
  6
CONTINUOUS
 62
7
 10
-117.250000
 20
46.363701
 11
-117.250000
 21
44.070999
  0
LINE
  8
0
  6
CONTINUOUS
 62
7
 10
-117.250000
 20
51.929100
 11
-117.250000
 21
49.636299
  0
LINE
  8
0
  6
CONTINUOUS
 62
7
 10
-115.750000
 20
51.929100
 11
-115.750000
 21
49.636299
  0
LINE
  8
0
  6
CENTER
 62
2
 10
-123.500000
 20
48.000000
 11
-109.500000
 21
48.000000
  0
LINE
  8
0
  6
CENTER
 62
2
 10
-116.500000
 20
41.000000
 11
-116.500000
 21
55.000000
  0
LINE
  8
0
  6
CONTINUOUS
 62
7
 10
-110.538002
 20
47.326698
 11
-112.935997
 21
43.173401
  0
LINE
  8
0
  6
CONTINUOUS
 62
7
 10
-112.935997
 20
52.826698
 11
-110.538002
 21
48.673302
  0
LINE
  8
0
  6
CONTINUOUS
 62
7
 10
-118.898003
 20
53.500000
 11
-114.101997
 21
53.500000
  0
LINE
  8
0
  6
CONTINUOUS
 62
7
 10
-118.898003
 20
42.500000
 11
-114.101997
 21
42.500000
  0
LINE
  8
0
  6
CONTINUOUS
 62
7
 10
30.000000
 20
-36.000000
 11
41.500000
 21
-36.000000
  0
LINE
  8
0
  6
CONTINUOUS
 62
7
 10
30.000000
 20
-29.000000
 11
35.799999
 21
-29.000000
  0
LINE
  8
0
  6
CONTINUOUS
 62
7
 10
37.299999
 20
-17.000000
 11
43.500000
 21
-17.000000
  0
LINE
  8
0
  6
CONTINUOUS
 62
7
 10
43.500000
 20
-17.000000
 11
43.500000
 21
-29.000000
  0
LINE
  8
0
  6
CONTINUOUS
 62
7
 10
41.500000
 20
-19.435801
 11
43.500000
 21
-19.435801
  0
LINE
  8
0
  6
CONTINUOUS
 62
7
 10
41.500000
 20
-20.601999
 11
43.500000
 21
-20.601999
  0
LINE
  8
0
  6
CONTINUOUS
 62
7
 10
41.500000
 20
-25.397900
 11
43.500000
 21
-25.397900
  0
LINE
  8
0
  6
CONTINUOUS
 62
7
 10
41.500000
 20
-26.564100
 11
43.500000
 21
-26.564100
  0
LINE
  8
0
  6
CONTINUOUS
 62
7
 10
41.500000
 20
-29.000000
 11
43.500000
 21
-29.000000
  0
LINE
  8
0
  6
CONTINUOUS
 62
7
 10
37.299999
 20
-17.000000
 11
37.299999
 21
-27.499901
  0
LINE
  8
0
  6
CONTINUOUS
 62
7
 10
41.500000
 20
-17.000000
 11
41.500000
 21
-35.999901
  0
LINE
  8
0
  6
CONTINUOUS
 62
7
 10
58.700001
 20
-23.749901
 11
59.700001
 21
-23.749901
  0
LINE
  8
0
  6
CONTINUOUS
 62
7
 10
59.700001
 20
-26.299900
 11
59.700001
 21
-23.749901
  0
LINE
  8
0
  6
CONTINUOUS
 62
7
 10
58.700001
 20
-22.249901
 11
59.700001
 21
-22.249901
  0
LINE
  8
0
  6
CONTINUOUS
 62
7
 10
30.000000
 20
-28.499901
 11
33.700001
 21
-28.499901
  0
LINE
  8
0
  6
CONTINUOUS
 62
7
 10
30.000000
 20
-17.500000
 11
33.700001
 21
-17.500000
  0
LINE
  8
0
  6
CONTINUOUS
 62
7
 10
33.700001
 20
-17.500000
 11
33.700001
 21
-28.499901
  0
LINE
  8
0
  6
CONTINUOUS
 62
7
 10
33.700001
 20
-27.000000
 11
37.299999
 21
-27.000000
  0
LINE
  8
0
  6
CONTINUOUS
 62
7
 10
33.700001
 20
-19.000000
 11
37.299999
 21
-19.000000
  0
LINE
  8
0
  6
CONTINUOUS
 62
2
 10
33.700001
 20
-19.699900
 11
37.299999
 21
-19.699900
  0
LINE
  8
0
  6
CONTINUOUS
 62
7
 10
43.500000
 20
-19.000000
 11
58.700001
 21
-19.000000
  0
LINE
  8
0
  6
CONTINUOUS
 62
7
 10
58.700001
 20
-26.999901
 11
58.700001
 21
-19.000000
  0
LINE
  8
0
  6
CONTINUOUS
 62
7
 10
58.700001
 20
-19.699900
 11
59.700001
 21
-19.699900
  0
LINE
  8
0
  6
CONTINUOUS
 62
7
 10
59.700001
 20
-22.249901
 11
59.700001
 21
-19.699900
  0
LINE
  8
0
  6
CONTINUOUS
 62
7
 10
58.700001
 20
-26.299900
 11
59.700001
 21
-26.299900
  0
LINE
  8
0
  6
CONTINUOUS
 62
2
 10
33.700001
 20
-26.299900
 11
37.299999
 21
-26.299900
  0
LINE
  8
0
  6
CONTINUOUS
 62
7
 10
43.500000
 20
-26.999901
 11
58.700001
 21
-26.999901
  0
LINE
  8
0
  6
CENTER
 62
2
 10
29.000000
 20
-22.999901
 11
60.700001
 21
-22.999901
  0
LINE
  8
0
  6
CONTINUOUS
 62
2
 10
43.500000
 20
-26.299900
 11
58.700001
 21
-26.299900
  0
LINE
  8
0
  6
CONTINUOUS
 62
2
 10
43.500000
 20
-19.699900
 11
58.700001
 21
-19.699900
  0
LINE
  8
0
  6
CONTINUOUS
 62
7
 10
223.000000
 20
-36.000000
 11
234.500000
 21
-36.000000
  0
LINE
  8
0
  6
CONTINUOUS
 62
7
 10
223.000000
 20
-29.000000
 11
228.800003
 21
-29.000000
  0
LINE
  8
0
  6
CONTINUOUS
 62
7
 10
230.300003
 20
-17.000000
 11
236.500000
 21
-17.000000
  0
LINE
  8
0
  6
CONTINUOUS
 62
7
 10
236.500000
 20
-17.000000
 11
236.500000
 21
-29.000000
  0
LINE
  8
0
  6
CONTINUOUS
 62
7
 10
234.500000
 20
-19.435801
 11
236.500000
 21
-19.435801
  0
LINE
  8
0
  6
CONTINUOUS
 62
7
 10
234.500000
 20
-20.601999
 11
236.500000
 21
-20.601999
  0
LINE
  8
0
  6
CONTINUOUS
 62
7
 10
234.500000
 20
-25.397900
 11
236.500000
 21
-25.397900
  0
LINE
  8
0
  6
CONTINUOUS
 62
7
 10
234.500000
 20
-26.564100
 11
236.500000
 21
-26.564100
  0
LINE
  8
0
  6
CONTINUOUS
 62
7
 10
234.500000
 20
-29.000000
 11
236.500000
 21
-29.000000
  0
LINE
  8
0
  6
CONTINUOUS
 62
7
 10
230.300003
 20
-17.000000
 11
230.300003
 21
-27.500000
  0
LINE
  8
0
  6
CONTINUOUS
 62
7
 10
234.500000
 20
-17.000000
 11
234.500000
 21
-35.999901
  0
LINE
  8
0
  6
CONTINUOUS
 62
7
 10
251.699997
 20
-23.750000
 11
252.699997
 21
-23.750000
  0
LINE
  8
0
  6
CONTINUOUS
 62
7
 10
252.699997
 20
-26.299900
 11
252.699997
 21
-23.750000
  0
LINE
  8
0
  6
CONTINUOUS
 62
7
 10
251.699997
 20
-22.249901
 11
252.699997
 21
-22.249901
  0
LINE
  8
0
  6
CONTINUOUS
 62
7
 10
223.000000
 20
-28.499901
 11
226.699997
 21
-28.499901
  0
LINE
  8
0
  6
CONTINUOUS
 62
7
 10
223.000000
 20
-17.500000
 11
226.699997
 21
-17.500000
  0
LINE
  8
0
  6
CONTINUOUS
 62
7
 10
226.699997
 20
-17.500000
 11
226.699997
 21
-28.499901
  0
LINE
  8
0
  6
CONTINUOUS
 62
7
 10
226.699997
 20
-27.000000
 11
230.300003
 21
-27.000000
  0
LINE
  8
0
  6
CONTINUOUS
 62
7
 10
226.699997
 20
-19.000000
 11
230.300003
 21
-19.000000
  0
LINE
  8
0
  6
CONTINUOUS
 62
2
 10
226.699997
 20
-19.699900
 11
230.300003
 21
-19.699900
  0
LINE
  8
0
  6
CONTINUOUS
 62
7
 10
236.500000
 20
-19.000000
 11
251.699997
 21
-19.000000
  0
LINE
  8
0
  6
CONTINUOUS
 62
7
 10
251.699997
 20
-26.999901
 11
251.699997
 21
-19.000000
  0
LINE
  8
0
  6
CONTINUOUS
 62
7
 10
251.699997
 20
-19.699900
 11
252.699997
 21
-19.699900
  0
LINE
  8
0
  6
CONTINUOUS
 62
7
 10
252.699997
 20
-22.249901
 11
252.699997
 21
-19.699900
  0
LINE
  8
0
  6
CONTINUOUS
 62
7
 10
251.699997
 20
-26.299900
 11
252.699997
 21
-26.299900
  0
LINE
  8
0
  6
CONTINUOUS
 62
2
 10
226.699997
 20
-26.299900
 11
230.300003
 21
-26.299900
  0
LINE
  8
0
  6
CONTINUOUS
 62
7
 10
236.500000
 20
-26.999901
 11
251.699997
 21
-26.999901
  0
LINE
  8
0
  6
CENTER
 62
2
 10
222.000000
 20
-22.999901
 11
253.699997
 21
-22.999901
  0
LINE
  8
0
  6
CONTINUOUS
 62
2
 10
236.500000
 20
-26.299900
 11
251.699997
 21
-26.299900
  0
LINE
  8
0
  6
CONTINUOUS
 62
2
 10
236.500000
 20
-19.699900
 11
251.699997
 21
-19.699900
  0
LINE
  8
0
  6
CONTINUOUS
 62
7
 10
-165.000000
 20
-36.000000
 11
-153.500000
 21
-36.000000
  0
LINE
  8
0
  6
CONTINUOUS
 62
7
 10
-165.000000
 20
-29.000000
 11
-159.199997
 21
-29.000000
  0
LINE
  8
0
  6
CONTINUOUS
 62
7
 10
-157.699997
 20
-17.000000
 11
-151.500000
 21
-17.000000
  0
LINE
  8
0
  6
CONTINUOUS
 62
7
 10
-151.500000
 20
-17.000000
 11
-151.500000
 21
-29.000000
  0
LINE
  8
0
  6
CONTINUOUS
 62
7
 10
-153.500000
 20
-19.435801
 11
-151.500000
 21
-19.435801
  0
LINE
  8
0
  6
CONTINUOUS
 62
7
 10
-153.500000
 20
-20.601999
 11
-151.500000
 21
-20.601999
  0
LINE
  8
0
  6
CONTINUOUS
 62
7
 10
-153.500000
 20
-25.397900
 11
-151.500000
 21
-25.397900
  0
LINE
  8
0
  6
CONTINUOUS
 62
7
 10
-153.500000
 20
-26.564100
 11
-151.500000
 21
-26.564100
  0
LINE
  8
0
  6
CONTINUOUS
 62
7
 10
-153.500000
 20
-29.000000
 11
-151.500000
 21
-29.000000
  0
LINE
  8
0
  6
CONTINUOUS
 62
7
 10
-157.699997
 20
-17.000000
 11
-157.699997
 21
-27.500000
  0
LINE
  8
0
  6
CONTINUOUS
 62
7
 10
-153.500000
 20
-17.000000
 11
-153.500000
 21
-35.999901
  0
LINE
  8
0
  6
CONTINUOUS
 62
7
 10
-136.300003
 20
-23.750000
 11
-135.300003
 21
-23.750000
  0
LINE
  8
0
  6
CONTINUOUS
 62
7
 10
-135.300003
 20
-26.299900
 11
-135.300003
 21
-23.750000
  0
LINE
  8
0
  6
CONTINUOUS
 62
7
 10
-136.300003
 20
-22.249901
 11
-135.300003
 21
-22.249901
  0
LINE
  8
0
  6
CONTINUOUS
 62
7
 10
-165.000000
 20
-28.499901
 11
-161.300003
 21
-28.499901
  0
LINE
  8
0
  6
CONTINUOUS
 62
7
 10
-165.000000
 20
-17.500000
 11
-161.300003
 21
-17.500000
  0
LINE
  8
0
  6
CONTINUOUS
 62
7
 10
-161.300003
 20
-17.500000
 11
-161.300003
 21
-28.499901
  0
LINE
  8
0
  6
CONTINUOUS
 62
7
 10
-161.300003
 20
-27.000000
 11
-157.699997
 21
-27.000000
  0
LINE
  8
0
  6
CONTINUOUS
 62
7
 10
-161.300003
 20
-19.000000
 11
-157.699997
 21
-19.000000
  0
LINE
  8
0
  6
CONTINUOUS
 62
2
 10
-161.300003
 20
-19.699900
 11
-157.699997
 21
-19.699900
  0
LINE
  8
0
  6
CONTINUOUS
 62
7
 10
-151.500000
 20
-19.000000
 11
-136.300003
 21
-19.000000
  0
LINE
  8
0
  6
CONTINUOUS
 62
7
 10
-136.300003
 20
-26.999901
 11
-136.300003
 21
-19.000000
  0
LINE
  8
0
  6
CONTINUOUS
 62
7
 10
-136.300003
 20
-19.699900
 11
-135.300003
 21
-19.699900
  0
LINE
  8
0
  6
CONTINUOUS
 62
7
 10
-135.300003
 20
-22.249901
 11
-135.300003
 21
-19.699900
  0
LINE
  8
0
  6
CONTINUOUS
 62
7
 10
-136.300003
 20
-26.299900
 11
-135.300003
 21
-26.299900
  0
LINE
  8
0
  6
CONTINUOUS
 62
2
 10
-161.300003
 20
-26.299900
 11
-157.699997
 21
-26.299900
  0
LINE
  8
0
  6
CONTINUOUS
 62
7
 10
-151.500000
 20
-26.999901
 11
-136.300003
 21
-26.999901
  0
LINE
  8
0
  6
CENTER
 62
2
 10
-166.000000
 20
-22.999901
 11
-134.300003
 21
-22.999901
  0
LINE
  8
0
  6
CONTINUOUS
 62
2
 10
-151.500000
 20
-26.299900
 11
-136.300003
 21
-26.299900
  0
LINE
  8
0
  6
CONTINUOUS
 62
2
 10
-151.500000
 20
-19.699900
 11
-136.300003
 21
-19.699900
  0
LINE
  8
0
  6
CENTER
 62
2
 10
233.500000
 20
-108.500000
 11
253.699997
 21
-108.500000
  0
LINE
  8
0
  6
CONTINUOUS
 62
7
 10
236.500000
 20
-112.500000
 11
251.699997
 21
-112.500000
  0
LINE
  8
0
  6
CONTINUOUS
 62
7
 10
251.699997
 20
-111.800003
 11
252.699997
 21
-111.800003
  0
LINE
  8
0
  6
CONTINUOUS
 62
7
 10
236.500000
 20
-104.500000
 11
251.699997
 21
-104.500000
  0
LINE
  8
0
  6
CONTINUOUS
 62
7
 10
251.699997
 20
-112.500000
 11
251.699997
 21
-104.500000
  0
LINE
  8
0
  6
CONTINUOUS
 62
7
 10
252.699997
 20
-111.800003
 11
252.699997
 21
-105.199997
  0
LINE
  8
0
  6
CONTINUOUS
 62
7
 10
251.699997
 20
-105.199997
 11
252.699997
 21
-105.199997
  0
LINE
  8
0
  6
CONTINUOUS
 62
7
 10
234.500000
 20
-114.500000
 11
234.500000
 21
-102.500000
  0
LINE
  8
0
  6
CONTINUOUS
 62
7
 10
234.500000
 20
-114.000000
 11
236.500000
 21
-114.000000
  0
LINE
  8
0
  6
CONTINUOUS
 62
7
 10
236.500000
 20
-103.000000
 11
236.500000
 21
-114.000000
  0
LINE
  8
0
  6
CONTINUOUS
 62
7
 10
234.500000
 20
-113.327003
 11
236.500000
 21
-113.327003
  0
LINE
  8
0
  6
CONTINUOUS
 62
7
 10
234.500000
 20
-109.172997
 11
236.500000
 21
-109.172997
  0
LINE
  8
0
  6
CONTINUOUS
 62
7
 10
234.500000
 20
-107.827003
 11
236.500000
 21
-107.827003
  0
LINE
  8
0
  6
CONTINUOUS
 62
7
 10
234.500000
 20
-103.672997
 11
236.500000
 21
-103.672997
  0
LINE
  8
0
  6
CONTINUOUS
 62
7
 10
234.500000
 20
-103.000000
 11
236.500000
 21
-103.000000
  0
LINE
  8
0
  6
CONTINUOUS
 62
2
 10
236.500000
 20
-105.199997
 11
251.699997
 21
-105.199997
  0
LINE
  8
0
  6
CONTINUOUS
 62
2
 10
236.500000
 20
-111.800003
 11
251.699997
 21
-111.800003
  0
LINE
  8
0
  6
CENTER
 62
2
 10
40.500000
 20
-108.500000
 11
60.700001
 21
-108.500000
  0
LINE
  8
0
  6
CONTINUOUS
 62
7
 10
43.500000
 20
-112.500000
 11
58.700001
 21
-112.500000
  0
LINE
  8
0
  6
CONTINUOUS
 62
7
 10
58.700001
 20
-111.800003
 11
59.700001
 21
-111.800003
  0
LINE
  8
0
  6
CONTINUOUS
 62
7
 10
43.500000
 20
-104.500000
 11
58.700001
 21
-104.500000
  0
LINE
  8
0
  6
CONTINUOUS
 62
7
 10
58.700001
 20
-112.500000
 11
58.700001
 21
-104.500000
  0
LINE
  8
0
  6
CONTINUOUS
 62
7
 10
59.700001
 20
-111.800003
 11
59.700001
 21
-105.199997
  0
LINE
  8
0
  6
CONTINUOUS
 62
7
 10
58.700001
 20
-105.199997
 11
59.700001
 21
-105.199997
  0
LINE
  8
0
  6
CONTINUOUS
 62
7
 10
41.500000
 20
-114.500000
 11
41.500000
 21
-102.500000
  0
LINE
  8
0
  6
CONTINUOUS
 62
7
 10
41.500000
 20
-114.000000
 11
43.500000
 21
-114.000000
  0
LINE
  8
0
  6
CONTINUOUS
 62
7
 10
43.500000
 20
-103.000000
 11
43.500000
 21
-114.000000
  0
LINE
  8
0
  6
CONTINUOUS
 62
7
 10
41.500000
 20
-113.327003
 11
43.500000
 21
-113.327003
  0
LINE
  8
0
  6
CONTINUOUS
 62
7
 10
41.500000
 20
-109.172997
 11
43.500000
 21
-109.172997
  0
LINE
  8
0
  6
CONTINUOUS
 62
7
 10
41.500000
 20
-107.827003
 11
43.500000
 21
-107.827003
  0
LINE
  8
0
  6
CONTINUOUS
 62
7
 10
41.500000
 20
-103.672997
 11
43.500000
 21
-103.672997
  0
LINE
  8
0
  6
CONTINUOUS
 62
7
 10
41.500000
 20
-103.000000
 11
43.500000
 21
-103.000000
  0
LINE
  8
0
  6
CONTINUOUS
 62
2
 10
43.500000
 20
-105.199997
 11
58.700001
 21
-105.199997
  0
LINE
  8
0
  6
CONTINUOUS
 62
2
 10
43.500000
 20
-111.800003
 11
58.700001
 21
-111.800003
  0
LINE
  8
0
  6
CONTINUOUS
 62
7
 10
-153.500000
 20
-102.500000
 11
-209.350006
 21
-102.500000
  0
LINE
  8
0
  6
CONTINUOUS
 62
7
 10
-153.500000
 20
-114.500000
 11
-208.500000
 21
-114.500000
  0
LINE
  8
0
  6
CENTER
 62
2
 10
-154.500000
 20
-108.500000
 11
-134.300003
 21
-108.500000
  0
LINE
  8
0
  6
CONTINUOUS
 62
7
 10
-151.500000
 20
-112.500000
 11
-136.300003
 21
-112.500000
  0
LINE
  8
0
  6
CONTINUOUS
 62
7
 10
-136.300003
 20
-111.800003
 11
-135.300003
 21
-111.800003
  0
LINE
  8
0
  6
CONTINUOUS
 62
7
 10
-151.500000
 20
-104.500000
 11
-136.300003
 21
-104.500000
  0
LINE
  8
0
  6
CONTINUOUS
 62
7
 10
-136.300003
 20
-112.500000
 11
-136.300003
 21
-104.500000
  0
LINE
  8
0
  6
CONTINUOUS
 62
7
 10
-135.300003
 20
-111.800003
 11
-135.300003
 21
-105.199997
  0
LINE
  8
0
  6
CONTINUOUS
 62
7
 10
-136.300003
 20
-105.199997
 11
-135.300003
 21
-105.199997
  0
LINE
  8
0
  6
CONTINUOUS
 62
7
 10
-153.500000
 20
-114.500000
 11
-153.500000
 21
-102.500000
  0
LINE
  8
0
  6
CONTINUOUS
 62
7
 10
-153.500000
 20
-114.000000
 11
-151.500000
 21
-114.000000
  0
LINE
  8
0
  6
CONTINUOUS
 62
7
 10
-151.500000
 20
-103.000000
 11
-151.500000
 21
-114.000000
  0
LINE
  8
0
  6
CONTINUOUS
 62
7
 10
-153.500000
 20
-113.327003
 11
-151.500000
 21
-113.327003
  0
LINE
  8
0
  6
CONTINUOUS
 62
7
 10
-153.500000
 20
-109.172997
 11
-151.500000
 21
-109.172997
  0
LINE
  8
0
  6
CONTINUOUS
 62
7
 10
-153.500000
 20
-107.827003
 11
-151.500000
 21
-107.827003
  0
LINE
  8
0
  6
CONTINUOUS
 62
7
 10
-153.500000
 20
-103.672997
 11
-151.500000
 21
-103.672997
  0
LINE
  8
0
  6
CONTINUOUS
 62
7
 10
-153.500000
 20
-103.000000
 11
-151.500000
 21
-103.000000
  0
LINE
  8
0
  6
CONTINUOUS
 62
2
 10
-151.500000
 20
-105.199997
 11
-136.300003
 21
-105.199997
  0
LINE
  8
0
  6
CONTINUOUS
 62
2
 10
-151.500000
 20
-111.800003
 11
-136.300003
 21
-111.800003
  0
LINE
  8
0
  6
DASHED
 62
2
 10
-201.500000
 20
90.900002
 11
-196.500000
 21
90.900002
  0
LINE
  8
0
  6
DASHED
 62
2
 10
-200.649994
 20
90.900002
 11
-200.649994
 21
88.500000
  0
LINE
  8
0
  6
DASHED
 62
2
 10
-197.350006
 20
90.900002
 11
-197.350006
 21
88.500000
  0
LINE
  8
0
  6
DASHED
 62
2
 10
-177.350006
 20
92.500000
 11
-177.350006
 21
87.500000
  0
LINE
  8
0
  6
DASHED
 62
2
 10
-180.649994
 20
92.500000
 11
-180.649994
 21
87.500000
  0
LINE
  8
0
  6
CENTER
 62
2
 10
-196.000000
 20
20.100000
 11
-196.000000
 21
14.900000
  0
LINE
  8
0
  6
CENTER
 62
2
 10
-198.600006
 20
17.500000
 11
-193.399994
 21
17.500000
  0
LINE
  8
0
  6
DASHED
 62
2
 10
156.500000
 20
90.900002
 11
161.500000
 21
90.900002
  0
LINE
  8
0
  6
DASHED
 62
2
 10
157.350006
 20
90.900002
 11
157.350006
 21
88.500000
  0
LINE
  8
0
  6
DASHED
 62
2
 10
160.649994
 20
90.900002
 11
160.649994
 21
88.500000
  0
LINE
  8
0
  6
DASHED
 62
2
 10
210.649994
 20
92.500000
 11
210.649994
 21
87.500000
  0
LINE
  8
0
  6
DASHED
 62
2
 10
207.350006
 20
92.500000
 11
207.350006
 21
87.500000
  0
LINE
  8
0
  6
CENTER
 62
2
 10
172.000000
 20
20.100000
 11
172.000000
 21
14.900000
  0
LINE
  8
0
  6
CENTER
 62
2
 10
169.399994
 20
17.500000
 11
174.600006
 21
17.500000
  0
LINE
  8
0
  6
DASHED
 62
2
 10
-17.350000
 20
92.500000
 11
-17.350000
 21
86.500000
  0
LINE
  8
0
  6
DASHED
 62
2
 10
-20.650000
 20
92.500000
 11
-20.650000
 21
86.500000
  0
LINE
  8
0
  6
DASHED
 62
2
 10
14.350000
 20
92.500000
 11
14.350000
 21
87.500000
  0
LINE
  8
0
  6
DASHED
 62
2
 10
17.650000
 20
92.500000
 11
17.650000
 21
87.500000
  0
LINE
  8
0
  6
CENTER
 62
2
 10
-16.000000
 20
20.100000
 11
-16.000000
 21
14.900000
  0
LINE
  8
0
  6
CENTER
 62
2
 10
-18.600000
 20
17.500000
 11
-13.400000
 21
17.500000
  0
LINE
  8
0
  6
DASHED
 62
2
 10
-196.000000
 20
-32.500000
 11
-202.000000
 21
-32.500000
  0
LINE
  8
0
  6
CENTER
 62
2
 10
-199.000000
 20
-37.500000
 11
-199.000000
 21
-31.500000
  0
LINE
  8
0
  6
DASHED
 62
2
 10
-201.000000
 20
-34.900002
 11
-201.000000
 21
-32.500000
  0
LINE
  8
0
  6
DASHED
 62
2
 10
-197.000000
 20
-34.900002
 11
-197.000000
 21
-32.500000
  0
LINE
  8
0
  6
DASHED
 62
2
 10
-201.500000
 20
-36.500000
 11
-201.500000
 21
-34.900002
  0
LINE
  8
0
  6
DASHED
 62
2
 10
-196.500000
 20
-36.500000
 11
-196.500000
 21
-34.900002
  0
LINE
  8
0
  6
DASHED
 62
2
 10
-201.500000
 20
-34.900002
 11
-196.500000
 21
-34.900002
  0
LINE
  8
0
  6
DASHED
 62
2
 10
-181.000000
 20
-36.500000
 11
-181.000000
 21
-31.500000
  0
LINE
  8
0
  6
CENTER
 62
2
 10
-179.000000
 20
-37.500000
 11
-179.000000
 21
-30.000000
  0
LINE
  8
0
  6
DASHED
 62
2
 10
-182.000000
 20
-31.500000
 11
-182.000000
 21
-30.992399
  0
LINE
  8
0
  6
DASHED
 62
2
 10
-182.000000
 20
-31.500000
 11
-176.000000
 21
-31.500000
  0
LINE
  8
0
  6
DASHED
 62
2
 10
-176.000000
 20
-31.500000
 11
-176.000000
 21
-31.000000
  0
LINE
  8
0
  6
DASHED
 62
2
 10
-177.000000
 20
-36.500000
 11
-177.000000
 21
-31.500000
  0
LINE
  8
0
  6
CENTER
 62
2
 10
159.000000
 20
-37.500000
 11
159.000000
 21
-31.500000
  0
LINE
  8
0
  6
DASHED
 62
2
 10
157.000000
 20
-34.900002
 11
157.000000
 21
-32.500000
  0
LINE
  8
0
  6
DASHED
 62
2
 10
161.000000
 20
-34.900002
 11
161.000000
 21
-32.500000
  0
LINE
  8
0
  6
DASHED
 62
2
 10
156.500000
 20
-36.500000
 11
156.500000
 21
-34.900002
  0
LINE
  8
0
  6
DASHED
 62
2
 10
161.500000
 20
-36.500000
 11
161.500000
 21
-34.900002
  0
LINE
  8
0
  6
DASHED
 62
2
 10
156.500000
 20
-34.900002
 11
161.500000
 21
-34.900002
  0
LINE
  8
0
  6
DASHED
 62
2
 10
207.000000
 20
-36.500000
 11
207.000000
 21
-31.500000
  0
LINE
  8
0
  6
CENTER
 62
2
 10
209.000000
 20
-37.500000
 11
209.000000
 21
-30.000000
  0
LINE
  8
0
  6
DASHED
 62
2
 10
206.000000
 20
-31.500000
 11
206.000000
 21
-30.992399
  0
LINE
  8
0
  6
DASHED
 62
2
 10
206.000000
 20
-31.500000
 11
212.000000
 21
-31.500000
  0
LINE
  8
0
  6
DASHED
 62
2
 10
212.000000
 20
-31.500000
 11
212.000000
 21
-31.000000
  0
LINE
  8
0
  6
DASHED
 62
2
 10
211.000000
 20
-36.500000
 11
211.000000
 21
-31.500000
  0
LINE
  8
0
  6
CENTER
 62
2
 10
-19.000000
 20
-37.500000
 11
-19.000000
 21
-29.500000
  0
LINE
  8
0
  6
DASHED
 62
2
 10
-21.000000
 20
-36.500000
 11
-21.000000
 21
-30.500000
  0
LINE
  8
0
  6
DASHED
 62
2
 10
-17.000000
 20
-36.500000
 11
-17.000000
 21
-30.500000
  0
LINE
  8
0
  6
DASHED
 62
2
 10
14.000000
 20
-36.500000
 11
14.000000
 21
-31.500000
  0
LINE
  8
0
  6
CENTER
 62
2
 10
16.000000
 20
-37.500000
 11
16.000000
 21
-30.200001
  0
LINE
  8
0
  6
DASHED
 62
2
 10
13.000000
 20
-31.500000
 11
13.000000
 21
-31.200001
  0
LINE
  8
0
  6
DASHED
 62
2
 10
13.000000
 20
-31.500000
 11
19.000000
 21
-31.500000
  0
LINE
  8
0
  6
DASHED
 62
2
 10
19.000000
 20
-31.500000
 11
19.000000
 21
-31.200001
  0
LINE
  8
0
  6
DASHED
 62
2
 10
18.000000
 20
-36.500000
 11
18.000000
 21
-31.500000
  0
LINE
  8
0
  6
DASHED
 62
2
 10
-197.350006
 20
-34.900002
 11
-197.350006
 21
-32.500000
  0
LINE
  8
0
  6
DASHED
 62
2
 10
-200.649994
 20
-34.900002
 11
-200.649994
 21
-32.500000
  0
LINE
  8
0
  6
DASHED
 62
2
 10
-177.350006
 20
-36.500000
 11
-177.350006
 21
-31.500000
  0
LINE
  8
0
  6
DASHED
 62
2
 10
-180.649994
 20
-36.500000
 11
-180.649994
 21
-31.500000
  0
LINE
  8
0
  6
DASHED
 62
2
 10
157.350006
 20
-34.900002
 11
157.350006
 21
-32.500000
  0
LINE
  8
0
  6
DASHED
 62
2
 10
160.649994
 20
-34.900002
 11
160.649994
 21
-32.500000
  0
LINE
  8
0
  6
DASHED
 62
2
 10
207.350006
 20
-36.500000
 11
207.350006
 21
-31.500000
  0
LINE
  8
0
  6
DASHED
 62
2
 10
210.649994
 20
-36.500000
 11
210.649994
 21
-31.500000
  0
LINE
  8
0
  6
DASHED
 62
2
 10
14.350000
 20
-36.500000
 11
14.350000
 21
-31.500000
  0
LINE
  8
0
  6
DASHED
 62
2
 10
17.650000
 20
-36.500000
 11
17.650000
 21
-31.500000
  0
LINE
  8
0
  6
DASHED
 62
2
 10
-17.350000
 20
-36.500000
 11
-17.350000
 21
-30.500000
  0
LINE
  8
0
  6
DASHED
 62
2
 10
-20.650000
 20
-36.500000
 11
-20.650000
 21
-30.500000
  0
LINE
  8
0
  6
CONTINUOUS
 62
7
 10
-165.000000
 20
11.500000
 11
-208.500000
 21
11.500000
  0
LINE
  8
0
  6
CONTINUOUS
 62
7
 10
-165.000000
 20
4.000020
 11
-208.500000
 21
4.000020
  0
LINE
  8
0
  6
CONTINUOUS
 62
7
 10
-165.000000
 20
11.500000
 11
-165.000000
 21
4.000020
  0
LINE
  8
0
  6
CONTINUOUS
 62
7
 10
-178.000000
 20
12.500000
 11
-178.000000
 21
11.500000
  0
LINE
  8
0
  6
CONTINUOUS
 62
7
 10
-176.899994
 20
14.000000
 11
-176.899994
 21
12.500000
  0
LINE
  8
0
  6
CONTINUOUS
 62
7
 10
-183.399994
 20
14.000000
 11
-183.399994
 21
12.500000
  0
LINE
  8
0
  6
CONTINUOUS
 62
7
 10
-176.899994
 20
12.500000
 11
-183.399994
 21
12.500000
  0
LINE
  8
0
  6
CONTINUOUS
 62
7
 10
-208.500000
 20
14.000000
 11
-208.500000
 21
4.000020
  0
LINE
  8
0
  6
CONTINUOUS
 62
7
 10
-263.200012
 20
12.500000
 11
-263.200012
 21
14.000000
  0
LINE
  8
0
  6
CONTINUOUS
 62
7
 10
-252.199997
 20
12.500000
 11
-263.200012
 21
12.500000
  0
LINE
  8
0
  6
CONTINUOUS
 62
7
 10
-252.199997
 20
12.500000
 11
-252.199997
 21
14.500000
  0
LINE
  8
0
  6
CONTINUOUS
 62
2
 10
-256.299988
 20
4.000050
 11
-256.299988
 21
5.000040
  0
LINE
  8
0
  6
CONTINUOUS
 62
7
 10
-251.500000
 20
4.000020
 11
-270.500000
 21
4.000020
  0
LINE
  8
0
  6
CONTINUOUS
 62
2
 10
-253.699997
 20
4.000050
 11
-253.699997
 21
5.000040
  0
LINE
  8
0
  6
CONTINUOUS
 62
7
 10
-251.500000
 20
4.000050
 11
-251.500000
 21
11.500000
  0
LINE
  8
0
  6
CONTINUOUS
 62
7
 10
-251.500000
 20
11.500000
 11
-264.000000
 21
11.500000
  0
LINE
  8
0
  6
CONTINUOUS
 62
7
 10
-264.000000
 20
11.500000
 11
-264.000000
 21
14.000000
  0
LINE
  8
0
  6
CONTINUOUS
 62
2
 10
-252.850006
 20
5.000040
 11
-253.699997
 21
5.000040
  0
LINE
  8
0
  6
CONTINUOUS
 62
2
 10
-257.149994
 20
8.800030
 11
-257.149994
 21
5.000040
  0
LINE
  8
0
  6
CONTINUOUS
 62
2
 10
-254.350006
 20
10.300000
 11
-255.649994
 21
10.300000
  0
LINE
  8
0
  6
CONTINUOUS
 62
2
 10
-252.850006
 20
8.800030
 11
-252.850006
 21
5.000040
  0
LINE
  8
0
  6
CONTINUOUS
 62
7
 10
-270.500000
 20
4.000020
 11
-270.500000
 21
14.000000
  0
LINE
  8
0
  6
CONTINUOUS
 62
2
 10
-256.299988
 20
5.000040
 11
-257.149994
 21
5.000040
  0
LINE
  8
0
  6
CENTER
 62
2
 10
-261.000000
 20
11.300000
 11
-261.000000
 21
3.000020
  0
LINE
  8
0
  6
CENTER
 62
2
 10
-255.000000
 20
11.300000
 11
-255.000000
 21
3.000020
  0
LINE
  8
0
  6
CONTINUOUS
 62
7
 10
-110.800003
 20
12.500000
 11
-110.800003
 21
14.000000
  0
LINE
  8
0
  6
CONTINUOUS
 62
7
 10
-121.800003
 20
12.500000
 11
-110.800003
 21
12.500000
  0
LINE
  8
0
  6
CONTINUOUS
 62
7
 10
-121.800003
 20
12.500000
 11
-121.800003
 21
14.500000
  0
LINE
  8
0
  6
CONTINUOUS
 62
7
 10
-122.500000
 20
4.000020
 11
-103.500000
 21
4.000020
  0
LINE
  8
0
  6
CONTINUOUS
 62
2
 10
-117.699997
 20
4.000050
 11
-117.699997
 21
5.000040
  0
LINE
  8
0
  6
CONTINUOUS
 62
2
 10
-120.300003
 20
4.000050
 11
-120.300003
 21
5.000040
  0
LINE
  8
0
  6
CONTINUOUS
 62
7
 10
-122.500000
 20
4.000050
 11
-122.500000
 21
11.500000
  0
LINE
  8
0
  6
CONTINUOUS
 62
7
 10
-122.500000
 20
11.500000
 11
-110.000000
 21
11.500000
  0
LINE
  8
0
  6
CONTINUOUS
 62
7
 10
-110.000000
 20
11.500000
 11
-110.000000
 21
14.000000
  0
LINE
  8
0
  6
CONTINUOUS
 62
2
 10
-121.150002
 20
5.000040
 11
-120.300003
 21
5.000040
  0
LINE
  8
0
  6
CONTINUOUS
 62
2
 10
-116.849998
 20
8.800030
 11
-116.849998
 21
5.000040
  0
LINE
  8
0
  6
CONTINUOUS
 62
2
 10
-119.650002
 20
10.300000
 11
-118.349998
 21
10.300000
  0
LINE
  8
0
  6
CONTINUOUS
 62
2
 10
-121.150002
 20
8.800030
 11
-121.150002
 21
5.000040
  0
LINE
  8
0
  6
CONTINUOUS
 62
7
 10
-103.500000
 20
4.000020
 11
-103.500000
 21
14.000000
  0
LINE
  8
0
  6
CONTINUOUS
 62
2
 10
-117.699997
 20
5.000040
 11
-116.849998
 21
5.000040
  0
LINE
  8
0
  6
CONTINUOUS
 62
7
 10
-115.199997
 20
4.000050
 11
-115.199997
 21
11.500000
  0
LINE
  8
0
  6
CENTER
 62
2
 10
-119.000000
 20
11.300000
 11
-119.000000
 21
3.000020
  0
LINE
  8
0
  6
CENTER
 62
2
 10
-113.000000
 20
11.300000
 11
-113.000000
 21
3.000020
  0
LINE
  8
0
  6
CONTINUOUS
 62
7
 10
-227.000000
 20
-16.500000
 11
-168.000000
 21
-16.500000
  0
LINE
  8
0
  6
CONTINUOUS
 62
7
 10
-225.000000
 20
-36.500000
 11
-225.000000
 21
-26.500000
  0
LINE
  8
0
  6
CONTINUOUS
 62
7
 10
-165.000000
 20
-36.500000
 11
-165.000000
 21
-17.000000
  0
LINE
  8
0
  6
CONTINUOUS
 62
7
 10
-225.000000
 20
-36.500000
 11
-165.000000
 21
-36.500000
  0
LINE
  8
0
  6
CONTINUOUS
 62
7
 10
-225.000000
 20
-27.000000
 11
-208.500000
 21
-27.000000
  0
LINE
  8
0
  6
CONTINUOUS
 62
7
 10
-227.000000
 20
-26.500000
 11
-208.500000
 21
-26.500000
  0
LINE
  8
0
  6
CONTINUOUS
 62
7
 10
-227.000000
 20
-35.500000
 11
-227.000000
 21
-16.500000
  0
LINE
  8
0
  6
CONTINUOUS
 62
7
 10
-175.800003
 20
-31.000000
 11
-178.000000
 21
-31.000000
  0
LINE
  8
0
  6
CONTINUOUS
 62
7
 10
-214.199997
 20
-31.000000
 11
-208.500000
 21
-31.000000
  0
LINE
  8
0
  6
CONTINUOUS
 62
7
 10
-168.000000
 20
-26.500000
 11
-168.000000
 21
-24.299999
  0
LINE
  8
0
  6
CONTINUOUS
 62
7
 10
-168.000000
 20
-17.000000
 11
-167.000000
 21
-17.000000
  0
LINE
  8
0
  6
CONTINUOUS
 62
7
 10
-212.649994
 20
-36.500000
 11
-212.649994
 21
-31.000000
  0
LINE
  8
0
  6
DASHED
 62
2
 10
-214.000000
 20
-31.500000
 11
-212.649994
 21
-31.500000
  0
LINE
  8
0
  6
CENTER
 62
2
 10
-211.000000
 20
-37.500000
 11
-211.000000
 21
-30.000000
  0
LINE
  8
0
  6
CONTINUOUS
 62
7
 10
-209.350006
 20
-36.500000
 11
-209.350006
 21
-31.000000
  0
LINE
  8
0
  6
CONTINUOUS
 62
7
 10
-235.000000
 20
-35.500000
 11
-235.000000
 21
-17.000000
  0
LINE
  8
0
  6
CONTINUOUS
 62
7
 10
-227.000000
 20
-33.500000
 11
-225.000000
 21
-33.500000
  0
LINE
  8
0
  6
CONTINUOUS
 62
7
 10
-235.000000
 20
-35.500000
 11
-227.000000
 21
-35.500000
  0
LINE
  8
0
  6
CONTINUOUS
 62
7
 10
-235.000000
 20
-17.000000
 11
-227.000000
 21
-17.000000
  0
LINE
  8
0
  6
CONTINUOUS
 62
7
 10
-178.000000
 20
-24.299999
 11
-165.000000
 21
-24.299999
  0
LINE
  8
0
  6
CONTINUOUS
 62
2
 10
-208.500000
 20
-21.799999
 11
-165.000000
 21
-21.799999
  0
LINE
  8
0
  6
CONTINUOUS
 62
2
 10
-208.500000
 20
-19.200001
 11
-165.000000
 21
-19.200001
  0
LINE
  8
0
  6
CONTINUOUS
 62
7
 10
-178.000000
 20
-24.299999
 11
-178.000000
 21
-36.000000
  0
LINE
  8
0
  6
CONTINUOUS
 62
2
 10
-208.500000
 20
-27.799999
 11
-178.000000
 21
-27.799999
  0
LINE
  8
0
  6
CONTINUOUS
 62
7
 10
-208.500000
 20
-36.000000
 11
-208.500000
 21
-17.000000
  0
LINE
  8
0
  6
CONTINUOUS
 62
2
 10
-208.500000
 20
-25.200001
 11
-178.000000
 21
-25.200001
  0
LINE
  8
0
  6
CONTINUOUS
 62
7
 10
-208.500000
 20
-17.000000
 11
-165.000000
 21
-17.000000
  0
LINE
  8
0
  6
CONTINUOUS
 62
7
 10
-208.500000
 20
-36.000000
 11
-178.000000
 21
-36.000000
  0
LINE
  8
0
  6
CONTINUOUS
 62
7
 10
-178.000000
 20
-26.500000
 11
-166.800003
 21
-26.500000
  0
LINE
  8
0
  6
CONTINUOUS
 62
7
 10
-178.000000
 20
-27.000000
 11
-165.000000
 21
-27.000000
  0
LINE
  8
0
  6
CONTINUOUS
 62
7
 10
-166.800003
 20
-26.500000
 11
-166.800003
 21
-24.299999
  0
LINE
  8
0
  6
CONTINUOUS
 62
7
 10
-168.000000
 20
-17.000000
 11
-168.000000
 21
-16.500000
  0
LINE
  8
0
  6
CENTER
 62
2
 10
-215.500000
 20
-31.000000
 11
-222.500000
 21
-31.000000
  0
LINE
  8
0
  6
CENTER
 62
2
 10
-219.000000
 20
-27.500000
 11
-219.000000
 21
-34.500000
  0
LINE
  8
0
  6
CENTER
 62
2
 10
-167.500000
 20
-31.000000
 11
-174.500000
 21
-31.000000
  0
LINE
  8
0
  6
CENTER
 62
2
 10
-171.000000
 20
-27.500000
 11
-171.000000
 21
-34.500000
  0
LINE
  8
0
  6
CENTER
 62
2
 10
-237.000000
 20
-29.500000
 11
-233.000000
 21
-29.500000
  0
LINE
  8
0
  6
DASHED
 62
2
 10
-209.350006
 20
-31.500000
 11
-208.000000
 21
-31.500000
  0
LINE
  8
0
  6
CONTINUOUS
 62
7
 10
-212.649994
 20
-31.500000
 11
-209.350006
 21
-31.500000
  0
LINE
  8
0
  6
DASHED
 62
2
 10
-208.000000
 20
-31.500000
 11
-208.000000
 21
-31.000000
  0
LINE
  8
0
  6
DASHED
 62
2
 10
-214.000000
 20
-31.500000
 11
-214.000000
 21
-31.000000
  0
LINE
  8
0
  6
CENTER
 62
2
 10
-218.000000
 20
-18.500000
 11
-218.000000
 21
-14.500000
  0
LINE
  8
0
  6
CENTER
 62
2
 10
-237.000000
 20
-20.500000
 11
-233.000000
 21
-20.500000
  0
LINE
  8
0
  6
CENTER
 62
2
 10
-182.000000
 20
-18.500000
 11
-182.000000
 21
-14.500000
  0
LINE
  8
0
  6
CENTER
 62
2
 10
-200.000000
 20
-18.500000
 11
-200.000000
 21
-14.500000
  0
LINE
  8
0
  6
CONTINUOUS
 62
7
 10
-178.000000
 20
-64.500000
 11
-178.000000
 21
-74.500000
  0
LINE
  8
0
  6
CONTINUOUS
 62
7
 10
-165.000000
 20
-64.500000
 11
-165.000000
 21
-71.500000
  0
LINE
  8
0
  6
CONTINUOUS
 62
7
 10
-178.000000
 20
-71.500000
 11
-165.000000
 21
-71.500000
  0
LINE
  8
0
  6
CONTINUOUS
 62
7
 10
-208.500000
 20
-64.500000
 11
-208.500000
 21
-74.500000
  0
LINE
  8
0
  6
CONTINUOUS
 62
7
 10
-165.000000
 20
-64.500000
 11
-208.500000
 21
-64.500000
  0
LINE
  8
0
  6
CONTINUOUS
 62
7
 10
223.000000
 20
11.500000
 11
149.500000
 21
11.500000
  0
LINE
  8
0
  6
CONTINUOUS
 62
7
 10
223.000000
 20
4.000020
 11
149.500000
 21
4.000020
  0
LINE
  8
0
  6
CONTINUOUS
 62
7
 10
223.000000
 20
11.500000
 11
223.000000
 21
4.000020
  0
LINE
  8
0
  6
CONTINUOUS
 62
7
 10
210.000000
 20
12.500000
 11
210.000000
 21
11.500000
  0
LINE
  8
0
  6
CONTINUOUS
 62
7
 10
211.100006
 20
14.000000
 11
211.100006
 21
12.500000
  0
LINE
  8
0
  6
CONTINUOUS
 62
7
 10
204.600006
 20
14.000000
 11
204.600006
 21
12.500000
  0
LINE
  8
0
  6
CONTINUOUS
 62
7
 10
211.100006
 20
12.500000
 11
204.600006
 21
12.500000
  0
LINE
  8
0
  6
CONTINUOUS
 62
7
 10
149.500000
 20
14.000000
 11
149.500000
 21
4.000020
  0
LINE
  8
0
  6
CONTINUOUS
 62
7
 10
105.800003
 20
12.500000
 11
105.800003
 21
14.000000
  0
LINE
  8
0
  6
CONTINUOUS
 62
7
 10
116.800003
 20
12.500000
 11
105.800003
 21
12.500000
  0
LINE
  8
0
  6
CONTINUOUS
 62
7
 10
116.800003
 20
12.500000
 11
116.800003
 21
14.500000
  0
LINE
  8
0
  6
CONTINUOUS
 62
2
 10
112.699997
 20
4.000050
 11
112.699997
 21
5.000040
  0
LINE
  8
0
  6
CONTINUOUS
 62
7
 10
117.500000
 20
4.000020
 11
98.500000
 21
4.000020
  0
LINE
  8
0
  6
CONTINUOUS
 62
2
 10
115.300003
 20
4.000050
 11
115.300003
 21
5.000040
  0
LINE
  8
0
  6
CONTINUOUS
 62
7
 10
117.500000
 20
4.000050
 11
117.500000
 21
11.500000
  0
LINE
  8
0
  6
CONTINUOUS
 62
7
 10
117.500000
 20
11.500000
 11
105.000000
 21
11.500000
  0
LINE
  8
0
  6
CONTINUOUS
 62
7
 10
105.000000
 20
11.500000
 11
105.000000
 21
14.000000
  0
LINE
  8
0
  6
CONTINUOUS
 62
2
 10
116.150002
 20
5.000040
 11
115.300003
 21
5.000040
  0
LINE
  8
0
  6
CONTINUOUS
 62
2
 10
111.849998
 20
8.800030
 11
111.849998
 21
5.000040
  0
LINE
  8
0
  6
CONTINUOUS
 62
2
 10
114.650002
 20
10.300000
 11
113.349998
 21
10.300000
  0
LINE
  8
0
  6
CONTINUOUS
 62
2
 10
116.150002
 20
8.800030
 11
116.150002
 21
5.000040
  0
LINE
  8
0
  6
CONTINUOUS
 62
7
 10
98.500000
 20
4.000020
 11
98.500000
 21
14.000000
  0
LINE
  8
0
  6
CONTINUOUS
 62
2
 10
112.699997
 20
5.000040
 11
111.849998
 21
5.000040
  0
LINE
  8
0
  6
CENTER
 62
2
 10
108.000000
 20
11.300000
 11
108.000000
 21
3.000020
  0
LINE
  8
0
  6
CENTER
 62
2
 10
114.000000
 20
11.300000
 11
114.000000
 21
3.000020
  0
LINE
  8
0
  6
CONTINUOUS
 62
7
 10
270.200012
 20
12.500000
 11
270.200012
 21
14.000000
  0
LINE
  8
0
  6
CONTINUOUS
 62
7
 10
259.200012
 20
12.500000
 11
270.200012
 21
12.500000
  0
LINE
  8
0
  6
CONTINUOUS
 62
7
 10
259.200012
 20
12.500000
 11
259.200012
 21
14.500000
  0
LINE
  8
0
  6
CONTINUOUS
 62
7
 10
258.500000
 20
4.000020
 11
277.500000
 21
4.000020
  0
LINE
  8
0
  6
CONTINUOUS
 62
2
 10
263.299988
 20
4.000050
 11
263.299988
 21
5.000040
  0
LINE
  8
0
  6
CONTINUOUS
 62
2
 10
260.700012
 20
4.000050
 11
260.700012
 21
5.000040
  0
LINE
  8
0
  6
CONTINUOUS
 62
7
 10
258.500000
 20
4.000050
 11
258.500000
 21
11.500000
  0
LINE
  8
0
  6
CONTINUOUS
 62
7
 10
258.500000
 20
11.500000
 11
271.000000
 21
11.500000
  0
LINE
  8
0
  6
CONTINUOUS
 62
7
 10
271.000000
 20
11.500000
 11
271.000000
 21
14.000000
  0
LINE
  8
0
  6
CONTINUOUS
 62
2
 10
259.850006
 20
5.000040
 11
260.700012
 21
5.000040
  0
LINE
  8
0
  6
CONTINUOUS
 62
2
 10
264.149994
 20
8.800030
 11
264.149994
 21
5.000040
  0
LINE
  8
0
  6
CONTINUOUS
 62
2
 10
261.350006
 20
10.300000
 11
262.649994
 21
10.300000
  0
LINE
  8
0
  6
CONTINUOUS
 62
2
 10
259.850006
 20
8.800030
 11
259.850006
 21
5.000040
  0
LINE
  8
0
  6
CONTINUOUS
 62
7
 10
277.500000
 20
4.000020
 11
277.500000
 21
14.000000
  0
LINE
  8
0
  6
CONTINUOUS
 62
2
 10
263.299988
 20
5.000040
 11
264.149994
 21
5.000040
  0
LINE
  8
0
  6
CONTINUOUS
 62
7
 10
265.799988
 20
4.000050
 11
265.799988
 21
11.500000
  0
LINE
  8
0
  6
CENTER
 62
2
 10
262.000000
 20
11.300000
 11
262.000000
 21
3.000020
  0
LINE
  8
0
  6
CENTER
 62
2
 10
268.000000
 20
11.300000
 11
268.000000
 21
3.000020
  0
LINE
  8
0
  6
CONTINUOUS
 62
7
 10
131.000000
 20
-16.500000
 11
220.000000
 21
-16.500000
  0
LINE
  8
0
  6
CONTINUOUS
 62
7
 10
133.000000
 20
-36.500000
 11
133.000000
 21
-26.500000
  0
LINE
  8
0
  6
CONTINUOUS
 62
7
 10
223.000000
 20
-36.500000
 11
223.000000
 21
-17.000000
  0
LINE
  8
0
  6
CONTINUOUS
 62
7
 10
133.000000
 20
-36.500000
 11
223.000000
 21
-36.500000
  0
LINE
  8
0
  6
CONTINUOUS
 62
7
 10
133.000000
 20
-27.000000
 11
149.500000
 21
-27.000000
  0
LINE
  8
0
  6
CONTINUOUS
 62
7
 10
131.000000
 20
-26.500000
 11
149.500000
 21
-26.500000
  0
LINE
  8
0
  6
CONTINUOUS
 62
7
 10
131.000000
 20
-35.500000
 11
131.000000
 21
-16.500000
  0
LINE
  8
0
  6
CONTINUOUS
 62
7
 10
212.199997
 20
-31.000000
 11
210.000000
 21
-31.000000
  0
LINE
  8
0
  6
CONTINUOUS
 62
7
 10
143.800003
 20
-31.000000
 11
149.500000
 21
-31.000000
  0
LINE
  8
0
  6
CONTINUOUS
 62
7
 10
220.000000
 20
-26.500000
 11
220.000000
 21
-24.299999
  0
LINE
  8
0
  6
CONTINUOUS
 62
7
 10
220.000000
 20
-17.000000
 11
221.000000
 21
-17.000000
  0
LINE
  8
0
  6
CONTINUOUS
 62
7
 10
145.350006
 20
-36.500000
 11
145.350006
 21
-31.000000
  0
LINE
  8
0
  6
DASHED
 62
2
 10
144.000000
 20
-31.500000
 11
145.350006
 21
-31.500000
  0
LINE
  8
0
  6
CENTER
 62
2
 10
147.000000
 20
-37.500000
 11
147.000000
 21
-30.000000
  0
LINE
  8
0
  6
CONTINUOUS
 62
7
 10
148.649994
 20
-36.500000
 11
148.649994
 21
-31.000000
  0
LINE
  8
0
  6
CONTINUOUS
 62
7
 10
123.000000
 20
-35.500000
 11
123.000000
 21
-17.000000
  0
LINE
  8
0
  6
CONTINUOUS
 62
7
 10
131.000000
 20
-33.500000
 11
133.000000
 21
-33.500000
  0
LINE
  8
0
  6
CONTINUOUS
 62
7
 10
123.000000
 20
-35.500000
 11
131.000000
 21
-35.500000
  0
LINE
  8
0
  6
CONTINUOUS
 62
7
 10
123.000000
 20
-17.000000
 11
131.000000
 21
-17.000000
  0
LINE
  8
0
  6
CONTINUOUS
 62
7
 10
210.000000
 20
-24.299999
 11
223.000000
 21
-24.299999
  0
LINE
  8
0
  6
CONTINUOUS
 62
2
 10
149.500000
 20
-21.799999
 11
223.000000
 21
-21.799999
  0
LINE
  8
0
  6
CONTINUOUS
 62
2
 10
149.500000
 20
-19.200001
 11
223.000000
 21
-19.200001
  0
LINE
  8
0
  6
CONTINUOUS
 62
7
 10
210.000000
 20
-24.299999
 11
210.000000
 21
-36.000000
  0
LINE
  8
0
  6
CONTINUOUS
 62
2
 10
149.500000
 20
-27.799999
 11
210.000000
 21
-27.799999
  0
LINE
  8
0
  6
CONTINUOUS
 62
7
 10
149.500000
 20
-36.000000
 11
149.500000
 21
-17.000000
  0
LINE
  8
0
  6
CONTINUOUS
 62
2
 10
149.500000
 20
-25.200001
 11
210.000000
 21
-25.200001
  0
LINE
  8
0
  6
CONTINUOUS
 62
7
 10
149.500000
 20
-17.000000
 11
223.000000
 21
-17.000000
  0
LINE
  8
0
  6
CONTINUOUS
 62
7
 10
149.500000
 20
-36.000000
 11
210.000000
 21
-36.000000
  0
LINE
  8
0
  6
CONTINUOUS
 62
7
 10
210.000000
 20
-26.500000
 11
221.199997
 21
-26.500000
  0
LINE
  8
0
  6
CONTINUOUS
 62
7
 10
210.000000
 20
-27.000000
 11
223.000000
 21
-27.000000
  0
LINE
  8
0
  6
CONTINUOUS
 62
7
 10
221.199997
 20
-26.500000
 11
221.199997
 21
-24.299999
  0
LINE
  8
0
  6
CONTINUOUS
 62
7
 10
220.000000
 20
-17.000000
 11
220.000000
 21
-16.500000
  0
LINE
  8
0
  6
CENTER
 62
2
 10
142.500000
 20
-31.000000
 11
135.500000
 21
-31.000000
  0
LINE
  8
0
  6
CENTER
 62
2
 10
139.000000
 20
-27.500000
 11
139.000000
 21
-34.500000
  0
LINE
  8
0
  6
CENTER
 62
2
 10
220.500000
 20
-31.000000
 11
213.500000
 21
-31.000000
  0
LINE
  8
0
  6
CENTER
 62
2
 10
217.000000
 20
-27.500000
 11
217.000000
 21
-34.500000
  0
LINE
  8
0
  6
CONTINUOUS
 62
7
 10
149.500000
 20
-64.500000
 11
149.500000
 21
-74.500000
  0
LINE
  8
0
  6
CONTINUOUS
 62
7
 10
210.000000
 20
-71.500000
 11
223.000000
 21
-71.500000
  0
LINE
  8
0
  6
CONTINUOUS
 62
7
 10
210.000000
 20
-64.500000
 11
210.000000
 21
-74.500000
  0
LINE
  8
0
  6
CONTINUOUS
 62
7
 10
223.000000
 20
-64.500000
 11
149.500000
 21
-64.500000
  0
LINE
  8
0
  6
CONTINUOUS
 62
7
 10
223.000000
 20
-64.500000
 11
223.000000
 21
-71.500000
  0
LINE
  8
0
  6
DASHED
 62
2
 10
150.000000
 20
-31.500000
 11
150.000000
 21
-31.000000
  0
LINE
  8
0
  6
DASHED
 62
2
 10
148.649994
 20
-31.500000
 11
150.000000
 21
-31.500000
  0
LINE
  8
0
  6
CONTINUOUS
 62
7
 10
145.350006
 20
-31.500000
 11
148.649994
 21
-31.500000
  0
LINE
  8
0
  6
CENTER
 62
2
 10
188.000000
 20
-18.500000
 11
188.000000
 21
-14.500000
  0
LINE
  8
0
  6
DASHED
 62
2
 10
156.000000
 20
-32.500000
 11
162.000000
 21
-32.500000
  0
LINE
  8
0
  6
CENTER
 62
2
 10
121.000000
 20
-29.500000
 11
125.000000
 21
-29.500000
  0
LINE
  8
0
  6
CENTER
 62
2
 10
121.000000
 20
-20.500000
 11
125.000000
 21
-20.500000
  0
LINE
  8
0
  6
CENTER
 62
2
 10
140.000000
 20
-18.500000
 11
140.000000
 21
-14.500000
  0
LINE
  8
0
  6
CENTER
 62
2
 10
158.000000
 20
-18.500000
 11
158.000000
 21
-14.500000
  0
LINE
  8
0
  6
CENTER
 62
2
 10
206.000000
 20
-18.500000
 11
206.000000
 21
-14.500000
  0
LINE
  8
0
  6
DASHED
 62
2
 10
144.000000
 20
-31.500000
 11
144.000000
 21
-31.000000
  0
LINE
  8
0
  6
CONTINUOUS
 62
7
 10
-78.199997
 20
12.500000
 11
-78.199997
 21
14.000000
  0
LINE
  8
0
  6
CONTINUOUS
 62
7
 10
-67.199997
 20
12.500000
 11
-78.199997
 21
12.500000
  0
LINE
  8
0
  6
CONTINUOUS
 62
7
 10
-67.199997
 20
12.500000
 11
-67.199997
 21
14.500000
  0
LINE
  8
0
  6
CONTINUOUS
 62
2
 10
-71.300003
 20
4.000060
 11
-71.300003
 21
5.000030
  0
LINE
  8
0
  6
CONTINUOUS
 62
7
 10
-66.500000
 20
4.000030
 11
-85.500000
 21
4.000030
  0
LINE
  8
0
  6
CONTINUOUS
 62
2
 10
-68.699997
 20
4.000060
 11
-68.699997
 21
5.000030
  0
LINE
  8
0
  6
CONTINUOUS
 62
7
 10
-66.500000
 20
4.000060
 11
-66.500000
 21
11.500100
  0
LINE
  8
0
  6
CONTINUOUS
 62
7
 10
-66.500000
 20
11.500100
 11
-79.000000
 21
11.500100
  0
LINE
  8
0
  6
CONTINUOUS
 62
7
 10
-79.000000
 20
11.500100
 11
-79.000000
 21
14.000100
  0
LINE
  8
0
  6
CONTINUOUS
 62
2
 10
-67.849998
 20
5.000030
 11
-68.699997
 21
5.000030
  0
LINE
  8
0
  6
CONTINUOUS
 62
2
 10
-72.150002
 20
8.800050
 11
-72.150002
 21
5.000030
  0
LINE
  8
0
  6
CONTINUOUS
 62
2
 10
-69.349998
 20
10.300000
 11
-70.650002
 21
10.300000
  0
LINE
  8
0
  6
CONTINUOUS
 62
2
 10
-67.849998
 20
8.800050
 11
-67.849998
 21
5.000030
  0
LINE
  8
0
  6
CONTINUOUS
 62
7
 10
-85.500000
 20
4.000030
 11
-85.500000
 21
14.000100
  0
LINE
  8
0
  6
CONTINUOUS
 62
2
 10
-71.300003
 20
5.000030
 11
-72.150002
 21
5.000030
  0
LINE
  8
0
  6
CENTER
 62
2
 10
-76.000000
 20
11.300000
 11
-76.000000
 21
3.000030
  0
LINE
  8
0
  6
CENTER
 62
2
 10
-70.000000
 20
11.300000
 11
-70.000000
 21
3.000030
  0
LINE
  8
0
  6
CONTINUOUS
 62
7
 10
79.199997
 20
12.500000
 11
79.199997
 21
14.000000
  0
LINE
  8
0
  6
CONTINUOUS
 62
7
 10
68.199997
 20
12.500000
 11
79.199997
 21
12.500000
  0
LINE
  8
0
  6
CONTINUOUS
 62
7
 10
68.199997
 20
12.500000
 11
68.199997
 21
14.500000
  0
LINE
  8
0
  6
CONTINUOUS
 62
7
 10
67.500000
 20
4.000030
 11
86.500000
 21
4.000030
  0
LINE
  8
0
  6
CONTINUOUS
 62
2
 10
72.300003
 20
4.000060
 11
72.300003
 21
5.000030
  0
LINE
  8
0
  6
CONTINUOUS
 62
2
 10
69.699997
 20
4.000060
 11
69.699997
 21
5.000030
  0
LINE
  8
0
  6
CONTINUOUS
 62
7
 10
67.500000
 20
4.000060
 11
67.500000
 21
11.500100
  0
LINE
  8
0
  6
CONTINUOUS
 62
7
 10
67.500000
 20
11.500100
 11
80.000000
 21
11.500100
  0
LINE
  8
0
  6
CONTINUOUS
 62
7
 10
80.000000
 20
11.500100
 11
80.000000
 21
14.000100
  0
LINE
  8
0
  6
CONTINUOUS
 62
2
 10
68.849998
 20
5.000030
 11
69.699997
 21
5.000030
  0
LINE
  8
0
  6
CONTINUOUS
 62
2
 10
73.150002
 20
8.800050
 11
73.150002
 21
5.000030
  0
LINE
  8
0
  6
CONTINUOUS
 62
2
 10
70.349998
 20
10.300000
 11
71.650002
 21
10.300000
  0
LINE
  8
0
  6
CONTINUOUS
 62
2
 10
68.849998
 20
8.800050
 11
68.849998
 21
5.000030
  0
LINE
  8
0
  6
CONTINUOUS
 62
7
 10
86.500000
 20
4.000030
 11
86.500000
 21
14.000100
  0
LINE
  8
0
  6
CONTINUOUS
 62
2
 10
72.300003
 20
5.000030
 11
73.150002
 21
5.000030
  0
LINE
  8
0
  6
CONTINUOUS
 62
7
 10
74.800003
 20
4.000060
 11
74.800003
 21
11.500100
  0
LINE
  8
0
  6
CENTER
 62
2
 10
71.000000
 20
11.300000
 11
71.000000
 21
3.000030
  0
LINE
  8
0
  6
CENTER
 62
2
 10
77.000000
 20
11.300000
 11
77.000000
 21
3.000030
  0
LINE
  8
0
  6
CONTINUOUS
 62
7
 10
30.000000
 20
11.500000
 11
-28.500000
 21
11.500000
  0
LINE
  8
0
  6
CONTINUOUS
 62
7
 10
30.000000
 20
4.000030
 11
-28.500000
 21
4.000030
  0
LINE
  8
0
  6
CONTINUOUS
 62
7
 10
30.000000
 20
11.500000
 11
30.000000
 21
4.000030
  0
LINE
  8
0
  6
CONTINUOUS
 62
7
 10
17.000000
 20
12.500000
 11
17.000000
 21
11.500000
  0
LINE
  8
0
  6
CONTINUOUS
 62
7
 10
18.100000
 20
14.000000
 11
18.100000
 21
12.500000
  0
LINE
  8
0
  6
CONTINUOUS
 62
7
 10
11.600000
 20
14.000000
 11
11.600000
 21
12.500000
  0
LINE
  8
0
  6
CONTINUOUS
 62
7
 10
18.100000
 20
12.500000
 11
11.600000
 21
12.500000
  0
LINE
  8
0
  6
CONTINUOUS
 62
7
 10
-28.500000
 20
14.000000
 11
-28.500000
 21
4.000030
  0
LINE
  8
0
  6
CONTINUOUS
 62
7
 10
-47.000000
 20
-16.500000
 11
27.000000
 21
-16.500000
  0
LINE
  8
0
  6
CONTINUOUS
 62
7
 10
-45.000000
 20
-36.500000
 11
-45.000000
 21
-26.500000
  0
LINE
  8
0
  6
CONTINUOUS
 62
7
 10
30.000000
 20
-36.500000
 11
30.000000
 21
-17.000000
  0
LINE
  8
0
  6
CONTINUOUS
 62
7
 10
-45.000000
 20
-36.500000
 11
30.000000
 21
-36.500000
  0
LINE
  8
0
  6
CONTINUOUS
 62
7
 10
-45.000000
 20
-27.000000
 11
-28.500000
 21
-27.000000
  0
LINE
  8
0
  6
CONTINUOUS
 62
7
 10
-47.000000
 20
-26.500000
 11
-28.500000
 21
-26.500000
  0
LINE
  8
0
  6
CONTINUOUS
 62
7
 10
-47.000000
 20
-35.500000
 11
-47.000000
 21
-16.500000
  0
LINE
  8
0
  6
CONTINUOUS
 62
7
 10
27.000000
 20
-26.500000
 11
27.000000
 21
-24.299999
  0
LINE
  8
0
  6
CONTINUOUS
 62
7
 10
27.000000
 20
-17.000000
 11
28.000000
 21
-17.000000
  0
LINE
  8
0
  6
CONTINUOUS
 62
7
 10
-32.650002
 20
-36.500000
 11
-32.650002
 21
-31.200001
  0
LINE
  8
0
  6
CONTINUOUS
 62
7
 10
-32.650002
 20
-31.500000
 11
-29.350000
 21
-31.500000
  0
LINE
  8
0
  6
CENTER
 62
2
 10
-31.000000
 20
-37.500000
 11
-31.000000
 21
-30.200001
  0
LINE
  8
0
  6
CONTINUOUS
 62
7
 10
-29.350000
 20
-36.500000
 11
-29.350000
 21
-31.200001
  0
LINE
  8
0
  6
CONTINUOUS
 62
7
 10
-55.000000
 20
-35.500000
 11
-55.000000
 21
-17.000000
  0
LINE
  8
0
  6
CONTINUOUS
 62
7
 10
-47.000000
 20
-33.500000
 11
-45.000000
 21
-33.500000
  0
LINE
  8
0
  6
CONTINUOUS
 62
7
 10
-55.000000
 20
-35.500000
 11
-47.000000
 21
-35.500000
  0
LINE
  8
0
  6
CONTINUOUS
 62
7
 10
-55.000000
 20
-17.000000
 11
-47.000000
 21
-17.000000
  0
LINE
  8
0
  6
CONTINUOUS
 62
7
 10
22.000000
 20
-24.299999
 11
30.000000
 21
-24.299999
  0
LINE
  8
0
  6
CONTINUOUS
 62
2
 10
-28.500000
 20
-21.799999
 11
30.000000
 21
-21.799999
  0
LINE
  8
0
  6
CONTINUOUS
 62
2
 10
-28.500000
 20
-19.200001
 11
30.000000
 21
-19.200001
  0
LINE
  8
0
  6
CONTINUOUS
 62
7
 10
17.000000
 20
-29.299999
 11
17.000000
 21
-36.000000
  0
LINE
  8
0
  6
CONTINUOUS
 62
2
 10
-28.500000
 20
-27.799999
 11
17.230301
 21
-27.799999
  0
LINE
  8
0
  6
CONTINUOUS
 62
7
 10
-28.500000
 20
-36.000000
 11
-28.500000
 21
-17.000000
  0
LINE
  8
0
  6
CONTINUOUS
 62
2
 10
-28.500000
 20
-25.200001
 11
19.138201
 21
-25.200001
  0
LINE
  8
0
  6
CONTINUOUS
 62
7
 10
-28.500000
 20
-17.000000
 11
30.000000
 21
-17.000000
  0
LINE
  8
0
  6
CONTINUOUS
 62
7
 10
-28.500000
 20
-36.000000
 11
17.000000
 21
-36.000000
  0
LINE
  8
0
  6
CONTINUOUS
 62
7
 10
17.857500
 20
-26.500000
 11
28.200001
 21
-26.500000
  0
LINE
  8
0
  6
CONTINUOUS
 62
7
 10
17.560400
 20
-27.000000
 11
30.000000
 21
-27.000000
  0
LINE
  8
0
  6
CONTINUOUS
 62
7
 10
28.200001
 20
-26.500000
 11
28.200001
 21
-24.299999
  0
LINE
  8
0
  6
CONTINUOUS
 62
7
 10
27.000000
 20
-17.000000
 11
27.000000
 21
-16.500000
  0
LINE
  8
0
  6
CENTER
 62
2
 10
-35.500000
 20
-31.000000
 11
-42.500000
 21
-31.000000
  0
LINE
  8
0
  6
CENTER
 62
2
 10
-39.000000
 20
-27.500000
 11
-39.000000
 21
-34.500000
  0
LINE
  8
0
  6
CENTER
 62
2
 10
27.500000
 20
-31.000000
 11
20.500000
 21
-31.000000
  0
LINE
  8
0
  6
CENTER
 62
2
 10
24.000000
 20
-27.500000
 11
24.000000
 21
-34.500000
  0
LINE
  8
0
  6
CONTINUOUS
 62
7
 10
30.000000
 20
-64.500000
 11
30.000000
 21
-71.500000
  0
LINE
  8
0
  6
CONTINUOUS
 62
7
 10
-28.500000
 20
-64.500000
 11
-28.500000
 21
-74.500000
  0
LINE
  8
0
  6
CONTINUOUS
 62
7
 10
17.000000
 20
-71.500000
 11
30.000000
 21
-71.500000
  0
LINE
  8
0
  6
CONTINUOUS
 62
7
 10
17.000000
 20
-64.500000
 11
17.000000
 21
-74.500000
  0
LINE
  8
0
  6
CONTINUOUS
 62
7
 10
30.000000
 20
-64.500000
 11
-28.500000
 21
-64.500000
  0
LINE
  8
0
  6
DASHED
 62
2
 10
-28.000000
 20
-31.500000
 11
-28.000000
 21
-31.200001
  0
LINE
  8
0
  6
CENTER
 62
2
 10
-57.000000
 20
-29.500000
 11
-53.000000
 21
-29.500000
  0
LINE
  8
0
  6
CENTER
 62
2
 10
-57.000000
 20
-20.500000
 11
-53.000000
 21
-20.500000
  0
LINE
  8
0
  6
CENTER
 62
2
 10
-38.000000
 20
-18.500000
 11
-38.000000
 21
-14.500000
  0
LINE
  8
0
  6
CENTER
 62
2
 10
-20.000000
 20
-18.500000
 11
-20.000000
 21
-14.500000
  0
LINE
  8
0
  6
CENTER
 62
2
 10
13.000000
 20
-18.500000
 11
13.000000
 21
-14.500000
  0
LINE
  8
0
  6
CENTER
 62
2
 10
-5.000000
 20
-18.500000
 11
-5.000000
 21
-14.500000
  0
LINE
  8
0
  6
CONTINUOUS
 62
7
 10
17.000000
 20
-31.200001
 11
19.200001
 21
-31.200001
  0
LINE
  8
0
  6
CONTINUOUS
 62
7
 10
-34.200001
 20
-31.200001
 11
-28.500000
 21
-31.200001
  0
LINE
  8
0
  6
DASHED
 62
2
 10
-22.000000
 20
-30.500000
 11
-16.000000
 21
-30.500000
  0
LINE
  8
0
  6
DASHED
 62
2
 10
-34.000000
 20
-31.500000
 11
-34.000000
 21
-31.200001
  0
LINE
  8
0
  6
DASHED
 62
2
 10
-34.000000
 20
-31.500000
 11
-32.650002
 21
-31.500000
  0
LINE
  8
0
  6
DASHED
 62
2
 10
-29.350000
 20
-31.500000
 11
-28.000000
 21
-31.500000
  0
LINE
  8
0
  6
CONTINUOUS
 62
7
 10
-165.000000
 20
73.500000
 11
-165.000000
 21
73.000000
  0
LINE
  8
0
  6
CONTINUOUS
 62
7
 10
223.000000
 20
73.500000
 11
223.000000
 21
73.000000
  0
LINE
  8
0
  6
CONTINUOUS
 62
7
 10
30.000000
 20
73.500000
 11
30.000000
 21
73.000000
  0
LINE
  8
0
  6
CONTINUOUS
 62
7
 10
265.207001
 20
48.707100
 11
263.792999
 21
47.292900
  0
LINE
  8
0
  6
CONTINUOUS
 62
7
 10
-256.792999
 20
48.707100
 11
-258.207001
 21
47.292900
  0
LINE
  8
0
  6
CONTINUOUS
 62
7
 10
-258.207001
 20
48.707100
 11
-256.792999
 21
47.292900
  0
LINE
  8
0
  6
CONTINUOUS
 62
7
 10
-115.792999
 20
48.707199
 11
-117.207001
 21
47.292900
  0
LINE
  8
0
  6
CONTINUOUS
 62
7
 10
-117.207001
 20
48.707100
 11
-115.792999
 21
47.292900
  0
LINE
  8
0
  6
CONTINUOUS
 62
7
 10
112.207001
 20
48.707100
 11
110.792999
 21
47.292900
  0
LINE
  8
0
  6
CONTINUOUS
 62
7
 10
110.792999
 20
48.707199
 11
112.207001
 21
47.292999
  0
LINE
  8
0
  6
CONTINUOUS
 62
7
 10
-71.792900
 20
48.707199
 11
-73.207100
 21
47.292999
  0
LINE
  8
0
  6
CONTINUOUS
 62
7
 10
-73.207199
 20
48.707100
 11
-71.792999
 21
47.292900
  0
LINE
  8
0
  6
CONTINUOUS
 62
7
 10
74.207100
 20
48.707100
 11
72.792900
 21
47.292900
  0
LINE
  8
0
  6
CONTINUOUS
 62
7
 10
72.792900
 20
48.707100
 11
74.207100
 21
47.292900
  0
LINE
  8
0
  6
CONTINUOUS
 62
7
 10
-93.466698
 20
195.500000
 11
-93.466698
 21
-195.000000
  0
LINE
  8
0
  6
CONTINUOUS
 62
7
 10
94.316704
 20
195.500000
 11
94.316704
 21
-195.000000
  0
CIRCLE
  8
0
  6
CONTINUOUS
 62
2
 10
159.000000
 20
-78.000000
 40
2.000000
  0
CIRCLE
  8
0
  6
CONTINUOUS
 62
7
 10
159.000000
 20
-78.000000
 40
2.500000
  0
CIRCLE
  8
0
  6
CONTINUOUS
 62
2
 10
206.000000
 20
38.000000
 40
1.500000
  0
CIRCLE
  8
0
  6
CONTINUOUS
 62
7
 10
188.000000
 20
38.000000
 40
1.250000
  0
CIRCLE
  8
0
  6
CONTINUOUS
 62
2
 10
188.000000
 20
38.000000
 40
1.500000
  0
CIRCLE
  8
0
  6
CONTINUOUS
 62
7
 10
172.000000
 20
38.500000
 40
1.600000
  0
CIRCLE
  8
0
  6
CONTINUOUS
 62
7
 10
140.000000
 20
38.000000
 40
1.250000
  0
CIRCLE
  8
0
  6
CONTINUOUS
 62
2
 10
140.000000
 20
38.000000
 40
1.500000
  0
CIRCLE
  8
0
  6
CONTINUOUS
 62
7
 10
140.000000
 20
18.000000
 40
1.250000
  0
CIRCLE
  8
0
  6
CONTINUOUS
 62
2
 10
140.000000
 20
18.000000
 40
1.500000
  0
CIRCLE
  8
0
  6
CONTINUOUS
 62
7
 10
206.000000
 20
18.000000
 40
1.250000
  0
CIRCLE
  8
0
  6
CONTINUOUS
 62
2
 10
206.000000
 20
18.000000
 40
1.500000
  0
CIRCLE
  8
0
  6
CONTINUOUS
 62
7
 10
188.000000
 20
18.000000
 40
1.250000
  0
CIRCLE
  8
0
  6
CONTINUOUS
 62
2
 10
188.000000
 20
18.000000
 40
1.500000
  0
CIRCLE
  8
0
  6
CONTINUOUS
 62
7
 10
206.000000
 20
38.000000
 40
1.250000
  0
ARC
  8
0
  6
DASHED
 62
2
 10
147.000000
 20
17.500000
 40
3.000000
 50
303.367004
 51
236.632996
  0
ARC
  8
0
  6
DASHED
 62
2
 10
147.000000
 20
17.500000
 40
1.649990
 50
0.000000
 51
180.000000
  0
ARC
  8
0
  6
DASHED
 62
2
 10
147.000000
 20
38.500000
 40
1.649990
 50
180.000000
 51
0.000000
  0
ARC
  8
0
  6
DASHED
 62
2
 10
147.000000
 20
38.500000
 40
3.000000
 50
123.366997
 51
416.632996
  0
CIRCLE
  8
0
  6
DASHED
 62
2
 10
209.000000
 20
38.500000
 40
3.000000
  0
CIRCLE
  8
0
  6
DASHED
 62
2
 10
209.000000
 20
38.500000
 40
2.000000
  0
CIRCLE
  8
0
  6
DASHED
 62
2
 10
209.000000
 20
38.500000
 40
1.650000
  0
CIRCLE
  8
0
  6
DASHED
 62
2
 10
209.000000
 20
17.500000
 40
3.000000
  0
CIRCLE
  8
0
  6
DASHED
 62
2
 10
209.000000
 20
17.500000
 40
2.000000
  0
CIRCLE
  8
0
  6
DASHED
 62
2
 10
209.000000
 20
17.500000
 40
1.650000
  0
CIRCLE
  8
0
  6
CONTINUOUS
 62
2
 10
114.000000
 20
28.000000
 40
2.000000
  0
CIRCLE
  8
0
  6
CONTINUOUS
 62
7
 10
114.000000
 20
38.000000
 40
3.000000
  0
CIRCLE
  8
0
  6
CONTINUOUS
 62
7
 10
114.000000
 20
28.000000
 40
1.650000
  0
CIRCLE
  8
0
  6
CONTINUOUS
 62
7
 10
105.000000
 20
28.000000
 40
5.000000
  0
CIRCLE
  8
0
  6
CONTINUOUS
 62
7
 10
114.000000
 20
18.000000
 40
3.000000
  0
CIRCLE
  8
0
  6
CONTINUOUS
 62
2
 10
105.000000
 20
18.000000
 40
2.000000
  0
CIRCLE
  8
0
  6
CONTINUOUS
 62
7
 10
105.000000
 20
18.000000
 40
1.650000
  0
CIRCLE
  8
0
  6
CONTINUOUS
 62
2
 10
105.000000
 20
38.000000
 40
2.000000
  0
CIRCLE
  8
0
  6
CONTINUOUS
 62
7
 10
105.000000
 20
38.000000
 40
1.650000
  0
ARC
  8
0
  6
CONTINUOUS
 62
7
 10
217.000000
 20
87.000000
 40
4.800000
 50
204.623993
 51
236.442993
  0
ARC
  8
0
  6
CONTINUOUS
 62
7
 10
139.000000
 20
87.000000
 40
4.800000
 50
303.557007
 51
0.000000
  0
CIRCLE
  8
0
  6
CONTINUOUS
 62
2
 10
202.850006
 20
76.199997
 40
1.000000
  0
CIRCLE
  8
0
  6
CONTINUOUS
 62
7
 10
202.850006
 20
76.199997
 40
0.800000
  0
ARC
  8
0
  6
CONTINUOUS
 62
7
 10
147.000000
 20
-78.000000
 40
1.649990
 50
180.000000
 51
0.000000
  0
ARC
  8
0
  6
CONTINUOUS
 62
7
 10
147.000000
 20
-99.000000
 40
1.649990
 50
0.000000
 51
180.000000
  0
CIRCLE
  8
0
  6
CONTINUOUS
 62
7
 10
159.000000
 20
-99.000000
 40
2.500000
  0
CIRCLE
  8
0
  6
CONTINUOUS
 62
7
 10
209.000000
 20
-99.000000
 40
1.650000
  0
CIRCLE
  8
0
  6
CONTINUOUS
 62
2
 10
209.000000
 20
-99.000000
 40
2.000000
  0
CIRCLE
  8
0
  6
CONTINUOUS
 62
7
 10
159.000000
 20
-99.000000
 40
1.650000
  0
CIRCLE
  8
0
  6
CONTINUOUS
 62
2
 10
159.000000
 20
-99.000000
 40
2.000000
  0
CIRCLE
  8
0
  6
CONTINUOUS
 62
7
 10
209.000000
 20
-78.000000
 40
1.650000
  0
CIRCLE
  8
0
  6
CONTINUOUS
 62
2
 10
209.000000
 20
-78.000000
 40
2.000000
  0
CIRCLE
  8
0
  6
CONTINUOUS
 62
7
 10
159.000000
 20
-78.000000
 40
1.650000
  0
ARC
  8
0
  6
CONTINUOUS
 62
7
 10
-31.000000
 20
-78.000000
 40
1.650000
 50
180.000000
 51
0.000000
  0
ARC
  8
0
  6
CONTINUOUS
 62
7
 10
-31.000000
 20
-99.000000
 40
1.650000
 50
0.000000
 51
180.000000
  0
CIRCLE
  8
0
  6
CONTINUOUS
 62
7
 10
16.000000
 20
-99.000000
 40
1.650000
  0
CIRCLE
  8
0
  6
CONTINUOUS
 62
2
 10
16.000000
 20
-99.000000
 40
2.000000
  0
CIRCLE
  8
0
  6
CONTINUOUS
 62
7
 10
-19.000000
 20
-99.000000
 40
1.650000
  0
CIRCLE
  8
0
  6
CONTINUOUS
 62
2
 10
-19.000000
 20
-99.000000
 40
2.000000
  0
CIRCLE
  8
0
  6
CONTINUOUS
 62
7
 10
16.000000
 20
-78.000000
 40
1.650000
  0
CIRCLE
  8
0
  6
CONTINUOUS
 62
2
 10
16.000000
 20
-78.000000
 40
2.000000
  0
CIRCLE
  8
0
  6
CONTINUOUS
 62
7
 10
-19.000000
 20
-78.000000
 40
1.650000
  0
CIRCLE
  8
0
  6
CONTINUOUS
 62
2
 10
-19.000000
 20
-78.000000
 40
2.000000
  0
CIRCLE
  8
0
  6
CONTINUOUS
 62
2
 10
13.000000
 20
38.000000
 40
1.500000
  0
CIRCLE
  8
0
  6
CONTINUOUS
 62
7
 10
-20.000000
 20
38.000000
 40
1.250000
  0
CIRCLE
  8
0
  6
CONTINUOUS
 62
2
 10
-20.000000
 20
38.000000
 40
1.500000
  0
CIRCLE
  8
0
  6
CONTINUOUS
 62
7
 10
-16.000000
 20
38.500000
 40
1.600000
  0
CIRCLE
  8
0
  6
CONTINUOUS
 62
7
 10
-38.000000
 20
38.000000
 40
1.250000
  0
CIRCLE
  8
0
  6
CONTINUOUS
 62
2
 10
-38.000000
 20
38.000000
 40
1.500000
  0
CIRCLE
  8
0
  6
CONTINUOUS
 62
7
 10
-38.000000
 20
18.000000
 40
1.250000
  0
CIRCLE
  8
0
  6
CONTINUOUS
 62
2
 10
-38.000000
 20
18.000000
 40
1.500000
  0
CIRCLE
  8
0
  6
CONTINUOUS
 62
7
 10
13.000000
 20
18.000000
 40
1.250000
  0
CIRCLE
  8
0
  6
CONTINUOUS
 62
2
 10
13.000000
 20
18.000000
 40
1.500000
  0
CIRCLE
  8
0
  6
CONTINUOUS
 62
7
 10
-20.000000
 20
18.000000
 40
1.250000
  0
CIRCLE
  8
0
  6
CONTINUOUS
 62
2
 10
-20.000000
 20
18.000000
 40
1.500000
  0
CIRCLE
  8
0
  6
CONTINUOUS
 62
7
 10
13.000000
 20
38.000000
 40
1.250000
  0
ARC
  8
0
  6
DASHED
 62
2
 10
-31.000000
 20
17.500000
 40
3.000000
 50
303.367004
 51
236.632996
  0
ARC
  8
0
  6
DASHED
 62
2
 10
-31.000000
 20
17.500000
 40
1.650000
 50
0.000000
 51
180.000000
  0
ARC
  8
0
  6
DASHED
 62
2
 10
-31.000000
 20
38.500000
 40
1.650000
 50
180.000000
 51
0.000000
  0
ARC
  8
0
  6
DASHED
 62
2
 10
-31.000000
 20
38.500000
 40
3.000000
 50
123.366997
 51
416.632996
  0
CIRCLE
  8
0
  6
DASHED
 62
2
 10
16.000000
 20
38.500000
 40
3.000000
  0
CIRCLE
  8
0
  6
DASHED
 62
2
 10
16.000000
 20
38.500000
 40
2.000000
  0
CIRCLE
  8
0
  6
DASHED
 62
2
 10
16.000000
 20
38.500000
 40
1.650000
  0
CIRCLE
  8
0
  6
DASHED
 62
2
 10
16.000000
 20
17.500000
 40
3.000000
  0
CIRCLE
  8
0
  6
DASHED
 62
2
 10
16.000000
 20
17.500000
 40
2.000000
  0
CIRCLE
  8
0
  6
DASHED
 62
2
 10
16.000000
 20
17.500000
 40
1.650000
  0
CIRCLE
  8
0
  6
CONTINUOUS
 62
7
 10
-5.000020
 20
18.000000
 40
1.250000
  0
CIRCLE
  8
0
  6
CONTINUOUS
 62
2
 10
-5.000020
 20
18.000000
 40
1.500000
  0
CIRCLE
  8
0
  6
CONTINUOUS
 62
2
 10
-5.000020
 20
38.000000
 40
1.500000
  0
CIRCLE
  8
0
  6
CONTINUOUS
 62
7
 10
-5.000020
 20
38.000000
 40
1.250000
  0
CIRCLE
  8
0
  6
CONTINUOUS
 62
2
 10
9.849990
 20
76.199997
 40
1.000000
  0
CIRCLE
  8
0
  6
CONTINUOUS
 62
7
 10
9.849990
 20
76.199997
 40
0.800000
  0
ARC
  8
0
  6
CONTINUOUS
 62
7
 10
-39.000000
 20
87.199997
 40
4.800000
 50
298.954987
 51
0.000000
  0
ARC
  8
0
  6
CONTINUOUS
 62
7
 10
24.000000
 20
87.199997
 40
4.800000
 50
207.279007
 51
241.044998
  0
ARC
  8
0
  6
CONTINUOUS
 62
7
 10
155.199997
 20
83.500000
 40
1.500000
 50
90.000000
 51
180.000000
  0
CIRCLE
  8
0
  6
CONTINUOUS
 62
7
 10
111.500000
 20
48.000000
 40
1.800000
  0
ARC
  8
0
  6
CONTINUOUS
 62
7
 10
111.500000
 20
48.000000
 40
6.000000
 50
293.556000
 51
306.442993
  0
ARC
  8
0
  6
CONTINUOUS
 62
7
 10
111.500000
 20
48.000000
 40
6.000000
 50
113.556999
 51
126.444000
  0
ARC
  8
0
  6
CONTINUOUS
 62
7
 10
111.500000
 20
48.000000
 40
6.000000
 50
53.556499
 51
66.443497
  0
ARC
  8
0
  6
CONTINUOUS
 62
7
 10
111.500000
 20
48.000000
 40
6.000000
 50
233.556000
 51
246.442993
  0
CIRCLE
  8
0
  6
CONTINUOUS
 62
7
 10
111.500000
 20
48.000000
 40
4.000000
  0
ARC
  8
0
  6
CONTINUOUS
 62
7
 10
111.500000
 20
48.000000
 40
6.000000
 50
173.556000
 51
186.442993
  0
ARC
  8
0
  6
CONTINUOUS
 62
7
 10
111.500000
 20
48.000000
 40
6.000000
 50
353.556000
 51
6.443530
  0
CIRCLE
  8
0
  6
CONTINUOUS
 62
2
 10
-199.000000
 20
-78.000000
 40
2.000000
  0
CIRCLE
  8
0
  6
CONTINUOUS
 62
7
 10
-199.000000
 20
-78.000000
 40
2.500000
  0
CIRCLE
  8
0
  6
CONTINUOUS
 62
2
 10
-182.000000
 20
38.000000
 40
1.500000
  0
CIRCLE
  8
0
  6
CONTINUOUS
 62
7
 10
-200.000000
 20
38.000000
 40
1.250000
  0
CIRCLE
  8
0
  6
CONTINUOUS
 62
2
 10
-200.000000
 20
38.000000
 40
1.500000
  0
CIRCLE
  8
0
  6
CONTINUOUS
 62
7
 10
-196.000000
 20
38.500000
 40
1.600000
  0
CIRCLE
  8
0
  6
CONTINUOUS
 62
7
 10
-218.000000
 20
38.000000
 40
1.250000
  0
CIRCLE
  8
0
  6
CONTINUOUS
 62
2
 10
-218.000000
 20
38.000000
 40
1.500000
  0
CIRCLE
  8
0
  6
CONTINUOUS
 62
7
 10
-218.000000
 20
18.000000
 40
1.250000
  0
CIRCLE
  8
0
  6
CONTINUOUS
 62
2
 10
-218.000000
 20
18.000000
 40
1.500000
  0
CIRCLE
  8
0
  6
CONTINUOUS
 62
7
 10
-182.000000
 20
18.000000
 40
1.250000
  0
CIRCLE
  8
0
  6
CONTINUOUS
 62
2
 10
-182.000000
 20
18.000000
 40
1.500000
  0
CIRCLE
  8
0
  6
CONTINUOUS
 62
7
 10
-200.000000
 20
18.000000
 40
1.250000
  0
CIRCLE
  8
0
  6
CONTINUOUS
 62
2
 10
-200.000000
 20
18.000000
 40
1.500000
  0
CIRCLE
  8
0
  6
CONTINUOUS
 62
7
 10
-182.000000
 20
38.000000
 40
1.250000
  0
ARC
  8
0
  6
DASHED
 62
2
 10
-211.000000
 20
17.500000
 40
3.000000
 50
303.367004
 51
236.632996
  0
ARC
  8
0
  6
DASHED
 62
2
 10
-211.000000
 20
17.500000
 40
1.649990
 50
0.000000
 51
180.000000
  0
ARC
  8
0
  6
DASHED
 62
2
 10
-211.000000
 20
38.500000
 40
1.649990
 50
180.000000
 51
0.000000
  0
ARC
  8
0
  6
DASHED
 62
2
 10
-211.000000
 20
38.500000
 40
3.000000
 50
123.366997
 51
416.632996
  0
CIRCLE
  8
0
  6
DASHED
 62
2
 10
-179.000000
 20
38.500000
 40
3.000000
  0
CIRCLE
  8
0
  6
DASHED
 62
2
 10
-179.000000
 20
38.500000
 40
2.000000
  0
CIRCLE
  8
0
  6
DASHED
 62
2
 10
-179.000000
 20
38.500000
 40
1.650000
  0
CIRCLE
  8
0
  6
DASHED
 62
2
 10
-179.000000
 20
17.500000
 40
3.000000
  0
CIRCLE
  8
0
  6
DASHED
 62
2
 10
-179.000000
 20
17.500000
 40
2.000000
  0
CIRCLE
  8
0
  6
DASHED
 62
2
 10
-179.000000
 20
17.500000
 40
1.650000
  0
ARC
  8
0
  6
CONTINUOUS
 62
7
 10
-171.000000
 20
87.000000
 40
4.800000
 50
204.623993
 51
236.442993
  0
ARC
  8
0
  6
CONTINUOUS
 62
7
 10
-219.000000
 20
87.000000
 40
4.800000
 50
303.557007
 51
0.000000
  0
CIRCLE
  8
0
  6
CONTINUOUS
 62
2
 10
-185.149994
 20
76.199997
 40
1.000000
  0
CIRCLE
  8
0
  6
CONTINUOUS
 62
7
 10
-185.149994
 20
76.199997
 40
0.800000
  0
ARC
  8
0
  6
CONTINUOUS
 62
7
 10
-211.000000
 20
-78.000000
 40
1.649990
 50
180.000000
 51
0.000000
  0
ARC
  8
0
  6
CONTINUOUS
 62
7
 10
-211.000000
 20
-99.000000
 40
1.649990
 50
0.000000
 51
180.000000
  0
CIRCLE
  8
0
  6
CONTINUOUS
 62
7
 10
-199.000000
 20
-99.000000
 40
2.500000
  0
CIRCLE
  8
0
  6
CONTINUOUS
 62
7
 10
-179.000000
 20
-99.000000
 40
1.650000
  0
CIRCLE
  8
0
  6
CONTINUOUS
 62
2
 10
-179.000000
 20
-99.000000
 40
2.000000
  0
CIRCLE
  8
0
  6
CONTINUOUS
 62
7
 10
-199.000000
 20
-99.000000
 40
1.650000
  0
CIRCLE
  8
0
  6
CONTINUOUS
 62
2
 10
-199.000000
 20
-99.000000
 40
2.000000
  0
CIRCLE
  8
0
  6
CONTINUOUS
 62
7
 10
-179.000000
 20
-78.000000
 40
1.650000
  0
CIRCLE
  8
0
  6
CONTINUOUS
 62
2
 10
-179.000000
 20
-78.000000
 40
2.000000
  0
CIRCLE
  8
0
  6
CONTINUOUS
 62
7
 10
-199.000000
 20
-78.000000
 40
1.650000
  0
ARC
  8
0
  6
CONTINUOUS
 62
7
 10
-202.800003
 20
83.500000
 40
1.500000
 50
90.000000
 51
180.000000
  0
CIRCLE
  8
0
  6
CONTINUOUS
 62
7
 10
158.000000
 20
18.000000
 40
1.250000
  0
CIRCLE
  8
0
  6
CONTINUOUS
 62
2
 10
158.000000
 20
18.000000
 40
1.500000
  0
CIRCLE
  8
0
  6
CONTINUOUS
 62
7
 10
158.000000
 20
38.000000
 40
1.250000
  0
CIRCLE
  8
0
  6
CONTINUOUS
 62
2
 10
158.000000
 20
38.000000
 40
1.500000
  0
ARC
  8
0
  6
CONTINUOUS
 62
7
 10
-22.799999
 20
83.500000
 40
1.500000
 50
90.000000
 51
180.000000
  0
CIRCLE
  8
0
  6
CONTINUOUS
 62
2
 10
-70.000000
 20
28.000000
 40
2.000000
  0
CIRCLE
  8
0
  6
CONTINUOUS
 62
7
 10
-70.000000
 20
38.000000
 40
3.000000
  0
CIRCLE
  8
0
  6
CONTINUOUS
 62
7
 10
-70.000000
 20
28.000000
 40
1.650000
  0
CIRCLE
  8
0
  6
CONTINUOUS
 62
7
 10
-79.000000
 20
28.000000
 40
5.000000
  0
CIRCLE
  8
0
  6
CONTINUOUS
 62
7
 10
-70.000000
 20
18.000000
 40
3.000000
  0
CIRCLE
  8
0
  6
CONTINUOUS
 62
2
 10
-79.000000
 20
18.000000
 40
2.000000
  0
CIRCLE
  8
0
  6
CONTINUOUS
 62
7
 10
-79.000000
 20
18.000000
 40
1.650000
  0
CIRCLE
  8
0
  6
CONTINUOUS
 62
2
 10
-79.000000
 20
38.000000
 40
2.000000
  0
CIRCLE
  8
0
  6
CONTINUOUS
 62
7
 10
-79.000000
 20
38.000000
 40
1.650000
  0
CIRCLE
  8
0
  6
CONTINUOUS
 62
7
 10
-72.500000
 20
48.000000
 40
1.800000
  0
ARC
  8
0
  6
CONTINUOUS
 62
7
 10
-72.500000
 20
48.000000
 40
6.000000
 50
293.556000
 51
306.442993
  0
ARC
  8
0
  6
CONTINUOUS
 62
7
 10
-72.500000
 20
48.000000
 40
6.000000
 50
113.556999
 51
126.444000
  0
ARC
  8
0
  6
CONTINUOUS
 62
7
 10
-72.500000
 20
48.000000
 40
6.000000
 50
53.556499
 51
66.443497
  0
ARC
  8
0
  6
CONTINUOUS
 62
7
 10
-72.500000
 20
48.000000
 40
6.000000
 50
233.556000
 51
246.442993
  0
CIRCLE
  8
0
  6
CONTINUOUS
 62
7
 10
-72.500000
 20
48.000000
 40
4.000000
  0
ARC
  8
0
  6
CONTINUOUS
 62
7
 10
-72.500000
 20
48.000000
 40
6.000000
 50
173.556000
 51
186.442993
  0
ARC
  8
0
  6
CONTINUOUS
 62
7
 10
-72.500000
 20
48.000000
 40
6.000000
 50
353.556000
 51
6.443530
  0
CIRCLE
  8
0
  6
CONTINUOUS
 62
2
 10
-255.000000
 20
28.000000
 40
2.000000
  0
CIRCLE
  8
0
  6
CONTINUOUS
 62
7
 10
-255.000000
 20
38.000000
 40
3.000000
  0
CIRCLE
  8
0
  6
CONTINUOUS
 62
7
 10
-255.000000
 20
28.000000
 40
1.650000
  0
CIRCLE
  8
0
  6
CONTINUOUS
 62
7
 10
-264.000000
 20
28.000000
 40
5.000000
  0
CIRCLE
  8
0
  6
CONTINUOUS
 62
7
 10
-255.000000
 20
18.000000
 40
3.000000
  0
CIRCLE
  8
0
  6
CONTINUOUS
 62
2
 10
-264.000000
 20
18.000000
 40
2.000000
  0
CIRCLE
  8
0
  6
CONTINUOUS
 62
7
 10
-264.000000
 20
18.000000
 40
1.650000
  0
CIRCLE
  8
0
  6
CONTINUOUS
 62
2
 10
-264.000000
 20
38.000000
 40
2.000000
  0
CIRCLE
  8
0
  6
CONTINUOUS
 62
7
 10
-264.000000
 20
38.000000
 40
1.650000
  0
CIRCLE
  8
0
  6
CONTINUOUS
 62
7
 10
-257.500000
 20
48.000000
 40
1.800000
  0
ARC
  8
0
  6
CONTINUOUS
 62
7
 10
-257.500000
 20
48.000000
 40
6.000000
 50
293.556000
 51
306.442993
  0
ARC
  8
0
  6
CONTINUOUS
 62
7
 10
-257.500000
 20
48.000000
 40
6.000000
 50
113.556999
 51
126.444000
  0
ARC
  8
0
  6
CONTINUOUS
 62
7
 10
-257.500000
 20
48.000000
 40
6.000000
 50
53.556499
 51
66.443497
  0
ARC
  8
0
  6
CONTINUOUS
 62
7
 10
-257.500000
 20
48.000000
 40
6.000000
 50
233.556000
 51
246.442993
  0
CIRCLE
  8
0
  6
CONTINUOUS
 62
7
 10
-257.500000
 20
48.000000
 40
4.000000
  0
ARC
  8
0
  6
CONTINUOUS
 62
7
 10
-257.500000
 20
48.000000
 40
6.000000
 50
173.556000
 51
186.442993
  0
ARC
  8
0
  6
CONTINUOUS
 62
7
 10
-257.500000
 20
48.000000
 40
6.000000
 50
353.556000
 51
6.443530
  0
CIRCLE
  8
0
  6
CONTINUOUS
 62
7
 10
271.000000
 20
28.000000
 40
5.400000
  0
ARC
  8
0
  6
CONTINUOUS
 62
7
 10
264.500000
 20
34.599998
 40
1.350000
 50
206.389999
 51
333.614014
  0
ARC
  8
0
  6
CONTINUOUS
 62
7
 10
264.500000
 20
21.400000
 40
1.350000
 50
26.389299
 51
153.613007
  0
ARC
  8
0
  6
CONTINUOUS
 62
7
 10
-159.199997
 20
83.500000
 40
1.500000
 50
0.000000
 51
90.000000
  0
CIRCLE
  8
0
  6
CONTINUOUS
 62
7
 10
264.500000
 20
48.000000
 40
1.800000
  0
CIRCLE
  8
0
  6
CONTINUOUS
 62
7
 10
264.500000
 20
48.000000
 40
4.000000
  0
ARC
  8
0
  6
CONTINUOUS
 62
7
 10
264.500000
 20
48.000000
 40
6.000000
 50
293.556000
 51
306.442993
  0
ARC
  8
0
  6
CONTINUOUS
 62
7
 10
264.500000
 20
48.000000
 40
6.000000
 50
173.556000
 51
186.442993
  0
ARC
  8
0
  6
CONTINUOUS
 62
7
 10
264.500000
 20
48.000000
 40
6.000000
 50
233.556000
 51
246.442993
  0
ARC
  8
0
  6
CONTINUOUS
 62
7
 10
264.500000
 20
48.000000
 40
6.000000
 50
53.556499
 51
66.443497
  0
ARC
  8
0
  6
CONTINUOUS
 62
7
 10
264.500000
 20
48.000000
 40
6.000000
 50
113.556999
 51
126.444000
  0
ARC
  8
0
  6
CONTINUOUS
 62
7
 10
264.500000
 20
48.000000
 40
6.000000
 50
353.556000
 51
6.443530
  0
CIRCLE
  8
0
  6
CONTINUOUS
 62
7
 10
80.000000
 20
28.000000
 40
5.400000
  0
ARC
  8
0
  6
CONTINUOUS
 62
7
 10
73.500000
 20
34.599998
 40
1.350000
 50
206.389999
 51
333.614014
  0
ARC
  8
0
  6
CONTINUOUS
 62
7
 10
73.500000
 20
21.400000
 40
1.350000
 50
26.389099
 51
153.613007
  0
CIRCLE
  8
0
  6
CONTINUOUS
 62
7
 10
73.500000
 20
48.000000
 40
1.800000
  0
CIRCLE
  8
0
  6
CONTINUOUS
 62
7
 10
73.500000
 20
48.000000
 40
4.000000
  0
ARC
  8
0
  6
CONTINUOUS
 62
7
 10
73.500000
 20
48.000000
 40
6.000000
 50
293.556000
 51
306.442993
  0
ARC
  8
0
  6
CONTINUOUS
 62
7
 10
73.500000
 20
48.000000
 40
6.000000
 50
173.556000
 51
186.442993
  0
ARC
  8
0
  6
CONTINUOUS
 62
7
 10
73.500000
 20
48.000000
 40
6.000000
 50
233.556000
 51
246.442993
  0
ARC
  8
0
  6
CONTINUOUS
 62
7
 10
73.500000
 20
48.000000
 40
6.000000
 50
53.556499
 51
66.443497
  0
ARC
  8
0
  6
CONTINUOUS
 62
7
 10
73.500000
 20
48.000000
 40
6.000000
 50
113.556999
 51
126.444000
  0
ARC
  8
0
  6
CONTINUOUS
 62
7
 10
73.500000
 20
48.000000
 40
6.000000
 50
353.556000
 51
6.443530
  0
ARC
  8
0
  6
CONTINUOUS
 62
7
 10
228.800003
 20
83.500000
 40
1.500000
 50
0.000000
 51
90.000000
  0
ARC
  8
0
  6
CONTINUOUS
 62
7
 10
35.799999
 20
83.500000
 40
1.500000
 50
0.000000
 51
90.000000
  0
CIRCLE
  8
0
  6
CONTINUOUS
 62
7
 10
-110.000000
 20
28.000000
 40
5.400000
  0
ARC
  8
0
  6
CONTINUOUS
 62
7
 10
-116.500000
 20
34.599998
 40
1.350000
 50
206.389999
 51
333.614014
  0
ARC
  8
0
  6
CONTINUOUS
 62
7
 10
-116.500000
 20
21.400000
 40
1.350000
 50
26.389099
 51
153.613007
  0
CIRCLE
  8
0
  6
CONTINUOUS
 62
7
 10
-116.500000
 20
48.000000
 40
1.800000
  0
CIRCLE
  8
0
  6
CONTINUOUS
 62
7
 10
-116.500000
 20
48.000000
 40
4.000000
  0
ARC
  8
0
  6
CONTINUOUS
 62
7
 10
-116.500000
 20
48.000000
 40
6.000000
 50
293.556000
 51
306.442993
  0
ARC
  8
0
  6
CONTINUOUS
 62
7
 10
-116.500000
 20
48.000000
 40
6.000000
 50
173.556000
 51
186.442993
  0
ARC
  8
0
  6
CONTINUOUS
 62
7
 10
-116.500000
 20
48.000000
 40
6.000000
 50
233.556000
 51
246.442993
  0
ARC
  8
0
  6
CONTINUOUS
 62
7
 10
-116.500000
 20
48.000000
 40
6.000000
 50
53.556499
 51
66.443497
  0
ARC
  8
0
  6
CONTINUOUS
 62
7
 10
-116.500000
 20
48.000000
 40
6.000000
 50
113.556999
 51
126.444000
  0
ARC
  8
0
  6
CONTINUOUS
 62
7
 10
-116.500000
 20
48.000000
 40
6.000000
 50
353.556000
 51
6.443530
  0
ARC
  8
0
  6
CONTINUOUS
 62
7
 10
35.799999
 20
-27.499901
 40
1.500000
 50
270.000000
 51
0.000000
  0
ARC
  8
0
  6
CONTINUOUS
 62
7
 10
228.800003
 20
-27.500000
 40
1.500000
 50
270.000000
 51
0.000000
  0
ARC
  8
0
  6
CONTINUOUS
 62
7
 10
-159.199997
 20
-27.500000
 40
1.500000
 50
270.000000
 51
0.000000
  0
CIRCLE
  8
0
  6
CONTINUOUS
 62
7
 10
-196.000000
 20
17.500000
 40
1.600000
  0
CIRCLE
  8
0
  6
CONTINUOUS
 62
7
 10
172.000000
 20
17.500000
 40
1.600000
  0
CIRCLE
  8
0
  6
CONTINUOUS
 62
7
 10
-16.000000
 20
17.500000
 40
1.600000
  0
CIRCLE
  8
0
  6
CONTINUOUS
 62
7
 10
24.000000
 20
-31.000000
 40
2.100000
  0
CIRCLE
  8
0
  6
CONTINUOUS
 62
2
 10
-39.000000
 20
-31.000000
 40
2.500000
  0
CIRCLE
  8
0
  6
CONTINUOUS
 62
7
 10
-39.000000
 20
-31.000000
 40
2.100000
  0
ARC
  8
0
  6
CONTINUOUS
 62
2
 10
-254.350006
 20
8.800030
 40
1.500000
 50
0.000000
 51
90.000000
  0
ARC
  8
0
  6
CONTINUOUS
 62
2
 10
-118.349998
 20
8.800030
 40
1.500000
 50
0.000000
 51
90.000000
  0
ARC
  8
0
  6
CONTINUOUS
 62
2
 10
-119.650002
 20
8.800030
 40
1.500000
 50
90.000000
 51
180.000000
  0
ARC
  8
0
  6
CONTINUOUS
 62
2
 10
-255.649994
 20
8.800030
 40
1.500000
 50
90.000000
 51
180.000000
  0
ARC
  8
0
  6
CONTINUOUS
 62
7
 10
-219.000000
 20
-31.000000
 40
4.800000
 50
0.000000
 51
56.442600
  0
CIRCLE
  8
0
  6
CONTINUOUS
 62
7
 10
-171.000000
 20
-31.000000
 40
2.100000
  0
CIRCLE
  8
0
  6
CONTINUOUS
 62
2
 10
-219.000000
 20
-31.000000
 40
2.500000
  0
ARC
  8
0
  6
CONTINUOUS
 62
7
 10
-171.000000
 20
-31.000000
 40
4.800000
 50
123.556999
 51
180.000000
  0
CIRCLE
  8
0
  6
CONTINUOUS
 62
2
 10
-171.000000
 20
-31.000000
 40
2.500000
  0
CIRCLE
  8
0
  6
CONTINUOUS
 62
7
 10
-219.000000
 20
-31.000000
 40
2.100000
  0
ARC
  8
0
  6
CONTINUOUS
 62
2
 10
261.350006
 20
8.800030
 40
1.500000
 50
90.000000
 51
180.000000
  0
ARC
  8
0
  6
CONTINUOUS
 62
2
 10
262.649994
 20
8.800030
 40
1.500000
 50
0.000000
 51
90.000000
  0
ARC
  8
0
  6
CONTINUOUS
 62
2
 10
114.650002
 20
8.800030
 40
1.500000
 50
0.000000
 51
90.000000
  0
ARC
  8
0
  6
CONTINUOUS
 62
2
 10
113.349998
 20
8.800030
 40
1.500000
 50
90.000000
 51
180.000000
  0
CIRCLE
  8
0
  6
CONTINUOUS
 62
2
 10
217.000000
 20
-31.000000
 40
2.500000
  0
CIRCLE
  8
0
  6
CONTINUOUS
 62
7
 10
139.000000
 20
-31.000000
 40
2.100000
  0
CIRCLE
  8
0
  6
CONTINUOUS
 62
7
 10
217.000000
 20
-31.000000
 40
2.100000
  0
CIRCLE
  8
0
  6
CONTINUOUS
 62
2
 10
139.000000
 20
-31.000000
 40
2.500000
  0
ARC
  8
0
  6
CONTINUOUS
 62
7
 10
139.000000
 20
-31.000000
 40
4.800000
 50
0.000000
 51
56.442600
  0
ARC
  8
0
  6
CONTINUOUS
 62
7
 10
217.000000
 20
-31.000000
 40
4.800000
 50
123.556999
 51
180.000000
  0
ARC
  8
0
  6
CONTINUOUS
 62
2
 10
70.349998
 20
8.800050
 40
1.500000
 50
90.000000
 51
180.000000
  0
ARC
  8
0
  6
CONTINUOUS
 62
2
 10
-70.650002
 20
8.800050
 40
1.500000
 50
90.000000
 51
180.000000
  0
ARC
  8
0
  6
CONTINUOUS
 62
2
 10
-69.349998
 20
8.800050
 40
1.500000
 50
0.000000
 51
90.000000
  0
ARC
  8
0
  6
CONTINUOUS
 62
2
 10
71.650002
 20
8.800050
 40
1.500000
 50
0.000000
 51
90.000000
  0
CIRCLE
  8
0
  6
CONTINUOUS
 62
2
 10
24.000000
 20
-31.000000
 40
2.500000
  0
ARC
  8
0
  6
CONTINUOUS
 62
7
 10
24.000000
 20
-31.200001
 40
4.800000
 50
118.955002
 51
180.000000
  0
ARC
  8
0
  6
CONTINUOUS
 62
7
 10
-39.000000
 20
-31.200001
 40
4.800000
 50
0.000000
 51
61.044701
  0
ARC
  8
0
  6
CONTINUOUS
 62
7
 10
22.000000
 20
-29.299999
 40
5.000000
 50
90.000000
 51
180.000000
  0
TEXT
  8
0
 62
7
 10
202.930283
 20
183.925003
 40
6.300000
  1
Ver.1.0
 50
0.000000
 41
1.010330
 51
0.000000
  7
STANDARD
  0
TEXT
  8
0
 62
7
 10
172.714691
 20
-187.250000
 40
9.000000
  1
KOGANEI CORP.
 50
0.000000
 41
0.771524
 51
0.000000
  7
STANDARD
  0
TEXT
  8
0
 62
7
 10
-240.419724
 20
183.925003
 40
6.300000
  1
AP UNIT
 50
0.000000
 41
0.832036
 51
0.000000
  7
STANDARD
  0
TEXT
  8
0
 62
7
 10
106.166611
 20
158.925003
 40
6.300000
  1
MODEL:APUS-SD10-45-TP-QZ
 50
0.000000
 41
0.772179
 51
0.000000
  7
STANDARD
  0
TEXT
  8
0
 62
7
 10
-269.400391
 20
158.925003
 40
6.300000
  1
MODEL:APUS-SD10-15-TP-QZ
 50
0.000000
 41
0.784151
 51
0.000000
  7
STANDARD
  0
TEXT
  8
0
 62
7
 10
-81.617088
 20
158.925003
 40
6.300000
  1
MODEL:APUS-SD10-30-TP-QZ
 50
0.000000
 41
0.778119
 51
0.000000
  7
STANDARD
  0
ENDSEC
  0
EOF
